  0
SECTION
  2
HEADER
  9
$ACADVER
  1
AC1015
  9
$ACADMAINTVER
 70
     6
  9
$DWGCODEPAGE
  3
ANSI_1252
  9
$INSBASE
 10
0.0
 20
0.0
 30
0.0
  9
$EXTMIN
 10
3067.97
 20
-95.714
 30
0.0
  9
$EXTMAX
 10
5977.971
 20
924.287
 30
0.0
  9
$LIMMIN
 10
-1644.2032
 20
-5752.8872
  9
$LIMMAX
 10
10690.1442
 20
6581.4602
  9
$ORTHOMODE
 70
     0
  9
$REGENMODE
 70
     1
  9
$FILLMODE
 70
     1
  9
$QTEXTMODE
 70
     0
  9
$MIRRTEXT
 70
     1
  9
$LTSCALE
 40
1.0
  9
$ATTMODE
 70
     1
  9
$TEXTSIZE
 40
100.0
  9
$TRACEWID
 40
0.05
  9
$TEXTSTYLE
  7
Standard
  9
$CLAYER
  8
Level 8
  9
$CELTYPE
  6
Continuous
  9
$CECOLOR
 62
    98
  9
$CELTSCALE
 40
1.0
  9
$DISPSILH
 70
     0
  9
$DIMSCALE
 40
1.0
  9
$DIMASZ
 40
100.0
  9
$DIMEXO
 40
50.0
  9
$DIMDLI
 40
0.0
  9
$DIMRND
 40
0.0
  9
$DIMDLE
 40
0.0
  9
$DIMEXE
 40
50.0
  9
$DIMTP
 40
0.0
  9
$DIMTM
 40
0.0
  9
$DIMTXT
 40
100.0
  9
$DIMCEN
 40
0.09
  9
$DIMTSZ
 40
0.0
  9
$DIMTOL
 70
     0
  9
$DIMLIM
 70
     0
  9
$DIMTIH
 70
     0
  9
$DIMTOH
 70
     0
  9
$DIMSE1
 70
     0
  9
$DIMSE2
 70
     0
  9
$DIMTAD
 70
     1
  9
$DIMZIN
 70
    11
  9
$DIMBLK
  1
TerminatorOpen_0.5
  9
$DIMASO
 70
     1
  9
$DIMSHO
 70
     1
  9
$DIMPOST
  1

  9
$DIMAPOST
  1

  9
$DIMALT
 70
     0
  9
$DIMALTD
 70
     4
  9
$DIMALTF
 40
25.4
  9
$DIMLFAC
 40
1.0
  9
$DIMTOFL
 70
     0
  9
$DIMTVP
 40
0.0
  9
$DIMTIX
 70
     0
  9
$DIMSOXD
 70
     0
  9
$DIMSAH
 70
     0
  9
$DIMBLK1
  1

  9
$DIMBLK2
  1

  9
$DIMSTYLE
  2
Standard
  9
$DIMCLRD
 70
     0
  9
$DIMCLRE
 70
     0
  9
$DIMCLRT
 70
     0
  9
$DIMTFAC
 40
1.0
  9
$DIMGAP
 40
50.0
  9
$DIMJUST
 70
     0
  9
$DIMSD1
 70
     0
  9
$DIMSD2
 70
     0
  9
$DIMTOLJ
 70
     0
  9
$DIMTZIN
 70
    11
  9
$DIMALTZ
 70
    15
  9
$DIMALTTZ
 70
    15
  9
$DIMUPT
 70
     0
  9
$DIMDEC
 70
     0
  9
$DIMTDEC
 70
     0
  9
$DIMALTU
 70
     2
  9
$DIMALTTD
 70
     4
  9
$DIMTXSTY
  7
Style-ENGINEERING
  9
$DIMAUNIT
 70
     0
  9
$DIMADEC
 70
     0
  9
$DIMALTRND
 40
0.0
  9
$DIMAZIN
 70
     3
  9
$DIMDSEP
 70
    46
  9
$DIMATFIT
 70
     3
  9
$DIMFRAC
 70
     2
  9
$DIMLDRBLK
  1
TerminatorOpen_0.5
  9
$DIMLUNIT
 70
     2
  9
$DIMLWD
 70
    -2
  9
$DIMLWE
 70
    -2
  9
$DIMTMOVE
 70
     0
  9
$LUNITS
 70
     2
  9
$LUPREC
 70
     0
  9
$SKETCHINC
 40
0.1
  9
$FILLETRAD
 40
0.5
  9
$AUNITS
 70
     0
  9
$AUPREC
 70
     0
  9
$MENU
  1
.
  9
$ELEVATION
 40
0.0
  9
$PELEVATION
 40
0.0
  9
$THICKNESS
 40
0.0
  9
$LIMCHECK
 70
     0
  9
$CHAMFERA
 40
0.5
  9
$CHAMFERB
 40
0.5
  9
$CHAMFERC
 40
1.0
  9
$CHAMFERD
 40
0.0
  9
$SKPOLY
 70
     0
  9
$TDCREATE
 40
2451789.870802037
  9
$TDUCREATE
 40
2451789.537468704
  9
$TDUPDATE
 40
2451789.87089463
  9
$TDUUPDATE
 40
2451789.537561297
  9
$TDINDWG
 40
0.0000927662
  9
$TDUSRTIMER
 40
0.0000925926
  9
$USRTIMER
 70
     1
  9
$ANGBASE
 50
0.0
  9
$ANGDIR
 70
     0
  9
$PDMODE
 70
     0
  9
$PDSIZE
 40
0.0
  9
$PLINEWID
 40
0.0
  9
$SPLFRAME
 70
     0
  9
$SPLINETYPE
 70
     6
  9
$SPLINESEGS
 70
     8
  9
$HANDSEED
  5
7C00E
  9
$SURFTAB1
 70
     6
  9
$SURFTAB2
 70
     6
  9
$SURFTYPE
 70
     6
  9
$SURFU
 70
     6
  9
$SURFV
 70
     6
  9
$UCSBASE
  2

  9
$UCSNAME
  2

  9
$UCSORG
 10
0.0
 20
0.0
 30
0.0
  9
$UCSXDIR
 10
1.0
 20
0.0
 30
0.0
  9
$UCSYDIR
 10
0.0
 20
1.0
 30
0.0
  9
$UCSORTHOREF
  2

  9
$UCSORTHOVIEW
 70
     0
  9
$UCSORGTOP
 10
0.0
 20
0.0
 30
0.0
  9
$UCSORGBOTTOM
 10
0.0
 20
0.0
 30
0.0
  9
$UCSORGLEFT
 10
0.0
 20
0.0
 30
0.0
  9
$UCSORGRIGHT
 10
0.0
 20
0.0
 30
0.0
  9
$UCSORGFRONT
 10
0.0
 20
0.0
 30
0.0
  9
$UCSORGBACK
 10
0.0
 20
0.0
 30
0.0
  9
$PUCSBASE
  2

  9
$PUCSNAME
  2

  9
$PUCSORG
 10
0.0
 20
0.0
 30
0.0
  9
$PUCSXDIR
 10
1.0
 20
0.0
 30
0.0
  9
$PUCSYDIR
 10
0.0
 20
1.0
 30
0.0
  9
$PUCSORTHOREF
  2

  9
$PUCSORTHOVIEW
 70
     0
  9
$PUCSORGTOP
 10
0.0
 20
0.0
 30
0.0
  9
$PUCSORGBOTTOM
 10
0.0
 20
0.0
 30
0.0
  9
$PUCSORGLEFT
 10
0.0
 20
0.0
 30
0.0
  9
$PUCSORGRIGHT
 10
0.0
 20
0.0
 30
0.0
  9
$PUCSORGFRONT
 10
0.0
 20
0.0
 30
0.0
  9
$PUCSORGBACK
 10
0.0
 20
0.0
 30
0.0
  9
$USERI1
 70
     0
  9
$USERI2
 70
     0
  9
$USERI3
 70
     0
  9
$USERI4
 70
     0
  9
$USERI5
 70
     0
  9
$USERR1
 40
0.0
  9
$USERR2
 40
0.0
  9
$USERR3
 40
0.0
  9
$USERR4
 40
0.0
  9
$USERR5
 40
0.0
  9
$WORLDVIEW
 70
     1
  9
$SHADEDGE
 70
     3
  9
$SHADEDIF
 70
    70
  9
$TILEMODE
 70
     1
  9
$MAXACTVP
 70
    64
  9
$PINSBASE
 10
0.0
 20
0.0
 30
0.0
  9
$PLIMCHECK
 70
     0
  9
$PEXTMIN
 10
1.000000E+20
 20
1.000000E+20
 30
1.000000E+20
  9
$PEXTMAX
 10
-1.000000E+20
 20
-1.000000E+20
 30
-1.000000E+20
  9
$PLIMMIN
 10
0.0
 20
0.0
  9
$PLIMMAX
 10
12.0
 20
9.0
  9
$UNITMODE
 70
     0
  9
$VISRETAIN
 70
     1
  9
$PLINEGEN
 70
     0
  9
$PSLTSCALE
 70
     0
  9
$TREEDEPTH
 70
  3020
  9
$CMLSTYLE
  2
Standard
  9
$CMLJUST
 70
     0
  9
$CMLSCALE
 40
1.0
  9
$PROXYGRAPHICS
 70
     1
  9
$MEASUREMENT
 70
     0
  9
$CELWEIGHT
370
     0
  9
$ENDCAPS
280
     0
  9
$JOINSTYLE
280
     0
  9
$LWDISPLAY
290
     1
  9
$INSUNITS
 70
     4
  9
$HYPERLINKBASE
  1

  9
$STYLESHEET
  1

  9
$XEDIT
290
     1
  9
$CEPSNTYPE
380
     0
  9
$PSTYLEMODE
290
     1
  9
$FINGERPRINTGUID
  2
{FDEAD576-A652-11D2-9A35-0060089B3A3F}
  9
$VERSIONGUID
  2
{A257D680-BC79-11D2-9A46-0060089B3A3F}
  9
$EXTNAMES
290
     1
  9
$PSVPSCALE
 40
0.0
  9
$OLESTARTUP
290
     0
  0
ENDSEC
  0
SECTION
  2
CLASSES
  0
CLASS
  1
ACDBDICTIONARYWDFLT
  2
AcDbDictionaryWithDefault
  3
ObjectDBX Classes
 90
        0
280
     0
281
     0
  0
CLASS
  1
ACDBPLACEHOLDER
  2
AcDbPlaceHolder
  3
ObjectDBX Classes
 90
        0
280
     0
281
     0
  0
CLASS
  1
LAYOUT
  2
AcDbLayout
  3
ObjectDBX Classes
 90
        0
280
     0
281
     0
  0
ENDSEC
  0
SECTION
  2
TABLES
  0
TABLE
  2
VPORT
  5
7BE45
330
0
100
AcDbSymbolTable
 70
     3
  0
VPORT
  5
4B
330
7BE45
100
AcDbSymbolTableRecord
100
AcDbViewportTableRecord
  2
*ACTIVE
 70
     0
 10
0.0
 20
0.0
 11
1.0
 21
1.0
 12
4456.498548
 22
220.030042
 13
0.0
 23
0.0
 14
1.0
 24
1.0
 15
1.0
 25
1.0
 16
0.0
 26
0.0
 36
1.0
 17
0.0
 27
0.0
 37
0.0
 40
2183.540975
 41
2.064189
 42
50.0
 43
0.0
 44
0.0
 50
0.0
 51
0.0
 71
     0
 72
   100
 73
     1
 74
     2
 75
     0
 76
     0
 77
     0
 78
     1
281
     0
 65
     1
110
0.0
120
0.0
130
0.0
111
1.0
121
0.0
131
0.0
112
0.0
122
1.0
132
0.0
 79
     0
146
0.0
  0
ENDTAB
  0
TABLE
  2
LTYPE
  5
7BE41
330
0
100
AcDbSymbolTable
 70
     2
  0
LTYPE
  5
7BE42
330
7BE41
100
AcDbSymbolTableRecord
100
AcDbLinetypeTableRecord
  2
ByBlock
 70
     0
  3

 72
    65
 73
     0
 40
0.0
  0
LTYPE
  5
7BE33
330
7BE41
100
AcDbSymbolTableRecord
100
AcDbLinetypeTableRecord
  2
ByLayer
 70
     0
  3

 72
    65
 73
     0
 40
0.0
  0
LTYPE
  5
7BE31
330
7BE41
100
AcDbSymbolTableRecord
100
AcDbLinetypeTableRecord
  2
Continuous
 70
     0
  3
Solid line
 72
    65
 73
     0
 40
0.0
  0
LTYPE
  5
4E1B6
330
7BE41
100
AcDbSymbolTableRecord
100
AcDbLinetypeTableRecord
  2
Continuous_1
 70
     0
  3

 72
    65
 73
     0
 40
0.0
  0
ENDTAB
  0
TABLE
  2
LAYER
  5
7BE3F
102
{ACAD_XDICTIONARY
360
7BE50
102
}
330
0
100
AcDbSymbolTable
 70
    65
  0
LAYER
  5
7BE2F
330
7BE3F
100
AcDbSymbolTableRecord
100
AcDbLayerTableRecord
  2
0
 70
     0
 62
     7
  6
Continuous
370
    -3
390
7BE30
  0
LAYER
  5
7
330
7BE3F
100
AcDbSymbolTableRecord
100
AcDbLayerTableRecord
  2
Level 1
 70
     0
 62
     7
  6
Continuous
370
     0
390
7BE30
  0
LAYER
  5
8
330
7BE3F
100
AcDbSymbolTableRecord
100
AcDbLayerTableRecord
  2
Level 2
 70
     0
 62
     7
  6
Continuous
370
     0
390
7BE30
  0
LAYER
  5
9
330
7BE3F
100
AcDbSymbolTableRecord
100
AcDbLayerTableRecord
  2
Level 3
 70
     0
 62
     7
  6
Continuous
370
     0
390
7BE30
  0
LAYER
  5
A
330
7BE3F
100
AcDbSymbolTableRecord
100
AcDbLayerTableRecord
  2
Level 4
 70
     0
 62
     7
  6
Continuous
370
     0
390
7BE30
  0
LAYER
  5
B
330
7BE3F
100
AcDbSymbolTableRecord
100
AcDbLayerTableRecord
  2
Level 5
 70
     0
 62
     7
  6
Continuous
370
     0
390
7BE30
  0
LAYER
  5
C
330
7BE3F
100
AcDbSymbolTableRecord
100
AcDbLayerTableRecord
  2
Level 6
 70
     0
 62
     7
  6
Continuous
370
     0
390
7BE30
  0
LAYER
  5
D
330
7BE3F
100
AcDbSymbolTableRecord
100
AcDbLayerTableRecord
  2
Level 7
 70
     0
 62
     7
  6
Continuous
370
     0
390
7BE30
  0
LAYER
  5
E
330
7BE3F
100
AcDbSymbolTableRecord
100
AcDbLayerTableRecord
  2
Level 8
 70
     0
 62
     7
  6
Continuous
370
     0
390
7BE30
  0
LAYER
  5
F
330
7BE3F
100
AcDbSymbolTableRecord
100
AcDbLayerTableRecord
  2
Level 9
 70
     0
 62
     7
  6
Continuous
370
     0
390
7BE30
  0
LAYER
  5
10
330
7BE3F
100
AcDbSymbolTableRecord
100
AcDbLayerTableRecord
  2
Level 10
 70
     0
 62
     7
  6
Continuous
370
     0
390
7BE30
  0
LAYER
  5
11
330
7BE3F
100
AcDbSymbolTableRecord
100
AcDbLayerTableRecord
  2
Level 11
 70
     0
 62
     7
  6
Continuous
370
     0
390
7BE30
  0
LAYER
  5
12
330
7BE3F
100
AcDbSymbolTableRecord
100
AcDbLayerTableRecord
  2
Level 12
 70
     0
 62
     7
  6
Continuous
370
     0
390
7BE30
  0
LAYER
  5
13
330
7BE3F
100
AcDbSymbolTableRecord
100
AcDbLayerTableRecord
  2
Level 13
 70
     0
 62
     7
  6
Continuous
370
     0
390
7BE30
  0
LAYER
  5
14
330
7BE3F
100
AcDbSymbolTableRecord
100
AcDbLayerTableRecord
  2
Level 14
 70
     0
 62
     7
  6
Continuous
370
     0
390
7BE30
  0
LAYER
  5
15
330
7BE3F
100
AcDbSymbolTableRecord
100
AcDbLayerTableRecord
  2
Level 15
 70
     0
 62
     7
  6
Continuous
370
     0
390
7BE30
  0
LAYER
  5
16
330
7BE3F
100
AcDbSymbolTableRecord
100
AcDbLayerTableRecord
  2
Level 16
 70
     0
 62
     7
  6
Continuous
370
     0
390
7BE30
  0
LAYER
  5
17
330
7BE3F
100
AcDbSymbolTableRecord
100
AcDbLayerTableRecord
  2
Level 17
 70
     0
 62
     7
  6
Continuous
370
     0
390
7BE30
  0
LAYER
  5
18
330
7BE3F
100
AcDbSymbolTableRecord
100
AcDbLayerTableRecord
  2
Level 18
 70
     0
 62
     7
  6
Continuous
370
     0
390
7BE30
  0
LAYER
  5
19
330
7BE3F
100
AcDbSymbolTableRecord
100
AcDbLayerTableRecord
  2
Level 19
 70
     0
 62
     7
  6
Continuous
370
     0
390
7BE30
  0
LAYER
  5
1A
330
7BE3F
100
AcDbSymbolTableRecord
100
AcDbLayerTableRecord
  2
Level 20
 70
     0
 62
     7
  6
Continuous
370
     0
390
7BE30
  0
LAYER
  5
1B
330
7BE3F
100
AcDbSymbolTableRecord
100
AcDbLayerTableRecord
  2
Level 21
 70
     0
 62
     7
  6
Continuous
370
     0
390
7BE30
  0
LAYER
  5
1C
330
7BE3F
100
AcDbSymbolTableRecord
100
AcDbLayerTableRecord
  2
Level 22
 70
     0
 62
     7
  6
Continuous
370
     0
390
7BE30
  0
LAYER
  5
1D
330
7BE3F
100
AcDbSymbolTableRecord
100
AcDbLayerTableRecord
  2
Level 23
 70
     0
 62
     7
  6
Continuous
370
     0
390
7BE30
  0
LAYER
  5
1E
330
7BE3F
100
AcDbSymbolTableRecord
100
AcDbLayerTableRecord
  2
Level 24
 70
     0
 62
     7
  6
Continuous
370
     0
390
7BE30
  0
LAYER
  5
1F
330
7BE3F
100
AcDbSymbolTableRecord
100
AcDbLayerTableRecord
  2
Level 25
 70
     0
 62
     7
  6
Continuous
370
     0
390
7BE30
  0
LAYER
  5
20
330
7BE3F
100
AcDbSymbolTableRecord
100
AcDbLayerTableRecord
  2
Level 26
 70
     0
 62
     7
  6
Continuous
370
     0
390
7BE30
  0
LAYER
  5
21
330
7BE3F
100
AcDbSymbolTableRecord
100
AcDbLayerTableRecord
  2
Level 27
 70
     0
 62
     7
  6
Continuous
370
     0
390
7BE30
  0
LAYER
  5
22
330
7BE3F
100
AcDbSymbolTableRecord
100
AcDbLayerTableRecord
  2
Level 28
 70
     0
 62
     7
  6
Continuous
370
     0
390
7BE30
  0
LAYER
  5
23
330
7BE3F
100
AcDbSymbolTableRecord
100
AcDbLayerTableRecord
  2
Level 29
 70
     0
 62
     7
  6
Continuous
370
     0
390
7BE30
  0
LAYER
  5
24
330
7BE3F
100
AcDbSymbolTableRecord
100
AcDbLayerTableRecord
  2
Level 30
 70
     0
 62
     7
  6
Continuous
370
     0
390
7BE30
  0
LAYER
  5
25
330
7BE3F
100
AcDbSymbolTableRecord
100
AcDbLayerTableRecord
  2
Level 31
 70
     0
 62
     7
  6
Continuous
370
     0
390
7BE30
  0
LAYER
  5
26
330
7BE3F
100
AcDbSymbolTableRecord
100
AcDbLayerTableRecord
  2
Level 32
 70
     0
 62
     7
  6
Continuous
370
     0
390
7BE30
  0
LAYER
  5
27
330
7BE3F
100
AcDbSymbolTableRecord
100
AcDbLayerTableRecord
  2
Level 33
 70
     0
 62
     7
  6
Continuous
370
     0
390
7BE30
  0
LAYER
  5
28
330
7BE3F
100
AcDbSymbolTableRecord
100
AcDbLayerTableRecord
  2
Level 34
 70
     0
 62
     7
  6
Continuous
370
     0
390
7BE30
  0
LAYER
  5
29
330
7BE3F
100
AcDbSymbolTableRecord
100
AcDbLayerTableRecord
  2
Level 35
 70
     0
 62
     7
  6
Continuous
370
     0
390
7BE30
  0
LAYER
  5
2A
330
7BE3F
100
AcDbSymbolTableRecord
100
AcDbLayerTableRecord
  2
Level 36
 70
     0
 62
     7
  6
Continuous
370
     0
390
7BE30
  0
LAYER
  5
2B
330
7BE3F
100
AcDbSymbolTableRecord
100
AcDbLayerTableRecord
  2
Level 37
 70
     0
 62
     7
  6
Continuous
370
     0
390
7BE30
  0
LAYER
  5
2C
330
7BE3F
100
AcDbSymbolTableRecord
100
AcDbLayerTableRecord
  2
Level 38
 70
     0
 62
     7
  6
Continuous
370
     0
390
7BE30
  0
LAYER
  5
2D
330
7BE3F
100
AcDbSymbolTableRecord
100
AcDbLayerTableRecord
  2
Level 39
 70
     0
 62
     7
  6
Continuous
370
     0
390
7BE30
  0
LAYER
  5
2E
330
7BE3F
100
AcDbSymbolTableRecord
100
AcDbLayerTableRecord
  2
Level 40
 70
     0
 62
     7
  6
Continuous
370
     0
390
7BE30
  0
LAYER
  5
2F
330
7BE3F
100
AcDbSymbolTableRecord
100
AcDbLayerTableRecord
  2
Level 41
 70
     0
 62
     7
  6
Continuous
370
     0
390
7BE30
  0
LAYER
  5
30
330
7BE3F
100
AcDbSymbolTableRecord
100
AcDbLayerTableRecord
  2
Level 42
 70
     0
 62
     7
  6
Continuous
370
     0
390
7BE30
  0
LAYER
  5
31
330
7BE3F
100
AcDbSymbolTableRecord
100
AcDbLayerTableRecord
  2
Level 43
 70
     0
 62
     7
  6
Continuous
370
     0
390
7BE30
  0
LAYER
  5
32
330
7BE3F
100
AcDbSymbolTableRecord
100
AcDbLayerTableRecord
  2
Level 44
 70
     0
 62
     7
  6
Continuous
370
     0
390
7BE30
  0
LAYER
  5
33
330
7BE3F
100
AcDbSymbolTableRecord
100
AcDbLayerTableRecord
  2
Level 45
 70
     0
 62
     7
  6
Continuous
370
     0
390
7BE30
  0
LAYER
  5
34
330
7BE3F
100
AcDbSymbolTableRecord
100
AcDbLayerTableRecord
  2
Level 46
 70
     0
 62
     7
  6
Continuous
370
     0
390
7BE30
  0
LAYER
  5
35
330
7BE3F
100
AcDbSymbolTableRecord
100
AcDbLayerTableRecord
  2
Level 47
 70
     0
 62
     7
  6
Continuous
370
     0
390
7BE30
  0
LAYER
  5
36
330
7BE3F
100
AcDbSymbolTableRecord
100
AcDbLayerTableRecord
  2
Level 48
 70
     0
 62
     7
  6
Continuous
370
     0
390
7BE30
  0
LAYER
  5
37
330
7BE3F
100
AcDbSymbolTableRecord
100
AcDbLayerTableRecord
  2
Level 49
 70
     0
 62
     7
  6
Continuous
370
     0
390
7BE30
  0
LAYER
  5
38
330
7BE3F
100
AcDbSymbolTableRecord
100
AcDbLayerTableRecord
  2
Level 50
 70
     0
 62
     7
  6
Continuous
370
     0
390
7BE30
  0
LAYER
  5
39
330
7BE3F
100
AcDbSymbolTableRecord
100
AcDbLayerTableRecord
  2
Level 51
 70
     0
 62
     7
  6
Continuous
370
     0
390
7BE30
  0
LAYER
  5
3A
330
7BE3F
100
AcDbSymbolTableRecord
100
AcDbLayerTableRecord
  2
Level 52
 70
     0
 62
     7
  6
Continuous
370
     0
390
7BE30
  0
LAYER
  5
3B
330
7BE3F
100
AcDbSymbolTableRecord
100
AcDbLayerTableRecord
  2
Level 53
 70
     0
 62
     7
  6
Continuous
370
     0
390
7BE30
  0
LAYER
  5
3C
330
7BE3F
100
AcDbSymbolTableRecord
100
AcDbLayerTableRecord
  2
Level 54
 70
     0
 62
     7
  6
Continuous
370
     0
390
7BE30
  0
LAYER
  5
3D
330
7BE3F
100
AcDbSymbolTableRecord
100
AcDbLayerTableRecord
  2
Level 55
 70
     0
 62
     7
  6
Continuous
370
     0
390
7BE30
  0
LAYER
  5
3E
330
7BE3F
100
AcDbSymbolTableRecord
100
AcDbLayerTableRecord
  2
Level 56
 70
     0
 62
     7
  6
Continuous
370
     0
390
7BE30
  0
LAYER
  5
3F
330
7BE3F
100
AcDbSymbolTableRecord
100
AcDbLayerTableRecord
  2
Level 57
 70
     0
 62
     7
  6
Continuous
370
     0
390
7BE30
  0
LAYER
  5
40
330
7BE3F
100
AcDbSymbolTableRecord
100
AcDbLayerTableRecord
  2
Level 58
 70
     0
 62
     7
  6
Continuous
370
     0
390
7BE30
  0
LAYER
  5
41
330
7BE3F
100
AcDbSymbolTableRecord
100
AcDbLayerTableRecord
  2
Level 59
 70
     0
 62
     7
  6
Continuous
370
     0
390
7BE30
  0
LAYER
  5
42
330
7BE3F
100
AcDbSymbolTableRecord
100
AcDbLayerTableRecord
  2
Level 60
 70
     0
 62
     7
  6
Continuous
370
     0
390
7BE30
  0
LAYER
  5
43
330
7BE3F
100
AcDbSymbolTableRecord
100
AcDbLayerTableRecord
  2
Level 61
 70
     0
 62
     7
  6
Continuous
370
     0
390
7BE30
  0
LAYER
  5
44
330
7BE3F
100
AcDbSymbolTableRecord
100
AcDbLayerTableRecord
  2
Level 62
 70
     0
 62
     7
  6
Continuous
370
     0
390
7BE30
  0
LAYER
  5
45
330
7BE3F
100
AcDbSymbolTableRecord
100
AcDbLayerTableRecord
  2
Level 63
 70
     0
 62
     7
  6
Continuous
370
     0
390
7BE30
  0
LAYER
  5
50CA0
330
7BE3F
100
AcDbSymbolTableRecord
100
AcDbLayerTableRecord
  2
25
 70
     0
 62
     7
  6
Continuous
370
     0
390
7BE30
  0
ENDTAB
  0
TABLE
  2
STYLE
  5
7BE40
330
0
100
AcDbSymbolTable
 70
     2
  0
STYLE
  5
7BE32
330
7BE40
100
AcDbSymbolTableRecord
100
AcDbTextStyleTableRecord
  2
Standard
 70
     0
 40
0.0
 41
1.0
 50
0.0
 71
     0
 42
100.0
  3
txt
  4

  0
STYLE
  5
7BE56
330
7BE40
100
AcDbSymbolTableRecord
100
AcDbTextStyleTableRecord
  2
Style-ENGINEERING
 70
     0
 40
0.0
 41
1.0
 50
0.0
 71
     0
 42
0.2
  3
ENGINEERING.shx
  4

  0
ENDTAB
  0
TABLE
  2
VIEW
  5
7BE43
330
0
100
AcDbSymbolTable
 70
     0
  0
ENDTAB
  0
TABLE
  2
UCS
  5
7BE44
330
0
100
AcDbSymbolTable
 70
     0
  0
ENDTAB
  0
TABLE
  2
APPID
  5
7BE46
330
0
100
AcDbSymbolTable
 70
     1
  0
APPID
  5
7BE4E
330
7BE46
100
AcDbSymbolTableRecord
100
AcDbRegAppTableRecord
  2
ACAD
 70
     0
  0
ENDTAB
  0
TABLE
  2
DIMSTYLE
  5
7BE47
330
0
100
AcDbSymbolTable
 70
     1
100
AcDbDimStyleTable
  0
DIMSTYLE
105
7BE34
330
7BE47
100
AcDbSymbolTableRecord
100
AcDbDimStyleTableRecord
  2
Standard
 70
     0
340
7BE32
  0
ENDTAB
  0
TABLE
  2
BLOCK_RECORD
  5
7BE36
330
0
100
AcDbSymbolTable
 70
   120
  0
BLOCK_RECORD
  5
7BE37
330
7BE36
100
AcDbSymbolTableRecord
100
AcDbBlockTableRecord
  2
*Model_Space
340
7BE3A
  0
BLOCK_RECORD
  5
7BE3B
330
7BE36
100
AcDbSymbolTableRecord
100
AcDbBlockTableRecord
  2
*Paper_Space
340
7BE3E
  0
BLOCK_RECORD
  5
7BDE6
330
7BE36
100
AcDbSymbolTableRecord
100
AcDbBlockTableRecord
  2
*U0
340
0
  0
BLOCK_RECORD
  5
7BDEC
330
7BE36
100
AcDbSymbolTableRecord
100
AcDbBlockTableRecord
  2
*U1
340
0
  0
BLOCK_RECORD
  5
7BE57
330
7BE36
100
AcDbSymbolTableRecord
100
AcDbBlockTableRecord
  2
TerminatorOpen_0.5
340
0
  0
BLOCK_RECORD
  5
7BE5E
330
7BE36
100
AcDbSymbolTableRecord
100
AcDbBlockTableRecord
  2
FT25
340
0
102
{BLKREFS
331
7BADE
102
}
  0
BLOCK_RECORD
  5
7BE61
330
7BE36
100
AcDbSymbolTableRecord
100
AcDbBlockTableRecord
  2
Feature Solid
340
0
102
{BLKREFS
331
7BADF
102
}
  0
BLOCK_RECORD
  5
7BE64
330
7BE36
100
AcDbSymbolTableRecord
100
AcDbBlockTableRecord
  2
UNITE
340
0
102
{BLKREFS
331
7BAE0
102
}
  0
BLOCK_RECORD
  5
7BE67
330
7BE36
100
AcDbSymbolTableRecord
100
AcDbBlockTableRecord
  2
Feature Solid_1
340
0
102
{BLKREFS
331
7BAE1
102
}
  0
BLOCK_RECORD
  5
7BE6A
330
7BE36
100
AcDbSymbolTableRecord
100
AcDbBlockTableRecord
  2
DDPROJ
340
0
102
{BLKREFS
331
7BAE2
102
}
  0
BLOCK_RECORD
  5
7BE6D
330
7BE36
100
AcDbSymbolTableRecord
100
AcDbBlockTableRecord
  2
Feature Solid_2
340
0
102
{BLKREFS
331
7BAE8
102
}
  0
BLOCK_RECORD
  5
7BE70
330
7BE36
100
AcDbSymbolTableRecord
100
AcDbBlockTableRecord
  2
DDPROJ_1
340
0
102
{BLKREFS
331
7BAE9
102
}
  0
BLOCK_RECORD
  5
7BE73
330
7BE36
100
AcDbSymbolTableRecord
100
AcDbBlockTableRecord
  2
Feature Solid_3
340
0
102
{BLKREFS
331
7BAEF
102
}
  0
BLOCK_RECORD
  5
7BE76
330
7BE36
100
AcDbSymbolTableRecord
100
AcDbBlockTableRecord
  2
UNITE_1
340
0
102
{BLKREFS
331
7BAF0
102
}
  0
BLOCK_RECORD
  5
7BE79
330
7BE36
100
AcDbSymbolTableRecord
100
AcDbBlockTableRecord
  2
Feature Solid_4
340
0
102
{BLKREFS
331
7BAF1
102
}
  0
BLOCK_RECORD
  5
7BE7C
330
7BE36
100
AcDbSymbolTableRecord
100
AcDbBlockTableRecord
  2
CONE
340
0
102
{BLKREFS
331
7BAF2
102
}
  0
BLOCK_RECORD
  5
7BE7F
330
7BE36
100
AcDbSymbolTableRecord
100
AcDbBlockTableRecord
  2
Feature Solid_5
340
0
102
{BLKREFS
331
7BB07
102
}
  0
BLOCK_RECORD
  5
7BE82
330
7BE36
100
AcDbSymbolTableRecord
100
AcDbBlockTableRecord
  2
DDPROJ_2
340
0
102
{BLKREFS
331
7BB08
102
}
  0
BLOCK_RECORD
  5
7BE85
330
7BE36
100
AcDbSymbolTableRecord
100
AcDbBlockTableRecord
  2
Feature Solid_6
340
0
102
{BLKREFS
331
7BB23
102
}
  0
BLOCK_RECORD
  5
7BE88
330
7BE36
100
AcDbSymbolTableRecord
100
AcDbBlockTableRecord
  2
UNITE_2
340
0
102
{BLKREFS
331
7BB24
102
}
  0
BLOCK_RECORD
  5
7BE8B
330
7BE36
100
AcDbSymbolTableRecord
100
AcDbBlockTableRecord
  2
Feature Solid_7
340
0
102
{BLKREFS
331
7BB25
102
}
  0
BLOCK_RECORD
  5
7BE8E
330
7BE36
100
AcDbSymbolTableRecord
100
AcDbBlockTableRecord
  2
DDPROJ_3
340
0
102
{BLKREFS
331
7BB26
102
}
  0
BLOCK_RECORD
  5
7BE91
330
7BE36
100
AcDbSymbolTableRecord
100
AcDbBlockTableRecord
  2
Feature Solid_8
340
0
102
{BLKREFS
331
7BB2C
102
}
  0
BLOCK_RECORD
  5
7BE94
330
7BE36
100
AcDbSymbolTableRecord
100
AcDbBlockTableRecord
  2
DDPROJ_4
340
0
102
{BLKREFS
331
7BB2D
102
}
  0
BLOCK_RECORD
  5
7BE97
330
7BE36
100
AcDbSymbolTableRecord
100
AcDbBlockTableRecord
  2
Feature Solid_9
340
0
102
{BLKREFS
331
7BB33
102
}
  0
BLOCK_RECORD
  5
7BE9A
330
7BE36
100
AcDbSymbolTableRecord
100
AcDbBlockTableRecord
  2
UNITE_3
340
0
102
{BLKREFS
331
7BB34
102
}
  0
BLOCK_RECORD
  5
7BE9D
330
7BE36
100
AcDbSymbolTableRecord
100
AcDbBlockTableRecord
  2
Feature Solid_10
340
0
102
{BLKREFS
331
7BB35
102
}
  0
BLOCK_RECORD
  5
7BEA0
330
7BE36
100
AcDbSymbolTableRecord
100
AcDbBlockTableRecord
  2
CONE_1
340
0
102
{BLKREFS
331
7BB36
102
}
  0
BLOCK_RECORD
  5
7BEA3
330
7BE36
100
AcDbSymbolTableRecord
100
AcDbBlockTableRecord
  2
Feature Solid_11
340
0
102
{BLKREFS
331
7BB4B
102
}
  0
BLOCK_RECORD
  5
7BEA6
330
7BE36
100
AcDbSymbolTableRecord
100
AcDbBlockTableRecord
  2
DDPROJ_5
340
0
102
{BLKREFS
331
7BB4C
102
}
  0
BLOCK_RECORD
  5
7BEA9
330
7BE36
100
AcDbSymbolTableRecord
100
AcDbBlockTableRecord
  2
Feature Solid_12
340
0
102
{BLKREFS
331
7BB67
102
}
  0
BLOCK_RECORD
  5
7BEAC
330
7BE36
100
AcDbSymbolTableRecord
100
AcDbBlockTableRecord
  2
UNITE_4
340
0
102
{BLKREFS
331
7BB68
102
}
  0
BLOCK_RECORD
  5
7BEAF
330
7BE36
100
AcDbSymbolTableRecord
100
AcDbBlockTableRecord
  2
Feature Solid_13
340
0
102
{BLKREFS
331
7BB69
102
}
  0
BLOCK_RECORD
  5
7BEB2
330
7BE36
100
AcDbSymbolTableRecord
100
AcDbBlockTableRecord
  2
DDPROJ_6
340
0
102
{BLKREFS
331
7BB6A
102
}
  0
BLOCK_RECORD
  5
7BEB5
330
7BE36
100
AcDbSymbolTableRecord
100
AcDbBlockTableRecord
  2
Feature Solid_14
340
0
102
{BLKREFS
331
7BB70
102
}
  0
BLOCK_RECORD
  5
7BEB8
330
7BE36
100
AcDbSymbolTableRecord
100
AcDbBlockTableRecord
  2
DDPROJ_7
340
0
102
{BLKREFS
331
7BB71
102
}
  0
BLOCK_RECORD
  5
7BEBB
330
7BE36
100
AcDbSymbolTableRecord
100
AcDbBlockTableRecord
  2
Feature Solid_15
340
0
102
{BLKREFS
331
7BB77
102
}
  0
BLOCK_RECORD
  5
7BEBE
330
7BE36
100
AcDbSymbolTableRecord
100
AcDbBlockTableRecord
  2
UNITE_5
340
0
102
{BLKREFS
331
7BB78
102
}
  0
BLOCK_RECORD
  5
7BEC1
330
7BE36
100
AcDbSymbolTableRecord
100
AcDbBlockTableRecord
  2
Feature Solid_16
340
0
102
{BLKREFS
331
7BB79
102
}
  0
BLOCK_RECORD
  5
7BEC4
330
7BE36
100
AcDbSymbolTableRecord
100
AcDbBlockTableRecord
  2
CONE_2
340
0
102
{BLKREFS
331
7BB7A
102
}
  0
BLOCK_RECORD
  5
7BEC7
330
7BE36
100
AcDbSymbolTableRecord
100
AcDbBlockTableRecord
  2
Feature Solid_17
340
0
102
{BLKREFS
331
7BB8F
102
}
  0
BLOCK_RECORD
  5
7BECA
330
7BE36
100
AcDbSymbolTableRecord
100
AcDbBlockTableRecord
  2
DDPROJ_8
340
0
102
{BLKREFS
331
7BB90
102
}
  0
BLOCK_RECORD
  5
7BECD
330
7BE36
100
AcDbSymbolTableRecord
100
AcDbBlockTableRecord
  2
Feature Solid_18
340
0
102
{BLKREFS
331
7BBAB
102
}
  0
BLOCK_RECORD
  5
7BED0
330
7BE36
100
AcDbSymbolTableRecord
100
AcDbBlockTableRecord
  2
UNITE_6
340
0
102
{BLKREFS
331
7BBAC
102
}
  0
BLOCK_RECORD
  5
7BED3
330
7BE36
100
AcDbSymbolTableRecord
100
AcDbBlockTableRecord
  2
Feature Solid_19
340
0
102
{BLKREFS
331
7BBAD
102
}
  0
BLOCK_RECORD
  5
7BED6
330
7BE36
100
AcDbSymbolTableRecord
100
AcDbBlockTableRecord
  2
DDPROJ_9
340
0
102
{BLKREFS
331
7BBAE
102
}
  0
BLOCK_RECORD
  5
7BED9
330
7BE36
100
AcDbSymbolTableRecord
100
AcDbBlockTableRecord
  2
Feature Solid_20
340
0
102
{BLKREFS
331
7BBB4
102
}
  0
BLOCK_RECORD
  5
7BEDC
330
7BE36
100
AcDbSymbolTableRecord
100
AcDbBlockTableRecord
  2
DDPROJ_10
340
0
102
{BLKREFS
331
7BBB5
102
}
  0
BLOCK_RECORD
  5
7BEDF
330
7BE36
100
AcDbSymbolTableRecord
100
AcDbBlockTableRecord
  2
Feature Solid_21
340
0
102
{BLKREFS
331
7BBBB
102
}
  0
BLOCK_RECORD
  5
7BEE2
330
7BE36
100
AcDbSymbolTableRecord
100
AcDbBlockTableRecord
  2
UNITE_7
340
0
102
{BLKREFS
331
7BBBC
102
}
  0
BLOCK_RECORD
  5
7BEE5
330
7BE36
100
AcDbSymbolTableRecord
100
AcDbBlockTableRecord
  2
Feature Solid_22
340
0
102
{BLKREFS
331
7BBBD
102
}
  0
BLOCK_RECORD
  5
7BEE8
330
7BE36
100
AcDbSymbolTableRecord
100
AcDbBlockTableRecord
  2
CONE_3
340
0
102
{BLKREFS
331
7BBBE
102
}
  0
BLOCK_RECORD
  5
7BEEB
330
7BE36
100
AcDbSymbolTableRecord
100
AcDbBlockTableRecord
  2
Feature Solid_23
340
0
102
{BLKREFS
331
7BBD3
102
}
  0
BLOCK_RECORD
  5
7BEEE
330
7BE36
100
AcDbSymbolTableRecord
100
AcDbBlockTableRecord
  2
DDPROJ_11
340
0
102
{BLKREFS
331
7BBD4
102
}
  0
BLOCK_RECORD
  5
7BEF1
330
7BE36
100
AcDbSymbolTableRecord
100
AcDbBlockTableRecord
  2
From Solid
340
0
102
{BLKREFS
331
7BDF2
102
}
  0
BLOCK_RECORD
  5
7BEF4
330
7BE36
100
AcDbSymbolTableRecord
100
AcDbBlockTableRecord
  2
From Solid_1
340
0
102
{BLKREFS
331
7BDF3
102
}
  0
BLOCK_RECORD
  5
7BEF7
330
7BE36
100
AcDbSymbolTableRecord
100
AcDbBlockTableRecord
  2
From Solid_2
340
0
102
{BLKREFS
331
7BDF4
102
}
  0
BLOCK_RECORD
  5
7BEFA
330
7BE36
100
AcDbSymbolTableRecord
100
AcDbBlockTableRecord
  2
From Solid_3
340
0
102
{BLKREFS
331
7BDF5
102
}
  0
BLOCK_RECORD
  5
7BEFD
330
7BE36
100
AcDbSymbolTableRecord
100
AcDbBlockTableRecord
  2
From Solid_4
340
0
102
{BLKREFS
331
7BDF6
102
}
  0
BLOCK_RECORD
  5
7BF00
330
7BE36
100
AcDbSymbolTableRecord
100
AcDbBlockTableRecord
  2
From Solid_5
340
0
102
{BLKREFS
331
7BDF7
102
}
  0
BLOCK_RECORD
  5
7BF03
330
7BE36
100
AcDbSymbolTableRecord
100
AcDbBlockTableRecord
  2
From Solid_6
340
0
102
{BLKREFS
331
7BDF8
102
}
  0
BLOCK_RECORD
  5
7BF06
330
7BE36
100
AcDbSymbolTableRecord
100
AcDbBlockTableRecord
  2
From Solid_7
340
0
102
{BLKREFS
331
7BDF9
102
}
  0
BLOCK_RECORD
  5
7BF09
330
7BE36
100
AcDbSymbolTableRecord
100
AcDbBlockTableRecord
  2
From Solid_8
340
0
102
{BLKREFS
331
7BDFA
102
}
  0
BLOCK_RECORD
  5
7BF0C
330
7BE36
100
AcDbSymbolTableRecord
100
AcDbBlockTableRecord
  2
From Solid_9
340
0
102
{BLKREFS
331
7BDFB
102
}
  0
BLOCK_RECORD
  5
7BF0F
330
7BE36
100
AcDbSymbolTableRecord
100
AcDbBlockTableRecord
  2
From Solid_10
340
0
102
{BLKREFS
331
7BDFC
102
}
  0
BLOCK_RECORD
  5
7BF12
330
7BE36
100
AcDbSymbolTableRecord
100
AcDbBlockTableRecord
  2
From Solid_11
340
0
102
{BLKREFS
331
7BDFD
102
}
  0
BLOCK_RECORD
  5
7BF15
330
7BE36
100
AcDbSymbolTableRecord
100
AcDbBlockTableRecord
  2
From Solid_12
340
0
102
{BLKREFS
331
7BDFE
102
}
  0
BLOCK_RECORD
  5
7BF18
330
7BE36
100
AcDbSymbolTableRecord
100
AcDbBlockTableRecord
  2
From Solid_13
340
0
102
{BLKREFS
331
7BDFF
102
}
  0
BLOCK_RECORD
  5
7BF1B
330
7BE36
100
AcDbSymbolTableRecord
100
AcDbBlockTableRecord
  2
From Solid_14
340
0
102
{BLKREFS
331
7BE00
102
}
  0
BLOCK_RECORD
  5
7BF1E
330
7BE36
100
AcDbSymbolTableRecord
100
AcDbBlockTableRecord
  2
From Solid_15
340
0
102
{BLKREFS
331
7BE01
102
}
  0
BLOCK_RECORD
  5
7BF21
330
7BE36
100
AcDbSymbolTableRecord
100
AcDbBlockTableRecord
  2
From Solid_16
340
0
102
{BLKREFS
331
7BE02
102
}
  0
BLOCK_RECORD
  5
7BF24
330
7BE36
100
AcDbSymbolTableRecord
100
AcDbBlockTableRecord
  2
From Solid_17
340
0
102
{BLKREFS
331
7BE03
102
}
  0
BLOCK_RECORD
  5
7BF27
330
7BE36
100
AcDbSymbolTableRecord
100
AcDbBlockTableRecord
  2
From Solid_18
340
0
102
{BLKREFS
331
7BE04
102
}
  0
BLOCK_RECORD
  5
7BF2A
330
7BE36
100
AcDbSymbolTableRecord
100
AcDbBlockTableRecord
  2
From Solid_19
340
0
102
{BLKREFS
331
7BE05
102
}
  0
BLOCK_RECORD
  5
7BF2D
330
7BE36
100
AcDbSymbolTableRecord
100
AcDbBlockTableRecord
  2
From Solid_20
340
0
102
{BLKREFS
331
7BE06
102
}
  0
BLOCK_RECORD
  5
7BF30
330
7BE36
100
AcDbSymbolTableRecord
100
AcDbBlockTableRecord
  2
From Solid_21
340
0
102
{BLKREFS
331
7BE07
102
}
  0
BLOCK_RECORD
  5
7BF33
330
7BE36
100
AcDbSymbolTableRecord
100
AcDbBlockTableRecord
  2
From Solid_22
340
0
102
{BLKREFS
331
7BE08
102
}
  0
BLOCK_RECORD
  5
7BF36
330
7BE36
100
AcDbSymbolTableRecord
100
AcDbBlockTableRecord
  2
From Solid_23
340
0
102
{BLKREFS
331
7BE09
102
}
  0
BLOCK_RECORD
  5
7BF39
330
7BE36
100
AcDbSymbolTableRecord
100
AcDbBlockTableRecord
  2
From Solid_24
340
0
102
{BLKREFS
331
7BE0A
102
}
  0
BLOCK_RECORD
  5
7BF3C
330
7BE36
100
AcDbSymbolTableRecord
100
AcDbBlockTableRecord
  2
From Solid_25
340
0
102
{BLKREFS
331
7BE0B
102
}
  0
BLOCK_RECORD
  5
7BF3F
330
7BE36
100
AcDbSymbolTableRecord
100
AcDbBlockTableRecord
  2
From Solid_26
340
0
102
{BLKREFS
331
7BE0C
102
}
  0
BLOCK_RECORD
  5
7BF42
330
7BE36
100
AcDbSymbolTableRecord
100
AcDbBlockTableRecord
  2
From Solid_27
340
0
102
{BLKREFS
331
7BE0D
102
}
  0
BLOCK_RECORD
  5
7BF45
330
7BE36
100
AcDbSymbolTableRecord
100
AcDbBlockTableRecord
  2
From Solid_28
340
0
102
{BLKREFS
331
7BE0E
102
}
  0
BLOCK_RECORD
  5
7BF48
330
7BE36
100
AcDbSymbolTableRecord
100
AcDbBlockTableRecord
  2
From Solid_29
340
0
102
{BLKREFS
331
7BE0F
102
}
  0
BLOCK_RECORD
  5
7BF4B
330
7BE36
100
AcDbSymbolTableRecord
100
AcDbBlockTableRecord
  2
From Solid_30
340
0
102
{BLKREFS
331
7BE10
102
}
  0
BLOCK_RECORD
  5
7BF4E
330
7BE36
100
AcDbSymbolTableRecord
100
AcDbBlockTableRecord
  2
From Solid_31
340
0
102
{BLKREFS
331
7BE11
102
}
  0
BLOCK_RECORD
  5
7BF51
330
7BE36
100
AcDbSymbolTableRecord
100
AcDbBlockTableRecord
  2
From Solid_32
340
0
102
{BLKREFS
331
7BE12
102
}
  0
BLOCK_RECORD
  5
7BF54
330
7BE36
100
AcDbSymbolTableRecord
100
AcDbBlockTableRecord
  2
From Solid_33
340
0
102
{BLKREFS
331
7BE13
102
}
  0
BLOCK_RECORD
  5
7BF57
330
7BE36
100
AcDbSymbolTableRecord
100
AcDbBlockTableRecord
  2
From Solid_34
340
0
102
{BLKREFS
331
7BE14
102
}
  0
BLOCK_RECORD
  5
7BF5A
330
7BE36
100
AcDbSymbolTableRecord
100
AcDbBlockTableRecord
  2
From Solid_35
340
0
102
{BLKREFS
331
7BE15
102
}
  0
BLOCK_RECORD
  5
7BF5D
330
7BE36
100
AcDbSymbolTableRecord
100
AcDbBlockTableRecord
  2
From Solid_36
340
0
102
{BLKREFS
331
7BE16
102
}
  0
BLOCK_RECORD
  5
7BF60
330
7BE36
100
AcDbSymbolTableRecord
100
AcDbBlockTableRecord
  2
From Solid_37
340
0
102
{BLKREFS
331
7BE17
102
}
  0
BLOCK_RECORD
  5
7BF63
330
7BE36
100
AcDbSymbolTableRecord
100
AcDbBlockTableRecord
  2
From Solid_38
340
0
102
{BLKREFS
331
7BE18
102
}
  0
BLOCK_RECORD
  5
7BF66
330
7BE36
100
AcDbSymbolTableRecord
100
AcDbBlockTableRecord
  2
From Solid_39
340
0
102
{BLKREFS
331
7BE19
102
}
  0
BLOCK_RECORD
  5
7BF69
330
7BE36
100
AcDbSymbolTableRecord
100
AcDbBlockTableRecord
  2
From Solid_40
340
0
102
{BLKREFS
331
7BE1A
102
}
  0
BLOCK_RECORD
  5
7BF6C
330
7BE36
100
AcDbSymbolTableRecord
100
AcDbBlockTableRecord
  2
From Solid_41
340
0
102
{BLKREFS
331
7BE1B
102
}
  0
BLOCK_RECORD
  5
7BF6F
330
7BE36
100
AcDbSymbolTableRecord
100
AcDbBlockTableRecord
  2
From Solid_42
340
0
102
{BLKREFS
331
7BE1C
102
}
  0
BLOCK_RECORD
  5
7BF72
330
7BE36
100
AcDbSymbolTableRecord
100
AcDbBlockTableRecord
  2
From Solid_43
340
0
102
{BLKREFS
331
7BE1D
102
}
  0
BLOCK_RECORD
  5
7BF75
330
7BE36
100
AcDbSymbolTableRecord
100
AcDbBlockTableRecord
  2
From Solid_44
340
0
102
{BLKREFS
331
7BE1E
102
}
  0
BLOCK_RECORD
  5
7BF78
330
7BE36
100
AcDbSymbolTableRecord
100
AcDbBlockTableRecord
  2
From Solid_45
340
0
102
{BLKREFS
331
7BE1F
102
}
  0
BLOCK_RECORD
  5
7BF7B
330
7BE36
100
AcDbSymbolTableRecord
100
AcDbBlockTableRecord
  2
From Solid_46
340
0
102
{BLKREFS
331
7BE20
102
}
  0
BLOCK_RECORD
  5
7BF7E
330
7BE36
100
AcDbSymbolTableRecord
100
AcDbBlockTableRecord
  2
From Solid_47
340
0
102
{BLKREFS
331
7BE21
102
}
  0
BLOCK_RECORD
  5
7BF81
330
7BE36
100
AcDbSymbolTableRecord
100
AcDbBlockTableRecord
  2
From Solid_48
340
0
102
{BLKREFS
331
7BE22
102
}
  0
BLOCK_RECORD
  5
7BF84
330
7BE36
100
AcDbSymbolTableRecord
100
AcDbBlockTableRecord
  2
From Solid_49
340
0
102
{BLKREFS
331
7BE23
102
}
  0
BLOCK_RECORD
  5
7BF87
330
7BE36
100
AcDbSymbolTableRecord
100
AcDbBlockTableRecord
  2
From Solid_50
340
0
102
{BLKREFS
331
7BE24
102
}
  0
BLOCK_RECORD
  5
7BF8A
330
7BE36
100
AcDbSymbolTableRecord
100
AcDbBlockTableRecord
  2
From Solid_51
340
0
102
{BLKREFS
331
7BE25
102
}
  0
BLOCK_RECORD
  5
7BF8D
330
7BE36
100
AcDbSymbolTableRecord
100
AcDbBlockTableRecord
  2
From Solid_52
340
0
102
{BLKREFS
331
7BE26
102
}
  0
BLOCK_RECORD
  5
7BF90
330
7BE36
100
AcDbSymbolTableRecord
100
AcDbBlockTableRecord
  2
From Solid_53
340
0
102
{BLKREFS
331
7BE27
102
}
  0
BLOCK_RECORD
  5
7BF93
330
7BE36
100
AcDbSymbolTableRecord
100
AcDbBlockTableRecord
  2
From Solid_54
340
0
102
{BLKREFS
331
7BE28
102
}
  0
BLOCK_RECORD
  5
7BF96
330
7BE36
100
AcDbSymbolTableRecord
100
AcDbBlockTableRecord
  2
From Solid_55
340
0
102
{BLKREFS
331
7BE29
102
}
  0
BLOCK_RECORD
  5
7BF99
330
7BE36
100
AcDbSymbolTableRecord
100
AcDbBlockTableRecord
  2
From Solid_56
340
0
102
{BLKREFS
331
7BE2A
102
}
  0
BLOCK_RECORD
  5
7BF9C
330
7BE36
100
AcDbSymbolTableRecord
100
AcDbBlockTableRecord
  2
From Solid_57
340
0
102
{BLKREFS
331
7BE2B
102
}
  0
BLOCK_RECORD
  5
7BF9F
330
7BE36
100
AcDbSymbolTableRecord
100
AcDbBlockTableRecord
  2
From Solid_58
340
0
102
{BLKREFS
331
7BE2C
102
}
  0
BLOCK_RECORD
  5
7BFA2
330
7BE36
100
AcDbSymbolTableRecord
100
AcDbBlockTableRecord
  2
From Solid_59
340
0
102
{BLKREFS
331
7BE2D
102
}
  0
BLOCK_RECORD
  5
7BFA5
330
7BE36
100
AcDbSymbolTableRecord
100
AcDbBlockTableRecord
  2
Feature Solid_24
340
0
102
{BLKREFS
331
7BDC7
102
}
  0
BLOCK_RECORD
  5
7BFA8
330
7BE36
100
AcDbSymbolTableRecord
100
AcDbBlockTableRecord
  2
CONE_4
340
0
102
{BLKREFS
331
7BDC8
102
}
  0
BLOCK_RECORD
  5
7BFAB
330
7BE36
100
AcDbSymbolTableRecord
100
AcDbBlockTableRecord
  2
Feature Solid_25
340
0
102
{BLKREFS
331
7BDCF
102
}
  0
BLOCK_RECORD
  5
7BFAE
330
7BE36
100
AcDbSymbolTableRecord
100
AcDbBlockTableRecord
  2
CONE_5
340
0
102
{BLKREFS
331
7BDD0
102
}
  0
BLOCK_RECORD
  5
7BFB1
330
7BE36
100
AcDbSymbolTableRecord
100
AcDbBlockTableRecord
  2
Feature Solid_26
340
0
102
{BLKREFS
331
7BDD7
102
}
  0
BLOCK_RECORD
  5
7BFB4
330
7BE36
100
AcDbSymbolTableRecord
100
AcDbBlockTableRecord
  2
EXTEND
340
0
102
{BLKREFS
331
7BDD8
102
}
  0
BLOCK_RECORD
  5
7BFB7
330
7BE36
100
AcDbSymbolTableRecord
100
AcDbBlockTableRecord
  2
EXTEND_1
340
0
102
{BLKREFS
331
7BDD9
102
}
  0
BLOCK_RECORD
  5
7BFBA
330
7BE36
100
AcDbSymbolTableRecord
100
AcDbBlockTableRecord
  2
TORUS
340
0
102
{BLKREFS
331
7BDDA
102
}
  0
ENDTAB
  0
ENDSEC
  0
SECTION
  2
BLOCKS
  0
BLOCK
  5
7BE38
330
7BE37
100
AcDbEntity
  8
0
100
AcDbBlockBegin
  2
*Model_Space
 70
     0
 71
     0
 10
0.0
 20
0.0
 30
0.0
  3
*Model_Space
  1

  0
ENDBLK
  5
7BE39
330
7BE37
100
AcDbEntity
  8
0
100
AcDbBlockEnd
  0
BLOCK
  5
7BE3C
330
7BE3B
100
AcDbEntity
 67
     1
  8
0
100
AcDbBlockBegin
  2
*Paper_Space
 70
     0
 71
     0
 10
0.0
 20
0.0
 30
0.0
  3
*Paper_Space
  1

  0
ENDBLK
  5
7BE3D
330
7BE3B
100
AcDbEntity
 67
     1
  8
0
100
AcDbBlockEnd
  0
BLOCK
  5
7BE52
330
7BDE6
100
AcDbEntity
  8
0
100
AcDbBlockBegin
  2
*U0
 70
     1
 71
     0
 10
0.0
 20
0.0
 30
0.0
  3
*U0
  1

  0
LWPOLYLINE
  5
7BDE7
330
7BDE6
100
AcDbEntity
  8
0
100
AcDbPolyline
 90
        4
 70
   129
 43
0.0
 10
0.82
 20
0.0
 42
0.853659
 10
0.0
 20
0.0
 10
0.0
 20
-0.07
 10
0.82
 20
-0.07
  0
ENDBLK
  5
7BE53
330
7BDE6
100
AcDbEntity
  8
0
100
AcDbBlockEnd
  0
BLOCK
  5
7BE54
330
7BDEC
100
AcDbEntity
  8
0
100
AcDbBlockBegin
  2
*U1
 70
     1
 71
     0
 10
0.0
 20
0.0
 30
0.0
  3
*U1
  1

  0
LWPOLYLINE
  5
7BDED
330
7BDEC
100
AcDbEntity
  8
0
100
AcDbPolyline
 90
        4
 70
   129
 43
0.0
 10
0.325
 20
0.325
 42
1.0
 10
0.325
 20
-0.325
 10
1.145
 20
-0.325
 42
1.0
 10
1.145
 20
0.325
  0
ENDBLK
  5
7BE55
330
7BDEC
100
AcDbEntity
  8
0
100
AcDbBlockEnd
  0
BLOCK
  5
7BE5B
330
7BE57
100
AcDbEntity
  8
0
100
AcDbBlockBegin
  2
TerminatorOpen_0.5
 70
     0
 71
     0
 10
0.0
 20
0.0
 30
0.0
  3
TerminatorOpen_0.5
  1

  0
LINE
  5
7BE58
330
7BE57
100
AcDbEntity
  8
0
  6
ByBlock
 62
     0
370
    -2
100
AcDbLine
 10
0.0
 20
0.0
 30
0.0
 11
-1.0
 21
0.0
 31
0.0
  0
LINE
  5
7BE59
330
7BE57
100
AcDbEntity
  8
0
  6
ByBlock
 62
     0
370
    -2
100
AcDbLine
 10
0.0
 20
0.0
 30
0.0
 11
-1.0
 21
0.25
 31
0.0
  0
LINE
  5
7BE5A
330
7BE57
100
AcDbEntity
  8
0
  6
ByBlock
 62
     0
370
    -2
100
AcDbLine
 10
0.0
 20
0.0
 30
0.0
 11
-1.0
 21
-0.25
 31
0.0
  0
ENDBLK
  5
7BE5C
330
7BE57
100
AcDbEntity
  8
0
100
AcDbBlockEnd
  0
BLOCK
  5
7BE5F
330
7BE5E
100
AcDbEntity
  8
0
100
AcDbBlockBegin
  2
FT25
 70
     0
 71
     0
 10
0.0
 20
0.0
 30
0.0
  3
FT25
  1

  0
INSERT
  5
7BADF
330
7BE5E
100
AcDbEntity
  8
Level 26
 62
   133
370
     0
100
AcDbBlockReference
  2
Feature Solid
 10
0.0
 20
414.0005
 30
0.0
  0
INSERT
  5
7BB23
330
7BE5E
100
AcDbEntity
  8
Level 26
 62
   133
370
     0
100
AcDbBlockReference
  2
Feature Solid_6
 10
0.0
 20
-414.0005
 30
0.0
  0
INSERT
  5
7BB67
330
7BE5E
100
AcDbEntity
  8
Level 26
 62
   133
370
     0
100
AcDbBlockReference
  2
Feature Solid_12
 10
-2835.0
 20
414.0005
 30
0.0
  0
INSERT
  5
7BBAB
330
7BE5E
100
AcDbEntity
  8
Level 26
 62
   133
370
     0
100
AcDbBlockReference
  2
Feature Solid_18
 10
-2835.0
 20
-414.0005
 30
0.0
  0
INSERT
  5
7BDF2
330
7BE5E
100
AcDbEntity
  8
Level 26
  6
Continuous
 62
   254
370
    13
100
AcDbBlockReference
  2
From Solid
 10
-5940.470371
 20
-414.286503
 30
0.0
  0
INSERT
  5
7BDF3
330
7BE5E
100
AcDbEntity
  8
Level 26
  6
Continuous
 62
   254
370
    13
100
AcDbBlockReference
  2
From Solid_1
 10
-5940.470371
 20
-414.286503
 30
0.0
  0
INSERT
  5
7BDF4
330
7BE5E
100
AcDbEntity
  8
Level 26
  6
Continuous
 62
   254
370
    13
100
AcDbBlockReference
  2
From Solid_2
 10
-5940.470371
 20
-414.286503
 30
0.0
  0
INSERT
  5
7BDF5
330
7BE5E
100
AcDbEntity
  8
Level 26
  6
Continuous
 62
   254
370
    13
100
AcDbBlockReference
  2
From Solid_3
 10
-5940.470371
 20
-414.286503
 30
0.0
  0
INSERT
  5
7BDF6
330
7BE5E
100
AcDbEntity
  8
Level 26
  6
Continuous
 62
   254
370
    13
100
AcDbBlockReference
  2
From Solid_4
 10
-5940.470371
 20
-414.286503
 30
0.0
  0
INSERT
  5
7BDF7
330
7BE5E
100
AcDbEntity
  8
Level 26
  6
Continuous
 62
   254
370
    13
100
AcDbBlockReference
  2
From Solid_5
 10
-5940.470371
 20
-414.286503
 30
0.0
  0
INSERT
  5
7BDF8
330
7BE5E
100
AcDbEntity
  8
Level 26
  6
Continuous
 62
   254
370
    13
100
AcDbBlockReference
  2
From Solid_6
 10
-5940.470371
 20
-414.286503
 30
0.0
  0
INSERT
  5
7BDF9
330
7BE5E
100
AcDbEntity
  8
Level 26
  6
Continuous
 62
   254
370
    13
100
AcDbBlockReference
  2
From Solid_7
 10
-5940.470371
 20
-414.286503
 30
0.0
  0
INSERT
  5
7BDFA
330
7BE5E
100
AcDbEntity
  8
Level 26
  6
Continuous
 62
   254
370
    13
100
AcDbBlockReference
  2
From Solid_8
 10
-5940.470371
 20
-414.286503
 30
0.0
  0
INSERT
  5
7BDFB
330
7BE5E
100
AcDbEntity
  8
Level 26
  6
Continuous
 62
   254
370
    13
100
AcDbBlockReference
  2
From Solid_9
 10
-5940.470371
 20
-414.286503
 30
0.0
  0
INSERT
  5
7BDFC
330
7BE5E
100
AcDbEntity
  8
Level 26
  6
Continuous
 62
   254
370
    13
100
AcDbBlockReference
  2
From Solid_10
 10
-5940.470371
 20
-414.286503
 30
0.0
  0
INSERT
  5
7BDFD
330
7BE5E
100
AcDbEntity
  8
Level 26
  6
Continuous
 62
   254
370
    13
100
AcDbBlockReference
  2
From Solid_11
 10
-5940.470371
 20
-414.286503
 30
0.0
  0
INSERT
  5
7BDFE
330
7BE5E
100
AcDbEntity
  8
Level 26
  6
Continuous
 62
   254
370
    13
100
AcDbBlockReference
  2
From Solid_12
 10
-5940.470371
 20
-414.286503
 30
0.0
  0
INSERT
  5
7BDFF
330
7BE5E
100
AcDbEntity
  8
Level 26
  6
Continuous
 62
   254
370
    13
100
AcDbBlockReference
  2
From Solid_13
 10
-5940.470371
 20
-414.286503
 30
0.0
  0
INSERT
  5
7BE00
330
7BE5E
100
AcDbEntity
  8
Level 26
  6
Continuous
 62
   254
370
    13
100
AcDbBlockReference
  2
From Solid_14
 10
-5940.470371
 20
-414.286503
 30
0.0
  0
INSERT
  5
7BE01
330
7BE5E
100
AcDbEntity
  8
Level 26
  6
Continuous
 62
   254
370
    13
100
AcDbBlockReference
  2
From Solid_15
 10
-5940.470371
 20
-414.286503
 30
0.0
  0
INSERT
  5
7BE02
330
7BE5E
100
AcDbEntity
  8
Level 26
  6
Continuous
 62
   254
370
    13
100
AcDbBlockReference
  2
From Solid_16
 10
-5940.470371
 20
-414.286503
 30
0.0
  0
INSERT
  5
7BE03
330
7BE5E
100
AcDbEntity
  8
Level 26
  6
Continuous
 62
   254
370
    13
100
AcDbBlockReference
  2
From Solid_17
 10
-5940.470371
 20
-414.286503
 30
0.0
  0
INSERT
  5
7BE04
330
7BE5E
100
AcDbEntity
  8
Level 26
  6
Continuous
 62
   254
370
    13
100
AcDbBlockReference
  2
From Solid_18
 10
-5940.470371
 20
-414.286503
 30
0.0
  0
INSERT
  5
7BE05
330
7BE5E
100
AcDbEntity
  8
Level 26
  6
Continuous
 62
   254
370
    13
100
AcDbBlockReference
  2
From Solid_19
 10
-5940.470371
 20
-414.286503
 30
0.0
  0
INSERT
  5
7BE06
330
7BE5E
100
AcDbEntity
  8
Level 26
  6
Continuous
 62
   254
370
    13
100
AcDbBlockReference
  2
From Solid_20
 10
-5940.470371
 20
-414.286503
 30
0.0
  0
INSERT
  5
7BE07
330
7BE5E
100
AcDbEntity
  8
Level 26
  6
Continuous
 62
   254
370
    13
100
AcDbBlockReference
  2
From Solid_21
 10
-5940.470371
 20
-414.286503
 30
0.0
  0
INSERT
  5
7BE08
330
7BE5E
100
AcDbEntity
  8
Level 26
  6
Continuous
 62
   254
370
    13
100
AcDbBlockReference
  2
From Solid_22
 10
-5940.470371
 20
-414.286503
 30
0.0
  0
INSERT
  5
7BE09
330
7BE5E
100
AcDbEntity
  8
Level 26
  6
Continuous
 62
   254
370
    13
100
AcDbBlockReference
  2
From Solid_23
 10
-5940.470371
 20
-414.286503
 30
0.0
  0
INSERT
  5
7BE0A
330
7BE5E
100
AcDbEntity
  8
Level 26
  6
Continuous
 62
   254
370
    13
100
AcDbBlockReference
  2
From Solid_24
 10
-5940.470371
 20
-414.286503
 30
0.0
  0
INSERT
  5
7BE0B
330
7BE5E
100
AcDbEntity
  8
Level 26
  6
Continuous
 62
   254
370
    13
100
AcDbBlockReference
  2
From Solid_25
 10
-5940.470371
 20
-414.286503
 30
0.0
  0
INSERT
  5
7BE0C
330
7BE5E
100
AcDbEntity
  8
Level 26
  6
Continuous
 62
   254
370
    13
100
AcDbBlockReference
  2
From Solid_26
 10
-5940.470371
 20
-414.286503
 30
0.0
  0
INSERT
  5
7BE0D
330
7BE5E
100
AcDbEntity
  8
Level 26
  6
Continuous
 62
   254
370
    13
100
AcDbBlockReference
  2
From Solid_27
 10
-5940.470371
 20
-414.286503
 30
0.0
  0
INSERT
  5
7BE0E
330
7BE5E
100
AcDbEntity
  8
Level 26
  6
Continuous
 62
   254
370
    13
100
AcDbBlockReference
  2
From Solid_28
 10
-5940.470371
 20
-414.286503
 30
0.0
  0
INSERT
  5
7BE0F
330
7BE5E
100
AcDbEntity
  8
Level 26
  6
Continuous
 62
   254
370
    13
100
AcDbBlockReference
  2
From Solid_29
 10
-5940.470371
 20
-414.286503
 30
0.0
  0
INSERT
  5
7BE10
330
7BE5E
100
AcDbEntity
  8
Level 26
  6
Continuous
 62
   254
370
    13
100
AcDbBlockReference
  2
From Solid_30
 10
-5940.470371
 20
-414.286503
 30
0.0
  0
INSERT
  5
7BE11
330
7BE5E
100
AcDbEntity
  8
Level 26
  6
Continuous
 62
   254
370
    13
100
AcDbBlockReference
  2
From Solid_31
 10
-5940.470371
 20
-414.286503
 30
0.0
  0
INSERT
  5
7BE12
330
7BE5E
100
AcDbEntity
  8
Level 26
  6
Continuous
 62
   254
370
    13
100
AcDbBlockReference
  2
From Solid_32
 10
-5940.470371
 20
-414.286503
 30
0.0
  0
INSERT
  5
7BE13
330
7BE5E
100
AcDbEntity
  8
Level 26
  6
Continuous
 62
   254
370
    13
100
AcDbBlockReference
  2
From Solid_33
 10
-5940.470371
 20
-414.286503
 30
0.0
  0
INSERT
  5
7BE14
330
7BE5E
100
AcDbEntity
  8
Level 26
  6
Continuous
 62
   254
370
    13
100
AcDbBlockReference
  2
From Solid_34
 10
-5940.470371
 20
-414.286503
 30
0.0
  0
INSERT
  5
7BE15
330
7BE5E
100
AcDbEntity
  8
Level 26
  6
Continuous
 62
   254
370
    13
100
AcDbBlockReference
  2
From Solid_35
 10
-5940.470371
 20
-414.286503
 30
0.0
  0
INSERT
  5
7BE16
330
7BE5E
100
AcDbEntity
  8
Level 26
  6
Continuous
 62
   254
370
    13
100
AcDbBlockReference
  2
From Solid_36
 10
-5940.470371
 20
-414.286503
 30
0.0
  0
INSERT
  5
7BE17
330
7BE5E
100
AcDbEntity
  8
Level 26
  6
Continuous
 62
   254
370
    13
100
AcDbBlockReference
  2
From Solid_37
 10
-5940.470371
 20
-414.286503
 30
0.0
  0
INSERT
  5
7BE18
330
7BE5E
100
AcDbEntity
  8
Level 26
  6
Continuous
 62
   254
370
    13
100
AcDbBlockReference
  2
From Solid_38
 10
-5940.470371
 20
-414.286503
 30
0.0
  0
INSERT
  5
7BE19
330
7BE5E
100
AcDbEntity
  8
Level 26
  6
Continuous
 62
   254
370
    13
100
AcDbBlockReference
  2
From Solid_39
 10
-5940.470371
 20
-414.286503
 30
0.0
  0
INSERT
  5
7BE1A
330
7BE5E
100
AcDbEntity
  8
Level 26
  6
Continuous
 62
   254
370
    13
100
AcDbBlockReference
  2
From Solid_40
 10
-5940.470371
 20
-414.286503
 30
0.0
  0
INSERT
  5
7BE1B
330
7BE5E
100
AcDbEntity
  8
Level 26
  6
Continuous
 62
   254
370
    13
100
AcDbBlockReference
  2
From Solid_41
 10
-5940.470371
 20
-414.286503
 30
0.0
  0
INSERT
  5
7BE1C
330
7BE5E
100
AcDbEntity
  8
Level 26
  6
Continuous
 62
   254
370
    13
100
AcDbBlockReference
  2
From Solid_42
 10
-5940.470371
 20
-414.286503
 30
0.0
  0
INSERT
  5
7BE1D
330
7BE5E
100
AcDbEntity
  8
Level 26
  6
Continuous
 62
   254
370
    13
100
AcDbBlockReference
  2
From Solid_43
 10
-5940.470371
 20
-414.286503
 30
0.0
  0
INSERT
  5
7BE1E
330
7BE5E
100
AcDbEntity
  8
Level 26
  6
Continuous
 62
   254
370
    13
100
AcDbBlockReference
  2
From Solid_44
 10
-5940.470371
 20
-414.286503
 30
0.0
  0
INSERT
  5
7BE1F
330
7BE5E
100
AcDbEntity
  8
Level 26
  6
Continuous
 62
   254
370
    13
100
AcDbBlockReference
  2
From Solid_45
 10
-5940.470371
 20
-414.286503
 30
0.0
  0
INSERT
  5
7BE20
330
7BE5E
100
AcDbEntity
  8
Level 26
  6
Continuous
 62
   254
370
    13
100
AcDbBlockReference
  2
From Solid_46
 10
-5940.470371
 20
-414.286503
 30
0.0
  0
INSERT
  5
7BE21
330
7BE5E
100
AcDbEntity
  8
Level 26
  6
Continuous
 62
   254
370
    13
100
AcDbBlockReference
  2
From Solid_47
 10
-5940.470371
 20
-414.286503
 30
0.0
  0
INSERT
  5
7BE22
330
7BE5E
100
AcDbEntity
  8
Level 26
  6
Continuous
 62
   254
370
    13
100
AcDbBlockReference
  2
From Solid_48
 10
-5940.470371
 20
-414.286503
 30
0.0
  0
INSERT
  5
7BE23
330
7BE5E
100
AcDbEntity
  8
Level 26
  6
Continuous
 62
   254
370
    13
100
AcDbBlockReference
  2
From Solid_49
 10
-5940.470371
 20
-414.286503
 30
0.0
  0
INSERT
  5
7BE24
330
7BE5E
100
AcDbEntity
  8
Level 26
  6
Continuous
 62
   254
370
    13
100
AcDbBlockReference
  2
From Solid_50
 10
-5940.470371
 20
-414.286503
 30
0.0
  0
INSERT
  5
7BE25
330
7BE5E
100
AcDbEntity
  8
Level 26
  6
Continuous
 62
   254
370
    13
100
AcDbBlockReference
  2
From Solid_51
 10
-5940.470371
 20
-414.286503
 30
0.0
  0
INSERT
  5
7BE26
330
7BE5E
100
AcDbEntity
  8
Level 26
  6
Continuous
 62
   254
370
    13
100
AcDbBlockReference
  2
From Solid_52
 10
-5940.470371
 20
-414.286503
 30
0.0
  0
INSERT
  5
7BE27
330
7BE5E
100
AcDbEntity
  8
Level 26
  6
Continuous
 62
   254
370
    13
100
AcDbBlockReference
  2
From Solid_53
 10
-5940.470371
 20
-414.286503
 30
0.0
  0
INSERT
  5
7BE28
330
7BE5E
100
AcDbEntity
  8
Level 26
  6
Continuous
 62
   254
370
    13
100
AcDbBlockReference
  2
From Solid_54
 10
-5940.470371
 20
-414.286503
 30
0.0
  0
INSERT
  5
7BE29
330
7BE5E
100
AcDbEntity
  8
Level 26
  6
Continuous
 62
   254
370
    13
100
AcDbBlockReference
  2
From Solid_55
 10
-5940.470371
 20
-414.286503
 30
0.0
  0
INSERT
  5
7BE2A
330
7BE5E
100
AcDbEntity
  8
Level 26
  6
Continuous
 62
   254
370
    13
100
AcDbBlockReference
  2
From Solid_56
 10
-5940.470371
 20
-414.286503
 30
0.0
  0
INSERT
  5
7BE2B
330
7BE5E
100
AcDbEntity
  8
Level 26
  6
Continuous
 62
   254
370
    13
100
AcDbBlockReference
  2
From Solid_57
 10
-5940.470371
 20
-414.286503
 30
0.0
  0
INSERT
  5
7BE2C
330
7BE5E
100
AcDbEntity
  8
Level 26
  6
Continuous
 62
   254
370
    13
100
AcDbBlockReference
  2
From Solid_58
 10
-5940.470371
 20
-414.286503
 30
0.0
  0
INSERT
  5
7BE2D
330
7BE5E
100
AcDbEntity
  8
Level 26
  6
Continuous
 62
   254
370
    13
100
AcDbBlockReference
  2
From Solid_59
 10
-5940.470371
 20
-414.286503
 30
0.0
  0
LWPOLYLINE
  5
7BD93
330
7BE5E
100
AcDbEntity
  8
Level 25
  6
Continuous
 62
   174
370
    13
100
AcDbPolyline
 90
        4
 70
   129
 43
0.0
 10
-2872.5
 20
-510.0
 10
-2797.5
 20
-510.0
 10
-2797.5
 20
-510.0
 10
-2872.5
 20
-510.0
  0
LWPOLYLINE
  5
7BD94
330
7BE5E
100
AcDbEntity
  8
Level 25
  6
Continuous
 62
   174
370
    13
100
AcDbPolyline
 90
        4
 70
   129
 43
0.0
 10
-2797.5
 20
-510.0
 10
-2797.5
 20
-435.0
 10
-2797.5
 20
-435.0
 10
-2797.5
 20
-510.0
  0
LWPOLYLINE
  5
7BD95
330
7BE5E
100
AcDbEntity
  8
Level 25
  6
Continuous
 62
   174
370
    13
100
AcDbPolyline
 90
        4
 70
   129
 43
0.0
 10
-2872.5
 20
-435.0
 10
-2872.5
 20
-510.0
 10
-2872.5
 20
-510.0
 10
-2872.5
 20
-435.0
  0
LWPOLYLINE
  5
7BD96
330
7BE5E
100
AcDbEntity
  8
Level 25
  6
Continuous
 62
   174
370
    13
100
AcDbPolyline
 90
        4
 70
   129
 43
0.0
 10
-2797.5
 20
-435.0
 10
-2872.5
 20
-435.0
 10
-2872.5
 20
-435.0
 10
-2797.5
 20
-435.0
  0
LWPOLYLINE
  5
7BD97
330
7BE5E
100
AcDbEntity
  8
Level 26
  6
Continuous
 62
   163
370
    13
100
AcDbPolyline
 90
        4
 70
   129
 43
0.0
 10
-2872.5
 20
-435.0
 10
-2872.5
 20
-510.0
 10
-2872.5
 20
-510.0
 10
-2872.5
 20
-435.0
  0
LWPOLYLINE
  5
7BD98
330
7BE5E
100
AcDbEntity
  8
Level 26
  6
Continuous
 62
   163
370
    13
100
AcDbPolyline
 90
        4
 70
   129
 43
0.0
 10
-2797.5
 20
-435.0
 10
-2872.5
 20
-435.0
 10
-2872.5
 20
-435.0
 10
-2797.5
 20
-435.0
  0
LWPOLYLINE
  5
7BD99
330
7BE5E
100
AcDbEntity
  8
Level 26
  6
Continuous
 62
   163
370
    13
100
AcDbPolyline
 90
        4
 70
   129
 43
0.0
 10
-2797.5
 20
-510.0
 10
-2797.5
 20
-435.0
 10
-2797.5
 20
-435.0
 10
-2797.5
 20
-510.0
  0
LWPOLYLINE
  5
7BD9A
330
7BE5E
100
AcDbEntity
  8
Level 26
  6
Continuous
 62
   163
370
    13
100
AcDbPolyline
 90
        4
 70
   129
 43
0.0
 10
-2872.5
 20
-510.0
 10
-2797.5
 20
-510.0
 10
-2797.5
 20
-510.0
 10
-2872.5
 20
-510.0
  0
LWPOLYLINE
  5
7BD9B
330
7BE5E
100
AcDbEntity
  8
Level 26
  6
Continuous
 62
   163
370
    13
100
AcDbPolyline
 90
        4
 70
   129
 43
0.0
 10
-2872.5
 20
-435.0
 10
-2872.5
 20
-510.0
 10
-2797.5
 20
-510.0
 10
-2797.5
 20
-435.0
  0
LWPOLYLINE
  5
7BDA0
330
7BE5E
100
AcDbEntity
  8
Level 25
  6
Continuous
 62
   174
370
    13
100
AcDbPolyline
 90
        4
 70
   129
 43
0.0
 10
-2872.5
 20
435.0
 10
-2797.5
 20
435.0
 10
-2797.5
 20
435.0
 10
-2872.5
 20
435.0
  0
LWPOLYLINE
  5
7BDA1
330
7BE5E
100
AcDbEntity
  8
Level 25
  6
Continuous
 62
   174
370
    13
100
AcDbPolyline
 90
        4
 70
   129
 43
0.0
 10
-2797.5
 20
435.0
 10
-2797.5
 20
510.0
 10
-2797.5
 20
510.0
 10
-2797.5
 20
435.0
  0
LWPOLYLINE
  5
7BDA2
330
7BE5E
100
AcDbEntity
  8
Level 25
  6
Continuous
 62
   174
370
    13
100
AcDbPolyline
 90
        4
 70
   129
 43
0.0
 10
-2872.5
 20
510.0
 10
-2872.5
 20
435.0
 10
-2872.5
 20
435.0
 10
-2872.5
 20
510.0
  0
LWPOLYLINE
  5
7BDA3
330
7BE5E
100
AcDbEntity
  8
Level 25
  6
Continuous
 62
   174
370
    13
100
AcDbPolyline
 90
        4
 70
   129
 43
0.0
 10
-2797.5
 20
510.0
 10
-2872.5
 20
510.0
 10
-2872.5
 20
510.0
 10
-2797.5
 20
510.0
  0
LWPOLYLINE
  5
7BDA4
330
7BE5E
100
AcDbEntity
  8
Level 26
  6
Continuous
 62
   163
370
    13
100
AcDbPolyline
 90
        4
 70
   129
 43
0.0
 10
-2872.5
 20
510.0
 10
-2872.5
 20
435.0
 10
-2872.5
 20
435.0
 10
-2872.5
 20
510.0
  0
LWPOLYLINE
  5
7BDA5
330
7BE5E
100
AcDbEntity
  8
Level 26
  6
Continuous
 62
   163
370
    13
100
AcDbPolyline
 90
        4
 70
   129
 43
0.0
 10
-2797.5
 20
510.0
 10
-2872.5
 20
510.0
 10
-2872.5
 20
510.0
 10
-2797.5
 20
510.0
  0
LWPOLYLINE
  5
7BDA6
330
7BE5E
100
AcDbEntity
  8
Level 26
  6
Continuous
 62
   163
370
    13
100
AcDbPolyline
 90
        4
 70
   129
 43
0.0
 10
-2797.5
 20
435.0
 10
-2797.5
 20
510.0
 10
-2797.5
 20
510.0
 10
-2797.5
 20
435.0
  0
LWPOLYLINE
  5
7BDA7
330
7BE5E
100
AcDbEntity
  8
Level 26
  6
Continuous
 62
   163
370
    13
100
AcDbPolyline
 90
        4
 70
   129
 43
0.0
 10
-2872.5
 20
435.0
 10
-2797.5
 20
435.0
 10
-2797.5
 20
435.0
 10
-2872.5
 20
435.0
  0
LWPOLYLINE
  5
7BDA8
330
7BE5E
100
AcDbEntity
  8
Level 26
  6
Continuous
 62
   163
370
    13
100
AcDbPolyline
 90
        4
 70
   129
 43
0.0
 10
-2872.5
 20
510.0
 10
-2872.5
 20
435.0
 10
-2797.5
 20
435.0
 10
-2797.5
 20
510.0
  0
LWPOLYLINE
  5
7BDAD
330
7BE5E
100
AcDbEntity
  8
Level 25
  6
Continuous
 62
   174
370
    13
100
AcDbPolyline
 90
        4
 70
   129
 43
0.0
 10
-37.5
 20
435.0
 10
37.5
 20
435.0
 10
37.5
 20
435.0
 10
-37.5
 20
435.0
  0
LWPOLYLINE
  5
7BDAE
330
7BE5E
100
AcDbEntity
  8
Level 25
  6
Continuous
 62
   174
370
    13
100
AcDbPolyline
 90
        4
 70
   129
 43
0.0
 10
37.5
 20
435.0
 10
37.5
 20
510.0
 10
37.5
 20
510.0
 10
37.5
 20
435.0
  0
LWPOLYLINE
  5
7BDAF
330
7BE5E
100
AcDbEntity
  8
Level 25
  6
Continuous
 62
   174
370
    13
100
AcDbPolyline
 90
        4
 70
   129
 43
0.0
 10
-37.5
 20
510.0
 10
-37.5
 20
435.0
 10
-37.5
 20
435.0
 10
-37.5
 20
510.0
  0
LWPOLYLINE
  5
7BDB0
330
7BE5E
100
AcDbEntity
  8
Level 25
  6
Continuous
 62
   174
370
    13
100
AcDbPolyline
 90
        4
 70
   129
 43
0.0
 10
37.5
 20
510.0
 10
-37.5
 20
510.0
 10
-37.5
 20
510.0
 10
37.5
 20
510.0
  0
LWPOLYLINE
  5
7BDB1
330
7BE5E
100
AcDbEntity
  8
Level 26
  6
Continuous
 62
   163
370
    13
100
AcDbPolyline
 90
        4
 70
   129
 43
0.0
 10
-37.5
 20
510.0
 10
-37.5
 20
435.0
 10
-37.5
 20
435.0
 10
-37.5
 20
510.0
  0
LWPOLYLINE
  5
7BDB2
330
7BE5E
100
AcDbEntity
  8
Level 26
  6
Continuous
 62
   163
370
    13
100
AcDbPolyline
 90
        4
 70
   129
 43
0.0
 10
37.5
 20
510.0
 10
-37.5
 20
510.0
 10
-37.5
 20
510.0
 10
37.5
 20
510.0
  0
LWPOLYLINE
  5
7BDB3
330
7BE5E
100
AcDbEntity
  8
Level 26
  6
Continuous
 62
   163
370
    13
100
AcDbPolyline
 90
        4
 70
   129
 43
0.0
 10
37.5
 20
435.0
 10
37.5
 20
510.0
 10
37.5
 20
510.0
 10
37.5
 20
435.0
  0
LWPOLYLINE
  5
7BDB4
330
7BE5E
100
AcDbEntity
  8
Level 26
  6
Continuous
 62
   163
370
    13
100
AcDbPolyline
 90
        4
 70
   129
 43
0.0
 10
-37.5
 20
435.0
 10
37.5
 20
435.0
 10
37.5
 20
435.0
 10
-37.5
 20
435.0
  0
LWPOLYLINE
  5
7BDB5
330
7BE5E
100
AcDbEntity
  8
Level 26
  6
Continuous
 62
   163
370
    13
100
AcDbPolyline
 90
        4
 70
   129
 43
0.0
 10
-37.5
 20
510.0
 10
-37.5
 20
435.0
 10
37.5
 20
435.0
 10
37.5
 20
510.0
  0
LWPOLYLINE
  5
7BDBA
330
7BE5E
100
AcDbEntity
  8
Level 25
  6
Continuous
 62
   174
370
    13
100
AcDbPolyline
 90
        4
 70
   129
 43
0.0
 10
-37.5
 20
-510.0
 10
37.5
 20
-510.0
 10
37.5
 20
-510.0
 10
-37.5
 20
-510.0
  0
LWPOLYLINE
  5
7BDBB
330
7BE5E
100
AcDbEntity
  8
Level 25
  6
Continuous
 62
   174
370
    13
100
AcDbPolyline
 90
        4
 70
   129
 43
0.0
 10
37.5
 20
-510.0
 10
37.5
 20
-435.0
 10
37.5
 20
-435.0
 10
37.5
 20
-510.0
  0
LWPOLYLINE
  5
7BDBC
330
7BE5E
100
AcDbEntity
  8
Level 25
  6
Continuous
 62
   174
370
    13
100
AcDbPolyline
 90
        4
 70
   129
 43
0.0
 10
-37.5
 20
-435.0
 10
-37.5
 20
-510.0
 10
-37.5
 20
-510.0
 10
-37.5
 20
-435.0
  0
LWPOLYLINE
  5
7BDBD
330
7BE5E
100
AcDbEntity
  8
Level 25
  6
Continuous
 62
   174
370
    13
100
AcDbPolyline
 90
        4
 70
   129
 43
0.0
 10
37.5
 20
-435.0
 10
-37.5
 20
-435.0
 10
-37.5
 20
-435.0
 10
37.5
 20
-435.0
  0
LWPOLYLINE
  5
7BDBE
330
7BE5E
100
AcDbEntity
  8
Level 26
  6
Continuous
 62
   163
370
    13
100
AcDbPolyline
 90
        4
 70
   129
 43
0.0
 10
-37.5
 20
-435.0
 10
-37.5
 20
-510.0
 10
-37.5
 20
-510.0
 10
-37.5
 20
-435.0
  0
LWPOLYLINE
  5
7BDBF
330
7BE5E
100
AcDbEntity
  8
Level 26
  6
Continuous
 62
   163
370
    13
100
AcDbPolyline
 90
        4
 70
   129
 43
0.0
 10
37.5
 20
-435.0
 10
-37.5
 20
-435.0
 10
-37.5
 20
-435.0
 10
37.5
 20
-435.0
  0
LWPOLYLINE
  5
7BDC0
330
7BE5E
100
AcDbEntity
  8
Level 26
  6
Continuous
 62
   163
370
    13
100
AcDbPolyline
 90
        4
 70
   129
 43
0.0
 10
37.5
 20
-510.0
 10
37.5
 20
-435.0
 10
37.5
 20
-435.0
 10
37.5
 20
-510.0
  0
LWPOLYLINE
  5
7BDC1
330
7BE5E
100
AcDbEntity
  8
Level 26
  6
Continuous
 62
   163
370
    13
100
AcDbPolyline
 90
        4
 70
   129
 43
0.0
 10
-37.5
 20
-510.0
 10
37.5
 20
-510.0
 10
37.5
 20
-510.0
 10
-37.5
 20
-510.0
  0
LWPOLYLINE
  5
7BDC2
330
7BE5E
100
AcDbEntity
  8
Level 26
  6
Continuous
 62
   163
370
    13
100
AcDbPolyline
 90
        4
 70
   129
 43
0.0
 10
-37.5
 20
-435.0
 10
-37.5
 20
-510.0
 10
37.5
 20
-510.0
 10
37.5
 20
-435.0
  0
INSERT
  5
7BDC7
330
7BE5E
100
AcDbEntity
  8
Level 27
  6
Continuous
 62
    12
370
    13
100
AcDbBlockReference
  2
Feature Solid_24
 10
1.7425
 20
0.0005
 30
0.0
  0
INSERT
  5
7BDCF
330
7BE5E
100
AcDbEntity
  8
Level 27
  6
Continuous
 62
    12
370
    13
100
AcDbBlockReference
  2
Feature Solid_25
 10
-717.721292
 20
54.908141
 30
0.0
  0
INSERT
  5
7BDD7
330
7BE5E
100
AcDbEntity
  8
Level 27
  6
Continuous
 62
    12
370
    13
100
AcDbBlockReference
  2
Feature Solid_26
 10
-1416.0215
 20
0.0025
 30
0.0
  0
ENDBLK
  5
7BE60
330
7BE5E
100
AcDbEntity
  8
0
100
AcDbBlockEnd
  0
BLOCK
  5
7BE62
330
7BE61
100
AcDbEntity
  8
0
100
AcDbBlockBegin
  2
Feature Solid
 70
     0
 71
     0
 10
0.0
 20
0.0
 30
0.0
  3
Feature Solid
  1

  0
INSERT
  5
7BAE0
330
7BE61
100
AcDbEntity
  8
Level 26
 62
   133
370
     0
100
AcDbBlockReference
  2
UNITE
 10
-215.851704
 20
22.17087
 30
0.0
 41
100.0
 42
100.0
 43
100.0
  0
ENDBLK
  5
7BE63
330
7BE61
100
AcDbEntity
  8
0
100
AcDbBlockEnd
  0
BLOCK
  5
7BE65
330
7BE64
100
AcDbEntity
  8
0
100
AcDbBlockBegin
  2
UNITE
 70
     0
 71
     0
 10
0.0
 20
0.0
 30
0.0
  3
UNITE
  1

  0
INSERT
  5
7BAE1
330
7BE64
100
AcDbEntity
  8
Level 26
 62
   133
370
     0
100
AcDbBlockReference
  2
Feature Solid_1
 10
0.0
 20
0.0
 30
0.0
  0
INSERT
  5
7BAE8
330
7BE64
100
AcDbEntity
  8
Level 26
 62
   133
370
     0
100
AcDbBlockReference
  2
Feature Solid_2
 10
0.55
 20
0.0
 30
0.0
  0
INSERT
  5
7BAEF
330
7BE64
100
AcDbEntity
  8
Level 8
 62
   133
370
     0
100
AcDbBlockReference
  2
Feature Solid_3
 10
0.0
 20
0.0
 30
0.0
  0
ENDBLK
  5
7BE66
330
7BE64
100
AcDbEntity
  8
0
100
AcDbBlockEnd
  0
BLOCK
  5
7BE68
330
7BE67
100
AcDbEntity
  8
0
100
AcDbBlockBegin
  2
Feature Solid_1
 70
     0
 71
     0
 10
0.0
 20
0.0
 30
0.0
  3
Feature Solid_1
  1

  0
INSERT
  5
7BAE2
330
7BE67
100
AcDbEntity
  8
Level 26
 62
   133
370
     0
100
AcDbBlockReference
  2
DDPROJ
 10
0.0
 20
0.0
 30
0.0
  0
ENDBLK
  5
7BE69
330
7BE67
100
AcDbEntity
  8
0
100
AcDbBlockEnd
  0
BLOCK
  5
7BE6B
330
7BE6A
100
AcDbEntity
  8
0
100
AcDbBlockBegin
  2
DDPROJ
 70
     0
 71
     0
 10
0.0
 20
0.0
 30
0.0
  3
DDPROJ
  1

  0
POINT
  5
7BAE3
330
7BE6A
100
AcDbEntity
  8
Level 26
 62
   133
370
     0
100
AcDbPoint
 10
1.833517
 20
-0.011714
 30
0.0
  0
LINE
  5
7BAE4
330
7BE6A
100
AcDbEntity
  8
Level 26
 62
   133
370
     0
100
AcDbLine
 10
1.933517
 20
-0.131714
 30
0.0
 11
1.933517
 21
-0.359125
 31
0.0
  0
LINE
  5
7BAE5
330
7BE6A
100
AcDbEntity
  8
Level 26
 62
   133
370
     0
100
AcDbLine
 10
1.833517
 20
-0.131714
 30
0.0
 11
1.833517
 21
-0.431714
 31
0.0
  0
LINE
  5
7BAE6
330
7BE6A
100
AcDbEntity
  8
Level 26
 62
   133
370
     0
100
AcDbLine
 10
1.833517
 20
-0.131714
 30
0.0
 11
1.833517
 21
-0.431714
 31
0.0
  0
LINE
  5
7BAE7
330
7BE6A
100
AcDbEntity
  8
Level 26
 62
   133
370
     0
100
AcDbLine
 10
1.933517
 20
-0.131714
 30
0.0
 11
1.933517
 21
-0.359125
 31
0.0
  0
ENDBLK
  5
7BE6C
330
7BE6A
100
AcDbEntity
  8
0
100
AcDbBlockEnd
  0
BLOCK
  5
7BE6E
330
7BE6D
100
AcDbEntity
  8
0
100
AcDbBlockBegin
  2
Feature Solid_2
 70
     0
 71
     0
 10
0.0
 20
0.0
 30
0.0
  3
Feature Solid_2
  1

  0
INSERT
  5
7BAE9
330
7BE6D
100
AcDbEntity
  8
Level 26
 62
   133
370
     0
100
AcDbBlockReference
  2
DDPROJ_1
 10
0.0
 20
0.0
 30
0.0
  0
ENDBLK
  5
7BE6F
330
7BE6D
100
AcDbEntity
  8
0
100
AcDbBlockEnd
  0
BLOCK
  5
7BE71
330
7BE70
100
AcDbEntity
  8
0
100
AcDbBlockBegin
  2
DDPROJ_1
 70
     0
 71
     0
 10
0.0
 20
0.0
 30
0.0
  3
DDPROJ_1
  1

  0
POINT
  5
7BAEA
330
7BE70
100
AcDbEntity
  8
Level 26
 62
   133
370
     0
100
AcDbPoint
 10
1.933517
 20
-0.011714
 30
0.0
  0
LINE
  5
7BAEB
330
7BE70
100
AcDbEntity
  8
Level 26
 62
   133
370
     0
100
AcDbLine
 10
1.933517
 20
-0.131714
 30
0.0
 11
1.933517
 21
-0.431714
 31
0.0
  0
LINE
  5
7BAEC
330
7BE70
100
AcDbEntity
  8
Level 26
 62
   133
370
     0
100
AcDbLine
 10
1.833517
 20
-0.131714
 30
0.0
 11
1.833517
 21
-0.359125
 31
0.0
  0
LINE
  5
7BAED
330
7BE70
100
AcDbEntity
  8
Level 26
 62
   133
370
     0
100
AcDbLine
 10
1.833517
 20
-0.131714
 30
0.0
 11
1.833517
 21
-0.359125
 31
0.0
  0
LINE
  5
7BAEE
330
7BE70
100
AcDbEntity
  8
Level 26
 62
   133
370
     0
100
AcDbLine
 10
1.933517
 20
-0.131714
 30
0.0
 11
1.933517
 21
-0.431714
 31
0.0
  0
ENDBLK
  5
7BE72
330
7BE70
100
AcDbEntity
  8
0
100
AcDbBlockEnd
  0
BLOCK
  5
7BE74
330
7BE73
100
AcDbEntity
  8
0
100
AcDbBlockBegin
  2
Feature Solid_3
 70
     0
 71
     0
 10
0.0
 20
0.0
 30
0.0
  3
Feature Solid_3
  1

  0
INSERT
  5
7BAF0
330
7BE73
100
AcDbEntity
  8
Level 8
 62
   133
370
     0
100
AcDbBlockReference
  2
UNITE_1
 10
0.0
 20
0.0
 30
0.0
  0
ENDBLK
  5
7BE75
330
7BE73
100
AcDbEntity
  8
0
100
AcDbBlockEnd
  0
BLOCK
  5
7BE77
330
7BE76
100
AcDbEntity
  8
0
100
AcDbBlockBegin
  2
UNITE_1
 70
     0
 71
     0
 10
0.0
 20
0.0
 30
0.0
  3
UNITE_1
  1

  0
INSERT
  5
7BAF1
330
7BE76
100
AcDbEntity
  8
Level 8
 62
   133
370
     0
100
AcDbBlockReference
  2
Feature Solid_4
 10
0.0
 20
0.0
 30
0.0
  0
INSERT
  5
7BB07
330
7BE76
100
AcDbEntity
  8
Level 26
 62
   133
370
     0
100
AcDbBlockReference
  2
Feature Solid_5
 10
0.0
 20
0.0
 30
0.0
  0
ENDBLK
  5
7BE78
330
7BE76
100
AcDbEntity
  8
0
100
AcDbBlockEnd
  0
BLOCK
  5
7BE7A
330
7BE79
100
AcDbEntity
  8
0
100
AcDbBlockBegin
  2
Feature Solid_4
 70
     0
 71
     0
 10
0.0
 20
0.0
 30
0.0
  3
Feature Solid_4
  1

  0
INSERT
  5
7BAF2
330
7BE79
100
AcDbEntity
  8
Level 8
 62
   133
370
     0
100
AcDbBlockReference
  2
CONE
 10
0.0
 20
0.0
 30
0.0
  0
ENDBLK
  5
7BE7B
330
7BE79
100
AcDbEntity
  8
0
100
AcDbBlockEnd
  0
BLOCK
  5
7BE7D
330
7BE7C
100
AcDbEntity
  8
0
100
AcDbBlockBegin
  2
CONE
 70
     0
 71
     0
 10
0.0
 20
0.0
 30
0.0
  3
CONE
  1

  0
LINE
  5
7BAF3
330
7BE7C
100
AcDbEntity
  8
Level 8
 62
   133
370
     0
100
AcDbLine
 10
1.833517
 20
-0.431714
 30
0.0
 11
2.483517
 21
-0.431714
 31
0.0
  0
LINE
  5
7BAF4
330
7BE7C
100
AcDbEntity
  8
Level 8
 62
   133
370
     0
100
AcDbLine
 10
2.383517
 20
-0.131714
 30
0.0
 11
2.383517
 21
-0.359125
 31
0.0
  0
LINE
  5
7BAF5
330
7BE7C
100
AcDbEntity
  8
Level 8
 62
   133
370
     0
100
AcDbLine
 10
2.383517
 20
-0.131714
 30
0.0
 11
2.383517
 21
-0.359125
 31
0.0
  0
SPLINE
  5
7BAF6
330
7BE7C
100
AcDbEntity
  8
Level 8
 62
   133
370
     0
100
AcDbSpline
210
0.0
220
0.0
230
1.0
 70
     8
 71
     3
 72
    17
 73
    13
 74
     0
 42
0.0000000001
 43
0.00000001
 40
0.0
 40
0.0
 40
0.0
 40
0.0
 40
0.1188920175173181
 40
0.1188920175173181
 40
0.1188920175173181
 40
0.4370642450454728
 40
0.4370642450454728
 40
0.4370642450454728
 40
0.7708126268407274
 40
0.7708126268407274
 40
0.7708126268407274
 40
1.0
 40
1.0
 40
1.0
 40
1.0
 10
2.483517035676393
 20
-0.4317136962460406
 30
0.0
 10
2.483517035676393
 20
-0.4317136962460353
 30
0.0
 10
2.482970961108954
 20
-0.4312857853703722
 30
0.0
 10
2.481890266834164
 20
-0.430441396724941
 30
0.0
 10
2.479007999541985
 20
-0.4281893687172289
 30
0.0
 10
2.472181370284076
 20
-0.4228496497948289
 30
0.0
 10
2.462245290317632
 20
-0.4152805637156778
 30
0.0
 10
2.451806866801178
 20
-0.4073288034245515
 30
0.0
 10
2.437764099143891
 20
-0.3967863239604554
 30
0.0
 10
2.421270187946135
 20
-0.3850241073261067
 30
0.0
 10
2.409877803190355
 20
-0.3768999155639072
 30
0.0
 10
2.39720582936004
 20
-0.3681165556180144
 30
0.0
 10
2.383517035681365
 20
-0.359125348396347
 30
0.0
  0
SPLINE
  5
7BAF9
330
7BE7C
100
AcDbEntity
  8
Level 8
 62
   133
370
     0
100
AcDbSpline
210
0.0
220
0.0
230
1.0
 70
     8
 71
     3
 72
    14
 73
    10
 74
     0
 42
0.0000000001
 43
0.00000001
 40
0.0
 40
0.0
 40
0.0
 40
0.0
 40
0.4155111778321488
 40
0.4155111778321488
 40
0.4155111778321488
 40
0.7657511632294429
 40
0.7657511632294429
 40
0.7657511632294429
 40
1.0
 40
1.0
 40
1.0
 40
1.0
 10
2.38351703567637
 20
-0.359125348395855
 30
0.0
 10
2.408183961970714
 20
-0.3753273199526834
 30
0.0
 10
2.429723842876854
 20
-0.3909352251375093
 30
0.0
 10
2.446330563598316
 20
-0.4032945372283603
 30
0.0
 10
2.460337575068309
 20
-0.4137190532494017
 30
0.0
 10
2.471094914404418
 20
-0.422043984659398
 30
0.0
 10
2.477256738635809
 20
-0.4268312321213159
 30
0.0
 10
2.481375118370785
 20
-0.430030885696798
 30
0.0
 10
2.483517035676393
 20
-0.4317136962460406
 30
0.0
 10
2.483517035676393
 20
-0.4317136962460406
 30
0.0
  0
LINE
  5
7BAFC
330
7BE7C
100
AcDbEntity
  8
Level 8
 62
   133
370
     0
100
AcDbLine
 10
1.833517
 20
-0.431714
 30
0.0
 11
2.483517
 21
-0.431714
 31
0.0
  0
SPLINE
  5
7BAFD
330
7BE7C
100
AcDbEntity
  8
Level 8
 62
   133
370
     0
100
AcDbSpline
210
0.0
220
0.0
230
1.0
 70
     8
 71
     3
 72
    17
 73
    13
 74
     0
 42
0.0000000001
 43
0.00000001
 40
0.0
 40
0.0
 40
0.0
 40
0.0
 40
0.1188920175167992
 40
0.1188920175167992
 40
0.1188920175167992
 40
0.4370642450447248
 40
0.4370642450447248
 40
0.4370642450447248
 40
0.7708126268396294
 40
0.7708126268396294
 40
0.7708126268396294
 40
1.0
 40
1.0
 40
1.0
 40
1.0
 10
1.833517035676245
 20
-0.4317136962460353
 30
0.0
 10
1.833517035676245
 20
-0.4317136962460353
 30
0.0
 10
1.834063110243683
 20
-0.4312857853703811
 30
0.0
 10
1.835143804518474
 20
-0.4304413967249552
 30
0.0
 10
1.838026071810631
 20
-0.4281893687172609
 30
0.0
 10
1.844852701068525
 20
-0.4228496497948751
 30
0.0
 10
1.854788781034969
 20
-0.4152805637157382
 30
0.0
 10
1.865227204551417
 20
-0.4073288034246261
 30
0.0
 10
1.879269972208704
 20
-0.3967863239605443
 30
0.0
 10
1.895763883406445
 20
-0.3850241073262133
 30
0.0
 10
1.907156268162282
 20
-0.3768999155639765
 30
0.0
 10
1.919828241992668
 20
-0.3681165556180392
 30
0.0
 10
1.933517035671436
 20
-0.3591253483963239
 30
0.0
  0
LINE
  5
7BB00
330
7BE7C
100
AcDbEntity
  8
Level 8
 62
   133
370
     0
100
AcDbLine
 10
1.933517
 20
-0.131714
 30
0.0
 11
1.933517
 21
-0.359125
 31
0.0
  0
LINE
  5
7BB01
330
7BE7C
100
AcDbEntity
  8
Level 8
 62
   133
370
     0
100
AcDbLine
 10
1.933517
 20
-0.131714
 30
0.0
 11
1.933517
 21
-0.359125
 31
0.0
  0
SPLINE
  5
7BB02
330
7BE7C
100
AcDbEntity
  8
Level 8
 62
   133
370
     0
100
AcDbSpline
210
0.0
220
0.0
230
1.0
 70
     8
 71
     3
 72
    14
 73
    10
 74
     0
 42
0.0000000001
 43
0.00000001
 40
0.0
 40
0.0
 40
0.0
 40
0.0
 40
0.4155111778320348
 40
0.4155111778320348
 40
0.4155111778320348
 40
0.7657511632291136
 40
0.7657511632291136
 40
0.7657511632291136
 40
1.0
 40
1.0
 40
1.0
 40
1.0
 10
1.93351703567641
 20
-0.3591253483956596
 30
0.0
 10
1.908850109382065
 20
-0.3753273199525147
 30
0.0
 10
1.887310228475876
 20
-0.390935225137369
 30
0.0
 10
1.870703507754392
 20
-0.4032945372282484
 30
0.0
 10
1.856696496284386
 20
-0.4137190532493076
 30
0.0
 10
1.845939156948276
 20
-0.4220439846593287
 30
0.0
 10
1.839777332716864
 20
-0.4268312321212697
 30
0.0
 10
1.835658952981866
 20
-0.4300308856967749
 30
0.0
 10
1.833517035676245
 20
-0.43171369624603
 30
0.0
 10
1.833517035676245
 20
-0.4317136962460353
 30
0.0
  0
LINE
  5
7BB05
330
7BE7C
100
AcDbEntity
  8
Level 8
 62
   133
370
     0
100
AcDbLine
 10
2.158517
 20
-0.131714
 30
0.0
 11
2.158517
 21
-0.431714
 31
0.0
  0
LINE
  5
7BB06
330
7BE7C
100
AcDbEntity
  8
Level 8
 62
   133
370
     0
100
AcDbLine
 10
2.158517
 20
-0.131714
 30
0.0
 11
2.158517
 21
-0.431714
 31
0.0
  0
ENDBLK
  5
7BE7E
330
7BE7C
100
AcDbEntity
  8
0
100
AcDbBlockEnd
  0
BLOCK
  5
7BE80
330
7BE7F
100
AcDbEntity
  8
0
100
AcDbBlockBegin
  2
Feature Solid_5
 70
     0
 71
     0
 10
0.0
 20
0.0
 30
0.0
  3
Feature Solid_5
  1

  0
INSERT
  5
7BB08
330
7BE7F
100
AcDbEntity
  8
Level 26
 62
   133
370
     0
100
AcDbBlockReference
  2
DDPROJ_2
 10
0.0
 20
0.0
 30
0.0
  0
ENDBLK
  5
7BE81
330
7BE7F
100
AcDbEntity
  8
0
100
AcDbBlockEnd
  0
BLOCK
  5
7BE83
330
7BE82
100
AcDbEntity
  8
0
100
AcDbBlockBegin
  2
DDPROJ_2
 70
     0
 71
     0
 10
0.0
 20
0.0
 30
0.0
  3
DDPROJ_2
  1

  0
LINE
  5
7BB09
330
7BE82
100
AcDbEntity
  8
Level 26
 62
   133
370
     0
100
AcDbLine
 10
1.833517
 20
-0.011714
 30
0.0
 11
1.833517
 21
-0.131714
 31
0.0
  0
LINE
  5
7BB0A
330
7BE82
100
AcDbEntity
  8
Level 26
 62
   133
370
     0
100
AcDbLine
 10
1.833517
 20
-0.131714
 30
0.0
 11
1.833517
 21
-0.011714
 31
0.0
  0
LINE
  5
7BB0B
330
7BE82
100
AcDbEntity
  8
Level 26
 62
   133
370
     0
100
AcDbLine
 10
2.483517
 20
-0.011714
 30
0.0
 11
2.483517
 21
-0.131714
 31
0.0
  0
LINE
  5
7BB0C
330
7BE82
100
AcDbEntity
  8
Level 26
 62
   133
370
     0
100
AcDbLine
 10
2.483517
 20
-0.131714
 30
0.0
 11
2.483517
 21
-0.011714
 31
0.0
  0
LINE
  5
7BB0D
330
7BE82
100
AcDbEntity
  8
Level 26
 62
   133
370
     0
100
AcDbLine
 10
1.933517
 20
-0.131714
 30
0.0
 11
2.383517
 21
-0.131714
 31
0.0
  0
LINE
  5
7BB0E
330
7BE82
100
AcDbEntity
  8
Level 26
 62
   133
370
     0
100
AcDbLine
 10
1.933517
 20
-0.131714
 30
0.0
 11
2.383517
 21
-0.131714
 31
0.0
  0
LINE
  5
7BB0F
330
7BE82
100
AcDbEntity
  8
Level 26
 62
   133
370
     0
100
AcDbLine
 10
1.833517
 20
-0.011714
 30
0.0
 11
2.483517
 21
-0.011714
 31
0.0
  0
POINT
  5
7BB10
330
7BE82
100
AcDbEntity
  8
Level 26
 62
   133
370
     0
100
AcDbPoint
 10
2.483517
 20
-0.131714
 30
0.0
  0
LINE
  5
7BB11
330
7BE82
100
AcDbEntity
  8
Level 26
 62
   133
370
     0
100
AcDbLine
 10
1.833517
 20
-0.011714
 30
0.0
 11
2.483517
 21
-0.011714
 31
0.0
  0
LINE
  5
7BB12
330
7BE82
100
AcDbEntity
  8
Level 26
 62
   133
370
     0
100
AcDbLine
 10
1.833517
 20
-0.131714
 30
0.0
 11
2.483517
 21
-0.131714
 31
0.0
  0
POINT
  5
7BB13
330
7BE82
100
AcDbEntity
  8
Level 26
 62
   133
370
     0
100
AcDbPoint
 10
1.833517
 20
-0.131714
 30
0.0
  0
POINT
  5
7BB14
330
7BE82
100
AcDbEntity
  8
Level 26
 62
   133
370
     0
100
AcDbPoint
 10
2.483517
 20
-0.131714
 30
0.0
  0
LINE
  5
7BB15
330
7BE82
100
AcDbEntity
  8
Level 26
 62
   133
370
     0
100
AcDbLine
 10
1.833517
 20
-0.131714
 30
0.0
 11
2.483517
 21
-0.131714
 31
0.0
  0
POINT
  5
7BB16
330
7BE82
100
AcDbEntity
  8
Level 26
 62
   133
370
     0
100
AcDbPoint
 10
1.833517
 20
-0.131714
 30
0.0
  0
POINT
  5
7BB17
330
7BE82
100
AcDbEntity
  8
Level 26
 62
   133
370
     0
100
AcDbPoint
 10
2.383517
 20
-0.131714
 30
0.0
  0
POINT
  5
7BB18
330
7BE82
100
AcDbEntity
  8
Level 26
 62
   133
370
     0
100
AcDbPoint
 10
2.383517
 20
-0.131714
 30
0.0
  0
LINE
  5
7BB19
330
7BE82
100
AcDbEntity
  8
Level 26
 62
   133
370
     0
100
AcDbLine
 10
2.483517
 20
-0.131714
 30
0.0
 11
2.383517
 21
-0.131714
 31
0.0
  0
LINE
  5
7BB1A
330
7BE82
100
AcDbEntity
  8
Level 26
 62
   133
370
     0
100
AcDbLine
 10
2.483517
 20
-0.131714
 30
0.0
 11
2.383517
 21
-0.131714
 31
0.0
  0
POINT
  5
7BB1B
330
7BE82
100
AcDbEntity
  8
Level 26
 62
   133
370
     0
100
AcDbPoint
 10
1.933517
 20
-0.131714
 30
0.0
  0
LINE
  5
7BB1C
330
7BE82
100
AcDbEntity
  8
Level 26
 62
   133
370
     0
100
AcDbLine
 10
1.933517
 20
-0.131714
 30
0.0
 11
1.833517
 21
-0.131714
 31
0.0
  0
POINT
  5
7BB1D
330
7BE82
100
AcDbEntity
  8
Level 26
 62
   133
370
     0
100
AcDbPoint
 10
1.933517
 20
-0.131714
 30
0.0
  0
LINE
  5
7BB1E
330
7BE82
100
AcDbEntity
  8
Level 26
 62
   133
370
     0
100
AcDbLine
 10
1.933517
 20
-0.131714
 30
0.0
 11
1.833517
 21
-0.131714
 31
0.0
  0
LINE
  5
7BB1F
330
7BE82
100
AcDbEntity
  8
Level 26
 62
   133
370
     0
100
AcDbLine
 10
2.158517
 20
-0.131714
 30
0.0
 11
2.158517
 21
-0.011714
 31
0.0
  0
LINE
  5
7BB20
330
7BE82
100
AcDbEntity
  8
Level 26
 62
   133
370
     0
100
AcDbLine
 10
2.483517
 20
-0.131714
 30
0.0
 11
2.483517
 21
-0.011714
 31
0.0
  0
LINE
  5
7BB21
330
7BE82
100
AcDbEntity
  8
Level 26
 62
   133
370
     0
100
AcDbLine
 10
2.158517
 20
-0.131714
 30
0.0
 11
2.158517
 21
-0.011714
 31
0.0
  0
LINE
  5
7BB22
330
7BE82
100
AcDbEntity
  8
Level 26
 62
   133
370
     0
100
AcDbLine
 10
1.833517
 20
-0.131714
 30
0.0
 11
1.833517
 21
-0.011714
 31
0.0
  0
ENDBLK
  5
7BE84
330
7BE82
100
AcDbEntity
  8
0
100
AcDbBlockEnd
  0
BLOCK
  5
7BE86
330
7BE85
100
AcDbEntity
  8
0
100
AcDbBlockBegin
  2
Feature Solid_6
 70
     0
 71
     0
 10
0.0
 20
0.0
 30
0.0
  3
Feature Solid_6
  1

  0
INSERT
  5
7BB24
330
7BE85
100
AcDbEntity
  8
Level 26
 62
   133
370
     0
100
AcDbBlockReference
  2
UNITE_2
 10
-215.851704
 20
-22.17087
 30
0.0
 41
100.0
 42
100.0
 43
100.0
  0
ENDBLK
  5
7BE87
330
7BE85
100
AcDbEntity
  8
0
100
AcDbBlockEnd
  0
BLOCK
  5
7BE89
330
7BE88
100
AcDbEntity
  8
0
100
AcDbBlockBegin
  2
UNITE_2
 70
     0
 71
     0
 10
0.0
 20
0.0
 30
0.0
  3
UNITE_2
  1

  0
INSERT
  5
7BB25
330
7BE88
100
AcDbEntity
  8
Level 26
 62
   133
370
     0
100
AcDbBlockReference
  2
Feature Solid_7
 10
0.0
 20
0.0
 30
0.0
  0
INSERT
  5
7BB2C
330
7BE88
100
AcDbEntity
  8
Level 26
 62
   133
370
     0
100
AcDbBlockReference
  2
Feature Solid_8
 10
0.55
 20
0.0
 30
0.0
  0
INSERT
  5
7BB33
330
7BE88
100
AcDbEntity
  8
Level 8
 62
   133
370
     0
100
AcDbBlockReference
  2
Feature Solid_9
 10
0.0
 20
0.0
 30
0.0
  0
ENDBLK
  5
7BE8A
330
7BE88
100
AcDbEntity
  8
0
100
AcDbBlockEnd
  0
BLOCK
  5
7BE8C
330
7BE8B
100
AcDbEntity
  8
0
100
AcDbBlockBegin
  2
Feature Solid_7
 70
     0
 71
     0
 10
0.0
 20
0.0
 30
0.0
  3
Feature Solid_7
  1

  0
INSERT
  5
7BB26
330
7BE8B
100
AcDbEntity
  8
Level 26
 62
   133
370
     0
100
AcDbBlockReference
  2
DDPROJ_3
 10
0.0
 20
0.0
 30
0.0
  0
ENDBLK
  5
7BE8D
330
7BE8B
100
AcDbEntity
  8
0
100
AcDbBlockEnd
  0
BLOCK
  5
7BE8F
330
7BE8E
100
AcDbEntity
  8
0
100
AcDbBlockBegin
  2
DDPROJ_3
 70
     0
 71
     0
 10
0.0
 20
0.0
 30
0.0
  3
DDPROJ_3
  1

  0
POINT
  5
7BB27
330
7BE8E
100
AcDbEntity
  8
Level 26
 62
   133
370
     0
100
AcDbPoint
 10
1.833517
 20
0.011714
 30
0.0
  0
LINE
  5
7BB28
330
7BE8E
100
AcDbEntity
  8
Level 26
 62
   133
370
     0
100
AcDbLine
 10
1.933517
 20
0.131714
 30
0.0
 11
1.933517
 21
0.359125
 31
0.0
  0
LINE
  5
7BB29
330
7BE8E
100
AcDbEntity
  8
Level 26
 62
   133
370
     0
100
AcDbLine
 10
1.833517
 20
0.131714
 30
0.0
 11
1.833517
 21
0.431714
 31
0.0
  0
LINE
  5
7BB2A
330
7BE8E
100
AcDbEntity
  8
Level 26
 62
   133
370
     0
100
AcDbLine
 10
1.833517
 20
0.131714
 30
0.0
 11
1.833517
 21
0.431714
 31
0.0
  0
LINE
  5
7BB2B
330
7BE8E
100
AcDbEntity
  8
Level 26
 62
   133
370
     0
100
AcDbLine
 10
1.933517
 20
0.131714
 30
0.0
 11
1.933517
 21
0.359125
 31
0.0
  0
ENDBLK
  5
7BE90
330
7BE8E
100
AcDbEntity
  8
0
100
AcDbBlockEnd
  0
BLOCK
  5
7BE92
330
7BE91
100
AcDbEntity
  8
0
100
AcDbBlockBegin
  2
Feature Solid_8
 70
     0
 71
     0
 10
0.0
 20
0.0
 30
0.0
  3
Feature Solid_8
  1

  0
INSERT
  5
7BB2D
330
7BE91
100
AcDbEntity
  8
Level 26
 62
   133
370
     0
100
AcDbBlockReference
  2
DDPROJ_4
 10
0.0
 20
0.0
 30
0.0
  0
ENDBLK
  5
7BE93
330
7BE91
100
AcDbEntity
  8
0
100
AcDbBlockEnd
  0
BLOCK
  5
7BE95
330
7BE94
100
AcDbEntity
  8
0
100
AcDbBlockBegin
  2
DDPROJ_4
 70
     0
 71
     0
 10
0.0
 20
0.0
 30
0.0
  3
DDPROJ_4
  1

  0
POINT
  5
7BB2E
330
7BE94
100
AcDbEntity
  8
Level 26
 62
   133
370
     0
100
AcDbPoint
 10
1.933517
 20
0.011714
 30
0.0
  0
LINE
  5
7BB2F
330
7BE94
100
AcDbEntity
  8
Level 26
 62
   133
370
     0
100
AcDbLine
 10
1.933517
 20
0.131714
 30
0.0
 11
1.933517
 21
0.431714
 31
0.0
  0
LINE
  5
7BB30
330
7BE94
100
AcDbEntity
  8
Level 26
 62
   133
370
     0
100
AcDbLine
 10
1.833517
 20
0.131714
 30
0.0
 11
1.833517
 21
0.359125
 31
0.0
  0
LINE
  5
7BB31
330
7BE94
100
AcDbEntity
  8
Level 26
 62
   133
370
     0
100
AcDbLine
 10
1.833517
 20
0.131714
 30
0.0
 11
1.833517
 21
0.359125
 31
0.0
  0
LINE
  5
7BB32
330
7BE94
100
AcDbEntity
  8
Level 26
 62
   133
370
     0
100
AcDbLine
 10
1.933517
 20
0.131714
 30
0.0
 11
1.933517
 21
0.431714
 31
0.0
  0
ENDBLK
  5
7BE96
330
7BE94
100
AcDbEntity
  8
0
100
AcDbBlockEnd
  0
BLOCK
  5
7BE98
330
7BE97
100
AcDbEntity
  8
0
100
AcDbBlockBegin
  2
Feature Solid_9
 70
     0
 71
     0
 10
0.0
 20
0.0
 30
0.0
  3
Feature Solid_9
  1

  0
INSERT
  5
7BB34
330
7BE97
100
AcDbEntity
  8
Level 8
 62
   133
370
     0
100
AcDbBlockReference
  2
UNITE_3
 10
0.0
 20
0.0
 30
0.0
  0
ENDBLK
  5
7BE99
330
7BE97
100
AcDbEntity
  8
0
100
AcDbBlockEnd
  0
BLOCK
  5
7BE9B
330
7BE9A
100
AcDbEntity
  8
0
100
AcDbBlockBegin
  2
UNITE_3
 70
     0
 71
     0
 10
0.0
 20
0.0
 30
0.0
  3
UNITE_3
  1

  0
INSERT
  5
7BB35
330
7BE9A
100
AcDbEntity
  8
Level 8
 62
   133
370
     0
100
AcDbBlockReference
  2
Feature Solid_10
 10
0.0
 20
0.0
 30
0.0
  0
INSERT
  5
7BB4B
330
7BE9A
100
AcDbEntity
  8
Level 26
 62
   133
370
     0
100
AcDbBlockReference
  2
Feature Solid_11
 10
0.0
 20
0.0
 30
0.0
  0
ENDBLK
  5
7BE9C
330
7BE9A
100
AcDbEntity
  8
0
100
AcDbBlockEnd
  0
BLOCK
  5
7BE9E
330
7BE9D
100
AcDbEntity
  8
0
100
AcDbBlockBegin
  2
Feature Solid_10
 70
     0
 71
     0
 10
0.0
 20
0.0
 30
0.0
  3
Feature Solid_10
  1

  0
INSERT
  5
7BB36
330
7BE9D
100
AcDbEntity
  8
Level 8
 62
   133
370
     0
100
AcDbBlockReference
  2
CONE_1
 10
0.0
 20
0.0
 30
0.0
  0
ENDBLK
  5
7BE9F
330
7BE9D
100
AcDbEntity
  8
0
100
AcDbBlockEnd
  0
BLOCK
  5
7BEA1
330
7BEA0
100
AcDbEntity
  8
0
100
AcDbBlockBegin
  2
CONE_1
 70
     0
 71
     0
 10
0.0
 20
0.0
 30
0.0
  3
CONE_1
  1

  0
LINE
  5
7BB37
330
7BEA0
100
AcDbEntity
  8
Level 8
 62
   133
370
     0
100
AcDbLine
 10
1.833517
 20
0.431714
 30
0.0
 11
2.483517
 21
0.431714
 31
0.0
  0
LINE
  5
7BB38
330
7BEA0
100
AcDbEntity
  8
Level 8
 62
   133
370
     0
100
AcDbLine
 10
2.383517
 20
0.131714
 30
0.0
 11
2.383517
 21
0.359125
 31
0.0
  0
LINE
  5
7BB39
330
7BEA0
100
AcDbEntity
  8
Level 8
 62
   133
370
     0
100
AcDbLine
 10
2.383517
 20
0.131714
 30
0.0
 11
2.383517
 21
0.359125
 31
0.0
  0
SPLINE
  5
7BB3A
330
7BEA0
100
AcDbEntity
  8
Level 8
 62
   133
370
     0
100
AcDbSpline
210
0.0
220
0.0
230
1.0
 70
     8
 71
     3
 72
    17
 73
    13
 74
     0
 42
0.0000000001
 43
0.00000001
 40
0.0
 40
0.0
 40
0.0
 40
0.0
 40
0.1188920175173181
 40
0.1188920175173181
 40
0.1188920175173181
 40
0.4370642450454728
 40
0.4370642450454728
 40
0.4370642450454728
 40
0.7708126268407274
 40
0.7708126268407274
 40
0.7708126268407274
 40
1.0
 40
1.0
 40
1.0
 40
1.0
 10
2.483517035676393
 20
0.4317136962460401
 30
0.0
 10
2.483517035676393
 20
0.4317136962460354
 30
0.0
 10
2.482970961108954
 20
0.4312857853703713
 30
0.0
 10
2.481890266834164
 20
0.4304413967249403
 30
0.0
 10
2.479007999541985
 20
0.4281893687172281
 30
0.0
 10
2.472181370284076
 20
0.4228496497948282
 30
0.0
 10
2.462245290317632
 20
0.4152805637156777
 30
0.0
 10
2.451806866801178
 20
0.4073288034245512
 30
0.0
 10
2.437764099143891
 20
0.3967863239604561
 30
0.0
 10
2.421270187946135
 20
0.3850241073261062
 30
0.0
 10
2.409877803190355
 20
0.3768999155639066
 30
0.0
 10
2.39720582936004
 20
0.3681165556180152
 30
0.0
 10
2.383517035681365
 20
0.3591253483963479
 30
0.0
  0
SPLINE
  5
7BB3D
330
7BEA0
100
AcDbEntity
  8
Level 8
 62
   133
370
     0
100
AcDbSpline
210
0.0
220
0.0
230
1.0
 70
     8
 71
     3
 72
    14
 73
    10
 74
     0
 42
0.0000000001
 43
0.00000001
 40
0.0
 40
0.0
 40
0.0
 40
0.0
 40
0.4155111778321488
 40
0.4155111778321488
 40
0.4155111778321488
 40
0.7657511632294429
 40
0.7657511632294429
 40
0.7657511632294429
 40
1.0
 40
1.0
 40
1.0
 40
1.0
 10
2.38351703567637
 20
0.3591253483958543
 30
0.0
 10
2.408183961970714
 20
0.3753273199526827
 30
0.0
 10
2.429723842876854
 20
0.3909352251375095
 30
0.0
 10
2.446330563598316
 20
0.4032945372283598
 30
0.0
 10
2.460337575068309
 20
0.4137190532494011
 30
0.0
 10
2.471094914404418
 20
0.422043984659398
 30
0.0
 10
2.477256738635809
 20
0.4268312321213167
 30
0.0
 10
2.481375118370785
 20
0.4300308856967977
 30
0.0
 10
2.483517035676393
 20
0.4317136962460401
 30
0.0
 10
2.483517035676393
 20
0.4317136962460401
 30
0.0
  0
LINE
  5
7BB40
330
7BEA0
100
AcDbEntity
  8
Level 8
 62
   133
370
     0
100
AcDbLine
 10
1.833517
 20
0.431714
 30
0.0
 11
2.483517
 21
0.431714
 31
0.0
  0
SPLINE
  5
7BB41
330
7BEA0
100
AcDbEntity
  8
Level 8
 62
   133
370
     0
100
AcDbSpline
210
0.0
220
0.0
230
1.0
 70
     8
 71
     3
 72
    17
 73
    13
 74
     0
 42
0.0000000001
 43
0.00000001
 40
0.0
 40
0.0
 40
0.0
 40
0.0
 40
0.1188920175167992
 40
0.1188920175167992
 40
0.1188920175167992
 40
0.4370642450447248
 40
0.4370642450447248
 40
0.4370642450447248
 40
0.7708126268396294
 40
0.7708126268396294
 40
0.7708126268396294
 40
1.0
 40
1.0
 40
1.0
 40
1.0
 10
1.833517035676245
 20
0.4317136962460354
 30
0.0
 10
1.833517035676245
 20
0.4317136962460354
 30
0.0
 10
1.834063110243683
 20
0.4312857853703807
 30
0.0
 10
1.835143804518474
 20
0.4304413967249543
 30
0.0
 10
1.838026071810631
 20
0.4281893687172607
 30
0.0
 10
1.844852701068525
 20
0.4228496497948747
 30
0.0
 10
1.854788781034969
 20
0.4152805637157383
 30
0.0
 10
1.865227204551417
 20
0.4073288034246257
 30
0.0
 10
1.879269972208704
 20
0.3967863239605446
 30
0.0
 10
1.895763883406445
 20
0.3850241073262133
 30
0.0
 10
1.907156268162282
 20
0.3768999155639764
 30
0.0
 10
1.919828241992668
 20
0.3681165556180385
 30
0.0
 10
1.933517035671436
 20
0.3591253483963246
 30
0.0
  0
LINE
  5
7BB44
330
7BEA0
100
AcDbEntity
  8
Level 8
 62
   133
370
     0
100
AcDbLine
 10
1.933517
 20
0.131714
 30
0.0
 11
1.933517
 21
0.359125
 31
0.0
  0
LINE
  5
7BB45
330
7BEA0
100
AcDbEntity
  8
Level 8
 62
   133
370
     0
100
AcDbLine
 10
1.933517
 20
0.131714
 30
0.0
 11
1.933517
 21
0.359125
 31
0.0
  0
SPLINE
  5
7BB46
330
7BEA0
100
AcDbEntity
  8
Level 8
 62
   133
370
     0
100
AcDbSpline
210
0.0
220
0.0
230
1.0
 70
     8
 71
     3
 72
    14
 73
    10
 74
     0
 42
0.0000000001
 43
0.00000001
 40
0.0
 40
0.0
 40
0.0
 40
0.0
 40
0.4155111778320348
 40
0.4155111778320348
 40
0.4155111778320348
 40
0.7657511632291136
 40
0.7657511632291136
 40
0.7657511632291136
 40
1.0
 40
1.0
 40
1.0
 40
1.0
 10
1.93351703567641
 20
0.3591253483956587
 30
0.0
 10
1.908850109382065
 20
0.375327319952515
 30
0.0
 10
1.887310228475876
 20
0.3909352251373697
 30
0.0
 10
1.870703507754392
 20
0.4032945372282482
 30
0.0
 10
1.856696496284386
 20
0.4137190532493079
 30
0.0
 10
1.845939156948276
 20
0.4220439846593281
 30
0.0
 10
1.839777332716864
 20
0.4268312321212702
 30
0.0
 10
1.835658952981866
 20
0.4300308856967744
 30
0.0
 10
1.833517035676245
 20
0.4317136962460308
 30
0.0
 10
1.833517035676245
 20
0.4317136962460354
 30
0.0
  0
LINE
  5
7BB49
330
7BEA0
100
AcDbEntity
  8
Level 8
 62
   133
370
     0
100
AcDbLine
 10
2.158517
 20
0.131714
 30
0.0
 11
2.158517
 21
0.431714
 31
0.0
  0
LINE
  5
7BB4A
330
7BEA0
100
AcDbEntity
  8
Level 8
 62
   133
370
     0
100
AcDbLine
 10
2.158517
 20
0.131714
 30
0.0
 11
2.158517
 21
0.431714
 31
0.0
  0
ENDBLK
  5
7BEA2
330
7BEA0
100
AcDbEntity
  8
0
100
AcDbBlockEnd
  0
BLOCK
  5
7BEA4
330
7BEA3
100
AcDbEntity
  8
0
100
AcDbBlockBegin
  2
Feature Solid_11
 70
     0
 71
     0
 10
0.0
 20
0.0
 30
0.0
  3
Feature Solid_11
  1

  0
INSERT
  5
7BB4C
330
7BEA3
100
AcDbEntity
  8
Level 26
 62
   133
370
     0
100
AcDbBlockReference
  2
DDPROJ_5
 10
0.0
 20
0.0
 30
0.0
  0
ENDBLK
  5
7BEA5
330
7BEA3
100
AcDbEntity
  8
0
100
AcDbBlockEnd
  0
BLOCK
  5
7BEA7
330
7BEA6
100
AcDbEntity
  8
0
100
AcDbBlockBegin
  2
DDPROJ_5
 70
     0
 71
     0
 10
0.0
 20
0.0
 30
0.0
  3
DDPROJ_5
  1

  0
LINE
  5
7BB4D
330
7BEA6
100
AcDbEntity
  8
Level 26
 62
   133
370
     0
100
AcDbLine
 10
1.833517
 20
0.011714
 30
0.0
 11
1.833517
 21
0.131714
 31
0.0
  0
LINE
  5
7BB4E
330
7BEA6
100
AcDbEntity
  8
Level 26
 62
   133
370
     0
100
AcDbLine
 10
1.833517
 20
0.131714
 30
0.0
 11
1.833517
 21
0.011714
 31
0.0
  0
LINE
  5
7BB4F
330
7BEA6
100
AcDbEntity
  8
Level 26
 62
   133
370
     0
100
AcDbLine
 10
2.483517
 20
0.011714
 30
0.0
 11
2.483517
 21
0.131714
 31
0.0
  0
LINE
  5
7BB50
330
7BEA6
100
AcDbEntity
  8
Level 26
 62
   133
370
     0
100
AcDbLine
 10
2.483517
 20
0.131714
 30
0.0
 11
2.483517
 21
0.011714
 31
0.0
  0
LINE
  5
7BB51
330
7BEA6
100
AcDbEntity
  8
Level 26
 62
   133
370
     0
100
AcDbLine
 10
1.933517
 20
0.131714
 30
0.0
 11
2.383517
 21
0.131714
 31
0.0
  0
LINE
  5
7BB52
330
7BEA6
100
AcDbEntity
  8
Level 26
 62
   133
370
     0
100
AcDbLine
 10
1.933517
 20
0.131714
 30
0.0
 11
2.383517
 21
0.131714
 31
0.0
  0
LINE
  5
7BB53
330
7BEA6
100
AcDbEntity
  8
Level 26
 62
   133
370
     0
100
AcDbLine
 10
1.833517
 20
0.011714
 30
0.0
 11
2.483517
 21
0.011714
 31
0.0
  0
POINT
  5
7BB54
330
7BEA6
100
AcDbEntity
  8
Level 26
 62
   133
370
     0
100
AcDbPoint
 10
2.483517
 20
0.131714
 30
0.0
  0
LINE
  5
7BB55
330
7BEA6
100
AcDbEntity
  8
Level 26
 62
   133
370
     0
100
AcDbLine
 10
1.833517
 20
0.011714
 30
0.0
 11
2.483517
 21
0.011714
 31
0.0
  0
LINE
  5
7BB56
330
7BEA6
100
AcDbEntity
  8
Level 26
 62
   133
370
     0
100
AcDbLine
 10
1.833517
 20
0.131714
 30
0.0
 11
2.483517
 21
0.131714
 31
0.0
  0
POINT
  5
7BB57
330
7BEA6
100
AcDbEntity
  8
Level 26
 62
   133
370
     0
100
AcDbPoint
 10
1.833517
 20
0.131714
 30
0.0
  0
POINT
  5
7BB58
330
7BEA6
100
AcDbEntity
  8
Level 26
 62
   133
370
     0
100
AcDbPoint
 10
2.483517
 20
0.131714
 30
0.0
  0
LINE
  5
7BB59
330
7BEA6
100
AcDbEntity
  8
Level 26
 62
   133
370
     0
100
AcDbLine
 10
1.833517
 20
0.131714
 30
0.0
 11
2.483517
 21
0.131714
 31
0.0
  0
POINT
  5
7BB5A
330
7BEA6
100
AcDbEntity
  8
Level 26
 62
   133
370
     0
100
AcDbPoint
 10
1.833517
 20
0.131714
 30
0.0
  0
POINT
  5
7BB5B
330
7BEA6
100
AcDbEntity
  8
Level 26
 62
   133
370
     0
100
AcDbPoint
 10
2.383517
 20
0.131714
 30
0.0
  0
POINT
  5
7BB5C
330
7BEA6
100
AcDbEntity
  8
Level 26
 62
   133
370
     0
100
AcDbPoint
 10
2.383517
 20
0.131714
 30
0.0
  0
LINE
  5
7BB5D
330
7BEA6
100
AcDbEntity
  8
Level 26
 62
   133
370
     0
100
AcDbLine
 10
2.483517
 20
0.131714
 30
0.0
 11
2.383517
 21
0.131714
 31
0.0
  0
LINE
  5
7BB5E
330
7BEA6
100
AcDbEntity
  8
Level 26
 62
   133
370
     0
100
AcDbLine
 10
2.483517
 20
0.131714
 30
0.0
 11
2.383517
 21
0.131714
 31
0.0
  0
POINT
  5
7BB5F
330
7BEA6
100
AcDbEntity
  8
Level 26
 62
   133
370
     0
100
AcDbPoint
 10
1.933517
 20
0.131714
 30
0.0
  0
LINE
  5
7BB60
330
7BEA6
100
AcDbEntity
  8
Level 26
 62
   133
370
     0
100
AcDbLine
 10
1.933517
 20
0.131714
 30
0.0
 11
1.833517
 21
0.131714
 31
0.0
  0
POINT
  5
7BB61
330
7BEA6
100
AcDbEntity
  8
Level 26
 62
   133
370
     0
100
AcDbPoint
 10
1.933517
 20
0.131714
 30
0.0
  0
LINE
  5
7BB62
330
7BEA6
100
AcDbEntity
  8
Level 26
 62
   133
370
     0
100
AcDbLine
 10
1.933517
 20
0.131714
 30
0.0
 11
1.833517
 21
0.131714
 31
0.0
  0
LINE
  5
7BB63
330
7BEA6
100
AcDbEntity
  8
Level 26
 62
   133
370
     0
100
AcDbLine
 10
2.158517
 20
0.131714
 30
0.0
 11
2.158517
 21
0.011714
 31
0.0
  0
LINE
  5
7BB64
330
7BEA6
100
AcDbEntity
  8
Level 26
 62
   133
370
     0
100
AcDbLine
 10
2.483517
 20
0.131714
 30
0.0
 11
2.483517
 21
0.011714
 31
0.0
  0
LINE
  5
7BB65
330
7BEA6
100
AcDbEntity
  8
Level 26
 62
   133
370
     0
100
AcDbLine
 10
2.158517
 20
0.131714
 30
0.0
 11
2.158517
 21
0.011714
 31
0.0
  0
LINE
  5
7BB66
330
7BEA6
100
AcDbEntity
  8
Level 26
 62
   133
370
     0
100
AcDbLine
 10
1.833517
 20
0.131714
 30
0.0
 11
1.833517
 21
0.011714
 31
0.0
  0
ENDBLK
  5
7BEA8
330
7BEA6
100
AcDbEntity
  8
0
100
AcDbBlockEnd
  0
BLOCK
  5
7BEAA
330
7BEA9
100
AcDbEntity
  8
0
100
AcDbBlockBegin
  2
Feature Solid_12
 70
     0
 71
     0
 10
0.0
 20
0.0
 30
0.0
  3
Feature Solid_12
  1

  0
INSERT
  5
7BB68
330
7BEA9
100
AcDbEntity
  8
Level 26
 62
   133
370
     0
100
AcDbBlockReference
  2
UNITE_4
 10
-215.851704
 20
22.17087
 30
0.0
 41
100.0
 42
100.0
 43
100.0
  0
ENDBLK
  5
7BEAB
330
7BEA9
100
AcDbEntity
  8
0
100
AcDbBlockEnd
  0
BLOCK
  5
7BEAD
330
7BEAC
100
AcDbEntity
  8
0
100
AcDbBlockBegin
  2
UNITE_4
 70
     0
 71
     0
 10
0.0
 20
0.0
 30
0.0
  3
UNITE_4
  1

  0
INSERT
  5
7BB69
330
7BEAC
100
AcDbEntity
  8
Level 26
 62
   133
370
     0
100
AcDbBlockReference
  2
Feature Solid_13
 10
0.0
 20
0.0
 30
0.0
  0
INSERT
  5
7BB70
330
7BEAC
100
AcDbEntity
  8
Level 26
 62
   133
370
     0
100
AcDbBlockReference
  2
Feature Solid_14
 10
0.55
 20
0.0
 30
0.0
  0
INSERT
  5
7BB77
330
7BEAC
100
AcDbEntity
  8
Level 8
 62
   133
370
     0
100
AcDbBlockReference
  2
Feature Solid_15
 10
0.0
 20
0.0
 30
0.0
  0
ENDBLK
  5
7BEAE
330
7BEAC
100
AcDbEntity
  8
0
100
AcDbBlockEnd
  0
BLOCK
  5
7BEB0
330
7BEAF
100
AcDbEntity
  8
0
100
AcDbBlockBegin
  2
Feature Solid_13
 70
     0
 71
     0
 10
0.0
 20
0.0
 30
0.0
  3
Feature Solid_13
  1

  0
INSERT
  5
7BB6A
330
7BEAF
100
AcDbEntity
  8
Level 26
 62
   133
370
     0
100
AcDbBlockReference
  2
DDPROJ_6
 10
0.0
 20
0.0
 30
0.0
  0
ENDBLK
  5
7BEB1
330
7BEAF
100
AcDbEntity
  8
0
100
AcDbBlockEnd
  0
BLOCK
  5
7BEB3
330
7BEB2
100
AcDbEntity
  8
0
100
AcDbBlockBegin
  2
DDPROJ_6
 70
     0
 71
     0
 10
0.0
 20
0.0
 30
0.0
  3
DDPROJ_6
  1

  0
POINT
  5
7BB6B
330
7BEB2
100
AcDbEntity
  8
Level 26
 62
   133
370
     0
100
AcDbPoint
 10
1.833517
 20
-0.011714
 30
0.0
  0
LINE
  5
7BB6C
330
7BEB2
100
AcDbEntity
  8
Level 26
 62
   133
370
     0
100
AcDbLine
 10
1.933517
 20
-0.131714
 30
0.0
 11
1.933517
 21
-0.359125
 31
0.0
  0
LINE
  5
7BB6D
330
7BEB2
100
AcDbEntity
  8
Level 26
 62
   133
370
     0
100
AcDbLine
 10
1.833517
 20
-0.131714
 30
0.0
 11
1.833517
 21
-0.431714
 31
0.0
  0
LINE
  5
7BB6E
330
7BEB2
100
AcDbEntity
  8
Level 26
 62
   133
370
     0
100
AcDbLine
 10
1.833517
 20
-0.131714
 30
0.0
 11
1.833517
 21
-0.431714
 31
0.0
  0
LINE
  5
7BB6F
330
7BEB2
100
AcDbEntity
  8
Level 26
 62
   133
370
     0
100
AcDbLine
 10
1.933517
 20
-0.131714
 30
0.0
 11
1.933517
 21
-0.359125
 31
0.0
  0
ENDBLK
  5
7BEB4
330
7BEB2
100
AcDbEntity
  8
0
100
AcDbBlockEnd
  0
BLOCK
  5
7BEB6
330
7BEB5
100
AcDbEntity
  8
0
100
AcDbBlockBegin
  2
Feature Solid_14
 70
     0
 71
     0
 10
0.0
 20
0.0
 30
0.0
  3
Feature Solid_14
  1

  0
INSERT
  5
7BB71
330
7BEB5
100
AcDbEntity
  8
Level 26
 62
   133
370
     0
100
AcDbBlockReference
  2
DDPROJ_7
 10
0.0
 20
0.0
 30
0.0
  0
ENDBLK
  5
7BEB7
330
7BEB5
100
AcDbEntity
  8
0
100
AcDbBlockEnd
  0
BLOCK
  5
7BEB9
330
7BEB8
100
AcDbEntity
  8
0
100
AcDbBlockBegin
  2
DDPROJ_7
 70
     0
 71
     0
 10
0.0
 20
0.0
 30
0.0
  3
DDPROJ_7
  1

  0
POINT
  5
7BB72
330
7BEB8
100
AcDbEntity
  8
Level 26
 62
   133
370
     0
100
AcDbPoint
 10
1.933517
 20
-0.011714
 30
0.0
  0
LINE
  5
7BB73
330
7BEB8
100
AcDbEntity
  8
Level 26
 62
   133
370
     0
100
AcDbLine
 10
1.933517
 20
-0.131714
 30
0.0
 11
1.933517
 21
-0.431714
 31
0.0
  0
LINE
  5
7BB74
330
7BEB8
100
AcDbEntity
  8
Level 26
 62
   133
370
     0
100
AcDbLine
 10
1.833517
 20
-0.131714
 30
0.0
 11
1.833517
 21
-0.359125
 31
0.0
  0
LINE
  5
7BB75
330
7BEB8
100
AcDbEntity
  8
Level 26
 62
   133
370
     0
100
AcDbLine
 10
1.833517
 20
-0.131714
 30
0.0
 11
1.833517
 21
-0.359125
 31
0.0
  0
LINE
  5
7BB76
330
7BEB8
100
AcDbEntity
  8
Level 26
 62
   133
370
     0
100
AcDbLine
 10
1.933517
 20
-0.131714
 30
0.0
 11
1.933517
 21
-0.431714
 31
0.0
  0
ENDBLK
  5
7BEBA
330
7BEB8
100
AcDbEntity
  8
0
100
AcDbBlockEnd
  0
BLOCK
  5
7BEBC
330
7BEBB
100
AcDbEntity
  8
0
100
AcDbBlockBegin
  2
Feature Solid_15
 70
     0
 71
     0
 10
0.0
 20
0.0
 30
0.0
  3
Feature Solid_15
  1

  0
INSERT
  5
7BB78
330
7BEBB
100
AcDbEntity
  8
Level 8
 62
   133
370
     0
100
AcDbBlockReference
  2
UNITE_5
 10
0.0
 20
0.0
 30
0.0
  0
ENDBLK
  5
7BEBD
330
7BEBB
100
AcDbEntity
  8
0
100
AcDbBlockEnd
  0
BLOCK
  5
7BEBF
330
7BEBE
100
AcDbEntity
  8
0
100
AcDbBlockBegin
  2
UNITE_5
 70
     0
 71
     0
 10
0.0
 20
0.0
 30
0.0
  3
UNITE_5
  1

  0
INSERT
  5
7BB79
330
7BEBE
100
AcDbEntity
  8
Level 8
 62
   133
370
     0
100
AcDbBlockReference
  2
Feature Solid_16
 10
0.0
 20
0.0
 30
0.0
  0
INSERT
  5
7BB8F
330
7BEBE
100
AcDbEntity
  8
Level 26
 62
   133
370
     0
100
AcDbBlockReference
  2
Feature Solid_17
 10
0.0
 20
0.0
 30
0.0
  0
ENDBLK
  5
7BEC0
330
7BEBE
100
AcDbEntity
  8
0
100
AcDbBlockEnd
  0
BLOCK
  5
7BEC2
330
7BEC1
100
AcDbEntity
  8
0
100
AcDbBlockBegin
  2
Feature Solid_16
 70
     0
 71
     0
 10
0.0
 20
0.0
 30
0.0
  3
Feature Solid_16
  1

  0
INSERT
  5
7BB7A
330
7BEC1
100
AcDbEntity
  8
Level 8
 62
   133
370
     0
100
AcDbBlockReference
  2
CONE_2
 10
0.0
 20
0.0
 30
0.0
  0
ENDBLK
  5
7BEC3
330
7BEC1
100
AcDbEntity
  8
0
100
AcDbBlockEnd
  0
BLOCK
  5
7BEC5
330
7BEC4
100
AcDbEntity
  8
0
100
AcDbBlockBegin
  2
CONE_2
 70
     0
 71
     0
 10
0.0
 20
0.0
 30
0.0
  3
CONE_2
  1

  0
LINE
  5
7BB7B
330
7BEC4
100
AcDbEntity
  8
Level 8
 62
   133
370
     0
100
AcDbLine
 10
1.833517
 20
-0.431714
 30
0.0
 11
2.483517
 21
-0.431714
 31
0.0
  0
LINE
  5
7BB7C
330
7BEC4
100
AcDbEntity
  8
Level 8
 62
   133
370
     0
100
AcDbLine
 10
2.383517
 20
-0.131714
 30
0.0
 11
2.383517
 21
-0.359125
 31
0.0
  0
LINE
  5
7BB7D
330
7BEC4
100
AcDbEntity
  8
Level 8
 62
   133
370
     0
100
AcDbLine
 10
2.383517
 20
-0.131714
 30
0.0
 11
2.383517
 21
-0.359125
 31
0.0
  0
SPLINE
  5
7BB7E
330
7BEC4
100
AcDbEntity
  8
Level 8
 62
   133
370
     0
100
AcDbSpline
210
0.0
220
0.0
230
1.0
 70
     8
 71
     3
 72
    17
 73
    13
 74
     0
 42
0.0000000001
 43
0.00000001
 40
0.0
 40
0.0
 40
0.0
 40
0.0
 40
0.1188920175173181
 40
0.1188920175173181
 40
0.1188920175173181
 40
0.4370642450454728
 40
0.4370642450454728
 40
0.4370642450454728
 40
0.7708126268407274
 40
0.7708126268407274
 40
0.7708126268407274
 40
1.0
 40
1.0
 40
1.0
 40
1.0
 10
2.483517035676389
 20
-0.4317136962460406
 30
0.0
 10
2.483517035676389
 20
-0.4317136962460353
 30
0.0
 10
2.482970961108954
 20
-0.4312857853703722
 30
0.0
 10
2.481890266834164
 20
-0.430441396724941
 30
0.0
 10
2.479007999541985
 20
-0.4281893687172289
 30
0.0
 10
2.472181370284073
 20
-0.4228496497948289
 30
0.0
 10
2.462245290317629
 20
-0.4152805637156778
 30
0.0
 10
2.451806866801174
 20
-0.4073288034245515
 30
0.0
 10
2.437764099143891
 20
-0.3967863239604554
 30
0.0
 10
2.421270187946128
 20
-0.3850241073261067
 30
0.0
 10
2.409877803190351
 20
-0.3768999155639072
 30
0.0
 10
2.397205829360036
 20
-0.3681165556180162
 30
0.0
 10
2.383517035681361
 20
-0.3591253483963488
 30
0.0
  0
SPLINE
  5
7BB81
330
7BEC4
100
AcDbEntity
  8
Level 8
 62
   133
370
     0
100
AcDbSpline
210
0.0
220
0.0
230
1.0
 70
     8
 71
     3
 72
    14
 73
    10
 74
     0
 42
0.0000000001
 43
0.00000001
 40
0.0
 40
0.0
 40
0.0
 40
0.0
 40
0.4155111778321488
 40
0.4155111778321488
 40
0.4155111778321488
 40
0.7657511632294429
 40
0.7657511632294429
 40
0.7657511632294429
 40
1.0
 40
1.0
 40
1.0
 40
1.0
 10
2.38351703567637
 20
-0.359125348395855
 30
0.0
 10
2.408183961970714
 20
-0.3753273199526834
 30
0.0
 10
2.42972384287685
 20
-0.3909352251375093
 30
0.0
 10
2.446330563598313
 20
-0.4032945372283603
 30
0.0
 10
2.460337575068305
 20
-0.4137190532494017
 30
0.0
 10
2.471094914404414
 20
-0.422043984659398
 30
0.0
 10
2.477256738635806
 20
-0.4268312321213177
 30
0.0
 10
2.481375118370782
 20
-0.430030885696798
 30
0.0
 10
2.483517035676389
 20
-0.4317136962460406
 30
0.0
 10
2.483517035676389
 20
-0.4317136962460406
 30
0.0
  0
LINE
  5
7BB84
330
7BEC4
100
AcDbEntity
  8
Level 8
 62
   133
370
     0
100
AcDbLine
 10
1.833517
 20
-0.431714
 30
0.0
 11
2.483517
 21
-0.431714
 31
0.0
  0
SPLINE
  5
7BB85
330
7BEC4
100
AcDbEntity
  8
Level 8
 62
   133
370
     0
100
AcDbSpline
210
0.0
220
0.0
230
1.0
 70
     8
 71
     3
 72
    17
 73
    13
 74
     0
 42
0.0000000001
 43
0.00000001
 40
0.0
 40
0.0
 40
0.0
 40
0.0
 40
0.1188920175167992
 40
0.1188920175167992
 40
0.1188920175167992
 40
0.4370642450447248
 40
0.4370642450447248
 40
0.4370642450447248
 40
0.7708126268396294
 40
0.7708126268396294
 40
0.7708126268396294
 40
1.0
 40
1.0
 40
1.0
 40
1.0
 10
1.833517035676241
 20
-0.4317136962460353
 30
0.0
 10
1.833517035676241
 20
-0.4317136962460353
 30
0.0
 10
1.83406311024368
 20
-0.4312857853703811
 30
0.0
 10
1.83514380451847
 20
-0.4304413967249552
 30
0.0
 10
1.838026071810628
 20
-0.4281893687172609
 30
0.0
 10
1.844852701068522
 20
-0.4228496497948751
 30
0.0
 10
1.854788781034966
 20
-0.4152805637157382
 30
0.0
 10
1.865227204551417
 20
-0.4073288034246261
 30
0.0
 10
1.8792699722087
 20
-0.3967863239605443
 30
0.0
 10
1.895763883406445
 20
-0.3850241073262133
 30
0.0
 10
1.907156268162279
 20
-0.3768999155639765
 30
0.0
 10
1.919828241992668
 20
-0.3681165556180392
 30
0.0
 10
1.933517035671436
 20
-0.3591253483963239
 30
0.0
  0
LINE
  5
7BB88
330
7BEC4
100
AcDbEntity
  8
Level 8
 62
   133
370
     0
100
AcDbLine
 10
1.933517
 20
-0.131714
 30
0.0
 11
1.933517
 21
-0.359125
 31
0.0
  0
LINE
  5
7BB89
330
7BEC4
100
AcDbEntity
  8
Level 8
 62
   133
370
     0
100
AcDbLine
 10
1.933517
 20
-0.131714
 30
0.0
 11
1.933517
 21
-0.359125
 31
0.0
  0
SPLINE
  5
7BB8A
330
7BEC4
100
AcDbEntity
  8
Level 8
 62
   133
370
     0
100
AcDbSpline
210
0.0
220
0.0
230
1.0
 70
     8
 71
     3
 72
    14
 73
    10
 74
     0
 42
0.0000000001
 43
0.00000001
 40
0.0
 40
0.0
 40
0.0
 40
0.0
 40
0.4155111778320348
 40
0.4155111778320348
 40
0.4155111778320348
 40
0.7657511632291136
 40
0.7657511632291136
 40
0.7657511632291136
 40
1.0
 40
1.0
 40
1.0
 40
1.0
 10
1.93351703567641
 20
-0.3591253483956596
 30
0.0
 10
1.908850109382065
 20
-0.3753273199525147
 30
0.0
 10
1.887310228475872
 20
-0.390935225137369
 30
0.0
 10
1.870703507754392
 20
-0.4032945372282484
 30
0.0
 10
1.856696496284382
 20
-0.4137190532493076
 30
0.0
 10
1.845939156948273
 20
-0.4220439846593287
 30
0.0
 10
1.839777332716864
 20
-0.4268312321212697
 30
0.0
 10
1.835658952981866
 20
-0.4300308856967749
 30
0.0
 10
1.833517035676241
 20
-0.4317136962460317
 30
0.0
 10
1.833517035676241
 20
-0.4317136962460353
 30
0.0
  0
LINE
  5
7BB8D
330
7BEC4
100
AcDbEntity
  8
Level 8
 62
   133
370
     0
100
AcDbLine
 10
2.158517
 20
-0.131714
 30
0.0
 11
2.158517
 21
-0.431714
 31
0.0
  0
LINE
  5
7BB8E
330
7BEC4
100
AcDbEntity
  8
Level 8
 62
   133
370
     0
100
AcDbLine
 10
2.158517
 20
-0.131714
 30
0.0
 11
2.158517
 21
-0.431714
 31
0.0
  0
ENDBLK
  5
7BEC6
330
7BEC4
100
AcDbEntity
  8
0
100
AcDbBlockEnd
  0
BLOCK
  5
7BEC8
330
7BEC7
100
AcDbEntity
  8
0
100
AcDbBlockBegin
  2
Feature Solid_17
 70
     0
 71
     0
 10
0.0
 20
0.0
 30
0.0
  3
Feature Solid_17
  1

  0
INSERT
  5
7BB90
330
7BEC7
100
AcDbEntity
  8
Level 26
 62
   133
370
     0
100
AcDbBlockReference
  2
DDPROJ_8
 10
0.0
 20
0.0
 30
0.0
  0
ENDBLK
  5
7BEC9
330
7BEC7
100
AcDbEntity
  8
0
100
AcDbBlockEnd
  0
BLOCK
  5
7BECB
330
7BECA
100
AcDbEntity
  8
0
100
AcDbBlockBegin
  2
DDPROJ_8
 70
     0
 71
     0
 10
0.0
 20
0.0
 30
0.0
  3
DDPROJ_8
  1

  0
LINE
  5
7BB91
330
7BECA
100
AcDbEntity
  8
Level 26
 62
   133
370
     0
100
AcDbLine
 10
1.833517
 20
-0.011714
 30
0.0
 11
1.833517
 21
-0.131714
 31
0.0
  0
LINE
  5
7BB92
330
7BECA
100
AcDbEntity
  8
Level 26
 62
   133
370
     0
100
AcDbLine
 10
1.833517
 20
-0.131714
 30
0.0
 11
1.833517
 21
-0.011714
 31
0.0
  0
LINE
  5
7BB93
330
7BECA
100
AcDbEntity
  8
Level 26
 62
   133
370
     0
100
AcDbLine
 10
2.483517
 20
-0.011714
 30
0.0
 11
2.483517
 21
-0.131714
 31
0.0
  0
LINE
  5
7BB94
330
7BECA
100
AcDbEntity
  8
Level 26
 62
   133
370
     0
100
AcDbLine
 10
2.483517
 20
-0.131714
 30
0.0
 11
2.483517
 21
-0.011714
 31
0.0
  0
LINE
  5
7BB95
330
7BECA
100
AcDbEntity
  8
Level 26
 62
   133
370
     0
100
AcDbLine
 10
1.933517
 20
-0.131714
 30
0.0
 11
2.383517
 21
-0.131714
 31
0.0
  0
LINE
  5
7BB96
330
7BECA
100
AcDbEntity
  8
Level 26
 62
   133
370
     0
100
AcDbLine
 10
1.933517
 20
-0.131714
 30
0.0
 11
2.383517
 21
-0.131714
 31
0.0
  0
LINE
  5
7BB97
330
7BECA
100
AcDbEntity
  8
Level 26
 62
   133
370
     0
100
AcDbLine
 10
1.833517
 20
-0.011714
 30
0.0
 11
2.483517
 21
-0.011714
 31
0.0
  0
POINT
  5
7BB98
330
7BECA
100
AcDbEntity
  8
Level 26
 62
   133
370
     0
100
AcDbPoint
 10
2.483517
 20
-0.131714
 30
0.0
  0
LINE
  5
7BB99
330
7BECA
100
AcDbEntity
  8
Level 26
 62
   133
370
     0
100
AcDbLine
 10
1.833517
 20
-0.011714
 30
0.0
 11
2.483517
 21
-0.011714
 31
0.0
  0
LINE
  5
7BB9A
330
7BECA
100
AcDbEntity
  8
Level 26
 62
   133
370
     0
100
AcDbLine
 10
1.833517
 20
-0.131714
 30
0.0
 11
2.483517
 21
-0.131714
 31
0.0
  0
POINT
  5
7BB9B
330
7BECA
100
AcDbEntity
  8
Level 26
 62
   133
370
     0
100
AcDbPoint
 10
1.833517
 20
-0.131714
 30
0.0
  0
POINT
  5
7BB9C
330
7BECA
100
AcDbEntity
  8
Level 26
 62
   133
370
     0
100
AcDbPoint
 10
2.483517
 20
-0.131714
 30
0.0
  0
LINE
  5
7BB9D
330
7BECA
100
AcDbEntity
  8
Level 26
 62
   133
370
     0
100
AcDbLine
 10
1.833517
 20
-0.131714
 30
0.0
 11
2.483517
 21
-0.131714
 31
0.0
  0
POINT
  5
7BB9E
330
7BECA
100
AcDbEntity
  8
Level 26
 62
   133
370
     0
100
AcDbPoint
 10
1.833517
 20
-0.131714
 30
0.0
  0
POINT
  5
7BB9F
330
7BECA
100
AcDbEntity
  8
Level 26
 62
   133
370
     0
100
AcDbPoint
 10
2.383517
 20
-0.131714
 30
0.0
  0
POINT
  5
7BBA0
330
7BECA
100
AcDbEntity
  8
Level 26
 62
   133
370
     0
100
AcDbPoint
 10
2.383517
 20
-0.131714
 30
0.0
  0
LINE
  5
7BBA1
330
7BECA
100
AcDbEntity
  8
Level 26
 62
   133
370
     0
100
AcDbLine
 10
2.483517
 20
-0.131714
 30
0.0
 11
2.383517
 21
-0.131714
 31
0.0
  0
LINE
  5
7BBA2
330
7BECA
100
AcDbEntity
  8
Level 26
 62
   133
370
     0
100
AcDbLine
 10
2.483517
 20
-0.131714
 30
0.0
 11
2.383517
 21
-0.131714
 31
0.0
  0
POINT
  5
7BBA3
330
7BECA
100
AcDbEntity
  8
Level 26
 62
   133
370
     0
100
AcDbPoint
 10
1.933517
 20
-0.131714
 30
0.0
  0
LINE
  5
7BBA4
330
7BECA
100
AcDbEntity
  8
Level 26
 62
   133
370
     0
100
AcDbLine
 10
1.933517
 20
-0.131714
 30
0.0
 11
1.833517
 21
-0.131714
 31
0.0
  0
POINT
  5
7BBA5
330
7BECA
100
AcDbEntity
  8
Level 26
 62
   133
370
     0
100
AcDbPoint
 10
1.933517
 20
-0.131714
 30
0.0
  0
LINE
  5
7BBA6
330
7BECA
100
AcDbEntity
  8
Level 26
 62
   133
370
     0
100
AcDbLine
 10
1.933517
 20
-0.131714
 30
0.0
 11
1.833517
 21
-0.131714
 31
0.0
  0
LINE
  5
7BBA7
330
7BECA
100
AcDbEntity
  8
Level 26
 62
   133
370
     0
100
AcDbLine
 10
2.158517
 20
-0.131714
 30
0.0
 11
2.158517
 21
-0.011714
 31
0.0
  0
LINE
  5
7BBA8
330
7BECA
100
AcDbEntity
  8
Level 26
 62
   133
370
     0
100
AcDbLine
 10
2.483517
 20
-0.131714
 30
0.0
 11
2.483517
 21
-0.011714
 31
0.0
  0
LINE
  5
7BBA9
330
7BECA
100
AcDbEntity
  8
Level 26
 62
   133
370
     0
100
AcDbLine
 10
2.158517
 20
-0.131714
 30
0.0
 11
2.158517
 21
-0.011714
 31
0.0
  0
LINE
  5
7BBAA
330
7BECA
100
AcDbEntity
  8
Level 26
 62
   133
370
     0
100
AcDbLine
 10
1.833517
 20
-0.131714
 30
0.0
 11
1.833517
 21
-0.011714
 31
0.0
  0
ENDBLK
  5
7BECC
330
7BECA
100
AcDbEntity
  8
0
100
AcDbBlockEnd
  0
BLOCK
  5
7BECE
330
7BECD
100
AcDbEntity
  8
0
100
AcDbBlockBegin
  2
Feature Solid_18
 70
     0
 71
     0
 10
0.0
 20
0.0
 30
0.0
  3
Feature Solid_18
  1

  0
INSERT
  5
7BBAC
330
7BECD
100
AcDbEntity
  8
Level 26
 62
   133
370
     0
100
AcDbBlockReference
  2
UNITE_6
 10
-215.851704
 20
-22.17087
 30
0.0
 41
100.0
 42
100.0
 43
100.0
  0
ENDBLK
  5
7BECF
330
7BECD
100
AcDbEntity
  8
0
100
AcDbBlockEnd
  0
BLOCK
  5
7BED1
330
7BED0
100
AcDbEntity
  8
0
100
AcDbBlockBegin
  2
UNITE_6
 70
     0
 71
     0
 10
0.0
 20
0.0
 30
0.0
  3
UNITE_6
  1

  0
INSERT
  5
7BBAD
330
7BED0
100
AcDbEntity
  8
Level 26
 62
   133
370
     0
100
AcDbBlockReference
  2
Feature Solid_19
 10
0.0
 20
0.0
 30
0.0
  0
INSERT
  5
7BBB4
330
7BED0
100
AcDbEntity
  8
Level 26
 62
   133
370
     0
100
AcDbBlockReference
  2
Feature Solid_20
 10
0.55
 20
0.0
 30
0.0
  0
INSERT
  5
7BBBB
330
7BED0
100
AcDbEntity
  8
Level 8
 62
   133
370
     0
100
AcDbBlockReference
  2
Feature Solid_21
 10
0.0
 20
0.0
 30
0.0
  0
ENDBLK
  5
7BED2
330
7BED0
100
AcDbEntity
  8
0
100
AcDbBlockEnd
  0
BLOCK
  5
7BED4
330
7BED3
100
AcDbEntity
  8
0
100
AcDbBlockBegin
  2
Feature Solid_19
 70
     0
 71
     0
 10
0.0
 20
0.0
 30
0.0
  3
Feature Solid_19
  1

  0
INSERT
  5
7BBAE
330
7BED3
100
AcDbEntity
  8
Level 26
 62
   133
370
     0
100
AcDbBlockReference
  2
DDPROJ_9
 10
0.0
 20
0.0
 30
0.0
  0
ENDBLK
  5
7BED5
330
7BED3
100
AcDbEntity
  8
0
100
AcDbBlockEnd
  0
BLOCK
  5
7BED7
330
7BED6
100
AcDbEntity
  8
0
100
AcDbBlockBegin
  2
DDPROJ_9
 70
     0
 71
     0
 10
0.0
 20
0.0
 30
0.0
  3
DDPROJ_9
  1

  0
POINT
  5
7BBAF
330
7BED6
100
AcDbEntity
  8
Level 26
 62
   133
370
     0
100
AcDbPoint
 10
1.833517
 20
0.011714
 30
0.0
  0
LINE
  5
7BBB0
330
7BED6
100
AcDbEntity
  8
Level 26
 62
   133
370
     0
100
AcDbLine
 10
1.933517
 20
0.131714
 30
0.0
 11
1.933517
 21
0.359125
 31
0.0
  0
LINE
  5
7BBB1
330
7BED6
100
AcDbEntity
  8
Level 26
 62
   133
370
     0
100
AcDbLine
 10
1.833517
 20
0.131714
 30
0.0
 11
1.833517
 21
0.431714
 31
0.0
  0
LINE
  5
7BBB2
330
7BED6
100
AcDbEntity
  8
Level 26
 62
   133
370
     0
100
AcDbLine
 10
1.833517
 20
0.131714
 30
0.0
 11
1.833517
 21
0.431714
 31
0.0
  0
LINE
  5
7BBB3
330
7BED6
100
AcDbEntity
  8
Level 26
 62
   133
370
     0
100
AcDbLine
 10
1.933517
 20
0.131714
 30
0.0
 11
1.933517
 21
0.359125
 31
0.0
  0
ENDBLK
  5
7BED8
330
7BED6
100
AcDbEntity
  8
0
100
AcDbBlockEnd
  0
BLOCK
  5
7BEDA
330
7BED9
100
AcDbEntity
  8
0
100
AcDbBlockBegin
  2
Feature Solid_20
 70
     0
 71
     0
 10
0.0
 20
0.0
 30
0.0
  3
Feature Solid_20
  1

  0
INSERT
  5
7BBB5
330
7BED9
100
AcDbEntity
  8
Level 26
 62
   133
370
     0
100
AcDbBlockReference
  2
DDPROJ_10
 10
0.0
 20
0.0
 30
0.0
  0
ENDBLK
  5
7BEDB
330
7BED9
100
AcDbEntity
  8
0
100
AcDbBlockEnd
  0
BLOCK
  5
7BEDD
330
7BEDC
100
AcDbEntity
  8
0
100
AcDbBlockBegin
  2
DDPROJ_10
 70
     0
 71
     0
 10
0.0
 20
0.0
 30
0.0
  3
DDPROJ_10
  1

  0
POINT
  5
7BBB6
330
7BEDC
100
AcDbEntity
  8
Level 26
 62
   133
370
     0
100
AcDbPoint
 10
1.933517
 20
0.011714
 30
0.0
  0
LINE
  5
7BBB7
330
7BEDC
100
AcDbEntity
  8
Level 26
 62
   133
370
     0
100
AcDbLine
 10
1.933517
 20
0.131714
 30
0.0
 11
1.933517
 21
0.431714
 31
0.0
  0
LINE
  5
7BBB8
330
7BEDC
100
AcDbEntity
  8
Level 26
 62
   133
370
     0
100
AcDbLine
 10
1.833517
 20
0.131714
 30
0.0
 11
1.833517
 21
0.359125
 31
0.0
  0
LINE
  5
7BBB9
330
7BEDC
100
AcDbEntity
  8
Level 26
 62
   133
370
     0
100
AcDbLine
 10
1.833517
 20
0.131714
 30
0.0
 11
1.833517
 21
0.359125
 31
0.0
  0
LINE
  5
7BBBA
330
7BEDC
100
AcDbEntity
  8
Level 26
 62
   133
370
     0
100
AcDbLine
 10
1.933517
 20
0.131714
 30
0.0
 11
1.933517
 21
0.431714
 31
0.0
  0
ENDBLK
  5
7BEDE
330
7BEDC
100
AcDbEntity
  8
0
100
AcDbBlockEnd
  0
BLOCK
  5
7BEE0
330
7BEDF
100
AcDbEntity
  8
0
100
AcDbBlockBegin
  2
Feature Solid_21
 70
     0
 71
     0
 10
0.0
 20
0.0
 30
0.0
  3
Feature Solid_21
  1

  0
INSERT
  5
7BBBC
330
7BEDF
100
AcDbEntity
  8
Level 8
 62
   133
370
     0
100
AcDbBlockReference
  2
UNITE_7
 10
0.0
 20
0.0
 30
0.0
  0
ENDBLK
  5
7BEE1
330
7BEDF
100
AcDbEntity
  8
0
100
AcDbBlockEnd
  0
BLOCK
  5
7BEE3
330
7BEE2
100
AcDbEntity
  8
0
100
AcDbBlockBegin
  2
UNITE_7
 70
     0
 71
     0
 10
0.0
 20
0.0
 30
0.0
  3
UNITE_7
  1

  0
INSERT
  5
7BBBD
330
7BEE2
100
AcDbEntity
  8
Level 8
 62
   133
370
     0
100
AcDbBlockReference
  2
Feature Solid_22
 10
0.0
 20
0.0
 30
0.0
  0
INSERT
  5
7BBD3
330
7BEE2
100
AcDbEntity
  8
Level 26
 62
   133
370
     0
100
AcDbBlockReference
  2
Feature Solid_23
 10
0.0
 20
0.0
 30
0.0
  0
ENDBLK
  5
7BEE4
330
7BEE2
100
AcDbEntity
  8
0
100
AcDbBlockEnd
  0
BLOCK
  5
7BEE6
330
7BEE5
100
AcDbEntity
  8
0
100
AcDbBlockBegin
  2
Feature Solid_22
 70
     0
 71
     0
 10
0.0
 20
0.0
 30
0.0
  3
Feature Solid_22
  1

  0
INSERT
  5
7BBBE
330
7BEE5
100
AcDbEntity
  8
Level 8
 62
   133
370
     0
100
AcDbBlockReference
  2
CONE_3
 10
0.0
 20
0.0
 30
0.0
  0
ENDBLK
  5
7BEE7
330
7BEE5
100
AcDbEntity
  8
0
100
AcDbBlockEnd
  0
BLOCK
  5
7BEE9
330
7BEE8
100
AcDbEntity
  8
0
100
AcDbBlockBegin
  2
CONE_3
 70
     0
 71
     0
 10
0.0
 20
0.0
 30
0.0
  3
CONE_3
  1

  0
LINE
  5
7BBBF
330
7BEE8
100
AcDbEntity
  8
Level 8
 62
   133
370
     0
100
AcDbLine
 10
1.833517
 20
0.431714
 30
0.0
 11
2.483517
 21
0.431714
 31
0.0
  0
LINE
  5
7BBC0
330
7BEE8
100
AcDbEntity
  8
Level 8
 62
   133
370
     0
100
AcDbLine
 10
2.383517
 20
0.131714
 30
0.0
 11
2.383517
 21
0.359125
 31
0.0
  0
LINE
  5
7BBC1
330
7BEE8
100
AcDbEntity
  8
Level 8
 62
   133
370
     0
100
AcDbLine
 10
2.383517
 20
0.131714
 30
0.0
 11
2.383517
 21
0.359125
 31
0.0
  0
SPLINE
  5
7BBC2
330
7BEE8
100
AcDbEntity
  8
Level 8
 62
   133
370
     0
100
AcDbSpline
210
0.0
220
0.0
230
1.0
 70
     8
 71
     3
 72
    17
 73
    13
 74
     0
 42
0.0000000001
 43
0.00000001
 40
0.0
 40
0.0
 40
0.0
 40
0.0
 40
0.1188920175173181
 40
0.1188920175173181
 40
0.1188920175173181
 40
0.4370642450454728
 40
0.4370642450454728
 40
0.4370642450454728
 40
0.7708126268407274
 40
0.7708126268407274
 40
0.7708126268407274
 40
1.0
 40
1.0
 40
1.0
 40
1.0
 10
2.483517035676389
 20
0.4317136962460401
 30
0.0
 10
2.483517035676389
 20
0.4317136962460354
 30
0.0
 10
2.482970961108954
 20
0.4312857853703713
 30
0.0
 10
2.481890266834164
 20
0.4304413967249403
 30
0.0
 10
2.479007999541985
 20
0.4281893687172281
 30
0.0
 10
2.472181370284073
 20
0.4228496497948282
 30
0.0
 10
2.462245290317629
 20
0.4152805637156777
 30
0.0
 10
2.451806866801174
 20
0.4073288034245511
 30
0.0
 10
2.437764099143891
 20
0.3967863239604561
 30
0.0
 10
2.421270187946128
 20
0.3850241073261062
 30
0.0
 10
2.409877803190351
 20
0.3768999155639066
 30
0.0
 10
2.397205829360036
 20
0.3681165556180152
 30
0.0
 10
2.383517035681361
 20
0.3591253483963479
 30
0.0
  0
SPLINE
  5
7BBC5
330
7BEE8
100
AcDbEntity
  8
Level 8
 62
   133
370
     0
100
AcDbSpline
210
0.0
220
0.0
230
1.0
 70
     8
 71
     3
 72
    14
 73
    10
 74
     0
 42
0.0000000001
 43
0.00000001
 40
0.0
 40
0.0
 40
0.0
 40
0.0
 40
0.4155111778321488
 40
0.4155111778321488
 40
0.4155111778321488
 40
0.7657511632294429
 40
0.7657511632294429
 40
0.7657511632294429
 40
1.0
 40
1.0
 40
1.0
 40
1.0
 10
2.38351703567637
 20
0.3591253483958543
 30
0.0
 10
2.408183961970714
 20
0.3753273199526827
 30
0.0
 10
2.42972384287685
 20
0.3909352251375095
 30
0.0
 10
2.446330563598313
 20
0.4032945372283598
 30
0.0
 10
2.460337575068305
 20
0.4137190532494011
 30
0.0
 10
2.471094914404414
 20
0.422043984659398
 30
0.0
 10
2.477256738635806
 20
0.4268312321213167
 30
0.0
 10
2.481375118370782
 20
0.4300308856967977
 30
0.0
 10
2.483517035676389
 20
0.4317136962460401
 30
0.0
 10
2.483517035676389
 20
0.4317136962460401
 30
0.0
  0
LINE
  5
7BBC8
330
7BEE8
100
AcDbEntity
  8
Level 8
 62
   133
370
     0
100
AcDbLine
 10
1.833517
 20
0.431714
 30
0.0
 11
2.483517
 21
0.431714
 31
0.0
  0
SPLINE
  5
7BBC9
330
7BEE8
100
AcDbEntity
  8
Level 8
 62
   133
370
     0
100
AcDbSpline
210
0.0
220
0.0
230
1.0
 70
     8
 71
     3
 72
    17
 73
    13
 74
     0
 42
0.0000000001
 43
0.00000001
 40
0.0
 40
0.0
 40
0.0
 40
0.0
 40
0.1188920175167992
 40
0.1188920175167992
 40
0.1188920175167992
 40
0.4370642450447248
 40
0.4370642450447248
 40
0.4370642450447248
 40
0.7708126268396294
 40
0.7708126268396294
 40
0.7708126268396294
 40
1.0
 40
1.0
 40
1.0
 40
1.0
 10
1.833517035676241
 20
0.4317136962460354
 30
0.0
 10
1.833517035676241
 20
0.4317136962460354
 30
0.0
 10
1.83406311024368
 20
0.4312857853703807
 30
0.0
 10
1.83514380451847
 20
0.4304413967249543
 30
0.0
 10
1.838026071810628
 20
0.4281893687172607
 30
0.0
 10
1.844852701068522
 20
0.4228496497948747
 30
0.0
 10
1.854788781034966
 20
0.4152805637157383
 30
0.0
 10
1.865227204551417
 20
0.4073288034246257
 30
0.0
 10
1.8792699722087
 20
0.3967863239605446
 30
0.0
 10
1.895763883406445
 20
0.3850241073262133
 30
0.0
 10
1.907156268162279
 20
0.3768999155639764
 30
0.0
 10
1.919828241992668
 20
0.3681165556180384
 30
0.0
 10
1.933517035671436
 20
0.3591253483963246
 30
0.0
  0
LINE
  5
7BBCC
330
7BEE8
100
AcDbEntity
  8
Level 8
 62
   133
370
     0
100
AcDbLine
 10
1.933517
 20
0.131714
 30
0.0
 11
1.933517
 21
0.359125
 31
0.0
  0
LINE
  5
7BBCD
330
7BEE8
100
AcDbEntity
  8
Level 8
 62
   133
370
     0
100
AcDbLine
 10
1.933517
 20
0.131714
 30
0.0
 11
1.933517
 21
0.359125
 31
0.0
  0
SPLINE
  5
7BBCE
330
7BEE8
100
AcDbEntity
  8
Level 8
 62
   133
370
     0
100
AcDbSpline
210
0.0
220
0.0
230
1.0
 70
     8
 71
     3
 72
    14
 73
    10
 74
     0
 42
0.0000000001
 43
0.00000001
 40
0.0
 40
0.0
 40
0.0
 40
0.0
 40
0.4155111778320348
 40
0.4155111778320348
 40
0.4155111778320348
 40
0.7657511632291136
 40
0.7657511632291136
 40
0.7657511632291136
 40
1.0
 40
1.0
 40
1.0
 40
1.0
 10
1.93351703567641
 20
0.3591253483956587
 30
0.0
 10
1.908850109382065
 20
0.375327319952515
 30
0.0
 10
1.887310228475872
 20
0.3909352251373697
 30
0.0
 10
1.870703507754392
 20
0.4032945372282481
 30
0.0
 10
1.856696496284382
 20
0.4137190532493079
 30
0.0
 10
1.845939156948273
 20
0.4220439846593281
 30
0.0
 10
1.839777332716864
 20
0.4268312321212702
 30
0.0
 10
1.835658952981866
 20
0.4300308856967744
 30
0.0
 10
1.833517035676241
 20
0.4317136962460307
 30
0.0
 10
1.833517035676241
 20
0.4317136962460354
 30
0.0
  0
LINE
  5
7BBD1
330
7BEE8
100
AcDbEntity
  8
Level 8
 62
   133
370
     0
100
AcDbLine
 10
2.158517
 20
0.131714
 30
0.0
 11
2.158517
 21
0.431714
 31
0.0
  0
LINE
  5
7BBD2
330
7BEE8
100
AcDbEntity
  8
Level 8
 62
   133
370
     0
100
AcDbLine
 10
2.158517
 20
0.131714
 30
0.0
 11
2.158517
 21
0.431714
 31
0.0
  0
ENDBLK
  5
7BEEA
330
7BEE8
100
AcDbEntity
  8
0
100
AcDbBlockEnd
  0
BLOCK
  5
7BEEC
330
7BEEB
100
AcDbEntity
  8
0
100
AcDbBlockBegin
  2
Feature Solid_23
 70
     0
 71
     0
 10
0.0
 20
0.0
 30
0.0
  3
Feature Solid_23
  1

  0
INSERT
  5
7BBD4
330
7BEEB
100
AcDbEntity
  8
Level 26
 62
   133
370
     0
100
AcDbBlockReference
  2
DDPROJ_11
 10
0.0
 20
0.0
 30
0.0
  0
ENDBLK
  5
7BEED
330
7BEEB
100
AcDbEntity
  8
0
100
AcDbBlockEnd
  0
BLOCK
  5
7BEEF
330
7BEEE
100
AcDbEntity
  8
0
100
AcDbBlockBegin
  2
DDPROJ_11
 70
     0
 71
     0
 10
0.0
 20
0.0
 30
0.0
  3
DDPROJ_11
  1

  0
LINE
  5
7BBD5
330
7BEEE
100
AcDbEntity
  8
Level 26
 62
   133
370
     0
100
AcDbLine
 10
1.833517
 20
0.011714
 30
0.0
 11
1.833517
 21
0.131714
 31
0.0
  0
LINE
  5
7BBD6
330
7BEEE
100
AcDbEntity
  8
Level 26
 62
   133
370
     0
100
AcDbLine
 10
1.833517
 20
0.131714
 30
0.0
 11
1.833517
 21
0.011714
 31
0.0
  0
LINE
  5
7BBD7
330
7BEEE
100
AcDbEntity
  8
Level 26
 62
   133
370
     0
100
AcDbLine
 10
2.483517
 20
0.011714
 30
0.0
 11
2.483517
 21
0.131714
 31
0.0
  0
LINE
  5
7BBD8
330
7BEEE
100
AcDbEntity
  8
Level 26
 62
   133
370
     0
100
AcDbLine
 10
2.483517
 20
0.131714
 30
0.0
 11
2.483517
 21
0.011714
 31
0.0
  0
LINE
  5
7BBD9
330
7BEEE
100
AcDbEntity
  8
Level 26
 62
   133
370
     0
100
AcDbLine
 10
1.933517
 20
0.131714
 30
0.0
 11
2.383517
 21
0.131714
 31
0.0
  0
LINE
  5
7BBDA
330
7BEEE
100
AcDbEntity
  8
Level 26
 62
   133
370
     0
100
AcDbLine
 10
1.933517
 20
0.131714
 30
0.0
 11
2.383517
 21
0.131714
 31
0.0
  0
LINE
  5
7BBDB
330
7BEEE
100
AcDbEntity
  8
Level 26
 62
   133
370
     0
100
AcDbLine
 10
1.833517
 20
0.011714
 30
0.0
 11
2.483517
 21
0.011714
 31
0.0
  0
POINT
  5
7BBDC
330
7BEEE
100
AcDbEntity
  8
Level 26
 62
   133
370
     0
100
AcDbPoint
 10
2.483517
 20
0.131714
 30
0.0
  0
LINE
  5
7BBDD
330
7BEEE
100
AcDbEntity
  8
Level 26
 62
   133
370
     0
100
AcDbLine
 10
1.833517
 20
0.011714
 30
0.0
 11
2.483517
 21
0.011714
 31
0.0
  0
LINE
  5
7BBDE
330
7BEEE
100
AcDbEntity
  8
Level 26
 62
   133
370
     0
100
AcDbLine
 10
1.833517
 20
0.131714
 30
0.0
 11
2.483517
 21
0.131714
 31
0.0
  0
POINT
  5
7BBDF
330
7BEEE
100
AcDbEntity
  8
Level 26
 62
   133
370
     0
100
AcDbPoint
 10
1.833517
 20
0.131714
 30
0.0
  0
POINT
  5
7BBE0
330
7BEEE
100
AcDbEntity
  8
Level 26
 62
   133
370
     0
100
AcDbPoint
 10
2.483517
 20
0.131714
 30
0.0
  0
LINE
  5
7BBE1
330
7BEEE
100
AcDbEntity
  8
Level 26
 62
   133
370
     0
100
AcDbLine
 10
1.833517
 20
0.131714
 30
0.0
 11
2.483517
 21
0.131714
 31
0.0
  0
POINT
  5
7BBE2
330
7BEEE
100
AcDbEntity
  8
Level 26
 62
   133
370
     0
100
AcDbPoint
 10
1.833517
 20
0.131714
 30
0.0
  0
POINT
  5
7BBE3
330
7BEEE
100
AcDbEntity
  8
Level 26
 62
   133
370
     0
100
AcDbPoint
 10
2.383517
 20
0.131714
 30
0.0
  0
POINT
  5
7BBE4
330
7BEEE
100
AcDbEntity
  8
Level 26
 62
   133
370
     0
100
AcDbPoint
 10
2.383517
 20
0.131714
 30
0.0
  0
LINE
  5
7BBE5
330
7BEEE
100
AcDbEntity
  8
Level 26
 62
   133
370
     0
100
AcDbLine
 10
2.483517
 20
0.131714
 30
0.0
 11
2.383517
 21
0.131714
 31
0.0
  0
LINE
  5
7BBE6
330
7BEEE
100
AcDbEntity
  8
Level 26
 62
   133
370
     0
100
AcDbLine
 10
2.483517
 20
0.131714
 30
0.0
 11
2.383517
 21
0.131714
 31
0.0
  0
POINT
  5
7BBE7
330
7BEEE
100
AcDbEntity
  8
Level 26
 62
   133
370
     0
100
AcDbPoint
 10
1.933517
 20
0.131714
 30
0.0
  0
LINE
  5
7BBE8
330
7BEEE
100
AcDbEntity
  8
Level 26
 62
   133
370
     0
100
AcDbLine
 10
1.933517
 20
0.131714
 30
0.0
 11
1.833517
 21
0.131714
 31
0.0
  0
POINT
  5
7BBE9
330
7BEEE
100
AcDbEntity
  8
Level 26
 62
   133
370
     0
100
AcDbPoint
 10
1.933517
 20
0.131714
 30
0.0
  0
LINE
  5
7BBEA
330
7BEEE
100
AcDbEntity
  8
Level 26
 62
   133
370
     0
100
AcDbLine
 10
1.933517
 20
0.131714
 30
0.0
 11
1.833517
 21
0.131714
 31
0.0
  0
LINE
  5
7BBEB
330
7BEEE
100
AcDbEntity
  8
Level 26
 62
   133
370
     0
100
AcDbLine
 10
2.158517
 20
0.131714
 30
0.0
 11
2.158517
 21
0.011714
 31
0.0
  0
LINE
  5
7BBEC
330
7BEEE
100
AcDbEntity
  8
Level 26
 62
   133
370
     0
100
AcDbLine
 10
2.483517
 20
0.131714
 30
0.0
 11
2.483517
 21
0.011714
 31
0.0
  0
LINE
  5
7BBED
330
7BEEE
100
AcDbEntity
  8
Level 26
 62
   133
370
     0
100
AcDbLine
 10
2.158517
 20
0.131714
 30
0.0
 11
2.158517
 21
0.011714
 31
0.0
  0
LINE
  5
7BBEE
330
7BEEE
100
AcDbEntity
  8
Level 26
 62
   133
370
     0
100
AcDbLine
 10
1.833517
 20
0.131714
 30
0.0
 11
1.833517
 21
0.011714
 31
0.0
  0
ENDBLK
  5
7BEF0
330
7BEEE
100
AcDbEntity
  8
0
100
AcDbBlockEnd
  0
BLOCK
  5
7BEF2
330
7BEF1
100
AcDbEntity
  8
0
100
AcDbBlockBegin
  2
From Solid
 70
     0
 71
     0
 10
0.0
 20
0.0
 30
0.0
  3
From Solid
  1

  0
ELLIPSE
  5
7BBF0
330
7BEF1
100
AcDbEntity
  8
Level 26
  6
Continuous
 62
   254
370
    13
100
AcDbEllipse
 10
4687.636555
 20
485.626249
 30
0.0
 11
-5.000000000000003
 21
0.0
 31
0.0
210
0.0
220
0.0
230
1.0
 40
0.866025
 41
0.0
 42
6.283185307179586
  0
ELLIPSE
  5
7BBF1
330
7BEF1
100
AcDbEntity
  8
Level 26
  6
Continuous
 62
   254
370
    13
100
AcDbEllipse
 10
4687.636555
 20
414.286503
 30
0.0
 11
-5.000000000000004
 21
0.0
 31
0.0
210
0.0
220
0.0
230
1.0
 40
0.866025
 41
0.0
 42
6.283185307179586
  0
LINE
  5
7BBF2
330
7BEF1
100
AcDbEntity
  8
Level 26
  6
Continuous
 62
   254
370
    13
100
AcDbLine
 10
4682.636555
 20
485.626249
 30
0.0
 11
4682.636555
 21
414.286503
 31
0.0
  0
LINE
  5
7BBF3
330
7BEF1
100
AcDbEntity
  8
Level 26
  6
Continuous
 62
   254
370
    13
100
AcDbLine
 10
4687.636555
 20
489.956376
 30
0.0
 11
4687.636555
 21
418.61663
 31
0.0
  0
LINE
  5
7BBF4
330
7BEF1
100
AcDbEntity
  8
Level 26
  6
Continuous
 62
   254
370
    13
100
AcDbLine
 10
4692.636555
 20
485.626249
 30
0.0
 11
4692.636555
 21
414.286503
 31
0.0
  0
LINE
  5
7BBF5
330
7BEF1
100
AcDbEntity
  8
Level 26
  6
Continuous
 62
   254
370
    13
100
AcDbLine
 10
4687.636555
 20
481.296121
 30
0.0
 11
4687.636555
 21
409.956375
 31
0.0
  0
ENDBLK
  5
7BEF3
330
7BEF1
100
AcDbEntity
  8
0
100
AcDbBlockEnd
  0
BLOCK
  5
7BEF5
330
7BEF4
100
AcDbEntity
  8
0
100
AcDbBlockBegin
  2
From Solid_1
 70
     0
 71
     0
 10
0.0
 20
0.0
 30
0.0
  3
From Solid_1
  1

  0
LINE
  5
7BBF7
330
7BEF4
100
AcDbEntity
  8
Level 26
  6
Continuous
 62
   254
370
    13
100
AcDbLine
 10
4692.636555
 20
351.607011
 30
0.0
 11
4682.636555
 21
351.607011
 31
0.0
  0
LINE
  5
7BBF8
330
7BEF4
100
AcDbEntity
  8
Level 26
  6
Continuous
 62
   254
370
    13
100
AcDbLine
 10
4692.636555
 20
476.965995
 30
0.0
 11
4682.636555
 21
476.965995
 31
0.0
  0
LINE
  5
7BBF9
330
7BEF4
100
AcDbEntity
  8
Level 26
  6
Continuous
 62
   254
370
    13
100
AcDbLine
 10
4692.636555
 20
351.607011
 30
0.0
 11
4692.636555
 21
476.965994
 31
0.0
  0
LINE
  5
7BBFA
330
7BEF4
100
AcDbEntity
  8
Level 26
  6
Continuous
 62
   254
370
    13
100
AcDbLine
 10
4687.636555
 20
351.607011
 30
0.0
 11
4687.636555
 21
476.965994
 31
0.0
  0
LINE
  5
7BBFB
330
7BEF4
100
AcDbEntity
  8
Level 26
  6
Continuous
 62
   254
370
    13
100
AcDbLine
 10
4682.636555
 20
351.607011
 30
0.0
 11
4682.636555
 21
476.965994
 31
0.0
  0
LINE
  5
7BBFC
330
7BEF4
100
AcDbEntity
  8
Level 26
  6
Continuous
 62
   254
370
    13
100
AcDbLine
 10
4687.636555
 20
351.607011
 30
0.0
 11
4687.636555
 21
476.965994
 31
0.0
  0
ENDBLK
  5
7BEF6
330
7BEF4
100
AcDbEntity
  8
0
100
AcDbBlockEnd
  0
BLOCK
  5
7BEF8
330
7BEF7
100
AcDbEntity
  8
0
100
AcDbBlockBegin
  2
From Solid_2
 70
     0
 71
     0
 10
0.0
 20
0.0
 30
0.0
  3
From Solid_2
  1

  0
ELLIPSE
  5
7BBFE
330
7BEF7
100
AcDbEntity
  8
Level 26
  6
Continuous
 62
   254
370
    13
100
AcDbEllipse
 10
4687.636555
 20
342.946757
 30
0.0
 11
-5.000000000000003
 21
0.0
 31
0.0
210
0.0
220
0.0
230
1.0
 40
0.866025
 41
0.0
 42
6.283185307179586
  0
ELLIPSE
  5
7BBFF
330
7BEF7
100
AcDbEntity
  8
Level 26
  6
Continuous
 62
   254
370
    13
100
AcDbEllipse
 10
4687.636555
 20
414.286503
 30
0.0
 11
-5.000000000000004
 21
0.0
 31
0.0
210
0.0
220
0.0
230
1.0
 40
0.866025
 41
0.0
 42
6.283185307179586
  0
LINE
  5
7BC00
330
7BEF7
100
AcDbEntity
  8
Level 26
  6
Continuous
 62
   254
370
    13
100
AcDbLine
 10
4682.636555
 20
342.946757
 30
0.0
 11
4682.636555
 21
414.286503
 31
0.0
  0
LINE
  5
7BC01
330
7BEF7
100
AcDbEntity
  8
Level 26
  6
Continuous
 62
   254
370
    13
100
AcDbLine
 10
4687.636555
 20
347.276884
 30
0.0
 11
4687.636555
 21
418.61663
 31
0.0
  0
LINE
  5
7BC02
330
7BEF7
100
AcDbEntity
  8
Level 26
  6
Continuous
 62
   254
370
    13
100
AcDbLine
 10
4692.636555
 20
342.946757
 30
0.0
 11
4692.636555
 21
414.286503
 31
0.0
  0
LINE
  5
7BC03
330
7BEF7
100
AcDbEntity
  8
Level 26
  6
Continuous
 62
   254
370
    13
100
AcDbLine
 10
4687.636555
 20
338.616629
 30
0.0
 11
4687.636555
 21
409.956375
 31
0.0
  0
ENDBLK
  5
7BEF9
330
7BEF7
100
AcDbEntity
  8
0
100
AcDbBlockEnd
  0
BLOCK
  5
7BEFB
330
7BEFA
100
AcDbEntity
  8
0
100
AcDbBlockBegin
  2
From Solid_3
 70
     0
 71
     0
 10
0.0
 20
0.0
 30
0.0
  3
From Solid_3
  1

  0
CIRCLE
  5
7BC05
330
7BEFA
100
AcDbEntity
  8
Level 26
  6
Continuous
 62
   254
370
    13
100
AcDbCircle
 10
4687.636555
 20
414.286503
 30
0.0
 40
5.000000000000002
  0
CIRCLE
  5
7BC06
330
7BEFA
100
AcDbEntity
  8
Level 26
  6
Continuous
 62
   254
370
    13
100
AcDbCircle
 10
4687.636555
 20
414.286503
 30
0.0
 40
5.000000000000003
  0
POINT
  5
7BC07
330
7BEFA
100
AcDbEntity
  8
Level 26
  6
Continuous
 62
   254
370
    13
100
AcDbPoint
 10
4682.636555
 20
414.286503
 30
0.0
  0
POINT
  5
7BC08
330
7BEFA
100
AcDbEntity
  8
Level 26
  6
Continuous
 62
   254
370
    13
100
AcDbPoint
 10
4687.636555
 20
419.286503
 30
0.0
  0
POINT
  5
7BC09
330
7BEFA
100
AcDbEntity
  8
Level 26
  6
Continuous
 62
   254
370
    13
100
AcDbPoint
 10
4692.636555
 20
414.286503
 30
0.0
  0
POINT
  5
7BC0A
330
7BEFA
100
AcDbEntity
  8
Level 26
  6
Continuous
 62
   254
370
    13
100
AcDbPoint
 10
4687.636555
 20
409.286503
 30
0.0
  0
ENDBLK
  5
7BEFC
330
7BEFA
100
AcDbEntity
  8
0
100
AcDbBlockEnd
  0
BLOCK
  5
7BEFE
330
7BEFD
100
AcDbEntity
  8
0
100
AcDbBlockBegin
  2
From Solid_4
 70
     0
 71
     0
 10
0.0
 20
0.0
 30
0.0
  3
From Solid_4
  1

  0
ELLIPSE
  5
7BC0C
330
7BEFD
100
AcDbEntity
  8
Level 26
  6
Continuous
 62
   254
370
    13
100
AcDbEllipse
 10
4687.636555
 20
485.626249
 30
0.0
 11
-5.000000000000003
 21
0.0
 31
0.0
210
0.0
220
0.0
230
1.0
 40
0.866025
 41
0.0
 42
6.283185307179586
  0
LINE
  5
7BC0D
330
7BEFD
100
AcDbEntity
  8
Level 26
  6
Continuous
 62
   254
370
    13
100
AcDbLine
 10
4682.636555
 20
476.965995
 30
0.0
 11
4692.636555
 21
476.965995
 31
0.0
  0
LINE
  5
7BC0E
330
7BEFD
100
AcDbEntity
  8
Level 26
  6
Continuous
 62
   254
370
    13
100
AcDbLine
 10
4682.636555
 20
476.965995
 30
0.0
 11
4682.636555
 21
486.965994
 31
0.0
  0
LINE
  5
7BC0F
330
7BEFD
100
AcDbEntity
  8
Level 26
  6
Continuous
 62
   254
370
    13
100
AcDbLine
 10
4687.636555
 20
476.965995
 30
0.0
 11
4687.636555
 21
491.965994
 31
0.0
  0
LINE
  5
7BC10
330
7BEFD
100
AcDbEntity
  8
Level 26
  6
Continuous
 62
   254
370
    13
100
AcDbLine
 10
4692.636555
 20
476.965995
 30
0.0
 11
4692.636555
 21
486.965994
 31
0.0
  0
LINE
  5
7BC11
330
7BEFD
100
AcDbEntity
  8
Level 26
  6
Continuous
 62
   254
370
    13
100
AcDbLine
 10
4687.636555
 20
476.965995
 30
0.0
 11
4687.636555
 21
481.965994
 31
0.0
  0
ENDBLK
  5
7BEFF
330
7BEFD
100
AcDbEntity
  8
0
100
AcDbBlockEnd
  0
BLOCK
  5
7BF01
330
7BF00
100
AcDbEntity
  8
0
100
AcDbBlockBegin
  2
From Solid_5
 70
     0
 71
     0
 10
0.0
 20
0.0
 30
0.0
  3
From Solid_5
  1

  0
ELLIPSE
  5
7BC13
330
7BF00
100
AcDbEntity
  8
Level 26
  6
Continuous
 62
   254
370
    13
100
AcDbEllipse
 10
4687.636555
 20
342.946757
 30
0.0
 11
5.000000000000003
 21
0.0
 31
0.0
210
0.0
220
0.0
230
1.0
 40
0.866025
 41
0.0
 42
6.283185307179586
  0
LINE
  5
7BC14
330
7BF00
100
AcDbEntity
  8
Level 26
  6
Continuous
 62
   254
370
    13
100
AcDbLine
 10
4692.636555
 20
351.607011
 30
0.0
 11
4682.636555
 21
351.607011
 31
0.0
  0
LINE
  5
7BC15
330
7BF00
100
AcDbEntity
  8
Level 26
  6
Continuous
 62
   254
370
    13
100
AcDbLine
 10
4692.636555
 20
351.607011
 30
0.0
 11
4692.636555
 21
341.607011
 31
0.0
  0
LINE
  5
7BC16
330
7BF00
100
AcDbEntity
  8
Level 26
  6
Continuous
 62
   254
370
    13
100
AcDbLine
 10
4687.636555
 20
351.607011
 30
0.0
 11
4687.636555
 21
336.607011
 31
0.0
  0
LINE
  5
7BC17
330
7BF00
100
AcDbEntity
  8
Level 26
  6
Continuous
 62
   254
370
    13
100
AcDbLine
 10
4682.636555
 20
351.607011
 30
0.0
 11
4682.636555
 21
341.607011
 31
0.0
  0
LINE
  5
7BC18
330
7BF00
100
AcDbEntity
  8
Level 26
  6
Continuous
 62
   254
370
    13
100
AcDbLine
 10
4687.636555
 20
351.607011
 30
0.0
 11
4687.636555
 21
346.607011
 31
0.0
  0
ENDBLK
  5
7BF02
330
7BF00
100
AcDbEntity
  8
0
100
AcDbBlockEnd
  0
BLOCK
  5
7BF04
330
7BF03
100
AcDbEntity
  8
0
100
AcDbBlockBegin
  2
From Solid_6
 70
     0
 71
     0
 10
0.0
 20
0.0
 30
0.0
  3
From Solid_6
  1

  0
ELLIPSE
  5
7BC1A
330
7BF03
100
AcDbEntity
  8
Level 26
  6
Continuous
 62
   254
370
    13
100
AcDbEllipse
 10
5941.230033
 20
485.626249
 30
0.0
 11
-5.000000000000003
 21
0.0
 31
0.0
210
0.0
220
0.0
230
1.0
 40
0.866025
 41
0.0
 42
6.283185307179586
  0
ELLIPSE
  5
7BC1B
330
7BF03
100
AcDbEntity
  8
Level 26
  6
Continuous
 62
   254
370
    13
100
AcDbEllipse
 10
5941.230033
 20
414.286503
 30
0.0
 11
-5.000000000000004
 21
0.0
 31
0.0
210
0.0
220
0.0
230
1.0
 40
0.866025
 41
0.0
 42
6.283185307179586
  0
LINE
  5
7BC1C
330
7BF03
100
AcDbEntity
  8
Level 26
  6
Continuous
 62
   254
370
    13
100
AcDbLine
 10
5936.230033
 20
485.626249
 30
0.0
 11
5936.230033
 21
414.286503
 31
0.0
  0
LINE
  5
7BC1D
330
7BF03
100
AcDbEntity
  8
Level 26
  6
Continuous
 62
   254
370
    13
100
AcDbLine
 10
5941.230033
 20
489.956376
 30
0.0
 11
5941.230033
 21
418.61663
 31
0.0
  0
LINE
  5
7BC1E
330
7BF03
100
AcDbEntity
  8
Level 26
  6
Continuous
 62
   254
370
    13
100
AcDbLine
 10
5946.230033
 20
485.626249
 30
0.0
 11
5946.230033
 21
414.286503
 31
0.0
  0
LINE
  5
7BC1F
330
7BF03
100
AcDbEntity
  8
Level 26
  6
Continuous
 62
   254
370
    13
100
AcDbLine
 10
5941.230033
 20
481.296121
 30
0.0
 11
5941.230033
 21
409.956375
 31
0.0
  0
ENDBLK
  5
7BF05
330
7BF03
100
AcDbEntity
  8
0
100
AcDbBlockEnd
  0
BLOCK
  5
7BF07
330
7BF06
100
AcDbEntity
  8
0
100
AcDbBlockBegin
  2
From Solid_7
 70
     0
 71
     0
 10
0.0
 20
0.0
 30
0.0
  3
From Solid_7
  1

  0
LINE
  5
7BC21
330
7BF06
100
AcDbEntity
  8
Level 26
  6
Continuous
 62
   254
370
    13
100
AcDbLine
 10
5946.230033
 20
351.607011
 30
0.0
 11
5936.230033
 21
351.607011
 31
0.0
  0
LINE
  5
7BC22
330
7BF06
100
AcDbEntity
  8
Level 26
  6
Continuous
 62
   254
370
    13
100
AcDbLine
 10
5946.230033
 20
476.965995
 30
0.0
 11
5936.230033
 21
476.965995
 31
0.0
  0
LINE
  5
7BC23
330
7BF06
100
AcDbEntity
  8
Level 26
  6
Continuous
 62
   254
370
    13
100
AcDbLine
 10
5946.230033
 20
351.607011
 30
0.0
 11
5946.230033
 21
476.965994
 31
0.0
  0
LINE
  5
7BC24
330
7BF06
100
AcDbEntity
  8
Level 26
  6
Continuous
 62
   254
370
    13
100
AcDbLine
 10
5941.230033
 20
351.607011
 30
0.0
 11
5941.230033
 21
476.965994
 31
0.0
  0
LINE
  5
7BC25
330
7BF06
100
AcDbEntity
  8
Level 26
  6
Continuous
 62
   254
370
    13
100
AcDbLine
 10
5936.230033
 20
351.607011
 30
0.0
 11
5936.230033
 21
476.965994
 31
0.0
  0
LINE
  5
7BC26
330
7BF06
100
AcDbEntity
  8
Level 26
  6
Continuous
 62
   254
370
    13
100
AcDbLine
 10
5941.230033
 20
351.607011
 30
0.0
 11
5941.230033
 21
476.965994
 31
0.0
  0
ENDBLK
  5
7BF08
330
7BF06
100
AcDbEntity
  8
0
100
AcDbBlockEnd
  0
BLOCK
  5
7BF0A
330
7BF09
100
AcDbEntity
  8
0
100
AcDbBlockBegin
  2
From Solid_8
 70
     0
 71
     0
 10
0.0
 20
0.0
 30
0.0
  3
From Solid_8
  1

  0
ELLIPSE
  5
7BC28
330
7BF09
100
AcDbEntity
  8
Level 26
  6
Continuous
 62
   254
370
    13
100
AcDbEllipse
 10
5941.230033
 20
342.946757
 30
0.0
 11
-5.000000000000003
 21
0.0
 31
0.0
210
0.0
220
0.0
230
1.0
 40
0.866025
 41
0.0
 42
6.283185307179586
  0
ELLIPSE
  5
7BC29
330
7BF09
100
AcDbEntity
  8
Level 26
  6
Continuous
 62
   254
370
    13
100
AcDbEllipse
 10
5941.230033
 20
414.286503
 30
0.0
 11
-5.000000000000004
 21
0.0
 31
0.0
210
0.0
220
0.0
230
1.0
 40
0.866025
 41
0.0
 42
6.283185307179586
  0
LINE
  5
7BC2A
330
7BF09
100
AcDbEntity
  8
Level 26
  6
Continuous
 62
   254
370
    13
100
AcDbLine
 10
5936.230033
 20
342.946757
 30
0.0
 11
5936.230033
 21
414.286503
 31
0.0
  0
LINE
  5
7BC2B
330
7BF09
100
AcDbEntity
  8
Level 26
  6
Continuous
 62
   254
370
    13
100
AcDbLine
 10
5941.230033
 20
347.276884
 30
0.0
 11
5941.230033
 21
418.61663
 31
0.0
  0
LINE
  5
7BC2C
330
7BF09
100
AcDbEntity
  8
Level 26
  6
Continuous
 62
   254
370
    13
100
AcDbLine
 10
5946.230033
 20
342.946757
 30
0.0
 11
5946.230033
 21
414.286503
 31
0.0
  0
LINE
  5
7BC2D
330
7BF09
100
AcDbEntity
  8
Level 26
  6
Continuous
 62
   254
370
    13
100
AcDbLine
 10
5941.230033
 20
338.616629
 30
0.0
 11
5941.230033
 21
409.956375
 31
0.0
  0
ENDBLK
  5
7BF0B
330
7BF09
100
AcDbEntity
  8
0
100
AcDbBlockEnd
  0
BLOCK
  5
7BF0D
330
7BF0C
100
AcDbEntity
  8
0
100
AcDbBlockBegin
  2
From Solid_9
 70
     0
 71
     0
 10
0.0
 20
0.0
 30
0.0
  3
From Solid_9
  1

  0
CIRCLE
  5
7BC2F
330
7BF0C
100
AcDbEntity
  8
Level 26
  6
Continuous
 62
   254
370
    13
100
AcDbCircle
 10
5941.230033
 20
414.286503
 30
0.0
 40
5.000000000000002
  0
CIRCLE
  5
7BC30
330
7BF0C
100
AcDbEntity
  8
Level 26
  6
Continuous
 62
   254
370
    13
100
AcDbCircle
 10
5941.230033
 20
414.286503
 30
0.0
 40
5.000000000000003
  0
POINT
  5
7BC31
330
7BF0C
100
AcDbEntity
  8
Level 26
  6
Continuous
 62
   254
370
    13
100
AcDbPoint
 10
5936.230033
 20
414.286503
 30
0.0
  0
POINT
  5
7BC32
330
7BF0C
100
AcDbEntity
  8
Level 26
  6
Continuous
 62
   254
370
    13
100
AcDbPoint
 10
5941.230033
 20
419.286503
 30
0.0
  0
POINT
  5
7BC33
330
7BF0C
100
AcDbEntity
  8
Level 26
  6
Continuous
 62
   254
370
    13
100
AcDbPoint
 10
5946.230033
 20
414.286503
 30
0.0
  0
POINT
  5
7BC34
330
7BF0C
100
AcDbEntity
  8
Level 26
  6
Continuous
 62
   254
370
    13
100
AcDbPoint
 10
5941.230033
 20
409.286503
 30
0.0
  0
ENDBLK
  5
7BF0E
330
7BF0C
100
AcDbEntity
  8
0
100
AcDbBlockEnd
  0
BLOCK
  5
7BF10
330
7BF0F
100
AcDbEntity
  8
0
100
AcDbBlockBegin
  2
From Solid_10
 70
     0
 71
     0
 10
0.0
 20
0.0
 30
0.0
  3
From Solid_10
  1

  0
ELLIPSE
  5
7BC36
330
7BF0F
100
AcDbEntity
  8
Level 26
  6
Continuous
 62
   254
370
    13
100
AcDbEllipse
 10
5941.230033
 20
485.626249
 30
0.0
 11
-5.000000000000003
 21
0.0
 31
0.0
210
0.0
220
0.0
230
1.0
 40
0.866025
 41
0.0
 42
6.283185307179586
  0
LINE
  5
7BC37
330
7BF0F
100
AcDbEntity
  8
Level 26
  6
Continuous
 62
   254
370
    13
100
AcDbLine
 10
5936.230033
 20
476.965995
 30
0.0
 11
5946.230033
 21
476.965995
 31
0.0
  0
LINE
  5
7BC38
330
7BF0F
100
AcDbEntity
  8
Level 26
  6
Continuous
 62
   254
370
    13
100
AcDbLine
 10
5936.230033
 20
476.965995
 30
0.0
 11
5936.230033
 21
486.965994
 31
0.0
  0
LINE
  5
7BC39
330
7BF0F
100
AcDbEntity
  8
Level 26
  6
Continuous
 62
   254
370
    13
100
AcDbLine
 10
5941.230033
 20
476.965995
 30
0.0
 11
5941.230033
 21
491.965994
 31
0.0
  0
LINE
  5
7BC3A
330
7BF0F
100
AcDbEntity
  8
Level 26
  6
Continuous
 62
   254
370
    13
100
AcDbLine
 10
5946.230033
 20
476.965995
 30
0.0
 11
5946.230033
 21
486.965994
 31
0.0
  0
LINE
  5
7BC3B
330
7BF0F
100
AcDbEntity
  8
Level 26
  6
Continuous
 62
   254
370
    13
100
AcDbLine
 10
5941.230033
 20
476.965995
 30
0.0
 11
5941.230033
 21
481.965994
 31
0.0
  0
ENDBLK
  5
7BF11
330
7BF0F
100
AcDbEntity
  8
0
100
AcDbBlockEnd
  0
BLOCK
  5
7BF13
330
7BF12
100
AcDbEntity
  8
0
100
AcDbBlockBegin
  2
From Solid_11
 70
     0
 71
     0
 10
0.0
 20
0.0
 30
0.0
  3
From Solid_11
  1

  0
ELLIPSE
  5
7BC3D
330
7BF12
100
AcDbEntity
  8
Level 26
  6
Continuous
 62
   254
370
    13
100
AcDbEllipse
 10
5941.230033
 20
342.946757
 30
0.0
 11
5.000000000000003
 21
0.0
 31
0.0
210
0.0
220
0.0
230
1.0
 40
0.866025
 41
0.0
 42
6.283185307179586
  0
LINE
  5
7BC3E
330
7BF12
100
AcDbEntity
  8
Level 26
  6
Continuous
 62
   254
370
    13
100
AcDbLine
 10
5946.230033
 20
351.607011
 30
0.0
 11
5936.230033
 21
351.607011
 31
0.0
  0
LINE
  5
7BC3F
330
7BF12
100
AcDbEntity
  8
Level 26
  6
Continuous
 62
   254
370
    13
100
AcDbLine
 10
5946.230033
 20
351.607011
 30
0.0
 11
5946.230033
 21
341.607011
 31
0.0
  0
LINE
  5
7BC40
330
7BF12
100
AcDbEntity
  8
Level 26
  6
Continuous
 62
   254
370
    13
100
AcDbLine
 10
5941.230033
 20
351.607011
 30
0.0
 11
5941.230033
 21
336.607011
 31
0.0
  0
LINE
  5
7BC41
330
7BF12
100
AcDbEntity
  8
Level 26
  6
Continuous
 62
   254
370
    13
100
AcDbLine
 10
5936.230033
 20
351.607011
 30
0.0
 11
5936.230033
 21
341.607011
 31
0.0
  0
LINE
  5
7BC42
330
7BF12
100
AcDbEntity
  8
Level 26
  6
Continuous
 62
   254
370
    13
100
AcDbLine
 10
5941.230033
 20
351.607011
 30
0.0
 11
5941.230033
 21
346.607011
 31
0.0
  0
ENDBLK
  5
7BF14
330
7BF12
100
AcDbEntity
  8
0
100
AcDbBlockEnd
  0
BLOCK
  5
7BF16
330
7BF15
100
AcDbEntity
  8
0
100
AcDbBlockBegin
  2
From Solid_12
 70
     0
 71
     0
 10
0.0
 20
0.0
 30
0.0
  3
From Solid_12
  1

  0
ELLIPSE
  5
7BC44
330
7BF15
100
AcDbEntity
  8
Level 26
  6
Continuous
 62
   254
370
    13
100
AcDbEllipse
 10
4089.416635
 20
464.73132
 30
0.0
 11
-3.535534000000039
 21
3.535533999999952
 31
0.0
210
0.0
220
0.0
230
1.0
 40
0.866025
 41
0.0
 42
6.283185307179586
  0
ELLIPSE
  5
7BC45
330
7BF15
100
AcDbEntity
  8
Level 26
  6
Continuous
 62
   254
370
    13
100
AcDbEllipse
 10
4038.971818
 20
414.286503
 30
0.0
 11
-3.535534000000039
 21
3.535533999999952
 31
0.0
210
0.0
220
0.0
230
1.0
 40
0.866025
 41
0.0
 42
6.283185307179586
  0
LINE
  5
7BC46
330
7BF15
100
AcDbEntity
  8
Level 26
  6
Continuous
 62
   254
370
    13
100
AcDbLine
 10
4085.881101
 20
468.266853
 30
0.0
 11
4035.436284
 21
417.822037
 31
0.0
  0
LINE
  5
7BC47
330
7BF15
100
AcDbEntity
  8
Level 26
  6
Continuous
 62
   254
370
    13
100
AcDbLine
 10
4092.478497
 20
467.793182
 30
0.0
 11
4042.03368
 21
417.348365
 31
0.0
  0
LINE
  5
7BC48
330
7BF15
100
AcDbEntity
  8
Level 26
  6
Continuous
 62
   254
370
    13
100
AcDbLine
 10
4092.952169
 20
461.195786
 30
0.0
 11
4042.507352
 21
410.750968
 31
0.0
  0
LINE
  5
7BC49
330
7BF15
100
AcDbEntity
  8
Level 26
  6
Continuous
 62
   254
370
    13
100
AcDbLine
 10
4086.354772
 20
461.669457
 30
0.0
 11
4035.909956
 21
411.22464
 31
0.0
  0
ENDBLK
  5
7BF17
330
7BF15
100
AcDbEntity
  8
0
100
AcDbBlockEnd
  0
BLOCK
  5
7BF19
330
7BF18
100
AcDbEntity
  8
0
100
AcDbBlockBegin
  2
From Solid_13
 70
     0
 71
     0
 10
0.0
 20
0.0
 30
0.0
  3
From Solid_13
  1

  0
LINE
  5
7BC4B
330
7BF18
100
AcDbEntity
  8
Level 26
  6
Continuous
 62
   254
370
    13
100
AcDbLine
 10
3998.186259
 20
366.429876
 30
0.0
 11
3991.115191
 21
373.500944
 31
0.0
  0
LINE
  5
7BC4C
330
7BF18
100
AcDbEntity
  8
Level 26
  6
Continuous
 62
   254
370
    13
100
AcDbLine
 10
4086.828445
 20
455.072062
 30
0.0
 11
4079.757377
 21
462.14313
 31
0.0
  0
LINE
  5
7BC4D
330
7BF18
100
AcDbEntity
  8
Level 26
  6
Continuous
 62
   254
370
    13
100
AcDbLine
 10
3998.186259
 20
366.429876
 30
0.0
 11
4086.828445
 21
455.072062
 31
0.0
  0
LINE
  5
7BC4E
330
7BF18
100
AcDbEntity
  8
Level 26
  6
Continuous
 62
   254
370
    13
100
AcDbLine
 10
3994.650725
 20
369.96541
 30
0.0
 11
4083.292911
 21
458.607595
 31
0.0
  0
LINE
  5
7BC4F
330
7BF18
100
AcDbEntity
  8
Level 26
  6
Continuous
 62
   254
370
    13
100
AcDbLine
 10
3991.115191
 20
373.500943
 30
0.0
 11
4079.757377
 21
462.14313
 31
0.0
  0
LINE
  5
7BC50
330
7BF18
100
AcDbEntity
  8
Level 26
  6
Continuous
 62
   254
370
    13
100
AcDbLine
 10
3994.650725
 20
369.96541
 30
0.0
 11
4083.292911
 21
458.607595
 31
0.0
  0
ENDBLK
  5
7BF1A
330
7BF18
100
AcDbEntity
  8
0
100
AcDbBlockEnd
  0
BLOCK
  5
7BF1C
330
7BF1B
100
AcDbEntity
  8
0
100
AcDbBlockBegin
  2
From Solid_14
 70
     0
 71
     0
 10
0.0
 20
0.0
 30
0.0
  3
From Solid_14
  1

  0
ELLIPSE
  5
7BC52
330
7BF1B
100
AcDbEntity
  8
Level 26
  6
Continuous
 62
   254
370
    13
100
AcDbEllipse
 10
3988.527001
 20
363.841686
 30
0.0
 11
-3.535534000000242
 21
3.535533999999977
 31
0.0
210
0.0
220
0.0
230
1.0
 40
0.866025
 41
0.0
 42
6.283185307179586
  0
ELLIPSE
  5
7BC53
330
7BF1B
100
AcDbEntity
  8
Level 26
  6
Continuous
 62
   254
370
    13
100
AcDbEllipse
 10
4038.971818
 20
414.286503
 30
0.0
 11
-3.535534000000242
 21
3.535533999999977
 31
0.0
210
0.0
220
0.0
230
1.0
 40
0.866025
 41
0.0
 42
6.283185307179586
  0
LINE
  5
7BC54
330
7BF1B
100
AcDbEntity
  8
Level 26
  6
Continuous
 62
   254
370
    13
100
AcDbLine
 10
3984.991467
 20
367.37722
 30
0.0
 11
4035.436284
 21
417.822037
 31
0.0
  0
LINE
  5
7BC55
330
7BF1B
100
AcDbEntity
  8
Level 26
  6
Continuous
 62
   254
370
    13
100
AcDbLine
 10
3991.588863
 20
366.903548
 30
0.0
 11
4042.03368
 21
417.348365
 31
0.0
  0
LINE
  5
7BC56
330
7BF1B
100
AcDbEntity
  8
Level 26
  6
Continuous
 62
   254
370
    13
100
AcDbLine
 10
3992.062535
 20
360.306152
 30
0.0
 11
4042.507352
 21
410.750968
 31
0.0
  0
LINE
  5
7BC57
330
7BF1B
100
AcDbEntity
  8
Level 26
  6
Continuous
 62
   254
370
    13
100
AcDbLine
 10
3985.465138
 20
360.779823
 30
0.0
 11
4035.909956
 21
411.22464
 31
0.0
  0
ENDBLK
  5
7BF1D
330
7BF1B
100
AcDbEntity
  8
0
100
AcDbBlockEnd
  0
BLOCK
  5
7BF1F
330
7BF1E
100
AcDbEntity
  8
0
100
AcDbBlockBegin
  2
From Solid_15
 70
     0
 71
     0
 10
0.0
 20
0.0
 30
0.0
  3
From Solid_15
  1

  0
CIRCLE
  5
7BC59
330
7BF1E
100
AcDbEntity
  8
Level 26
  6
Continuous
 62
   254
370
    13
100
AcDbCircle
 10
4038.971818
 20
414.286503
 30
0.0
 40
5.000000133031353
  0
CIRCLE
  5
7BC5A
330
7BF1E
100
AcDbEntity
  8
Level 26
  6
Continuous
 62
   254
370
    13
100
AcDbCircle
 10
4038.971818
 20
414.286503
 30
0.0
 40
5.000000133031353
  0
POINT
  5
7BC5B
330
7BF1E
100
AcDbEntity
  8
Level 26
  6
Continuous
 62
   254
370
    13
100
AcDbPoint
 10
4035.436284
 20
417.822037
 30
0.0
  0
POINT
  5
7BC5C
330
7BF1E
100
AcDbEntity
  8
Level 26
  6
Continuous
 62
   254
370
    13
100
AcDbPoint
 10
4042.507352
 20
417.822037
 30
0.0
  0
POINT
  5
7BC5D
330
7BF1E
100
AcDbEntity
  8
Level 26
  6
Continuous
 62
   254
370
    13
100
AcDbPoint
 10
4042.507352
 20
410.750968
 30
0.0
  0
POINT
  5
7BC5E
330
7BF1E
100
AcDbEntity
  8
Level 26
  6
Continuous
 62
   254
370
    13
100
AcDbPoint
 10
4035.436284
 20
410.750968
 30
0.0
  0
ENDBLK
  5
7BF20
330
7BF1E
100
AcDbEntity
  8
0
100
AcDbBlockEnd
  0
BLOCK
  5
7BF22
330
7BF21
100
AcDbEntity
  8
0
100
AcDbBlockBegin
  2
From Solid_16
 70
     0
 71
     0
 10
0.0
 20
0.0
 30
0.0
  3
From Solid_16
  1

  0
ELLIPSE
  5
7BC60
330
7BF21
100
AcDbEntity
  8
Level 26
  6
Continuous
 62
   254
370
    13
100
AcDbEllipse
 10
4089.416635
 20
464.73132
 30
0.0
 11
-3.535534000000039
 21
3.535533999999952
 31
0.0
210
0.0
220
0.0
230
1.0
 40
0.866025
 41
0.0
 42
6.283185307179586
  0
LINE
  5
7BC61
330
7BF21
100
AcDbEntity
  8
Level 26
  6
Continuous
 62
   254
370
    13
100
AcDbLine
 10
4079.757377
 20
462.14313
 30
0.0
 11
4086.828445
 21
455.072062
 31
0.0
  0
LINE
  5
7BC62
330
7BF21
100
AcDbEntity
  8
Level 26
  6
Continuous
 62
   254
370
    13
100
AcDbLine
 10
4079.757377
 20
462.14313
 30
0.0
 11
4086.828444
 21
469.214197
 31
0.0
  0
LINE
  5
7BC63
330
7BF21
100
AcDbEntity
  8
Level 26
  6
Continuous
 62
   254
370
    13
100
AcDbLine
 10
4083.292911
 20
458.607596
 30
0.0
 11
4093.899512
 21
469.214197
 31
0.0
  0
LINE
  5
7BC64
330
7BF21
100
AcDbEntity
  8
Level 26
  6
Continuous
 62
   254
370
    13
100
AcDbLine
 10
4086.828445
 20
455.072062
 30
0.0
 11
4093.899512
 21
462.143129
 31
0.0
  0
LINE
  5
7BC65
330
7BF21
100
AcDbEntity
  8
Level 26
  6
Continuous
 62
   254
370
    13
100
AcDbLine
 10
4083.292911
 20
458.607596
 30
0.0
 11
4086.828444
 21
462.143129
 31
0.0
  0
ENDBLK
  5
7BF23
330
7BF21
100
AcDbEntity
  8
0
100
AcDbBlockEnd
  0
BLOCK
  5
7BF25
330
7BF24
100
AcDbEntity
  8
0
100
AcDbBlockBegin
  2
From Solid_17
 70
     0
 71
     0
 10
0.0
 20
0.0
 30
0.0
  3
From Solid_17
  1

  0
ELLIPSE
  5
7BC67
330
7BF24
100
AcDbEntity
  8
Level 26
  6
Continuous
 62
   254
370
    13
100
AcDbEllipse
 10
3988.527001
 20
363.841686
 30
0.0
 11
3.535532999999829
 21
-3.535533999999993
 31
0.0
210
0.0
220
0.0
230
1.0
 40
0.866025
 41
0.0
 42
6.283185307179586
  0
LINE
  5
7BC68
330
7BF24
100
AcDbEntity
  8
Level 26
  6
Continuous
 62
   254
370
    13
100
AcDbLine
 10
3998.186258
 20
366.429876
 30
0.0
 11
3991.115191
 21
373.500943
 31
0.0
  0
LINE
  5
7BC69
330
7BF24
100
AcDbEntity
  8
Level 26
  6
Continuous
 62
   254
370
    13
100
AcDbLine
 10
3998.186258
 20
366.429876
 30
0.0
 11
3991.11519
 21
359.358808
 31
0.0
  0
LINE
  5
7BC6A
330
7BF24
100
AcDbEntity
  8
Level 26
  6
Continuous
 62
   254
370
    13
100
AcDbLine
 10
3994.650725
 20
369.96541
 30
0.0
 11
3984.044123
 21
359.358809
 31
0.0
  0
LINE
  5
7BC6B
330
7BF24
100
AcDbEntity
  8
Level 26
  6
Continuous
 62
   254
370
    13
100
AcDbLine
 10
3991.115191
 20
373.500943
 30
0.0
 11
3984.044124
 21
366.429876
 31
0.0
  0
LINE
  5
7BC6C
330
7BF24
100
AcDbEntity
  8
Level 26
  6
Continuous
 62
   254
370
    13
100
AcDbLine
 10
3994.650725
 20
369.965409
 30
0.0
 11
3991.115191
 21
366.429875
 31
0.0
  0
ENDBLK
  5
7BF26
330
7BF24
100
AcDbEntity
  8
0
100
AcDbBlockEnd
  0
BLOCK
  5
7BF28
330
7BF27
100
AcDbEntity
  8
0
100
AcDbBlockBegin
  2
From Solid_18
 70
     0
 71
     0
 10
0.0
 20
0.0
 30
0.0
  3
From Solid_18
  1

  0
ELLIPSE
  5
7BC6E
330
7BF27
100
AcDbEntity
  8
Level 26
  6
Continuous
 62
   254
370
    13
100
AcDbEllipse
 10
5285.856476
 20
464.73132
 30
0.0
 11
-3.535534000000096
 21
-3.535534000000009
 31
0.0
210
0.0
220
0.0
230
1.0
 40
0.866025
 41
0.0
 42
6.283185307179586
  0
ELLIPSE
  5
7BC6F
330
7BF27
100
AcDbEntity
  8
Level 26
  6
Continuous
 62
   254
370
    13
100
AcDbEllipse
 10
5336.301293
 20
414.286503
 30
0.0
 11
-3.535534000000096
 21
-3.535534000000009
 31
0.0
210
0.0
220
0.0
230
1.0
 40
0.866025
 41
0.0
 42
6.283185307179586
  0
LINE
  5
7BC70
330
7BF27
100
AcDbEntity
  8
Level 26
  6
Continuous
 62
   254
370
    13
100
AcDbLine
 10
5282.320942
 20
461.195786
 30
0.0
 11
5332.765759
 21
410.750968
 31
0.0
  0
LINE
  5
7BC71
330
7BF27
100
AcDbEntity
  8
Level 26
  6
Continuous
 62
   254
370
    13
100
AcDbLine
 10
5282.794613
 20
467.793182
 30
0.0
 11
5333.23943
 21
417.348365
 31
0.0
  0
LINE
  5
7BC72
330
7BF27
100
AcDbEntity
  8
Level 26
  6
Continuous
 62
   254
370
    13
100
AcDbLine
 10
5289.39201
 20
468.266853
 30
0.0
 11
5339.836827
 21
417.822037
 31
0.0
  0
LINE
  5
7BC73
330
7BF27
100
AcDbEntity
  8
Level 26
  6
Continuous
 62
   254
370
    13
100
AcDbLine
 10
5288.918338
 20
461.669457
 30
0.0
 11
5339.363155
 21
411.22464
 31
0.0
  0
ENDBLK
  5
7BF29
330
7BF27
100
AcDbEntity
  8
0
100
AcDbBlockEnd
  0
BLOCK
  5
7BF2B
330
7BF2A
100
AcDbEntity
  8
0
100
AcDbBlockBegin
  2
From Solid_19
 70
     0
 71
     0
 10
0.0
 20
0.0
 30
0.0
  3
From Solid_19
  1

  0
LINE
  5
7BC75
330
7BF2A
100
AcDbEntity
  8
Level 26
  6
Continuous
 62
   254
370
    13
100
AcDbLine
 10
5384.15792
 20
373.500944
 30
0.0
 11
5377.086852
 21
366.429876
 31
0.0
  0
LINE
  5
7BC76
330
7BF2A
100
AcDbEntity
  8
Level 26
  6
Continuous
 62
   254
370
    13
100
AcDbLine
 10
5295.515734
 20
462.14313
 30
0.0
 11
5288.444666
 21
455.072062
 31
0.0
  0
LINE
  5
7BC77
330
7BF2A
100
AcDbEntity
  8
Level 26
  6
Continuous
 62
   254
370
    13
100
AcDbLine
 10
5384.15792
 20
373.500943
 30
0.0
 11
5295.515734
 21
462.14313
 31
0.0
  0
LINE
  5
7BC78
330
7BF2A
100
AcDbEntity
  8
Level 26
  6
Continuous
 62
   254
370
    13
100
AcDbLine
 10
5380.622386
 20
369.96541
 30
0.0
 11
5291.9802
 21
458.607595
 31
0.0
  0
LINE
  5
7BC79
330
7BF2A
100
AcDbEntity
  8
Level 26
  6
Continuous
 62
   254
370
    13
100
AcDbLine
 10
5377.086852
 20
366.429876
 30
0.0
 11
5288.444666
 21
455.072062
 31
0.0
  0
LINE
  5
7BC7A
330
7BF2A
100
AcDbEntity
  8
Level 26
  6
Continuous
 62
   254
370
    13
100
AcDbLine
 10
5380.622386
 20
369.96541
 30
0.0
 11
5291.9802
 21
458.607595
 31
0.0
  0
ENDBLK
  5
7BF2C
330
7BF2A
100
AcDbEntity
  8
0
100
AcDbBlockEnd
  0
BLOCK
  5
7BF2E
330
7BF2D
100
AcDbEntity
  8
0
100
AcDbBlockBegin
  2
From Solid_20
 70
     0
 71
     0
 10
0.0
 20
0.0
 30
0.0
  3
From Solid_20
  1

  0
ELLIPSE
  5
7BC7C
330
7BF2D
100
AcDbEntity
  8
Level 26
  6
Continuous
 62
   254
370
    13
100
AcDbEllipse
 10
5386.74611
 20
363.841686
 30
0.0
 11
-3.535534000000096
 21
-3.535534000000009
 31
0.0
210
0.0
220
0.0
230
1.0
 40
0.866025
 41
0.0
 42
6.283185307179586
  0
ELLIPSE
  5
7BC7D
330
7BF2D
100
AcDbEntity
  8
Level 26
  6
Continuous
 62
   254
370
    13
100
AcDbEllipse
 10
5336.301293
 20
414.286503
 30
0.0
 11
-3.535534000000096
 21
-3.535534000000009
 31
0.0
210
0.0
220
0.0
230
1.0
 40
0.866025
 41
0.0
 42
6.283185307179586
  0
LINE
  5
7BC7E
330
7BF2D
100
AcDbEntity
  8
Level 26
  6
Continuous
 62
   254
370
    13
100
AcDbLine
 10
5383.210576
 20
360.306152
 30
0.0
 11
5332.765759
 21
410.750968
 31
0.0
  0
LINE
  5
7BC7F
330
7BF2D
100
AcDbEntity
  8
Level 26
  6
Continuous
 62
   254
370
    13
100
AcDbLine
 10
5383.684248
 20
366.903548
 30
0.0
 11
5333.23943
 21
417.348365
 31
0.0
  0
LINE
  5
7BC80
330
7BF2D
100
AcDbEntity
  8
Level 26
  6
Continuous
 62
   254
370
    13
100
AcDbLine
 10
5390.281644
 20
367.37722
 30
0.0
 11
5339.836827
 21
417.822037
 31
0.0
  0
LINE
  5
7BC81
330
7BF2D
100
AcDbEntity
  8
Level 26
  6
Continuous
 62
   254
370
    13
100
AcDbLine
 10
5389.807972
 20
360.779823
 30
0.0
 11
5339.363155
 21
411.22464
 31
0.0
  0
ENDBLK
  5
7BF2F
330
7BF2D
100
AcDbEntity
  8
0
100
AcDbBlockEnd
  0
BLOCK
  5
7BF31
330
7BF30
100
AcDbEntity
  8
0
100
AcDbBlockBegin
  2
From Solid_21
 70
     0
 71
     0
 10
0.0
 20
0.0
 30
0.0
  3
From Solid_21
  1

  0
CIRCLE
  5
7BC83
330
7BF30
100
AcDbEntity
  8
Level 26
  6
Continuous
 62
   254
370
    13
100
AcDbCircle
 10
5336.301293
 20
414.286503
 30
0.0
 40
5.000000133031187
  0
CIRCLE
  5
7BC84
330
7BF30
100
AcDbEntity
  8
Level 26
  6
Continuous
 62
   254
370
    13
100
AcDbCircle
 10
5336.301293
 20
414.286503
 30
0.0
 40
5.000000133031187
  0
POINT
  5
7BC85
330
7BF30
100
AcDbEntity
  8
Level 26
  6
Continuous
 62
   254
370
    13
100
AcDbPoint
 10
5332.765759
 20
410.750968
 30
0.0
  0
POINT
  5
7BC86
330
7BF30
100
AcDbEntity
  8
Level 26
  6
Continuous
 62
   254
370
    13
100
AcDbPoint
 10
5332.765759
 20
417.822037
 30
0.0
  0
POINT
  5
7BC87
330
7BF30
100
AcDbEntity
  8
Level 26
  6
Continuous
 62
   254
370
    13
100
AcDbPoint
 10
5339.836827
 20
417.822037
 30
0.0
  0
POINT
  5
7BC88
330
7BF30
100
AcDbEntity
  8
Level 26
  6
Continuous
 62
   254
370
    13
100
AcDbPoint
 10
5339.836827
 20
410.750968
 30
0.0
  0
ENDBLK
  5
7BF32
330
7BF30
100
AcDbEntity
  8
0
100
AcDbBlockEnd
  0
BLOCK
  5
7BF34
330
7BF33
100
AcDbEntity
  8
0
100
AcDbBlockBegin
  2
From Solid_22
 70
     0
 71
     0
 10
0.0
 20
0.0
 30
0.0
  3
From Solid_22
  1

  0
ELLIPSE
  5
7BC8A
330
7BF33
100
AcDbEntity
  8
Level 26
  6
Continuous
 62
   254
370
    13
100
AcDbEllipse
 10
5285.856476
 20
464.73132
 30
0.0
 11
-3.535534000000096
 21
-3.535534000000009
 31
0.0
210
0.0
220
0.0
230
1.0
 40
0.866025
 41
0.0
 42
6.283185307179586
  0
LINE
  5
7BC8B
330
7BF33
100
AcDbEntity
  8
Level 26
  6
Continuous
 62
   254
370
    13
100
AcDbLine
 10
5288.444666
 20
455.072062
 30
0.0
 11
5295.515734
 21
462.14313
 31
0.0
  0
LINE
  5
7BC8C
330
7BF33
100
AcDbEntity
  8
Level 26
  6
Continuous
 62
   254
370
    13
100
AcDbLine
 10
5288.444666
 20
455.072062
 30
0.0
 11
5281.373598
 21
462.143129
 31
0.0
  0
LINE
  5
7BC8D
330
7BF33
100
AcDbEntity
  8
Level 26
  6
Continuous
 62
   254
370
    13
100
AcDbLine
 10
5291.9802
 20
458.607596
 30
0.0
 11
5281.373598
 21
469.214197
 31
0.0
  0
LINE
  5
7BC8E
330
7BF33
100
AcDbEntity
  8
Level 26
  6
Continuous
 62
   254
370
    13
100
AcDbLine
 10
5295.515734
 20
462.14313
 30
0.0
 11
5288.444666
 21
469.214197
 31
0.0
  0
LINE
  5
7BC8F
330
7BF33
100
AcDbEntity
  8
Level 26
  6
Continuous
 62
   254
370
    13
100
AcDbLine
 10
5291.9802
 20
458.607596
 30
0.0
 11
5288.444666
 21
462.143129
 31
0.0
  0
ENDBLK
  5
7BF35
330
7BF33
100
AcDbEntity
  8
0
100
AcDbBlockEnd
  0
BLOCK
  5
7BF37
330
7BF36
100
AcDbEntity
  8
0
100
AcDbBlockBegin
  2
From Solid_23
 70
     0
 71
     0
 10
0.0
 20
0.0
 30
0.0
  3
From Solid_23
  1

  0
ELLIPSE
  5
7BC91
330
7BF36
100
AcDbEntity
  8
Level 26
  6
Continuous
 62
   254
370
    13
100
AcDbEllipse
 10
5386.74611
 20
363.841686
 30
0.0
 11
3.53553400000004
 21
3.535533999999951
 31
0.0
210
0.0
220
0.0
230
1.0
 40
0.866025
 41
0.0
 42
6.283185307179586
  0
LINE
  5
7BC92
330
7BF36
100
AcDbEntity
  8
Level 26
  6
Continuous
 62
   254
370
    13
100
AcDbLine
 10
5384.15792
 20
373.500944
 30
0.0
 11
5377.086852
 21
366.429876
 31
0.0
  0
LINE
  5
7BC93
330
7BF36
100
AcDbEntity
  8
Level 26
  6
Continuous
 62
   254
370
    13
100
AcDbLine
 10
5384.15792
 20
373.500944
 30
0.0
 11
5391.228987
 21
366.429876
 31
0.0
  0
LINE
  5
7BC94
330
7BF36
100
AcDbEntity
  8
Level 26
  6
Continuous
 62
   254
370
    13
100
AcDbLine
 10
5380.622386
 20
369.96541
 30
0.0
 11
5391.228987
 21
359.358808
 31
0.0
  0
LINE
  5
7BC95
330
7BF36
100
AcDbEntity
  8
Level 26
  6
Continuous
 62
   254
370
    13
100
AcDbLine
 10
5377.086852
 20
366.429876
 30
0.0
 11
5384.157919
 21
359.358808
 31
0.0
  0
LINE
  5
7BC96
330
7BF36
100
AcDbEntity
  8
Level 26
  6
Continuous
 62
   254
370
    13
100
AcDbLine
 10
5380.622386
 20
369.96541
 30
0.0
 11
5384.157919
 21
366.429876
 31
0.0
  0
ENDBLK
  5
7BF38
330
7BF36
100
AcDbEntity
  8
0
100
AcDbBlockEnd
  0
BLOCK
  5
7BF3A
330
7BF39
100
AcDbEntity
  8
0
100
AcDbBlockBegin
  2
From Solid_24
 70
     0
 71
     0
 10
0.0
 20
0.0
 30
0.0
  3
From Solid_24
  1

  0
ELLIPSE
  5
7BC98
330
7BF39
100
AcDbEntity
  8
Level 26
  6
Continuous
 62
   254
370
    13
100
AcDbEllipse
 10
5062.413741
 20
464.73132
 30
0.0
 11
-3.535533000000075
 21
3.535533999999981
 31
0.0
210
0.0
220
0.0
230
1.0
 40
0.866025
 41
0.0
 42
6.283185307179586
  0
ELLIPSE
  5
7BC99
330
7BF39
100
AcDbEntity
  8
Level 26
  6
Continuous
 62
   254
370
    13
100
AcDbEllipse
 10
5011.968924
 20
414.286503
 30
0.0
 11
-3.535533000000075
 21
3.535533999999981
 31
0.0
210
0.0
220
0.0
230
1.0
 40
0.866025
 41
0.0
 42
6.283185307179586
  0
LINE
  5
7BC9A
330
7BF39
100
AcDbEntity
  8
Level 26
  6
Continuous
 62
   254
370
    13
100
AcDbLine
 10
5058.878208
 20
468.266853
 30
0.0
 11
5008.433391
 21
417.822037
 31
0.0
  0
LINE
  5
7BC9B
330
7BF39
100
AcDbEntity
  8
Level 26
  6
Continuous
 62
   254
370
    13
100
AcDbLine
 10
5065.475603
 20
467.793181
 30
0.0
 11
5015.030786
 21
417.348364
 31
0.0
  0
LINE
  5
7BC9C
330
7BF39
100
AcDbEntity
  8
Level 26
  6
Continuous
 62
   254
370
    13
100
AcDbLine
 10
5065.949274
 20
461.195786
 30
0.0
 11
5015.504457
 21
410.750968
 31
0.0
  0
LINE
  5
7BC9D
330
7BF39
100
AcDbEntity
  8
Level 26
  6
Continuous
 62
   254
370
    13
100
AcDbLine
 10
5059.351878
 20
461.669458
 30
0.0
 11
5008.907061
 21
411.224641
 31
0.0
  0
ENDBLK
  5
7BF3B
330
7BF39
100
AcDbEntity
  8
0
100
AcDbBlockEnd
  0
BLOCK
  5
7BF3D
330
7BF3C
100
AcDbEntity
  8
0
100
AcDbBlockBegin
  2
From Solid_25
 70
     0
 71
     0
 10
0.0
 20
0.0
 30
0.0
  3
From Solid_25
  1

  0
LINE
  5
7BC9F
330
7BF3C
100
AcDbEntity
  8
Level 26
  6
Continuous
 62
   254
370
    13
100
AcDbLine
 10
4971.183365
 20
366.429876
 30
0.0
 11
4964.112297
 21
373.500944
 31
0.0
  0
LINE
  5
7BCA0
330
7BF3C
100
AcDbEntity
  8
Level 26
  6
Continuous
 62
   254
370
    13
100
AcDbLine
 10
5059.825551
 20
455.072062
 30
0.0
 11
5052.754483
 21
462.14313
 31
0.0
  0
LINE
  5
7BCA1
330
7BF3C
100
AcDbEntity
  8
Level 26
  6
Continuous
 62
   254
370
    13
100
AcDbLine
 10
4971.183365
 20
366.429876
 30
0.0
 11
5059.825551
 21
455.072062
 31
0.0
  0
LINE
  5
7BCA2
330
7BF3C
100
AcDbEntity
  8
Level 26
  6
Continuous
 62
   254
370
    13
100
AcDbLine
 10
4967.647831
 20
369.96541
 30
0.0
 11
5056.290017
 21
458.607595
 31
0.0
  0
LINE
  5
7BCA3
330
7BF3C
100
AcDbEntity
  8
Level 26
  6
Continuous
 62
   254
370
    13
100
AcDbLine
 10
4964.112297
 20
373.500943
 30
0.0
 11
5052.754483
 21
462.14313
 31
0.0
  0
LINE
  5
7BCA4
330
7BF3C
100
AcDbEntity
  8
Level 26
  6
Continuous
 62
   254
370
    13
100
AcDbLine
 10
4967.647831
 20
369.96541
 30
0.0
 11
5056.290017
 21
458.607595
 31
0.0
  0
ENDBLK
  5
7BF3E
330
7BF3C
100
AcDbEntity
  8
0
100
AcDbBlockEnd
  0
BLOCK
  5
7BF40
330
7BF3F
100
AcDbEntity
  8
0
100
AcDbBlockBegin
  2
From Solid_26
 70
     0
 71
     0
 10
0.0
 20
0.0
 30
0.0
  3
From Solid_26
  1

  0
ELLIPSE
  5
7BCA6
330
7BF3F
100
AcDbEntity
  8
Level 26
  6
Continuous
 62
   254
370
    13
100
AcDbEllipse
 10
4961.524107
 20
363.841686
 30
0.0
 11
-3.535534000000015
 21
3.535533999999974
 31
0.0
210
0.0
220
0.0
230
1.0
 40
0.866025
 41
0.0
 42
6.283185307179586
  0
ELLIPSE
  5
7BCA7
330
7BF3F
100
AcDbEntity
  8
Level 26
  6
Continuous
 62
   254
370
    13
100
AcDbEllipse
 10
5011.968924
 20
414.286503
 30
0.0
 11
-3.535534000000015
 21
3.535533999999974
 31
0.0
210
0.0
220
0.0
230
1.0
 40
0.866025
 41
0.0
 42
6.283185307179586
  0
LINE
  5
7BCA8
330
7BF3F
100
AcDbEntity
  8
Level 26
  6
Continuous
 62
   254
370
    13
100
AcDbLine
 10
4957.988573
 20
367.37722
 30
0.0
 11
5008.43339
 21
417.822037
 31
0.0
  0
LINE
  5
7BCA9
330
7BF3F
100
AcDbEntity
  8
Level 26
  6
Continuous
 62
   254
370
    13
100
AcDbLine
 10
4964.585969
 20
366.903548
 30
0.0
 11
5015.030786
 21
417.348365
 31
0.0
  0
LINE
  5
7BCAA
330
7BF3F
100
AcDbEntity
  8
Level 26
  6
Continuous
 62
   254
370
    13
100
AcDbLine
 10
4965.059641
 20
360.306152
 30
0.0
 11
5015.504458
 21
410.750968
 31
0.0
  0
LINE
  5
7BCAB
330
7BF3F
100
AcDbEntity
  8
Level 26
  6
Continuous
 62
   254
370
    13
100
AcDbLine
 10
4958.462244
 20
360.779823
 30
0.0
 11
5008.907062
 21
411.22464
 31
0.0
  0
ENDBLK
  5
7BF41
330
7BF3F
100
AcDbEntity
  8
0
100
AcDbBlockEnd
  0
BLOCK
  5
7BF43
330
7BF42
100
AcDbEntity
  8
0
100
AcDbBlockBegin
  2
From Solid_27
 70
     0
 71
     0
 10
0.0
 20
0.0
 30
0.0
  3
From Solid_27
  1

  0
CIRCLE
  5
7BCAD
330
7BF42
100
AcDbEntity
  8
Level 26
  6
Continuous
 62
   254
370
    13
100
AcDbCircle
 10
5011.968924
 20
414.286503
 30
0.0
 40
5.000000133031187
  0
CIRCLE
  5
7BCAE
330
7BF42
100
AcDbEntity
  8
Level 26
  6
Continuous
 62
   254
370
    13
100
AcDbCircle
 10
5011.968924
 20
414.286503
 30
0.0
 40
5.000000133031187
  0
POINT
  5
7BCAF
330
7BF42
100
AcDbEntity
  8
Level 26
  6
Continuous
 62
   254
370
    13
100
AcDbPoint
 10
5008.43339
 20
417.822037
 30
0.0
  0
POINT
  5
7BCB0
330
7BF42
100
AcDbEntity
  8
Level 26
  6
Continuous
 62
   254
370
    13
100
AcDbPoint
 10
5015.504458
 20
417.822037
 30
0.0
  0
POINT
  5
7BCB1
330
7BF42
100
AcDbEntity
  8
Level 26
  6
Continuous
 62
   254
370
    13
100
AcDbPoint
 10
5015.504458
 20
410.750968
 30
0.0
  0
POINT
  5
7BCB2
330
7BF42
100
AcDbEntity
  8
Level 26
  6
Continuous
 62
   254
370
    13
100
AcDbPoint
 10
5008.43339
 20
410.750968
 30
0.0
  0
ENDBLK
  5
7BF44
330
7BF42
100
AcDbEntity
  8
0
100
AcDbBlockEnd
  0
BLOCK
  5
7BF46
330
7BF45
100
AcDbEntity
  8
0
100
AcDbBlockBegin
  2
From Solid_28
 70
     0
 71
     0
 10
0.0
 20
0.0
 30
0.0
  3
From Solid_28
  1

  0
ELLIPSE
  5
7BCB4
330
7BF45
100
AcDbEntity
  8
Level 26
  6
Continuous
 62
   254
370
    13
100
AcDbEllipse
 10
5062.413741
 20
464.73132
 30
0.0
 11
-3.535533000000075
 21
3.535533999999981
 31
0.0
210
0.0
220
0.0
230
1.0
 40
0.866025
 41
0.0
 42
6.283185307179586
  0
LINE
  5
7BCB5
330
7BF45
100
AcDbEntity
  8
Level 26
  6
Continuous
 62
   254
370
    13
100
AcDbLine
 10
5052.754483
 20
462.143129
 30
0.0
 11
5059.82555
 21
455.072062
 31
0.0
  0
LINE
  5
7BCB6
330
7BF45
100
AcDbEntity
  8
Level 26
  6
Continuous
 62
   254
370
    13
100
AcDbLine
 10
5052.754483
 20
462.143129
 30
0.0
 11
5059.825551
 21
469.214197
 31
0.0
  0
LINE
  5
7BCB7
330
7BF45
100
AcDbEntity
  8
Level 26
  6
Continuous
 62
   254
370
    13
100
AcDbLine
 10
5056.290017
 20
458.607595
 30
0.0
 11
5066.896618
 21
469.214196
 31
0.0
  0
LINE
  5
7BCB8
330
7BF45
100
AcDbEntity
  8
Level 26
  6
Continuous
 62
   254
370
    13
100
AcDbLine
 10
5059.82555
 20
455.072062
 30
0.0
 11
5066.896617
 21
462.143129
 31
0.0
  0
LINE
  5
7BCB9
330
7BF45
100
AcDbEntity
  8
Level 26
  6
Continuous
 62
   254
370
    13
100
AcDbLine
 10
5056.290017
 20
458.607596
 30
0.0
 11
5059.82555
 21
462.14313
 31
0.0
  0
ENDBLK
  5
7BF47
330
7BF45
100
AcDbEntity
  8
0
100
AcDbBlockEnd
  0
BLOCK
  5
7BF49
330
7BF48
100
AcDbEntity
  8
0
100
AcDbBlockBegin
  2
From Solid_29
 70
     0
 71
     0
 10
0.0
 20
0.0
 30
0.0
  3
From Solid_29
  1

  0
ELLIPSE
  5
7BCBB
330
7BF48
100
AcDbEntity
  8
Level 26
  6
Continuous
 62
   254
370
    13
100
AcDbEllipse
 10
4961.524107
 20
363.841686
 30
0.0
 11
3.535534000000097
 21
-3.535534000000009
 31
0.0
210
0.0
220
0.0
230
1.0
 40
0.866025
 41
0.0
 42
6.283185307179586
  0
LINE
  5
7BCBC
330
7BF48
100
AcDbEntity
  8
Level 26
  6
Continuous
 62
   254
370
    13
100
AcDbLine
 10
4971.183365
 20
366.429876
 30
0.0
 11
4964.112297
 21
373.500944
 31
0.0
  0
LINE
  5
7BCBD
330
7BF48
100
AcDbEntity
  8
Level 26
  6
Continuous
 62
   254
370
    13
100
AcDbLine
 10
4971.183365
 20
366.429876
 30
0.0
 11
4964.112297
 21
359.358808
 31
0.0
  0
LINE
  5
7BCBE
330
7BF48
100
AcDbEntity
  8
Level 26
  6
Continuous
 62
   254
370
    13
100
AcDbLine
 10
4967.647831
 20
369.96541
 30
0.0
 11
4957.041229
 21
359.358808
 31
0.0
  0
LINE
  5
7BCBF
330
7BF48
100
AcDbEntity
  8
Level 26
  6
Continuous
 62
   254
370
    13
100
AcDbLine
 10
4964.112297
 20
373.500944
 30
0.0
 11
4957.041229
 21
366.429876
 31
0.0
  0
LINE
  5
7BCC0
330
7BF48
100
AcDbEntity
  8
Level 26
  6
Continuous
 62
   254
370
    13
100
AcDbLine
 10
4967.647831
 20
369.96541
 30
0.0
 11
4964.112297
 21
366.429876
 31
0.0
  0
ENDBLK
  5
7BF4A
330
7BF48
100
AcDbEntity
  8
0
100
AcDbBlockEnd
  0
BLOCK
  5
7BF4C
330
7BF4B
100
AcDbEntity
  8
0
100
AcDbBlockBegin
  2
From Solid_30
 70
     0
 71
     0
 10
0.0
 20
0.0
 30
0.0
  3
From Solid_30
  1

  0
ELLIPSE
  5
7BCC2
330
7BF4B
100
AcDbEntity
  8
Level 26
  6
Continuous
 62
   254
370
    13
100
AcDbEllipse
 10
5711.078479
 20
464.73132
 30
0.0
 11
-3.535534000000039
 21
3.535533999999952
 31
0.0
210
0.0
220
0.0
230
1.0
 40
0.866025
 41
0.0
 42
6.283185307179586
  0
ELLIPSE
  5
7BCC3
330
7BF4B
100
AcDbEntity
  8
Level 26
  6
Continuous
 62
   254
370
    13
100
AcDbEllipse
 10
5660.633662
 20
414.286503
 30
0.0
 11
-3.535534000000039
 21
3.535533999999952
 31
0.0
210
0.0
220
0.0
230
1.0
 40
0.866025
 41
0.0
 42
6.283185307179586
  0
LINE
  5
7BCC4
330
7BF4B
100
AcDbEntity
  8
Level 26
  6
Continuous
 62
   254
370
    13
100
AcDbLine
 10
5707.542945
 20
468.266853
 30
0.0
 11
5657.098128
 21
417.822037
 31
0.0
  0
LINE
  5
7BCC5
330
7BF4B
100
AcDbEntity
  8
Level 26
  6
Continuous
 62
   254
370
    13
100
AcDbLine
 10
5714.140341
 20
467.793182
 30
0.0
 11
5663.695524
 21
417.348365
 31
0.0
  0
LINE
  5
7BCC6
330
7BF4B
100
AcDbEntity
  8
Level 26
  6
Continuous
 62
   254
370
    13
100
AcDbLine
 10
5714.614013
 20
461.195786
 30
0.0
 11
5664.169196
 21
410.750968
 31
0.0
  0
LINE
  5
7BCC7
330
7BF4B
100
AcDbEntity
  8
Level 26
  6
Continuous
 62
   254
370
    13
100
AcDbLine
 10
5708.016617
 20
461.669457
 30
0.0
 11
5657.571799
 21
411.22464
 31
0.0
  0
ENDBLK
  5
7BF4D
330
7BF4B
100
AcDbEntity
  8
0
100
AcDbBlockEnd
  0
BLOCK
  5
7BF4F
330
7BF4E
100
AcDbEntity
  8
0
100
AcDbBlockBegin
  2
From Solid_31
 70
     0
 71
     0
 10
0.0
 20
0.0
 30
0.0
  3
From Solid_31
  1

  0
LINE
  5
7BCC9
330
7BF4E
100
AcDbEntity
  8
Level 26
  6
Continuous
 62
   254
370
    13
100
AcDbLine
 10
5619.848103
 20
366.429876
 30
0.0
 11
5612.777035
 21
373.500944
 31
0.0
  0
LINE
  5
7BCCA
330
7BF4E
100
AcDbEntity
  8
Level 26
  6
Continuous
 62
   254
370
    13
100
AcDbLine
 10
5708.490289
 20
455.072062
 30
0.0
 11
5701.419221
 21
462.14313
 31
0.0
  0
LINE
  5
7BCCB
330
7BF4E
100
AcDbEntity
  8
Level 26
  6
Continuous
 62
   254
370
    13
100
AcDbLine
 10
5619.848103
 20
366.429876
 30
0.0
 11
5708.490289
 21
455.072062
 31
0.0
  0
LINE
  5
7BCCC
330
7BF4E
100
AcDbEntity
  8
Level 26
  6
Continuous
 62
   254
370
    13
100
AcDbLine
 10
5616.312569
 20
369.96541
 30
0.0
 11
5704.954755
 21
458.607595
 31
0.0
  0
LINE
  5
7BCCD
330
7BF4E
100
AcDbEntity
  8
Level 26
  6
Continuous
 62
   254
370
    13
100
AcDbLine
 10
5612.777035
 20
373.500943
 30
0.0
 11
5701.419221
 21
462.14313
 31
0.0
  0
LINE
  5
7BCCE
330
7BF4E
100
AcDbEntity
  8
Level 26
  6
Continuous
 62
   254
370
    13
100
AcDbLine
 10
5616.312569
 20
369.96541
 30
0.0
 11
5704.954755
 21
458.607595
 31
0.0
  0
ENDBLK
  5
7BF50
330
7BF4E
100
AcDbEntity
  8
0
100
AcDbBlockEnd
  0
BLOCK
  5
7BF52
330
7BF51
100
AcDbEntity
  8
0
100
AcDbBlockBegin
  2
From Solid_32
 70
     0
 71
     0
 10
0.0
 20
0.0
 30
0.0
  3
From Solid_32
  1

  0
ELLIPSE
  5
7BCD0
330
7BF51
100
AcDbEntity
  8
Level 26
  6
Continuous
 62
   254
370
    13
100
AcDbEllipse
 10
5610.188844
 20
363.841686
 30
0.0
 11
-3.535532999999957
 21
3.535534000000042
 31
0.0
210
0.0
220
0.0
230
1.0
 40
0.866025
 41
0.0
 42
6.283185307179586
  0
ELLIPSE
  5
7BCD1
330
7BF51
100
AcDbEntity
  8
Level 26
  6
Continuous
 62
   254
370
    13
100
AcDbEllipse
 10
5660.633662
 20
414.286503
 30
0.0
 11
-3.535532999999959
 21
3.535534000000043
 31
0.0
210
0.0
220
0.0
230
1.0
 40
0.866025
 41
0.0
 42
6.283185307179586
  0
LINE
  5
7BCD2
330
7BF51
100
AcDbEntity
  8
Level 26
  6
Continuous
 62
   254
370
    13
100
AcDbLine
 10
5606.653311
 20
367.37722
 30
0.0
 11
5657.098129
 21
417.822037
 31
0.0
  0
LINE
  5
7BCD3
330
7BF51
100
AcDbEntity
  8
Level 26
  6
Continuous
 62
   254
370
    13
100
AcDbLine
 10
5613.250706
 20
366.903547
 30
0.0
 11
5663.695524
 21
417.348364
 31
0.0
  0
LINE
  5
7BCD4
330
7BF51
100
AcDbEntity
  8
Level 26
  6
Continuous
 62
   254
370
    13
100
AcDbLine
 10
5613.724377
 20
360.306152
 30
0.0
 11
5664.169195
 21
410.750968
 31
0.0
  0
LINE
  5
7BCD5
330
7BF51
100
AcDbEntity
  8
Level 26
  6
Continuous
 62
   254
370
    13
100
AcDbLine
 10
5607.126981
 20
360.779824
 30
0.0
 11
5657.571799
 21
411.224641
 31
0.0
  0
ENDBLK
  5
7BF53
330
7BF51
100
AcDbEntity
  8
0
100
AcDbBlockEnd
  0
BLOCK
  5
7BF55
330
7BF54
100
AcDbEntity
  8
0
100
AcDbBlockBegin
  2
From Solid_33
 70
     0
 71
     0
 10
0.0
 20
0.0
 30
0.0
  3
From Solid_33
  1

  0
CIRCLE
  5
7BCD7
330
7BF54
100
AcDbEntity
  8
Level 26
  6
Continuous
 62
   254
370
    13
100
AcDbCircle
 10
5660.633662
 20
414.286503
 30
0.0
 40
5.000000133031228
  0
CIRCLE
  5
7BCD8
330
7BF54
100
AcDbEntity
  8
Level 26
  6
Continuous
 62
   254
370
    13
100
AcDbCircle
 10
5660.633662
 20
414.286503
 30
0.0
 40
5.000000133031228
  0
POINT
  5
7BCD9
330
7BF54
100
AcDbEntity
  8
Level 26
  6
Continuous
 62
   254
370
    13
100
AcDbPoint
 10
5657.098128
 20
417.822037
 30
0.0
  0
POINT
  5
7BCDA
330
7BF54
100
AcDbEntity
  8
Level 26
  6
Continuous
 62
   254
370
    13
100
AcDbPoint
 10
5664.169196
 20
417.822037
 30
0.0
  0
POINT
  5
7BCDB
330
7BF54
100
AcDbEntity
  8
Level 26
  6
Continuous
 62
   254
370
    13
100
AcDbPoint
 10
5664.169196
 20
410.750968
 30
0.0
  0
POINT
  5
7BCDC
330
7BF54
100
AcDbEntity
  8
Level 26
  6
Continuous
 62
   254
370
    13
100
AcDbPoint
 10
5657.098128
 20
410.750968
 30
0.0
  0
ENDBLK
  5
7BF56
330
7BF54
100
AcDbEntity
  8
0
100
AcDbBlockEnd
  0
BLOCK
  5
7BF58
330
7BF57
100
AcDbEntity
  8
0
100
AcDbBlockBegin
  2
From Solid_34
 70
     0
 71
     0
 10
0.0
 20
0.0
 30
0.0
  3
From Solid_34
  1

  0
ELLIPSE
  5
7BCDE
330
7BF57
100
AcDbEntity
  8
Level 26
  6
Continuous
 62
   254
370
    13
100
AcDbEllipse
 10
5711.078479
 20
464.73132
 30
0.0
 11
-3.535534000000039
 21
3.535533999999952
 31
0.0
210
0.0
220
0.0
230
1.0
 40
0.866025
 41
0.0
 42
6.283185307179586
  0
LINE
  5
7BCDF
330
7BF57
100
AcDbEntity
  8
Level 26
  6
Continuous
 62
   254
370
    13
100
AcDbLine
 10
5701.419221
 20
462.14313
 30
0.0
 11
5708.490289
 21
455.072062
 31
0.0
  0
LINE
  5
7BCE0
330
7BF57
100
AcDbEntity
  8
Level 26
  6
Continuous
 62
   254
370
    13
100
AcDbLine
 10
5701.419221
 20
462.14313
 30
0.0
 11
5708.490288
 21
469.214197
 31
0.0
  0
LINE
  5
7BCE1
330
7BF57
100
AcDbEntity
  8
Level 26
  6
Continuous
 62
   254
370
    13
100
AcDbLine
 10
5704.954755
 20
458.607596
 30
0.0
 11
5715.561356
 21
469.214197
 31
0.0
  0
LINE
  5
7BCE2
330
7BF57
100
AcDbEntity
  8
Level 26
  6
Continuous
 62
   254
370
    13
100
AcDbLine
 10
5708.490289
 20
455.072062
 30
0.0
 11
5715.561356
 21
462.143129
 31
0.0
  0
LINE
  5
7BCE3
330
7BF57
100
AcDbEntity
  8
Level 26
  6
Continuous
 62
   254
370
    13
100
AcDbLine
 10
5704.954755
 20
458.607596
 30
0.0
 11
5708.490288
 21
462.143129
 31
0.0
  0
ENDBLK
  5
7BF59
330
7BF57
100
AcDbEntity
  8
0
100
AcDbBlockEnd
  0
BLOCK
  5
7BF5B
330
7BF5A
100
AcDbEntity
  8
0
100
AcDbBlockBegin
  2
From Solid_35
 70
     0
 71
     0
 10
0.0
 20
0.0
 30
0.0
  3
From Solid_35
  1

  0
ELLIPSE
  5
7BCE5
330
7BF5A
100
AcDbEntity
  8
Level 26
  6
Continuous
 62
   254
370
    13
100
AcDbEllipse
 10
5610.188844
 20
363.841686
 30
0.0
 11
3.535534000000038
 21
-3.535533999999951
 31
0.0
210
0.0
220
0.0
230
1.0
 40
0.866025
 41
0.0
 42
6.283185307179586
  0
LINE
  5
7BCE6
330
7BF5A
100
AcDbEntity
  8
Level 26
  6
Continuous
 62
   254
370
    13
100
AcDbLine
 10
5619.848102
 20
366.429875
 30
0.0
 11
5612.777035
 21
373.500944
 31
0.0
  0
LINE
  5
7BCE7
330
7BF5A
100
AcDbEntity
  8
Level 26
  6
Continuous
 62
   254
370
    13
100
AcDbLine
 10
5619.848102
 20
366.429875
 30
0.0
 11
5612.777034
 21
359.358808
 31
0.0
  0
LINE
  5
7BCE8
330
7BF5A
100
AcDbEntity
  8
Level 26
  6
Continuous
 62
   254
370
    13
100
AcDbLine
 10
5616.312569
 20
369.965409
 30
0.0
 11
5605.705966
 21
359.358808
 31
0.0
  0
LINE
  5
7BCE9
330
7BF5A
100
AcDbEntity
  8
Level 26
  6
Continuous
 62
   254
370
    13
100
AcDbLine
 10
5612.777035
 20
373.500944
 30
0.0
 11
5605.705966
 21
366.429876
 31
0.0
  0
LINE
  5
7BCEA
330
7BF5A
100
AcDbEntity
  8
Level 26
  6
Continuous
 62
   254
370
    13
100
AcDbLine
 10
5616.312569
 20
369.96541
 30
0.0
 11
5612.777034
 21
366.429876
 31
0.0
  0
ENDBLK
  5
7BF5C
330
7BF5A
100
AcDbEntity
  8
0
100
AcDbBlockEnd
  0
BLOCK
  5
7BF5E
330
7BF5D
100
AcDbEntity
  8
0
100
AcDbBlockBegin
  2
From Solid_36
 70
     0
 71
     0
 10
0.0
 20
0.0
 30
0.0
  3
From Solid_36
  1

  0
ELLIPSE
  5
7BCEC
330
7BF5D
100
AcDbEntity
  8
Level 26
  6
Continuous
 62
   254
370
    13
100
AcDbEllipse
 10
4312.859369
 20
464.73132
 30
0.0
 11
-3.535534000000039
 21
-3.535533999999952
 31
0.0
210
0.0
220
0.0
230
1.0
 40
0.866025
 41
0.0
 42
6.283185307179586
  0
ELLIPSE
  5
7BCED
330
7BF5D
100
AcDbEntity
  8
Level 26
  6
Continuous
 62
   254
370
    13
100
AcDbEllipse
 10
4363.304187
 20
414.286503
 30
0.0
 11
-3.535534000000039
 21
-3.535533999999952
 31
0.0
210
0.0
220
0.0
230
1.0
 40
0.866025
 41
0.0
 42
6.283185307179586
  0
LINE
  5
7BCEE
330
7BF5D
100
AcDbEntity
  8
Level 26
  6
Continuous
 62
   254
370
    13
100
AcDbLine
 10
4309.323835
 20
461.195786
 30
0.0
 11
4359.768653
 21
410.750968
 31
0.0
  0
LINE
  5
7BCEF
330
7BF5D
100
AcDbEntity
  8
Level 26
  6
Continuous
 62
   254
370
    13
100
AcDbLine
 10
4309.797506
 20
467.793182
 30
0.0
 11
4360.242325
 21
417.348365
 31
0.0
  0
LINE
  5
7BCF0
330
7BF5D
100
AcDbEntity
  8
Level 26
  6
Continuous
 62
   254
370
    13
100
AcDbLine
 10
4316.394903
 20
468.266853
 30
0.0
 11
4366.839721
 21
417.822037
 31
0.0
  0
LINE
  5
7BCF1
330
7BF5D
100
AcDbEntity
  8
Level 26
  6
Continuous
 62
   254
370
    13
100
AcDbLine
 10
4315.921231
 20
461.669457
 30
0.0
 11
4366.366049
 21
411.22464
 31
0.0
  0
ENDBLK
  5
7BF5F
330
7BF5D
100
AcDbEntity
  8
0
100
AcDbBlockEnd
  0
BLOCK
  5
7BF61
330
7BF60
100
AcDbEntity
  8
0
100
AcDbBlockBegin
  2
From Solid_37
 70
     0
 71
     0
 10
0.0
 20
0.0
 30
0.0
  3
From Solid_37
  1

  0
LINE
  5
7BCF3
330
7BF60
100
AcDbEntity
  8
Level 26
  6
Continuous
 62
   254
370
    13
100
AcDbLine
 10
4411.160813
 20
373.500944
 30
0.0
 11
4404.089747
 21
366.429876
 31
0.0
  0
LINE
  5
7BCF4
330
7BF60
100
AcDbEntity
  8
Level 26
  6
Continuous
 62
   254
370
    13
100
AcDbLine
 10
4322.518627
 20
462.14313
 30
0.0
 11
4315.447561
 21
455.072062
 31
0.0
  0
LINE
  5
7BCF5
330
7BF60
100
AcDbEntity
  8
Level 26
  6
Continuous
 62
   254
370
    13
100
AcDbLine
 10
4411.160813
 20
373.500943
 30
0.0
 11
4322.518627
 21
462.14313
 31
0.0
  0
LINE
  5
7BCF6
330
7BF60
100
AcDbEntity
  8
Level 26
  6
Continuous
 62
   254
370
    13
100
AcDbLine
 10
4407.62528
 20
369.96541
 30
0.0
 11
4318.983094
 21
458.607595
 31
0.0
  0
LINE
  5
7BCF7
330
7BF60
100
AcDbEntity
  8
Level 26
  6
Continuous
 62
   254
370
    13
100
AcDbLine
 10
4404.089747
 20
366.429876
 30
0.0
 11
4315.447561
 21
455.072062
 31
0.0
  0
LINE
  5
7BCF8
330
7BF60
100
AcDbEntity
  8
Level 26
  6
Continuous
 62
   254
370
    13
100
AcDbLine
 10
4407.62528
 20
369.96541
 30
0.0
 11
4318.983094
 21
458.607595
 31
0.0
  0
ENDBLK
  5
7BF62
330
7BF60
100
AcDbEntity
  8
0
100
AcDbBlockEnd
  0
BLOCK
  5
7BF64
330
7BF63
100
AcDbEntity
  8
0
100
AcDbBlockBegin
  2
From Solid_38
 70
     0
 71
     0
 10
0.0
 20
0.0
 30
0.0
  3
From Solid_38
  1

  0
ELLIPSE
  5
7BCFA
330
7BF63
100
AcDbEntity
  8
Level 26
  6
Continuous
 62
   254
370
    13
100
AcDbEllipse
 10
4413.749004
 20
363.841686
 30
0.0
 11
-3.535534000000039
 21
-3.535533999999952
 31
0.0
210
0.0
220
0.0
230
1.0
 40
0.866025
 41
0.0
 42
6.283185307179586
  0
ELLIPSE
  5
7BCFB
330
7BF63
100
AcDbEntity
  8
Level 26
  6
Continuous
 62
   254
370
    13
100
AcDbEllipse
 10
4363.304187
 20
414.286503
 30
0.0
 11
-3.535534000000039
 21
-3.535533999999952
 31
0.0
210
0.0
220
0.0
230
1.0
 40
0.866025
 41
0.0
 42
6.283185307179586
  0
LINE
  5
7BCFC
330
7BF63
100
AcDbEntity
  8
Level 26
  6
Continuous
 62
   254
370
    13
100
AcDbLine
 10
4410.21347
 20
360.306152
 30
0.0
 11
4359.768653
 21
410.750968
 31
0.0
  0
LINE
  5
7BCFD
330
7BF63
100
AcDbEntity
  8
Level 26
  6
Continuous
 62
   254
370
    13
100
AcDbLine
 10
4410.687141
 20
366.903548
 30
0.0
 11
4360.242325
 21
417.348365
 31
0.0
  0
LINE
  5
7BCFE
330
7BF63
100
AcDbEntity
  8
Level 26
  6
Continuous
 62
   254
370
    13
100
AcDbLine
 10
4417.284538
 20
367.37722
 30
0.0
 11
4366.839721
 21
417.822037
 31
0.0
  0
LINE
  5
7BCFF
330
7BF63
100
AcDbEntity
  8
Level 26
  6
Continuous
 62
   254
370
    13
100
AcDbLine
 10
4416.810866
 20
360.779823
 30
0.0
 11
4366.366049
 21
411.22464
 31
0.0
  0
ENDBLK
  5
7BF65
330
7BF63
100
AcDbEntity
  8
0
100
AcDbBlockEnd
  0
BLOCK
  5
7BF67
330
7BF66
100
AcDbEntity
  8
0
100
AcDbBlockBegin
  2
From Solid_39
 70
     0
 71
     0
 10
0.0
 20
0.0
 30
0.0
  3
From Solid_39
  1

  0
CIRCLE
  5
7BD01
330
7BF66
100
AcDbEntity
  8
Level 26
  6
Continuous
 62
   254
370
    13
100
AcDbCircle
 10
4363.304187
 20
414.286503
 30
0.0
 40
5.000000133031353
  0
CIRCLE
  5
7BD02
330
7BF66
100
AcDbEntity
  8
Level 26
  6
Continuous
 62
   254
370
    13
100
AcDbCircle
 10
4363.304187
 20
414.286503
 30
0.0
 40
5.000000133031353
  0
POINT
  5
7BD03
330
7BF66
100
AcDbEntity
  8
Level 26
  6
Continuous
 62
   254
370
    13
100
AcDbPoint
 10
4359.768653
 20
410.750968
 30
0.0
  0
POINT
  5
7BD04
330
7BF66
100
AcDbEntity
  8
Level 26
  6
Continuous
 62
   254
370
    13
100
AcDbPoint
 10
4359.768653
 20
417.822037
 30
0.0
  0
POINT
  5
7BD05
330
7BF66
100
AcDbEntity
  8
Level 26
  6
Continuous
 62
   254
370
    13
100
AcDbPoint
 10
4366.839721
 20
417.822037
 30
0.0
  0
POINT
  5
7BD06
330
7BF66
100
AcDbEntity
  8
Level 26
  6
Continuous
 62
   254
370
    13
100
AcDbPoint
 10
4366.839721
 20
410.750968
 30
0.0
  0
ENDBLK
  5
7BF68
330
7BF66
100
AcDbEntity
  8
0
100
AcDbBlockEnd
  0
BLOCK
  5
7BF6A
330
7BF69
100
AcDbEntity
  8
0
100
AcDbBlockBegin
  2
From Solid_40
 70
     0
 71
     0
 10
0.0
 20
0.0
 30
0.0
  3
From Solid_40
  1

  0
ELLIPSE
  5
7BD08
330
7BF69
100
AcDbEntity
  8
Level 26
  6
Continuous
 62
   254
370
    13
100
AcDbEllipse
 10
4312.859369
 20
464.73132
 30
0.0
 11
-3.535534000000039
 21
-3.535533999999952
 31
0.0
210
0.0
220
0.0
230
1.0
 40
0.866025
 41
0.0
 42
6.283185307179586
  0
LINE
  5
7BD09
330
7BF69
100
AcDbEntity
  8
Level 26
  6
Continuous
 62
   254
370
    13
100
AcDbLine
 10
4315.44756
 20
455.072061
 30
0.0
 11
4322.518627
 21
462.14313
 31
0.0
  0
LINE
  5
7BD0A
330
7BF69
100
AcDbEntity
  8
Level 26
  6
Continuous
 62
   254
370
    13
100
AcDbLine
 10
4315.44756
 20
455.072061
 30
0.0
 11
4308.376491
 21
462.143129
 31
0.0
  0
LINE
  5
7BD0B
330
7BF69
100
AcDbEntity
  8
Level 26
  6
Continuous
 62
   254
370
    13
100
AcDbLine
 10
4318.983094
 20
458.607596
 30
0.0
 11
4308.376491
 21
469.214197
 31
0.0
  0
LINE
  5
7BD0C
330
7BF69
100
AcDbEntity
  8
Level 26
  6
Continuous
 62
   254
370
    13
100
AcDbLine
 10
4322.518627
 20
462.14313
 30
0.0
 11
4315.447559
 21
469.214197
 31
0.0
  0
LINE
  5
7BD0D
330
7BF69
100
AcDbEntity
  8
Level 26
  6
Continuous
 62
   254
370
    13
100
AcDbLine
 10
4318.983094
 20
458.607595
 30
0.0
 11
4315.447559
 21
462.143129
 31
0.0
  0
ENDBLK
  5
7BF6B
330
7BF69
100
AcDbEntity
  8
0
100
AcDbBlockEnd
  0
BLOCK
  5
7BF6D
330
7BF6C
100
AcDbEntity
  8
0
100
AcDbBlockBegin
  2
From Solid_41
 70
     0
 71
     0
 10
0.0
 20
0.0
 30
0.0
  3
From Solid_41
  1

  0
ELLIPSE
  5
7BD0F
330
7BF6C
100
AcDbEntity
  8
Level 26
  6
Continuous
 62
   254
370
    13
100
AcDbEllipse
 10
4413.749004
 20
363.841686
 30
0.0
 11
3.53553400000004
 21
3.535533999999951
 31
0.0
210
0.0
220
0.0
230
1.0
 40
0.866025
 41
0.0
 42
6.283185307179586
  0
LINE
  5
7BD10
330
7BF6C
100
AcDbEntity
  8
Level 26
  6
Continuous
 62
   254
370
    13
100
AcDbLine
 10
4411.160814
 20
373.500944
 30
0.0
 11
4404.089746
 21
366.429876
 31
0.0
  0
LINE
  5
7BD11
330
7BF6C
100
AcDbEntity
  8
Level 26
  6
Continuous
 62
   254
370
    13
100
AcDbLine
 10
4411.160814
 20
373.500944
 30
0.0
 11
4418.231881
 21
366.429876
 31
0.0
  0
LINE
  5
7BD12
330
7BF6C
100
AcDbEntity
  8
Level 26
  6
Continuous
 62
   254
370
    13
100
AcDbLine
 10
4407.62528
 20
369.96541
 30
0.0
 11
4418.231881
 21
359.358808
 31
0.0
  0
LINE
  5
7BD13
330
7BF6C
100
AcDbEntity
  8
Level 26
  6
Continuous
 62
   254
370
    13
100
AcDbLine
 10
4404.089746
 20
366.429876
 30
0.0
 11
4411.160813
 21
359.358808
 31
0.0
  0
LINE
  5
7BD14
330
7BF6C
100
AcDbEntity
  8
Level 26
  6
Continuous
 62
   254
370
    13
100
AcDbLine
 10
4407.62528
 20
369.96541
 30
0.0
 11
4411.160813
 21
366.429876
 31
0.0
  0
ENDBLK
  5
7BF6E
330
7BF6C
100
AcDbEntity
  8
0
100
AcDbBlockEnd
  0
BLOCK
  5
7BF70
330
7BF6F
100
AcDbEntity
  8
0
100
AcDbBlockBegin
  2
From Solid_42
 70
     0
 71
     0
 10
0.0
 20
0.0
 30
0.0
  3
From Solid_42
  1

  0
ELLIPSE
  5
7BD16
330
7BF6F
100
AcDbEntity
  8
Level 26
  6
Continuous
 62
   254
370
    13
100
AcDbEllipse
 10
3714.639449
 20
485.626249
 30
0.0
 11
-5.000000000000003
 21
0.0
 31
0.0
210
0.0
220
0.0
230
1.0
 40
0.866025
 41
0.0
 42
6.283185307179586
  0
ELLIPSE
  5
7BD17
330
7BF6F
100
AcDbEntity
  8
Level 26
  6
Continuous
 62
   254
370
    13
100
AcDbEllipse
 10
3714.639449
 20
414.286503
 30
0.0
 11
-5.000000000000004
 21
0.0
 31
0.0
210
0.0
220
0.0
230
1.0
 40
0.866025
 41
0.0
 42
6.283185307179586
  0
LINE
  5
7BD18
330
7BF6F
100
AcDbEntity
  8
Level 26
  6
Continuous
 62
   254
370
    13
100
AcDbLine
 10
3709.639449
 20
485.626249
 30
0.0
 11
3709.639449
 21
414.286503
 31
0.0
  0
LINE
  5
7BD19
330
7BF6F
100
AcDbEntity
  8
Level 26
  6
Continuous
 62
   254
370
    13
100
AcDbLine
 10
3714.639449
 20
489.956376
 30
0.0
 11
3714.639449
 21
418.61663
 31
0.0
  0
LINE
  5
7BD1A
330
7BF6F
100
AcDbEntity
  8
Level 26
  6
Continuous
 62
   254
370
    13
100
AcDbLine
 10
3719.639449
 20
485.626249
 30
0.0
 11
3719.639449
 21
414.286503
 31
0.0
  0
LINE
  5
7BD1B
330
7BF6F
100
AcDbEntity
  8
Level 26
  6
Continuous
 62
   254
370
    13
100
AcDbLine
 10
3714.639449
 20
481.296121
 30
0.0
 11
3714.639449
 21
409.956375
 31
0.0
  0
ENDBLK
  5
7BF71
330
7BF6F
100
AcDbEntity
  8
0
100
AcDbBlockEnd
  0
BLOCK
  5
7BF73
330
7BF72
100
AcDbEntity
  8
0
100
AcDbBlockBegin
  2
From Solid_43
 70
     0
 71
     0
 10
0.0
 20
0.0
 30
0.0
  3
From Solid_43
  1

  0
LINE
  5
7BD1D
330
7BF72
100
AcDbEntity
  8
Level 26
  6
Continuous
 62
   254
370
    13
100
AcDbLine
 10
3719.639449
 20
351.607011
 30
0.0
 11
3709.639449
 21
351.607011
 31
0.0
  0
LINE
  5
7BD1E
330
7BF72
100
AcDbEntity
  8
Level 26
  6
Continuous
 62
   254
370
    13
100
AcDbLine
 10
3719.639449
 20
476.965995
 30
0.0
 11
3709.639449
 21
476.965995
 31
0.0
  0
LINE
  5
7BD1F
330
7BF72
100
AcDbEntity
  8
Level 26
  6
Continuous
 62
   254
370
    13
100
AcDbLine
 10
3719.639449
 20
351.607011
 30
0.0
 11
3719.639449
 21
476.965994
 31
0.0
  0
LINE
  5
7BD20
330
7BF72
100
AcDbEntity
  8
Level 26
  6
Continuous
 62
   254
370
    13
100
AcDbLine
 10
3714.639449
 20
351.607011
 30
0.0
 11
3714.639449
 21
476.965994
 31
0.0
  0
LINE
  5
7BD21
330
7BF72
100
AcDbEntity
  8
Level 26
  6
Continuous
 62
   254
370
    13
100
AcDbLine
 10
3709.639449
 20
351.607011
 30
0.0
 11
3709.639449
 21
476.965994
 31
0.0
  0
LINE
  5
7BD22
330
7BF72
100
AcDbEntity
  8
Level 26
  6
Continuous
 62
   254
370
    13
100
AcDbLine
 10
3714.639449
 20
351.607011
 30
0.0
 11
3714.639449
 21
476.965994
 31
0.0
  0
ENDBLK
  5
7BF74
330
7BF72
100
AcDbEntity
  8
0
100
AcDbBlockEnd
  0
BLOCK
  5
7BF76
330
7BF75
100
AcDbEntity
  8
0
100
AcDbBlockBegin
  2
From Solid_44
 70
     0
 71
     0
 10
0.0
 20
0.0
 30
0.0
  3
From Solid_44
  1

  0
ELLIPSE
  5
7BD24
330
7BF75
100
AcDbEntity
  8
Level 26
  6
Continuous
 62
   254
370
    13
100
AcDbEllipse
 10
3714.639449
 20
342.946757
 30
0.0
 11
-5.000000000000003
 21
0.0
 31
0.0
210
0.0
220
0.0
230
1.0
 40
0.866025
 41
0.0
 42
6.283185307179586
  0
ELLIPSE
  5
7BD25
330
7BF75
100
AcDbEntity
  8
Level 26
  6
Continuous
 62
   254
370
    13
100
AcDbEllipse
 10
3714.639449
 20
414.286503
 30
0.0
 11
-5.000000000000004
 21
0.0
 31
0.0
210
0.0
220
0.0
230
1.0
 40
0.866025
 41
0.0
 42
6.283185307179586
  0
LINE
  5
7BD26
330
7BF75
100
AcDbEntity
  8
Level 26
  6
Continuous
 62
   254
370
    13
100
AcDbLine
 10
3709.639449
 20
342.946757
 30
0.0
 11
3709.639449
 21
414.286503
 31
0.0
  0
LINE
  5
7BD27
330
7BF75
100
AcDbEntity
  8
Level 26
  6
Continuous
 62
   254
370
    13
100
AcDbLine
 10
3714.639449
 20
347.276884
 30
0.0
 11
3714.639449
 21
418.61663
 31
0.0
  0
LINE
  5
7BD28
330
7BF75
100
AcDbEntity
  8
Level 26
  6
Continuous
 62
   254
370
    13
100
AcDbLine
 10
3719.639449
 20
342.946757
 30
0.0
 11
3719.639449
 21
414.286503
 31
0.0
  0
LINE
  5
7BD29
330
7BF75
100
AcDbEntity
  8
Level 26
  6
Continuous
 62
   254
370
    13
100
AcDbLine
 10
3714.639449
 20
338.616629
 30
0.0
 11
3714.639449
 21
409.956375
 31
0.0
  0
ENDBLK
  5
7BF77
330
7BF75
100
AcDbEntity
  8
0
100
AcDbBlockEnd
  0
BLOCK
  5
7BF79
330
7BF78
100
AcDbEntity
  8
0
100
AcDbBlockBegin
  2
From Solid_45
 70
     0
 71
     0
 10
0.0
 20
0.0
 30
0.0
  3
From Solid_45
  1

  0
CIRCLE
  5
7BD2B
330
7BF78
100
AcDbEntity
  8
Level 26
  6
Continuous
 62
   254
370
    13
100
AcDbCircle
 10
3714.639449
 20
414.286503
 30
0.0
 40
5.000000000000002
  0
CIRCLE
  5
7BD2C
330
7BF78
100
AcDbEntity
  8
Level 26
  6
Continuous
 62
   254
370
    13
100
AcDbCircle
 10
3714.639449
 20
414.286503
 30
0.0
 40
5.000000000000003
  0
POINT
  5
7BD2D
330
7BF78
100
AcDbEntity
  8
Level 26
  6
Continuous
 62
   254
370
    13
100
AcDbPoint
 10
3709.639449
 20
414.286503
 30
0.0
  0
POINT
  5
7BD2E
330
7BF78
100
AcDbEntity
  8
Level 26
  6
Continuous
 62
   254
370
    13
100
AcDbPoint
 10
3714.639449
 20
419.286503
 30
0.0
  0
POINT
  5
7BD2F
330
7BF78
100
AcDbEntity
  8
Level 26
  6
Continuous
 62
   254
370
    13
100
AcDbPoint
 10
3719.639449
 20
414.286503
 30
0.0
  0
POINT
  5
7BD30
330
7BF78
100
AcDbEntity
  8
Level 26
  6
Continuous
 62
   254
370
    13
100
AcDbPoint
 10
3714.639449
 20
409.286503
 30
0.0
  0
ENDBLK
  5
7BF7A
330
7BF78
100
AcDbEntity
  8
0
100
AcDbBlockEnd
  0
BLOCK
  5
7BF7C
330
7BF7B
100
AcDbEntity
  8
0
100
AcDbBlockBegin
  2
From Solid_46
 70
     0
 71
     0
 10
0.0
 20
0.0
 30
0.0
  3
From Solid_46
  1

  0
ELLIPSE
  5
7BD32
330
7BF7B
100
AcDbEntity
  8
Level 26
  6
Continuous
 62
   254
370
    13
100
AcDbEllipse
 10
3714.639449
 20
485.626249
 30
0.0
 11
-5.000000000000003
 21
0.0
 31
0.0
210
0.0
220
0.0
230
1.0
 40
0.866025
 41
0.0
 42
6.283185307179586
  0
LINE
  5
7BD33
330
7BF7B
100
AcDbEntity
  8
Level 26
  6
Continuous
 62
   254
370
    13
100
AcDbLine
 10
3709.639449
 20
476.965995
 30
0.0
 11
3719.639449
 21
476.965995
 31
0.0
  0
LINE
  5
7BD34
330
7BF7B
100
AcDbEntity
  8
Level 26
  6
Continuous
 62
   254
370
    13
100
AcDbLine
 10
3709.639449
 20
476.965995
 30
0.0
 11
3709.639449
 21
486.965994
 31
0.0
  0
LINE
  5
7BD35
330
7BF7B
100
AcDbEntity
  8
Level 26
  6
Continuous
 62
   254
370
    13
100
AcDbLine
 10
3714.639449
 20
476.965995
 30
0.0
 11
3714.639449
 21
491.965994
 31
0.0
  0
LINE
  5
7BD36
330
7BF7B
100
AcDbEntity
  8
Level 26
  6
Continuous
 62
   254
370
    13
100
AcDbLine
 10
3719.639449
 20
476.965995
 30
0.0
 11
3719.639449
 21
486.965994
 31
0.0
  0
LINE
  5
7BD37
330
7BF7B
100
AcDbEntity
  8
Level 26
  6
Continuous
 62
   254
370
    13
100
AcDbLine
 10
3714.639449
 20
476.965995
 30
0.0
 11
3714.639449
 21
481.965994
 31
0.0
  0
ENDBLK
  5
7BF7D
330
7BF7B
100
AcDbEntity
  8
0
100
AcDbBlockEnd
  0
BLOCK
  5
7BF7F
330
7BF7E
100
AcDbEntity
  8
0
100
AcDbBlockBegin
  2
From Solid_47
 70
     0
 71
     0
 10
0.0
 20
0.0
 30
0.0
  3
From Solid_47
  1

  0
ELLIPSE
  5
7BD39
330
7BF7E
100
AcDbEntity
  8
Level 26
  6
Continuous
 62
   254
370
    13
100
AcDbEllipse
 10
3714.639449
 20
342.946757
 30
0.0
 11
5.000000000000003
 21
0.0
 31
0.0
210
0.0
220
0.0
230
1.0
 40
0.866025
 41
0.0
 42
6.283185307179586
  0
LINE
  5
7BD3A
330
7BF7E
100
AcDbEntity
  8
Level 26
  6
Continuous
 62
   254
370
    13
100
AcDbLine
 10
3719.639449
 20
351.607011
 30
0.0
 11
3709.639449
 21
351.607011
 31
0.0
  0
LINE
  5
7BD3B
330
7BF7E
100
AcDbEntity
  8
Level 26
  6
Continuous
 62
   254
370
    13
100
AcDbLine
 10
3719.639449
 20
351.607011
 30
0.0
 11
3719.639449
 21
341.607011
 31
0.0
  0
LINE
  5
7BD3C
330
7BF7E
100
AcDbEntity
  8
Level 26
  6
Continuous
 62
   254
370
    13
100
AcDbLine
 10
3714.639449
 20
351.607011
 30
0.0
 11
3714.639449
 21
336.607011
 31
0.0
  0
LINE
  5
7BD3D
330
7BF7E
100
AcDbEntity
  8
Level 26
  6
Continuous
 62
   254
370
    13
100
AcDbLine
 10
3709.639449
 20
351.607011
 30
0.0
 11
3709.639449
 21
341.607011
 31
0.0
  0
LINE
  5
7BD3E
330
7BF7E
100
AcDbEntity
  8
Level 26
  6
Continuous
 62
   254
370
    13
100
AcDbLine
 10
3714.639449
 20
351.607011
 30
0.0
 11
3714.639449
 21
346.607011
 31
0.0
  0
ENDBLK
  5
7BF80
330
7BF7E
100
AcDbEntity
  8
0
100
AcDbBlockEnd
  0
BLOCK
  5
7BF82
330
7BF81
100
AcDbEntity
  8
0
100
AcDbBlockBegin
  2
From Solid_48
 70
     0
 71
     0
 10
0.0
 20
0.0
 30
0.0
  3
From Solid_48
  1

  0
ELLIPSE
  5
7BD40
330
7BF81
100
AcDbEntity
  8
Level 26
  6
Continuous
 62
   254
370
    13
100
AcDbEllipse
 10
3440.751898
 20
464.73132
 30
0.0
 11
-3.53553400000049
 21
3.535533999999969
 31
0.0
210
0.0
220
0.0
230
1.0
 40
0.866025
 41
0.0
 42
6.283185307179586
  0
ELLIPSE
  5
7BD41
330
7BF81
100
AcDbEntity
  8
Level 26
  6
Continuous
 62
   254
370
    13
100
AcDbEllipse
 10
3390.30708
 20
414.286503
 30
0.0
 11
-3.53553400000049
 21
3.53553399999997
 31
0.0
210
0.0
220
0.0
230
1.0
 40
0.866025
 41
0.0
 42
6.283185307179586
  0
LINE
  5
7BD42
330
7BF81
100
AcDbEntity
  8
Level 26
  6
Continuous
 62
   254
370
    13
100
AcDbLine
 10
3437.216364
 20
468.266853
 30
0.0
 11
3386.771546
 21
417.822037
 31
0.0
  0
LINE
  5
7BD43
330
7BF81
100
AcDbEntity
  8
Level 26
  6
Continuous
 62
   254
370
    13
100
AcDbLine
 10
3443.81376
 20
467.793182
 30
0.0
 11
3393.368942
 21
417.348365
 31
0.0
  0
LINE
  5
7BD44
330
7BF81
100
AcDbEntity
  8
Level 26
  6
Continuous
 62
   254
370
    13
100
AcDbLine
 10
3444.287432
 20
461.195786
 30
0.0
 11
3393.842614
 21
410.750968
 31
0.0
  0
LINE
  5
7BD45
330
7BF81
100
AcDbEntity
  8
Level 26
  6
Continuous
 62
   254
370
    13
100
AcDbLine
 10
3437.690035
 20
461.669457
 30
0.0
 11
3387.245218
 21
411.22464
 31
0.0
  0
ENDBLK
  5
7BF83
330
7BF81
100
AcDbEntity
  8
0
100
AcDbBlockEnd
  0
BLOCK
  5
7BF85
330
7BF84
100
AcDbEntity
  8
0
100
AcDbBlockBegin
  2
From Solid_49
 70
     0
 71
     0
 10
0.0
 20
0.0
 30
0.0
  3
From Solid_49
  1

  0
LINE
  5
7BD47
330
7BF84
100
AcDbEntity
  8
Level 26
  6
Continuous
 62
   254
370
    13
100
AcDbLine
 10
3349.521521
 20
366.429876
 30
0.0
 11
3342.450453
 21
373.500944
 31
0.0
  0
LINE
  5
7BD48
330
7BF84
100
AcDbEntity
  8
Level 26
  6
Continuous
 62
   254
370
    13
100
AcDbLine
 10
3438.163707
 20
455.072062
 30
0.0
 11
3431.092639
 21
462.14313
 31
0.0
  0
LINE
  5
7BD49
330
7BF84
100
AcDbEntity
  8
Level 26
  6
Continuous
 62
   254
370
    13
100
AcDbLine
 10
3349.521521
 20
366.429876
 30
0.0
 11
3438.163707
 21
455.072062
 31
0.0
  0
LINE
  5
7BD4A
330
7BF84
100
AcDbEntity
  8
Level 26
  6
Continuous
 62
   254
370
    13
100
AcDbLine
 10
3345.985987
 20
369.96541
 30
0.0
 11
3434.628173
 21
458.607595
 31
0.0
  0
LINE
  5
7BD4B
330
7BF84
100
AcDbEntity
  8
Level 26
  6
Continuous
 62
   254
370
    13
100
AcDbLine
 10
3342.450453
 20
373.500943
 30
0.0
 11
3431.092639
 21
462.14313
 31
0.0
  0
LINE
  5
7BD4C
330
7BF84
100
AcDbEntity
  8
Level 26
  6
Continuous
 62
   254
370
    13
100
AcDbLine
 10
3345.985987
 20
369.96541
 30
0.0
 11
3434.628173
 21
458.607595
 31
0.0
  0
ENDBLK
  5
7BF86
330
7BF84
100
AcDbEntity
  8
0
100
AcDbBlockEnd
  0
BLOCK
  5
7BF88
330
7BF87
100
AcDbEntity
  8
0
100
AcDbBlockBegin
  2
From Solid_50
 70
     0
 71
     0
 10
0.0
 20
0.0
 30
0.0
  3
From Solid_50
  1

  0
ELLIPSE
  5
7BD4E
330
7BF87
100
AcDbEntity
  8
Level 26
  6
Continuous
 62
   254
370
    13
100
AcDbEllipse
 10
3339.862263
 20
363.841686
 30
0.0
 11
-3.535533999999985
 21
3.535534000000001
 31
0.0
210
0.0
220
0.0
230
1.0
 40
0.866025
 41
0.0
 42
6.283185307179586
  0
ELLIPSE
  5
7BD4F
330
7BF87
100
AcDbEntity
  8
Level 26
  6
Continuous
 62
   254
370
    13
100
AcDbEllipse
 10
3390.30708
 20
414.286503
 30
0.0
 11
-3.535533999999985
 21
3.535534000000001
 31
0.0
210
0.0
220
0.0
230
1.0
 40
0.866025
 41
0.0
 42
6.283185307179586
  0
LINE
  5
7BD50
330
7BF87
100
AcDbEntity
  8
Level 26
  6
Continuous
 62
   254
370
    13
100
AcDbLine
 10
3336.326729
 20
367.37722
 30
0.0
 11
3386.771546
 21
417.822037
 31
0.0
  0
LINE
  5
7BD51
330
7BF87
100
AcDbEntity
  8
Level 26
  6
Continuous
 62
   254
370
    13
100
AcDbLine
 10
3342.924125
 20
366.903548
 30
0.0
 11
3393.368942
 21
417.348365
 31
0.0
  0
LINE
  5
7BD52
330
7BF87
100
AcDbEntity
  8
Level 26
  6
Continuous
 62
   254
370
    13
100
AcDbLine
 10
3343.397797
 20
360.306152
 30
0.0
 11
3393.842614
 21
410.750968
 31
0.0
  0
LINE
  5
7BD53
330
7BF87
100
AcDbEntity
  8
Level 26
  6
Continuous
 62
   254
370
    13
100
AcDbLine
 10
3336.800401
 20
360.779823
 30
0.0
 11
3387.245218
 21
411.22464
 31
0.0
  0
ENDBLK
  5
7BF89
330
7BF87
100
AcDbEntity
  8
0
100
AcDbBlockEnd
  0
BLOCK
  5
7BF8B
330
7BF8A
100
AcDbEntity
  8
0
100
AcDbBlockBegin
  2
From Solid_51
 70
     0
 71
     0
 10
0.0
 20
0.0
 30
0.0
  3
From Solid_51
  1

  0
CIRCLE
  5
7BD55
330
7BF8A
100
AcDbEntity
  8
Level 26
  6
Continuous
 62
   254
370
    13
100
AcDbCircle
 10
3390.30708
 20
414.286503
 30
0.0
 40
5.000000133031187
  0
CIRCLE
  5
7BD56
330
7BF8A
100
AcDbEntity
  8
Level 26
  6
Continuous
 62
   254
370
    13
100
AcDbCircle
 10
3390.30708
 20
414.286503
 30
0.0
 40
5.000000133031187
  0
POINT
  5
7BD57
330
7BF8A
100
AcDbEntity
  8
Level 26
  6
Continuous
 62
   254
370
    13
100
AcDbPoint
 10
3386.771546
 20
417.822037
 30
0.0
  0
POINT
  5
7BD58
330
7BF8A
100
AcDbEntity
  8
Level 26
  6
Continuous
 62
   254
370
    13
100
AcDbPoint
 10
3393.842614
 20
417.822037
 30
0.0
  0
POINT
  5
7BD59
330
7BF8A
100
AcDbEntity
  8
Level 26
  6
Continuous
 62
   254
370
    13
100
AcDbPoint
 10
3393.842614
 20
410.750968
 30
0.0
  0
POINT
  5
7BD5A
330
7BF8A
100
AcDbEntity
  8
Level 26
  6
Continuous
 62
   254
370
    13
100
AcDbPoint
 10
3386.771546
 20
410.750968
 30
0.0
  0
ENDBLK
  5
7BF8C
330
7BF8A
100
AcDbEntity
  8
0
100
AcDbBlockEnd
  0
BLOCK
  5
7BF8E
330
7BF8D
100
AcDbEntity
  8
0
100
AcDbBlockBegin
  2
From Solid_52
 70
     0
 71
     0
 10
0.0
 20
0.0
 30
0.0
  3
From Solid_52
  1

  0
ELLIPSE
  5
7BD5C
330
7BF8D
100
AcDbEntity
  8
Level 26
  6
Continuous
 62
   254
370
    13
100
AcDbEllipse
 10
3440.751898
 20
464.73132
 30
0.0
 11
-3.53553400000049
 21
3.535533999999969
 31
0.0
210
0.0
220
0.0
230
1.0
 40
0.866025
 41
0.0
 42
6.283185307179586
  0
LINE
  5
7BD5D
330
7BF8D
100
AcDbEntity
  8
Level 26
  6
Continuous
 62
   254
370
    13
100
AcDbLine
 10
3431.092639
 20
462.14313
 30
0.0
 11
3438.163706
 21
455.072061
 31
0.0
  0
LINE
  5
7BD5E
330
7BF8D
100
AcDbEntity
  8
Level 26
  6
Continuous
 62
   254
370
    13
100
AcDbLine
 10
3431.092639
 20
462.14313
 30
0.0
 11
3438.163707
 21
469.214197
 31
0.0
  0
LINE
  5
7BD5F
330
7BF8D
100
AcDbEntity
  8
Level 26
  6
Continuous
 62
   254
370
    13
100
AcDbLine
 10
3434.628173
 20
458.607596
 30
0.0
 11
3445.234775
 21
469.214197
 31
0.0
  0
LINE
  5
7BD60
330
7BF8D
100
AcDbEntity
  8
Level 26
  6
Continuous
 62
   254
370
    13
100
AcDbLine
 10
3438.163706
 20
455.072061
 30
0.0
 11
3445.234775
 21
462.143129
 31
0.0
  0
LINE
  5
7BD61
330
7BF8D
100
AcDbEntity
  8
Level 26
  6
Continuous
 62
   254
370
    13
100
AcDbLine
 10
3434.628173
 20
458.607595
 30
0.0
 11
3438.163707
 21
462.143129
 31
0.0
  0
ENDBLK
  5
7BF8F
330
7BF8D
100
AcDbEntity
  8
0
100
AcDbBlockEnd
  0
BLOCK
  5
7BF91
330
7BF90
100
AcDbEntity
  8
0
100
AcDbBlockBegin
  2
From Solid_53
 70
     0
 71
     0
 10
0.0
 20
0.0
 30
0.0
  3
From Solid_53
  1

  0
ELLIPSE
  5
7BD63
330
7BF90
100
AcDbEntity
  8
Level 26
  6
Continuous
 62
   254
370
    13
100
AcDbEllipse
 10
3339.862263
 20
363.841686
 30
0.0
 11
3.535534000000038
 21
-3.535533999999951
 31
0.0
210
0.0
220
0.0
230
1.0
 40
0.866025
 41
0.0
 42
6.283185307179586
  0
LINE
  5
7BD64
330
7BF90
100
AcDbEntity
  8
Level 26
  6
Continuous
 62
   254
370
    13
100
AcDbLine
 10
3349.521521
 20
366.429876
 30
0.0
 11
3342.450453
 21
373.500944
 31
0.0
  0
LINE
  5
7BD65
330
7BF90
100
AcDbEntity
  8
Level 26
  6
Continuous
 62
   254
370
    13
100
AcDbLine
 10
3349.521521
 20
366.429876
 30
0.0
 11
3342.450453
 21
359.358808
 31
0.0
  0
LINE
  5
7BD66
330
7BF90
100
AcDbEntity
  8
Level 26
  6
Continuous
 62
   254
370
    13
100
AcDbLine
 10
3345.985987
 20
369.96541
 30
0.0
 11
3335.379385
 21
359.358808
 31
0.0
  0
LINE
  5
7BD67
330
7BF90
100
AcDbEntity
  8
Level 26
  6
Continuous
 62
   254
370
    13
100
AcDbLine
 10
3342.450453
 20
373.500944
 30
0.0
 11
3335.379385
 21
366.429876
 31
0.0
  0
LINE
  5
7BD68
330
7BF90
100
AcDbEntity
  8
Level 26
  6
Continuous
 62
   254
370
    13
100
AcDbLine
 10
3345.985987
 20
369.96541
 30
0.0
 11
3342.450453
 21
366.429876
 31
0.0
  0
ENDBLK
  5
7BF92
330
7BF90
100
AcDbEntity
  8
0
100
AcDbBlockEnd
  0
BLOCK
  5
7BF94
330
7BF93
100
AcDbEntity
  8
0
100
AcDbBlockBegin
  2
From Solid_54
 70
     0
 71
     0
 10
0.0
 20
0.0
 30
0.0
  3
From Solid_54
  1

  0
ELLIPSE
  5
7BD6A
330
7BF93
100
AcDbEntity
  8
Level 26
  6
Continuous
 62
   254
370
    13
100
AcDbEllipse
 10
3107.213012
 20
485.626249
 30
0.0
 11
-5.000000000000003
 21
0.0
 31
0.0
210
0.0
220
0.0
230
1.0
 40
0.866025
 41
0.0
 42
6.283185307179586
  0
ELLIPSE
  5
7BD6B
330
7BF93
100
AcDbEntity
  8
Level 26
  6
Continuous
 62
   254
370
    13
100
AcDbEllipse
 10
3107.213012
 20
414.286503
 30
0.0
 11
-5.000000000000004
 21
0.0
 31
0.0
210
0.0
220
0.0
230
1.0
 40
0.866025
 41
0.0
 42
6.283185307179586
  0
LINE
  5
7BD6C
330
7BF93
100
AcDbEntity
  8
Level 26
  6
Continuous
 62
   254
370
    13
100
AcDbLine
 10
3102.213012
 20
485.626249
 30
0.0
 11
3102.213012
 21
414.286503
 31
0.0
  0
LINE
  5
7BD6D
330
7BF93
100
AcDbEntity
  8
Level 26
  6
Continuous
 62
   254
370
    13
100
AcDbLine
 10
3107.213012
 20
489.956376
 30
0.0
 11
3107.213012
 21
418.61663
 31
0.0
  0
LINE
  5
7BD6E
330
7BF93
100
AcDbEntity
  8
Level 26
  6
Continuous
 62
   254
370
    13
100
AcDbLine
 10
3112.213012
 20
485.626249
 30
0.0
 11
3112.213012
 21
414.286503
 31
0.0
  0
LINE
  5
7BD6F
330
7BF93
100
AcDbEntity
  8
Level 26
  6
Continuous
 62
   254
370
    13
100
AcDbLine
 10
3107.213012
 20
481.296121
 30
0.0
 11
3107.213012
 21
409.956375
 31
0.0
  0
ENDBLK
  5
7BF95
330
7BF93
100
AcDbEntity
  8
0
100
AcDbBlockEnd
  0
BLOCK
  5
7BF97
330
7BF96
100
AcDbEntity
  8
0
100
AcDbBlockBegin
  2
From Solid_55
 70
     0
 71
     0
 10
0.0
 20
0.0
 30
0.0
  3
From Solid_55
  1

  0
LINE
  5
7BD71
330
7BF96
100
AcDbEntity
  8
Level 26
  6
Continuous
 62
   254
370
    13
100
AcDbLine
 10
3112.213012
 20
351.607011
 30
0.0
 11
3102.213012
 21
351.607011
 31
0.0
  0
LINE
  5
7BD72
330
7BF96
100
AcDbEntity
  8
Level 26
  6
Continuous
 62
   254
370
    13
100
AcDbLine
 10
3112.213012
 20
476.965995
 30
0.0
 11
3102.213012
 21
476.965995
 31
0.0
  0
LINE
  5
7BD73
330
7BF96
100
AcDbEntity
  8
Level 26
  6
Continuous
 62
   254
370
    13
100
AcDbLine
 10
3112.213012
 20
351.607011
 30
0.0
 11
3112.213012
 21
476.965994
 31
0.0
  0
LINE
  5
7BD74
330
7BF96
100
AcDbEntity
  8
Level 26
  6
Continuous
 62
   254
370
    13
100
AcDbLine
 10
3107.213012
 20
351.607011
 30
0.0
 11
3107.213012
 21
476.965994
 31
0.0
  0
LINE
  5
7BD75
330
7BF96
100
AcDbEntity
  8
Level 26
  6
Continuous
 62
   254
370
    13
100
AcDbLine
 10
3102.213012
 20
351.607011
 30
0.0
 11
3102.213012
 21
476.965994
 31
0.0
  0
LINE
  5
7BD76
330
7BF96
100
AcDbEntity
  8
Level 26
  6
Continuous
 62
   254
370
    13
100
AcDbLine
 10
3107.213012
 20
351.607011
 30
0.0
 11
3107.213012
 21
476.965994
 31
0.0
  0
ENDBLK
  5
7BF98
330
7BF96
100
AcDbEntity
  8
0
100
AcDbBlockEnd
  0
BLOCK
  5
7BF9A
330
7BF99
100
AcDbEntity
  8
0
100
AcDbBlockBegin
  2
From Solid_56
 70
     0
 71
     0
 10
0.0
 20
0.0
 30
0.0
  3
From Solid_56
  1

  0
ELLIPSE
  5
7BD78
330
7BF99
100
AcDbEntity
  8
Level 26
  6
Continuous
 62
   254
370
    13
100
AcDbEllipse
 10
3107.213012
 20
342.946757
 30
0.0
 11
-5.000000000000003
 21
0.0
 31
0.0
210
0.0
220
0.0
230
1.0
 40
0.866025
 41
0.0
 42
6.283185307179586
  0
ELLIPSE
  5
7BD79
330
7BF99
100
AcDbEntity
  8
Level 26
  6
Continuous
 62
   254
370
    13
100
AcDbEllipse
 10
3107.213012
 20
414.286503
 30
0.0
 11
-5.000000000000004
 21
0.0
 31
0.0
210
0.0
220
0.0
230
1.0
 40
0.866025
 41
0.0
 42
6.283185307179586
  0
LINE
  5
7BD7A
330
7BF99
100
AcDbEntity
  8
Level 26
  6
Continuous
 62
   254
370
    13
100
AcDbLine
 10
3102.213012
 20
342.946757
 30
0.0
 11
3102.213012
 21
414.286503
 31
0.0
  0
LINE
  5
7BD7B
330
7BF99
100
AcDbEntity
  8
Level 26
  6
Continuous
 62
   254
370
    13
100
AcDbLine
 10
3107.213012
 20
347.276884
 30
0.0
 11
3107.213012
 21
418.61663
 31
0.0
  0
LINE
  5
7BD7C
330
7BF99
100
AcDbEntity
  8
Level 26
  6
Continuous
 62
   254
370
    13
100
AcDbLine
 10
3112.213012
 20
342.946757
 30
0.0
 11
3112.213012
 21
414.286503
 31
0.0
  0
LINE
  5
7BD7D
330
7BF99
100
AcDbEntity
  8
Level 26
  6
Continuous
 62
   254
370
    13
100
AcDbLine
 10
3107.213012
 20
338.616629
 30
0.0
 11
3107.213012
 21
409.956375
 31
0.0
  0
ENDBLK
  5
7BF9B
330
7BF99
100
AcDbEntity
  8
0
100
AcDbBlockEnd
  0
BLOCK
  5
7BF9D
330
7BF9C
100
AcDbEntity
  8
0
100
AcDbBlockBegin
  2
From Solid_57
 70
     0
 71
     0
 10
0.0
 20
0.0
 30
0.0
  3
From Solid_57
  1

  0
CIRCLE
  5
7BD7F
330
7BF9C
100
AcDbEntity
  8
Level 26
  6
Continuous
 62
   254
370
    13
100
AcDbCircle
 10
3107.213012
 20
414.286503
 30
0.0
 40
5.000000000000002
  0
CIRCLE
  5
7BD80
330
7BF9C
100
AcDbEntity
  8
Level 26
  6
Continuous
 62
   254
370
    13
100
AcDbCircle
 10
3107.213012
 20
414.286503
 30
0.0
 40
5.000000000000003
  0
POINT
  5
7BD81
330
7BF9C
100
AcDbEntity
  8
Level 26
  6
Continuous
 62
   254
370
    13
100
AcDbPoint
 10
3102.213012
 20
414.286503
 30
0.0
  0
POINT
  5
7BD82
330
7BF9C
100
AcDbEntity
  8
Level 26
  6
Continuous
 62
   254
370
    13
100
AcDbPoint
 10
3107.213012
 20
419.286503
 30
0.0
  0
POINT
  5
7BD83
330
7BF9C
100
AcDbEntity
  8
Level 26
  6
Continuous
 62
   254
370
    13
100
AcDbPoint
 10
3112.213012
 20
414.286503
 30
0.0
  0
POINT
  5
7BD84
330
7BF9C
100
AcDbEntity
  8
Level 26
  6
Continuous
 62
   254
370
    13
100
AcDbPoint
 10
3107.213012
 20
409.286503
 30
0.0
  0
ENDBLK
  5
7BF9E
330
7BF9C
100
AcDbEntity
  8
0
100
AcDbBlockEnd
  0
BLOCK
  5
7BFA0
330
7BF9F
100
AcDbEntity
  8
0
100
AcDbBlockBegin
  2
From Solid_58
 70
     0
 71
     0
 10
0.0
 20
0.0
 30
0.0
  3
From Solid_58
  1

  0
ELLIPSE
  5
7BD86
330
7BF9F
100
AcDbEntity
  8
Level 26
  6
Continuous
 62
   254
370
    13
100
AcDbEllipse
 10
3107.213012
 20
485.626249
 30
0.0
 11
-5.000000000000003
 21
0.0
 31
0.0
210
0.0
220
0.0
230
1.0
 40
0.866025
 41
0.0
 42
6.283185307179586
  0
LINE
  5
7BD87
330
7BF9F
100
AcDbEntity
  8
Level 26
  6
Continuous
 62
   254
370
    13
100
AcDbLine
 10
3102.213012
 20
476.965995
 30
0.0
 11
3112.213012
 21
476.965995
 31
0.0
  0
LINE
  5
7BD88
330
7BF9F
100
AcDbEntity
  8
Level 26
  6
Continuous
 62
   254
370
    13
100
AcDbLine
 10
3102.213012
 20
476.965995
 30
0.0
 11
3102.213012
 21
486.965994
 31
0.0
  0
LINE
  5
7BD89
330
7BF9F
100
AcDbEntity
  8
Level 26
  6
Continuous
 62
   254
370
    13
100
AcDbLine
 10
3107.213012
 20
476.965995
 30
0.0
 11
3107.213012
 21
491.965994
 31
0.0
  0
LINE
  5
7BD8A
330
7BF9F
100
AcDbEntity
  8
Level 26
  6
Continuous
 62
   254
370
    13
100
AcDbLine
 10
3112.213012
 20
476.965995
 30
0.0
 11
3112.213012
 21
486.965994
 31
0.0
  0
LINE
  5
7BD8B
330
7BF9F
100
AcDbEntity
  8
Level 26
  6
Continuous
 62
   254
370
    13
100
AcDbLine
 10
3107.213012
 20
476.965995
 30
0.0
 11
3107.213012
 21
481.965994
 31
0.0
  0
ENDBLK
  5
7BFA1
330
7BF9F
100
AcDbEntity
  8
0
100
AcDbBlockEnd
  0
BLOCK
  5
7BFA3
330
7BFA2
100
AcDbEntity
  8
0
100
AcDbBlockBegin
  2
From Solid_59
 70
     0
 71
     0
 10
0.0
 20
0.0
 30
0.0
  3
From Solid_59
  1

  0
ELLIPSE
  5
7BD8D
330
7BFA2
100
AcDbEntity
  8
Level 26
  6
Continuous
 62
   254
370
    13
100
AcDbEllipse
 10
3107.213012
 20
342.946757
 30
0.0
 11
5.000000000000003
 21
0.0
 31
0.0
210
0.0
220
0.0
230
1.0
 40
0.866025
 41
0.0
 42
6.283185307179586
  0
LINE
  5
7BD8E
330
7BFA2
100
AcDbEntity
  8
Level 26
  6
Continuous
 62
   254
370
    13
100
AcDbLine
 10
3112.213012
 20
351.607011
 30
0.0
 11
3102.213012
 21
351.607011
 31
0.0
  0
LINE
  5
7BD8F
330
7BFA2
100
AcDbEntity
  8
Level 26
  6
Continuous
 62
   254
370
    13
100
AcDbLine
 10
3112.213012
 20
351.607011
 30
0.0
 11
3112.213012
 21
341.607011
 31
0.0
  0
LINE
  5
7BD90
330
7BFA2
100
AcDbEntity
  8
Level 26
  6
Continuous
 62
   254
370
    13
100
AcDbLine
 10
3107.213012
 20
351.607011
 30
0.0
 11
3107.213012
 21
336.607011
 31
0.0
  0
LINE
  5
7BD91
330
7BFA2
100
AcDbEntity
  8
Level 26
  6
Continuous
 62
   254
370
    13
100
AcDbLine
 10
3102.213012
 20
351.607011
 30
0.0
 11
3102.213012
 21
341.607011
 31
0.0
  0
LINE
  5
7BD92
330
7BFA2
100
AcDbEntity
  8
Level 26
  6
Continuous
 62
   254
370
    13
100
AcDbLine
 10
3107.213012
 20
351.607011
 30
0.0
 11
3107.213012
 21
346.607011
 31
0.0
  0
ENDBLK
  5
7BFA4
330
7BFA2
100
AcDbEntity
  8
0
100
AcDbBlockEnd
  0
BLOCK
  5
7BFA6
330
7BFA5
100
AcDbEntity
  8
0
100
AcDbBlockBegin
  2
Feature Solid_24
 70
     0
 71
     0
 10
0.0
 20
0.0
 30
0.0
  3
Feature Solid_24
  1

  0
INSERT
  5
7BDC8
330
7BFA5
100
AcDbEntity
  8
Level 27
  6
Continuous
 62
    12
370
    13
100
AcDbBlockReference
  2
CONE_4
 10
2115.536208
 20
54.907641
 30
0.0
  0
ENDBLK
  5
7BFA7
330
7BFA5
100
AcDbEntity
  8
0
100
AcDbBlockEnd
  0
BLOCK
  5
7BFA9
330
7BFA8
100
AcDbEntity
  8
0
100
AcDbBlockBegin
  2
CONE_4
 70
     0
 71
     0
 10
0.0
 20
0.0
 30
0.0
  3
CONE_4
  1

  0
LINE
  5
7BDC9
330
7BFA8
100
AcDbEntity
  8
Level 27
  6
Continuous
 62
    12
370
    13
100
AcDbLine
 10
-2091.386067
 20
376.091859
 30
0.0
 11
-2139.686067
 21
376.091859
 31
0.0
  0
LINE
  5
7BDCA
330
7BFA8
100
AcDbEntity
  8
Level 27
  6
Continuous
 62
    12
370
    13
100
AcDbLine
 10
-2139.686067
 20
-485.908141
 30
0.0
 11
-2091.386067
 21
-485.908141
 31
0.0
  0
LINE
  5
7BDCB
330
7BFA8
100
AcDbEntity
  8
Level 27
  6
Continuous
 62
    12
370
    13
100
AcDbLine
 10
-2139.686067
 20
-485.908141
 30
0.0
 11
-2139.686067
 21
376.091859
 31
0.0
  0
LINE
  5
7BDCC
330
7BFA8
100
AcDbEntity
  8
Level 27
  6
Continuous
 62
    12
370
    13
100
AcDbLine
 10
-2115.536067
 20
-485.908141
 30
0.0
 11
-2115.536067
 21
376.091859
 31
0.0
  0
LINE
  5
7BDCD
330
7BFA8
100
AcDbEntity
  8
Level 27
  6
Continuous
 62
    12
370
    13
100
AcDbLine
 10
-2091.386067
 20
-485.908141
 30
0.0
 11
-2091.386067
 21
376.091859
 31
0.0
  0
LINE
  5
7BDCE
330
7BFA8
100
AcDbEntity
  8
Level 27
  6
Continuous
 62
    12
370
    13
100
AcDbLine
 10
-2115.536067
 20
-485.908141
 30
0.0
 11
-2115.536067
 21
376.091859
 31
0.0
  0
ENDBLK
  5
7BFAA
330
7BFA8
100
AcDbEntity
  8
0
100
AcDbBlockEnd
  0
BLOCK
  5
7BFAC
330
7BFAB
100
AcDbEntity
  8
0
100
AcDbBlockBegin
  2
Feature Solid_25
 70
     0
 71
     0
 10
0.0
 20
0.0
 30
0.0
  3
Feature Solid_25
  1

  0
INSERT
  5
7BDD0
330
7BFAB
100
AcDbEntity
  8
Level 27
  6
Continuous
 62
    12
370
    13
100
AcDbBlockReference
  2
CONE_5
 10
0.0
 20
0.0
 30
0.0
  0
ENDBLK
  5
7BFAD
330
7BFAB
100
AcDbEntity
  8
0
100
AcDbBlockEnd
  0
BLOCK
  5
7BFAF
330
7BFAE
100
AcDbEntity
  8
0
100
AcDbBlockBegin
  2
CONE_5
 70
     0
 71
     0
 10
0.0
 20
0.0
 30
0.0
  3
CONE_5
  1

  0
LINE
  5
7BDD1
330
7BFAE
100
AcDbEntity
  8
Level 27
  6
Continuous
 62
    12
370
    13
100
AcDbLine
 10
-2091.386067
 20
376.091859
 30
0.0
 11
-2139.686067
 21
376.091859
 31
0.0
  0
LINE
  5
7BDD2
330
7BFAE
100
AcDbEntity
  8
Level 27
  6
Continuous
 62
    12
370
    13
100
AcDbLine
 10
-2139.686067
 20
-485.908141
 30
0.0
 11
-2091.386067
 21
-485.908141
 31
0.0
  0
LINE
  5
7BDD3
330
7BFAE
100
AcDbEntity
  8
Level 27
  6
Continuous
 62
    12
370
    13
100
AcDbLine
 10
-2139.686067
 20
-485.908141
 30
0.0
 11
-2139.686067
 21
376.091859
 31
0.0
  0
LINE
  5
7BDD4
330
7BFAE
100
AcDbEntity
  8
Level 27
  6
Continuous
 62
    12
370
    13
100
AcDbLine
 10
-2115.536067
 20
-485.908141
 30
0.0
 11
-2115.536067
 21
376.091859
 31
0.0
  0
LINE
  5
7BDD5
330
7BFAE
100
AcDbEntity
  8
Level 27
  6
Continuous
 62
    12
370
    13
100
AcDbLine
 10
-2091.386067
 20
-485.908141
 30
0.0
 11
-2091.386067
 21
376.091859
 31
0.0
  0
LINE
  5
7BDD6
330
7BFAE
100
AcDbEntity
  8
Level 27
  6
Continuous
 62
    12
370
    13
100
AcDbLine
 10
-2115.536067
 20
-485.908141
 30
0.0
 11
-2115.536067
 21
376.091859
 31
0.0
  0
ENDBLK
  5
7BFB0
330
7BFAE
100
AcDbEntity
  8
0
100
AcDbBlockEnd
  0
BLOCK
  5
7BFB2
330
7BFB1
100
AcDbEntity
  8
0
100
AcDbBlockBegin
  2
Feature Solid_26
 70
     0
 71
     0
 10
0.0
 20
0.0
 30
0.0
  3
Feature Solid_26
  1

  0
INSERT
  5
7BDD8
330
7BFB1
100
AcDbEntity
  8
Level 27
  6
Continuous
 62
    12
370
    13
100
AcDbBlockReference
  2
EXTEND
 10
3533.300208
 20
54.905641
 30
0.0
  0
ENDBLK
  5
7BFB3
330
7BFB1
100
AcDbEntity
  8
0
100
AcDbBlockEnd
  0
BLOCK
  5
7BFB5
330
7BFB4
100
AcDbEntity
  8
0
100
AcDbBlockBegin
  2
EXTEND
 70
     0
 71
     0
 10
0.0
 20
0.0
 30
0.0
  3
EXTEND
  1

  0
INSERT
  5
7BDD9
330
7BFB4
100
AcDbEntity
  8
Level 27
  6
Continuous
 62
    12
370
    13
100
AcDbBlockReference
  2
EXTEND_1
 10
0.0
 20
0.0
 30
0.0
  0
SPLINE
  5
7BDE2
330
7BFB4
100
AcDbEntity
  8
Level 27
  6
Continuous
 62
    12
370
    13
100
AcDbSpline
210
0.0
220
0.0
230
1.0
 70
    11
 71
     3
 72
    30
 73
    26
 74
     0
 42
0.0000000001
 43
0.00000001
 40
0.0
 40
0.0
 40
0.0
 40
0.0
 40
0.0625000000000048
 40
0.0625000000000048
 40
0.1250000000000096
 40
0.1250000000000096
 40
0.2500000000000191
 40
0.2500000000000191
 40
0.3125000000000201
 40
0.3125000000000201
 40
0.3750000000000211
 40
0.3750000000000211
 40
0.4375000000000221
 40
0.4375000000000221
 40
0.5000000000000231
 40
0.5000000000000231
 40
0.6250000000000251
 40
0.6250000000000251
 40
0.6875000000000234
 40
0.6875000000000234
 40
0.7500000000000218
 40
0.7500000000000218
 40
0.8750000000000109
 40
0.8750000000000109
 40
1.0
 40
1.0
 40
1.0
 40
1.0
 10
-4929.183117998042
 20
-54.9081406258104
 30
0.0
 10
-4929.183117998042
 20
-58.89654683949408
 30
0.0
 10
-4929.697311925268
 20
-62.81049531352869
 30
0.0
 10
-4931.679604682432
 20
-70.1168864311407
 30
0.0
 10
-4933.146519367048
 20
-73.46225766014578
 30
0.0
 10
-4938.605647819784
 20
-81.80065837673027
 30
0.0
 10
-4943.748563968325
 20
-85.05406170651838
 30
0.0
 10
-4951.453635492857
 20
-85.0601740029598
 30
0.0
 10
-4954.034063652829
 20
-84.28204339814744
 30
0.0
 10
-4958.804182904822
 20
-81.26906493921922
 30
0.0
 10
-4960.976741929949
 20
-79.06147209711236
 30
0.0
 10
-4964.660091685633
 20
-73.43963491967196
 30
0.0
 10
-4966.109363396237
 20
-70.12086709977507
 30
0.0
 10
-4968.093333169885
 20
-62.80808861556488
 30
0.0
 10
-4968.605815553366
 20
-58.85864952152343
 30
0.0
 10
-4968.60856343852
 20
-47.03928898443041
 30
0.0
 10
-4966.472857024537
 20
-39.15968177377539
 30
0.0
 10
-4961.021685120873
 20
-30.81535260037066
 30
0.0
 10
-4958.833785321536
 20
-28.57351817659395
 30
0.0
 10
-4954.068909112137
 20
-25.54874569959725
 30
0.0
 10
-4951.511388740216
 20
-24.76190204965241
 30
0.0
 10
-4943.719518750762
 20
-24.75065803275015
 30
0.0
 10
-4938.620424328681
 20
-28.00059367387337
 30
0.0
 10
-4931.330921837871
 20
-39.11968853645215
 30
0.0
 10
-4929.18311799804
 20
-46.93132819844448
 30
0.0
 10
-4929.183117998042
 20
-54.9081406258104
 30
0.0
  0
ENDBLK
  5
7BFB6
330
7BFB4
100
AcDbEntity
  8
0
100
AcDbBlockEnd
  0
BLOCK
  5
7BFB8
330
7BFB7
100
AcDbEntity
  8
0
100
AcDbBlockBegin
  2
EXTEND_1
 70
     0
 71
     0
 10
0.0
 20
0.0
 30
0.0
  3
EXTEND_1
  1

  0
INSERT
  5
7BDDA
330
7BFB7
100
AcDbEntity
  8
Level 27
  6
Continuous
 62
    12
370
    13
100
AcDbBlockReference
  2
TORUS
 10
0.0
 20
0.0
 30
0.0
  0
SPLINE
  5
7BDDF
330
7BFB7
100
AcDbEntity
  8
Level 27
  6
Continuous
 62
    12
370
    13
100
AcDbSpline
210
0.0
220
0.0
230
1.0
 70
    11
 71
     3
 72
    30
 73
    26
 74
     0
 42
0.0000000001
 43
0.00000001
 40
0.0
 40
0.0
 40
0.0
 40
0.0
 40
0.0625000000000027
 40
0.0625000000000027
 40
0.1250000000000054
 40
0.1250000000000054
 40
0.2500000000000108
 40
0.2500000000000108
 40
0.3125000000000099
 40
0.3125000000000099
 40
0.3750000000000089
 40
0.3750000000000089
 40
0.4375000000000081
 40
0.4375000000000081
 40
0.5000000000000071
 40
0.5000000000000071
 40
0.6250000000000052
 40
0.6250000000000052
 40
0.6875000000000043
 40
0.6875000000000043
 40
0.7500000000000034
 40
0.7500000000000034
 40
0.8750000000000018
 40
0.8750000000000018
 40
1.0
 40
1.0
 40
1.0
 40
1.0
 10
-2137.420477053113
 20
-54.90814062581092
 30
0.0
 10
-2137.420477053113
 20
-58.8966985323936
 30
0.0
 10
-2136.906197645808
 20
-62.81080482869481
 30
0.0
 10
-2134.92364606411
 20
-70.11732191945328
 30
0.0
 10
-2133.456543211945
 20
-73.46271802304545
 30
0.0
 10
-2127.996918657937
 20
-81.80093719058743
 30
0.0
 10
-2122.853757937291
 20
-85.05406484847077
 30
0.0
 10
-2115.148376755838
 20
-85.06017244093465
 30
0.0
 10
-2112.567866961374
 20
-84.28210694783729
 30
0.0
 10
-2107.797488778564
 20
-81.26929333975534
 30
0.0
 10
-2105.624784989531
 20
-79.06180903514172
 30
0.0
 10
-2101.941107094999
 20
-73.44008641154676
 30
0.0
 10
-2100.491664092403
 20
-70.12132322247396
 30
0.0
 10
-2098.507429810798
 20
-62.80837027263311
 30
0.0
 10
-2097.994871586485
 20
-58.85880171049013
 30
0.0
 10
-2097.992122686918
 20
-47.03899294734521
 30
0.0
 10
-2100.128160276858
 20
-39.15919525115851
 30
0.0
 10
-2105.579864491394
 20
-30.81497802291148
 30
0.0
 10
-2107.767903014624
 20
-28.57326749123553
 30
0.0
 10
-2112.533080382123
 20
-25.54865203823732
 30
0.0
 10
-2115.090659920385
 20
-24.76189198205492
 30
0.0
 10
-2122.882893844776
 20
-24.75067795566059
 30
0.0
 10
-2127.982153919431
 20
-28.00032382295819
 30
0.0
 10
-2135.272321088668
 20
-39.11920273994912
 30
0.0
 10
-2137.420477053112
 20
-46.93102481264589
 30
0.0
 10
-2137.420477053113
 20
-54.90814062581092
 30
0.0
  0
ENDBLK
  5
7BFB9
330
7BFB7
100
AcDbEntity
  8
0
100
AcDbBlockEnd
  0
BLOCK
  5
7BFBB
330
7BFBA
100
AcDbEntity
  8
0
100
AcDbBlockBegin
  2
TORUS
 70
     0
 71
     0
 10
0.0
 20
0.0
 30
0.0
  3
TORUS
  1

  0
LINE
  5
7BDDB
330
7BFBA
100
AcDbEntity
  8
Level 27
  6
Continuous
 62
    12
370
    13
100
AcDbLine
 10
-4948.89
 20
-24.758141
 30
0.0
 11
-2117.775389
 21
-24.758141
 31
0.0
  0
LINE
  5
7BDDC
330
7BFBA
100
AcDbEntity
  8
Level 27
  6
Continuous
 62
    12
370
    13
100
AcDbLine
 10
-4968.585854
 20
-54.908141
 30
0.0
 11
-2098.016937
 21
-54.908141
 31
0.0
  0
LINE
  5
7BDDD
330
7BFBA
100
AcDbEntity
  8
Level 27
  6
Continuous
 62
    12
370
    13
100
AcDbLine
 10
-4948.891404
 20
-85.058141
 30
0.0
 11
-2117.775118
 21
-85.058141
 31
0.0
  0
LINE
  5
7BDDE
330
7BFBA
100
AcDbEntity
  8
Level 27
  6
Continuous
 62
    12
370
    13
100
AcDbLine
 10
-4930.514291
 20
-54.908141
 30
0.0
 11
-2137.410749
 21
-54.908141
 31
0.0
  0
ENDBLK
  5
7BFBC
330
7BFBA
100
AcDbEntity
  8
0
100
AcDbBlockEnd
  0
ENDSEC
  0
SECTION
  2
ENTITIES
  0
INSERT
  5
7BADE
330
7BE37
100
AcDbEntity
  8
Level 26
 62
   133
370
     0
100
AcDbBlockReference
  2
FT25
 10
5940.470371
 20
414.286503
 30
0.0
  0
ENDSEC
  0
SECTION
  2
OBJECTS
  0
DICTIONARY
  5
7BE4A
330
0
100
AcDbDictionary
281
     1
  3
ACAD_GROUP
350
7BE48
  3
ACAD_LAYOUT
350
7BE4B
  3
ACAD_MLINESTYLE
350
7BE49
  3
ACAD_PLOTSETTINGS
350
7BE4C
  3
ACAD_PLOTSTYLENAME
350
7BE4D
  3
ACAD_TABLESTYLE
350
7BFC2
  3
AcadDim
350
7BE5D
  3
DWGPROPS
350
7C00D
  0
DICTIONARY
  5
7BE50
330
7BE3F
100
AcDbDictionary
280
     1
281
     1
  3
ACAD_LAYERFILTERS
360
7BE51
  0
DICTIONARY
  5
7BE48
102
{ACAD_REACTORS
330
7BE4A
102
}
330
7BE4A
100
AcDbDictionary
281
     1
  0
DICTIONARY
  5
7BE4B
102
{ACAD_REACTORS
330
7BE4A
102
}
330
7BE4A
100
AcDbDictionary
281
     1
  3
Layout1
350
7BE3E
  3
Model
350
7BE3A
  0
DICTIONARY
  5
7BE49
102
{ACAD_REACTORS
330
7BE4A
102
}
330
7BE4A
100
AcDbDictionary
281
     1
  3
Standard
350
7BE35
  0
DICTIONARY
  5
7BE4C
102
{ACAD_REACTORS
330
7BE4A
102
}
330
7BE4A
100
AcDbDictionary
281
     1
  0
ACDBDICTIONARYWDFLT
  5
7BE4D
102
{ACAD_REACTORS
330
7BE4A
102
}
330
7BE4A
100
AcDbDictionary
281
     1
  3
Normal
350
7BE30
100
AcDbDictionaryWithDefault
340
7BE30
  0
DICTIONARY
  5
7BFC2
102
{ACAD_REACTORS
330
7BE4A
102
}
330
7BE4A
100
AcDbDictionary
281
     1
  0
XRECORD
  5
7BE5D
102
{ACAD_REACTORS
330
7BE4A
102
}
330
7BE4A
100
AcDbXrecord
280
     1
 90
   990106
  3
 
 60
     0
 61
     0
 62
     1
 63
     1
 64
     0
 65
     0
 66
     0
 67
     3
 68
     1
 69
     1
 70
     0
 71
     0
 72
     0
 40
0.0
170
     0
  0
XRECORD
  5
7C00D
102
{ACAD_REACTORS
330
7BE4A
102
}
330
7BE4A
100
AcDbXrecord
280
     1
  1
DWGPROPS COOKIE
  2

  3

  4
WAEngineering1
  6

  7

  8

  9

300
=
301
=
302
=
303
=
304
=
305
=
306
=
307
=
308
=
309
=
 40
0.0
 41
2451789.537469
 42
2451789.537561
  1

 90
        0
  0
DICTIONARY
  5
7BE51
102
{ACAD_REACTORS
330
7BE50
102
}
330
7BE50
100
AcDbDictionary
281
     1
  0
LAYOUT
  5
7BE3E
102
{ACAD_REACTORS
330
7BE4B
330
7BE4B
102
}
330
7BE4B
100
AcDbPlotSettings
  1

  2

  4

  6

 40
0.0
 41
0.0
 42
0.0
 43
0.0
 44
0.0
 45
0.0
 46
0.0
 47
0.0
 48
0.0
 49
0.0
140
0.0
141
0.0
142
1.0
143
1.0
 70
   688
 72
     0
 73
     0
 74
     5
  7

 75
    16
147
1.0
148
0.0
149
0.0
100
AcDbLayout
  1
Layout1
 70
     1
 71
     1
 10
0.0
 20
0.0
 11
12.0
 21
9.0
 12
0.0
 22
0.0
 32
0.0
 14
1.000000E+20
 24
1.000000E+20
 34
1.000000E+20
 15
-1.000000E+20
 25
-1.000000E+20
 35
-1.000000E+20
146
0.0
 13
0.0
 23
0.0
 33
0.0
 16
1.0
 26
0.0
 36
0.0
 17
0.0
 27
1.0
 37
0.0
 76
     0
330
7BE3B
  0
LAYOUT
  5
7BE3A
102
{ACAD_REACTORS
330
7BE4B
330
7BE4B
102
}
330
7BE4B
100
AcDbPlotSettings
  1

  2

  4

  6

 40
0.0
 41
0.0
 42
0.0
 43
0.0
 44
0.0
 45
0.0
 46
0.0
 47
0.0
 48
0.0
 49
0.0
140
0.0
141
0.0
142
1.0
143
1.0
 70
  1712
 72
     0
 73
     0
 74
     0
  7

 75
     0
147
1.0
148
0.0
149
0.0
100
AcDbLayout
  1
Model
 70
     1
 71
     0
 10
0.0
 20
0.0
 11
12.0
 21
9.0
 12
0.0
 22
0.0
 32
0.0
 14
0.0
 24
0.0
 34
0.0
 15
0.0
 25
0.0
 35
0.0
146
0.0
 13
0.0
 23
0.0
 33
0.0
 16
1.0
 26
0.0
 36
0.0
 17
0.0
 27
1.0
 37
0.0
 76
     0
330
7BE37
  0
MLINESTYLE
  5
7BE35
102
{ACAD_REACTORS
330
7BE49
102
}
330
7BE49
100
AcDbMlineStyle
  2
STANDARD
 70
     0
  3

 62
   256
 51
90.0
 52
90.0
 71
     2
 49
0.5
 62
   256
  6
BYLAYER
 49
-0.5
 62
   256
  6
BYLAYER
  0
ACDBPLACEHOLDER
  5
7BE30
102
{ACAD_REACTORS
330
7BE4D
102
}
330
7BE4D
  0
ENDSEC
  0
SECTION
  2
THUMBNAILIMAGE
 90
    16004
310
28000000B40000005300000001000800000000005C3A000000040000000400000001000008000000FFFFFF0048000000D87828000000B80090689000B0A09800C8C8C800B8B89800FFFFFF00FFFFFF00FFFFFF00FFFFFF00FFFFFF00FFFFFF00FFFFFF00FFFFFF00FFFFFF00FFFFFF00FFFFFF00FFFFFF00FFFFFF00FFFFFF
310
00FFFFFF00FFFFFF00FFFFFF00FFFFFF00FFFFFF00FFFFFF00FFFFFF00FFFFFF00FFFFFF00FFFFFF00FFFFFF00FFFFFF00FFFFFF00FFFFFF00FFFFFF00FFFFFF00FFFFFF00FFFFFF00FFFFFF00FFFFFF00FFFFFF00FFFFFF00FFFFFF00FFFFFF00FFFFFF00FFFFFF00FFFFFF00FFFFFF00FFFFFF00FFFFFF00FFFFFF00FFFF
310
FF00FFFFFF00FFFFFF00FFFFFF00FFFFFF00FFFFFF00FFFFFF00FFFFFF00FFFFFF00FFFFFF00FFFFFF00FFFFFF00FFFFFF00FFFFFF00FFFFFF00FFFFFF00FFFFFF00FFFFFF00FFFFFF00FFFFFF00FFFFFF00FFFFFF00FFFFFF00FFFFFF00FFFFFF00FFFFFF00FFFFFF00FFFFFF00FFFFFF00FFFFFF00FFFFFF00FFFFFF00FF
310
FFFF00FFFFFF00FFFFFF00FFFFFF00FFFFFF00FFFFFF00FFFFFF00FFFFFF00FFFFFF00FFFFFF00FFFFFF00FFFFFF00FFFFFF00FFFFFF00FFFFFF00FFFFFF00FFFFFF00FFFFFF00FFFFFF00FFFFFF00FFFFFF00FFFFFF00FFFFFF00FFFFFF00FFFFFF00FFFFFF00FFFFFF00FFFFFF00FFFFFF00FFFFFF00FFFFFF00FFFFFF00
310
FFFFFF00FFFFFF00FFFFFF00FFFFFF00FFFFFF00FFFFFF00FFFFFF00FFFFFF00FFFFFF00FFFFFF00FFFFFF00FFFFFF00FFFFFF00FFFFFF00FFFFFF00FFFFFF00FFFFFF00FFFFFF00FFFFFF00FFFFFF00FFFFFF00FFFFFF00FFFFFF00FFFFFF00FFFFFF00FFFFFF00FFFFFF00FFFFFF00FFFFFF00FFFFFF00FFFFFF00FFFFFF
310
00FFFFFF00FFFFFF00FFFFFF00FFFFFF00FFFFFF00FFFFFF00FFFFFF00FFFFFF00FFFFFF00FFFFFF00FFFFFF00FFFFFF00FFFFFF00FFFFFF00FFFFFF00FFFFFF00FFFFFF00FFFFFF00FFFFFF00FFFFFF00FFFFFF00FFFFFF00FFFFFF00FFFFFF00FFFFFF00FFFFFF00FFFFFF00FFFFFF00FFFFFF00FFFFFF00FFFFFF00FFFF
310
FF00FFFFFF00FFFFFF00FFFFFF00FFFFFF00FFFFFF00FFFFFF00FFFFFF00FFFFFF00FFFFFF00FFFFFF00FFFFFF00FFFFFF00FFFFFF00FFFFFF00FFFFFF00FFFFFF00FFFFFF00FFFFFF00FFFFFF00FFFFFF00FFFFFF00FFFFFF00FFFFFF00FFFFFF00FFFFFF00FFFFFF00FFFFFF00FFFFFF00FFFFFF00FFFFFF00FFFFFF00FF
310
FFFF00FFFFFF00FFFFFF00FFFFFF00FFFFFF00FFFFFF00FFFFFF00FFFFFF00FFFFFF00FFFFFF00FFFFFF00FFFFFF00FFFFFF00FFFFFF00FFFFFF00FFFFFF00FFFFFF00FFFFFF00FFFFFF00FFFFFF00FFFFFF00FFFFFF00FFFFFF00FFFFFF00FFFFFF00FFFFFF00FFFFFF00FFFFFF00FFFFFF00FFFFFF00FFFFFF00FFFFFF00
310
FFFFFF00FFFFFF00FFFFFF00FFFFFF00FFFFFF00FFFFFF00FFFFFF00FFFFFF00FFFFFF00FFFFFF00FFFFFF00FFFFFF0004040404040404040404040404040404040404040404040404040404040404040404040404040404040404040404040404040404040404040404040404040404040404040404040404040404040404
310
04040404040404040404040404040404040404040404040404040404040404040404040404040404040404040404040404040404040404040404040404040404040404040404040404040404040404040404040404040404040404040404040404040404040404040404040404040404040404040404040404040404040404
310
04040404040404040404040404040404040404040404040404040404040404040404040404040404040404040404040404040404040404040404040404040404040404040404040404040404040404040404040404040404040404040404040404040404040404040404040404040404040404040404040404040404040404
310
04040404040404040404040404040404040404040404040404040404040404040404040404040404040404040404040404040404040404040404040404040404040404040404040404040404040404040404040404040404040404040404040404040404040404040404040404040404040404040404040404040404040404
310
04040404040404040404040404040404040404040404040404040404040404040404040404040404040404040404040404040404040404040404040404040404040404040404040404040404040404040404040404040404040404040404040404040404040404040404040404040404040404040404040404040404040404
310
04040404040404040404040404040404040404040404040404040404040404040404040404040404040404040404040404040404040404040404040404040404040404040404040404040404040404040404040404040404040404040404040404040404040404040404040404040404040404040404040404040404040404
310
04040404040404040404040404040404040404040404040404040404040404040404040404040404040404040404040404040404040404040404040404040404040404040404040404040404040404040404040404040404040404040404040404040404040404040404040404040404040404040404040404040404040404
310
04040404040404040404040404040404040404040404040404040404040404040404040404040404040404040404040404040404040404040404040404040404040404040404040404040404040404040404040404040404040404040404040404040404040404040404040404040404040404040404040404040404040404
310
04040404040404040404040404040404040404040404040404040404040404040404040404040404040404040404040404040404040404040404040404040404040404040404040404040404040404040404040404040404040404040404040404040404040404040404040404040404040404040404040404040404040404
310
04040404040404040404040404040404040404040404040404040404040404040404040404040404040404040404040404040404040404040404040404040404040404040404040404040404040404040404040404040404040404040404040404040404040404040404040404040404040404040404040404040404040404
310
04040404040404040404040404040404040404040404040404040404040404040404040404040404040404040404040404040404040404040404040404040404040404040404040404040404040404040404040404040404040404040404040404040404040404040404040404040404040404040404040404040404040404
310
04040404040404040404040404040404040404040404040404040404040404040404040404040404040404040404040404040404040404040404040404040404040404040404040404040404040404040404040404040404040404040404040404040404040404040404040404040404040404040404040404040404040404
310
04040404040404040404040404040404040404040404040404040404040404040404040404040404040404040404040404040404040404040404040404040404040404040404040404040404040404040404040404040404040404040404040404040404040404040404040404040404040404040404040404040404040404
310
04040404040404040404040404040404040404040404040404040404040404040404040404040404040404040404040404040404040404040404040404040404040404040404040404040404040404040404040404040404040404040404040404040404040404040404040404040404040404040404040404040404040404
310
04040404040404040404040404040404040404040404040404040404040404040404040404040404040404040404040404040404040404040404040404040404040404040404040404040404040404040404040404040404040404040404040404040404040404040404040404040404040404040404040404040404040404
310
04040404040404040404040404040404040404040404040404040404040404040404040404040404040404040404040404040404040404040404040404040404040404040404040404040404040404040404040404040404040404040404040404040404040404040404040404040404040404040404040404040404040404
310
04040404040404040404040404040404040404040404040404040404040404040404040404040404040404040404040404040404040404040404040404040404040404040404040404040404040404040404040404040404040404040404040404040404040404040404040404040404040404040404040404040404040404
310
04040404040404040404040404040404040404040404040404040404040404040404040404040404040404040404040404040404040404040404040404040404040404040404040404040404040404040404040404040404040404040404040404040404040404040404040404040404040404040404040404040404040404
310
04040404040404040404040404040404040404040404040404040404040404040404040404040404040404040404040404040404040404040404040404040404040404040404040404040404040404040404040404040404040404040404040404040404040404040404040404040404040404040404040404040404040404
310
04040404040404040404040404040404040404040404040404040404040404040404040404040404040404040404040404040404040404040404040404040404040404040404040404040404040404040404040404040404040404040404040404040404040404040404040404040404040404040404040404040404040404
310
04040404040404040404040404040404040404040404040404040404040404040404040404040404040404040404040404040404040404040404040404040404040404040404040404040404040404040404040404040404040404040404040404040404040404040404040404040404040404040404040404040404040404
310
04040404040404040404040404040404040404040404040404040404040404040404040404040404040404040404040404040404040404040404040404040404040404040404040404040404040404040404040404040404040404040404040404040404040404040404040404040404040404040404040404040404040404
310
04040404040404040404040404040404040404040404040404040404040404040404040404040404040404040404040404040404040404040404040404040404040404040404040404040404040404040404040404040404040404040404040404040404040404040404040404040404040404040404040404040404040404
310
04040404040404040404040404040404040404040404040404040404040404040404040404040404040404040404040404040404040404040404040404040404040404040404040404040404040404040404040404040404040404040404040404040404040404040404040404040404040404040404040404040404040404
310
04040404040404040404040404040404040404040404040404040404040404040404040404040404040404040404040404040404040404040404040404040404040404040404040404040404040404040404040404040404040404040404040404040404040404040404040404040404040404040404040404040404040404
310
04040404040404040404040404040404040404040404040404040404040404040404040404040404040404040404040404040404040404040404040404040404040404040404040404040404040404040404040404040404040404040404040404040404040404040404040404040404040404040404040404040404040404
310
04040404040404040404040404040404040404040404040404040404040404040404040404040404040404040404040404040404040404040404040404040404040404040404040404040404040404040404040404040404040404040404040404040404040404040404040404040404040404040404040404040404040404
310
04040404040404040404040404040404040404040404040404040404040404040404040404040404040404040404040404040404040404040404040404040404040404040404040404040404040404040404040404040404040404040404040404040404040404040404040404040404040404040404040404040404040404
310
04040404040404040404040404040404040404040404040404040404040404040404040404040404040404040404040404040404040404040404040404040404040404040404040404040404040404040404040404040404040404040404040404040404040404040404040404040404040404040404040404040404040404
310
04040404040404040404040404040404040404040404040404040404040404040404040404040404040404040404040404040404040404040404040404040404040404040404040404040404040404040404040404040404040404040404040404040404040404040404040404040404040404040404040404040404040404
310
04040404040404040404040404040404040404040404040404040404040404040404040404040404040404040404040404040404040404040404040404040404040404040404040404040404040404040404040404040404040404040404040404040404040404040404040404040404040404040404040404040404040404
310
04040404040404040404040404040404040404040404040404040404040404040404040404040404040404040404040404040404040404040404040404040404040404040404040404040404040404040404040404040404040404040404040404040404040404040404040404040404040404040404040404040404040404
310
04040404040404040404040404040404040404040404040404040404040404040404040404040404040404040404040404040404040404040404040404040404040404040404040404040404040404040404040404040404040404040404040404040404040404040404040404040404040404040404040404040404040404
310
04040404040404040404040404040404040404040404040404040404040404040404040404040404040404040404040404040404040404040404040404040404040404040404040404040404040404040404040404040404040404040404040404040404040404040404040404040404040404040404040404040404040404
310
04040404040404040404040404040404040404040404040404040404040404040404040404040404040404040404040404040404040404040404040404040404040404040404040404040404040404040404040404040404040404040404040404040404040404040404040404040404040404040404040404040404040404
310
04040404040404040404040404040404040404040404040404040404040404040404040404040404040404040404040404040404040404040404040404040404040404040404040404040404040404040404040404040404040404040404040404040404040404040404040404040404040404040404040404040404040404
310
04040404040404040404040404040404040404040404040404040404040404040404040404040404040404040404040404040404040404040404040404040404040404040404040404040404040404040404040404040404040404040404040404040404040404040404040404040404040404040404040404040404040404
310
04040404040404040404040404040404040404040404040404040404040404040404040404040404040404040404040404040404040404040404040404040404040404040404040404040404040404040404040404040404040404040404040404040404040404040404040404040404040404040404040404040404040404
310
04040404040404040404040404040404040404040404040404040404040404040404040404040404040404040404040404040404040404040404040404040404040404040404040404040404040404040404040404040404040404040404040404040404040404040404040404040404040404040404040404040404040404
310
04040404040404040404040404040404040404040404040404040404040404040404040404040404040404040404040404040404040404040404040404040404040404040404040404040404040404040404040404040404040404040404040404040404040404040404040404040404040404040404040404040404040404
310
04040404040404040404040404040404040404040404040404040404040404040404040404040404040404040404040404040404040404040404040404040404040404040404040404040404040404040404040404040404040404040404040404040404040404040404040404040404040404040404040404040404040404
310
04040404040404040404040404040404040404040404040404040404040404040404040404040404040404040404040404040404040404040404040404040404040404040404040404040404040404040404040404040404040404040404050505050504040404040404040404040404040404040404040404040404040404
310
04040404040404040404040404040404040404040404040404040404040404040404040404040404040404040404040404040404040404040404040404040404040404040404040404040404040404040505050505040404040404040404040404040404040404040404040404040404040404040404040404040404040404
310
04040404040404040404040404040404040404040505050505040404040404040404040404040404040404040404040404040404040404040404040404040404040404040404040404040404040404040404040404040404040404040404040404040404040404040404040404040404040404040404040404040404040404
310
04040404040405050505050404040404040404040404040404040404040404040404040404040404040404040404040404040404040404040404040404040404040404040404040404050504050504040404040404040404040404040404040404040404040404040404040404040404040404040404040404040404040404
310
04040404040404040404040404040404040404040404040404040404040404040404040404040404040404040404040404040404040404040404040505040505040404040404040404040404040404040404040404040404040404040404040404040404040404040404040404040404040404040404040404040404040405
310
05050505040404040404040404040404040404040404040404040404040404040404040404040404040404040404040404040404040404040404040404040404040404040404040404040404040404040404040404040404040404040404040404040404040404040404040404040404050505050504040404040404040404
310
04040404040404040404040404040404040404040404040404040404040404040404040404040404040404040404040404040404040303030304040404040404040404040404040404040404040404040404040404040404040404040404040404040404040404040404040404040404040404040404040404040404040404
310
04040404040404040404040404040404040404040404040404040404040404040404040404040403030305040404040404040404040404040404040404040404040404040404040404040404040404040404040404040404040404040404040404040404040404040404030303030404040404040404040404040404040404
310
04040404040404040404040404040404040404040404040404040404040404040404040404040404040404040404040404040404040404040404040404040404040404040404040404040404040404040404040404040404040404040303030704040404040404040404040404040404040404040404040404040404040404
310
04040404040404040404040404040404040404040404040404040404040404040303030304040404040404040404040404040404040404040404040404040404040404040404040404040404040404040404040404040404040404040404040404040404040404040404040404040404040404040404040404040404040404
310
04040404040404040404040404040404040403030304040404040404040404040404040404040404040404040404040404040404040404040404040404040404040404040404040404040404040404040404040404030303030404040404040404040404040404040404040404040404040404040404040404040404040404
310
04040404040404040404040404040404040404040404040404040404040404040404040404040404040404040404040404040404040404040404040404040404040404040404040303030404040404040404040404040404040404040404040404040404040404040404040404040404040404040404040404040404040404
310
04040404040404040404040303030304040404040404040404040404040404040404040404040404040404040404040404040404040404040404040404040404040404040404040404040404040404040404040404040404040404040404040404040404040404040404040404040404040404040404040404040404030303
310
04040404040404040404040404040404040404040404040404040404040404040404040404040404040404040404040404040404040404040404040404040404030303030404040404040404040404040404040404040404040404040404040404040404040404040404040404040404040404040404040404040404040404
310
04040404040404040404040404040404040404040404040404040404040404040404040404040404040404040404040404040303030404040404040404040404040404040404040404040404040404040404040404040404040404040404040404040404040404040404040404040404040404040403030303040404040404
310
04040404040404040404040404040404040404040404040404040404040404040404040404040404040404040404040404040404040404040404040404040404040404040404040404040404040404040404040404040404040404040404040404040404040404030303040404040404040404040404040404040404040404
310
04040404040404040404040404040404040404040404040404040404040404040404040404040404040404030303030404040404040404040404040404040404040404040404040404040404040404040404040404040404040404040404040404040404040404040404040404040404040404040404040404040404040404
310
04040404040404040404040404040404040404040404040404040404040303030404040404040404040404040404040404040404040404040404040404040404040404040404040404040404040404040404040404040404040404040404040403030303040404040404040404040404040404040404040404040404040404
310
04040404040404040404040404040404040404040404040404040404040404040404040404040404040404040404040404040404040404040404040404040404040404040404040404040404040404040404030303040404040404040404040404040404040404040404040404040404040404040404040404040404040404
310
04040404040404040404040404040404040404040404030303030404040404040404040404040404040404040404040404040404040404040404040404040404040404040404040404040404040404040404040404040404040404040404040404040404040404040404040404040404040404040404040404040404040404
310
04040404040404040303030404040404040404040404040404040404040404040404040404040404040404040404040404040404040404040404040404040404040404040404040404040403030303040404040404040404040404040404040404040404040404040404040404040404040404040404040404040404040404
310
04040404040404040404040404040404040404040404040404040404040404040404040404040404040404040404040404040404040404040404040404030303040404040404040404040404040404040404040404040404040404040404040404040404040404040404040404040404040404040404040404040404040404
310
04030303030404040404040404040404040404040404040404040404040404040404040404040404040404040404040404040404040404040404040404040404040404040404040404040404040404040404040404040404040404040404040404040404040404040404040404040404040403030304040404040404040404
310
04040404040404040404040404040404040404040404040404040404040404040404040404040404040404040404040404040404040403030303040404040404040404040404040404040404040404040404040404040404040404040404040404040404040404040404040404040404040404040404040404040404040404
310
04040404040404040404040404040404040404040404040404040404040404040404040404040404030303040404040404040404040404040404040404040404040404040404040404040404040404040404040404040404040404040404040404040404040404040404040303030304040404040404040404040404040404
310
04040404040606040404040404040404040404040404040404040404040404040404040404040404040404040606040404040404040404040404040404040404040404040404040404040404040404040404040404040404040404040403030304040404040404040404040404040404040404040404040404040404040404
310
04040404040404040404040404040404040404040404040404040404040404040403030303040404040404060604040404040404040404040404060606040404040404040406060404040404040404040404040404040606040404040404040406060606040404040404040606060404040404040404040404040404060606
310
04040404040406060404040404040404040404030303060404040404040404040404040404040404040404040404040404040404040404040404040404040404040404040404040404040404040404040404040404040303030303030303030303030303030303030303030303030303030303030303030303030303030303
310
03030303030303030303030303030303030303030303030303030303030303030303030303030303030303030303030303030303030303030303030303030303030303030303030303030306040404040404040404040404040404040404040404040404040404040404040404040404040404040404040404040404040404
310
04040404040404040404040403030303030303030303030303030303030303030303030303030303030303030303030303030303030303030303030303030303030303030303030303030303030303030303030303030303030303030303030303030303030303030303030303030303030303030303030303030303030303
310
03040404040404040404040404040404040404040404040404040404040404040404040404040404040404040404040404040404040404040404040404040404040303030303030303030303030303030303030303030303030303030303030303030303030303030303030303030303030303030303030303030303030303
310
03030303030303030303030303030303030303030303030303030303030303030303030303030303030303030303030303030303030304040404040404040404040404040404040404040404040404040404040404040404040404040404040404040404040404040404040404040404040404040404030303030303030303
310
03030303030303030303030303030303030303030303030303030303030303030303030303030303030303030303030303030303030303030303030303030303030303030303030303030303030303030303030303030303030303030303030303030303030303030303030404040404040404040404040404040404040404
310
04040404040404040404040404040404040404040404040404040404040404040404040404040404040404040303030303030303030303030303030303030303030303030303030303030303030303030303030303030303030303030303030303030303030303030303030303030303030303030303030303030303030303
310
03030303030303030303030303030303030303030303030303030303030303030306040404040404040404040404040404040404040404040404040404040404040404040404040404040404040404040404040404040404040404040404040404030303030404040404040404040404060404040404040404040606060404
310
04040404040404040404040604040404040404040604040404040404040404040404060606040404040404040404040404060604040404040404060604040404040404040404040404040406060404040404040303030604040404040404040404040404040404040404040404040404040404040404040404040404040404
310
04040404040404040404040404040404040404040404040303030304040404040404040404040404040404040404040404040404040404040404040404040404040404040404040404040404040404040404040404040404040404040404040404040404040404040404040404040404040404040404040404040404040404
310
04040404040404040403030304040404040404040404040404040404040404040404040404040404040404040404040404040404040404040404040404040404040404040404040404040404030303030404040404040404040404040404040404040404040404040404040404040404040404040404040404040404040404
310
04040404040404040404040404040404040404040404040404040404040404040404040404040404040404040404040404040404040404040404040404040303030404040404040404040404040404040404040404040404040404040404040404040404040404040404040404040404040404040404040404040404040404
310
04040303030304040404040404040404040404040404040404040404040404040404040404040404040404040404040404040404040404040404040404040404040404040404040404040404040404040404040404040404040404040404040404040404040404040404040404040404040404030303040404040404040404
310
04040404040404040404040404040404040404040404040404040404040404040404040404040404040404040404040404040404040404030303030404040404040404040404040404040404040404040404040404040404040404040404040404040404040404040404040404040404040404040404040404040404040404
310
04040404040404040404040404040404040404040404040404040404040404040404040404040404040303030404040404040404040404040404040404040404040404040404040404040404040404040404040404040404040404040404040404040404040404040404040403030303040404040404040404040404040404
310
04040404040404040404040404040404040404040404040404040404040404040404040404040404040404040404040404040404040404040404040404040404040404040404040404040404040404040404040404040404040404040404030303040404040404040404040404040404040404040404040404040404040404
310
04040404040404040404040404040404040404040404040404040404040404040404030303030404040404040404040404040404040404040404040404040404040404040404040404040404040404040404040404040404040404040404040404040404040404040404040404040404040404040404040404040404040404
310
04040404040404040404040404040404040404040303030404040404040404040404040404040404040404040404040404040404040404040404040404040404040404040404040404040404040404040404040404040403030303040404040404040404040404040404040404040404040404040404040404040404040404
310
04040404040404040404040404040404040404040404040404040404040404040404040404040404040404040404040404040404040404040404040404040404040404040404040404030303040404040404040404040404040404040404040404040404040404040404040404040404040404040404040404040404040404
310
04040404040404040404040404030303030404040404040404040404040404040404040404040404040404040404040404040404040404040404040404040404040404040404040404040404040404040404040404040404040404040404040404040404040404040404040404040404040404040404040404040404040403
310
03030404040404040404040404040404040404040404040404040404040404040404040404040404040404040404040404040404040404040404040404040404040403030303040404040404040404040404040404040404040404040404040404040404040404040404040404040404040404040404040404040404040404
310
04040404040404040404040404040404040404040404040404040404040404040404040404040404040404040404040404040404030303040404040404040404040404040404040404040404040404040404040404040404040404040404040404040404040404040404040404040404040404040404040303030304040404
310
04040404040404040404040404040404040404040404040404040404040404040404040404040404040404040404040404040404040404040404040404040404040404040404040404040404040404040404040404040404040404040404040404040404040404040403030304040404040404040404040404040404040404
310
04040404040404040404040404040404040404040404040404040404040404040404040404040404040404040403030303040404040404040404040404040404040404040404040404040404040404040404040404040404040404040404040404040404040404040404040404040404040404040404040404040404040404
310
04040404040404040404040404040404040404040404040404040404040404030303040404040404040404040404040404040404040404040404040404040404040404040404040404040404040404040404040404040404040404040404040404040303030304040404040404040404040404040404040404040404040404
310
04040404040404040404040404040404040404040404040404040404040404040404040404040404040404040404040404040404040404040404040404040404040404040404040404040404040404040404040403030307040404040404040404040404040404040404040404040404040404040404040404040404040404
310
04040404040404040404040404040404040404040404040403030303040404040404040404040404040404040404040404040404040404040404040404040404040404040404040404040404040404040404040404040404040404040404040404040404040404040404040404040404040404040404040404040404040404
310
04040404040404040404030303070404040404040404040404040404040404040404040404040404040404040404040404040404040404040404040404040404040404040404040404040404050503030304040404040404040404040404040404040404040404040404040404040404040404040404040404040404040404
310
04040404040404040404040404040404040404040404040404040404040404040404040404040404040404040404040404040404040404040404040404040505030305040404040404040404040404040404040404040404040404040404040404040404040404040404040404040404040404040404040404040404040404
310
04040505050505040404040404040404040404040404040404040404040404040404040404040404040404040404040404040404040404040404040404040404040404040404040404040404040404040404040404040404040404040404040404040404040404040404040404040404040404050505050504040404040404
310
04040404040404040404040404040404040404040404040404040404040404040404040404040404040404040404040404040404040404050505050504040404040404040404040404040404040404040404040404040404040404040404040404040404040404040404040404040404040404040404040404040404040404
310
04040404040404040404040404040404040404040404040404040404040404040404040404040404040505050505040404040404040404040404040404040404040404040404040404040404040404040404040404040404040404040404040404040404040404040404040404050505050404040404040404040404040404
310
04040404040404040404040404040404040404040404040404040404040404040404040404040404040404040404040404040404040404040404040404040404040404040404040404040404040404040404040404040404040404040404040505050504040404040404040404040404040404040404040404040404040404
310
04040404040404040404040404040404040404040404040404040404040404040404040404040404040404040404040404040404040404040404040404040404040404040404040404040404040404040404040404040404040404040404040404040404040404040404040404040404040404040404040404040404040404
310
04040404040404040404040404040404040404040404040404040404040404040404040404040404040404040404040404040404040404040404040404040404040404040404040404040404040404040404040404040404040404040404040404040404040404040404040404040404040404040404040404040404040404
310
04040404040404040404040404040404040404040404040404040404040404040404040404040404040404040404040404040404040404040404040404040404040404040404040404040404040404040404040404040404040404040404040404040404040404040404040404040404040404040404040404040404040404
310
04040404040404040404040404040404040404040404040404040404040404040404040404040404040404040404040404040404040404040404040404040404040404040404040404040404040404040404040404040404040404040404040404040404040404040404040404040404040404040404040404040404040404
310
04040404040404040404040404040404040404040404040404040404040404040404040404040404040404040404040404040404040404040404040404040404040404040404040404040404040404040404040404040404040404040404040404040404040404040404040404040404040404040404040404040404040404
310
04040404040404040404040404040404040404040404040404040404040404040404040404040404040404040404040404040404040404040404040404040404040404040404040404040404040404040404040404040404040404040404040404040404040404040404040404040404040404040404040404040404040404
310
04040404040404040404040404040404040404040404040404040404040404040404040404040404040404040404040404040404040404040404040404040404040404040404040404040404040404040404040404040404040404040404040404040404040404040404040404040404040404040404040404040404040404
310
04040404040404040404040404040404040404040404040404040404040404040404040404040404040404040404040404040404040404040404040404040404040404040404040404040404040404040404040404040404040404040404040404040404040404040404040404040404040404040404040404040404040404
310
04040404040404040404040404040404040404040404040404040404040404040404040404040404040404040404040404040404040404040404040404040404040404040404040404040404040404040404040404040404040404040404040404040404040404040404040404040404040404040404040404040404040404
310
04040404040404040404040404040404040404040404040404040404040404040404040404040404040404040404040404040404040404040404040404040404040404040404040404040404040404040404040404040404040404040404040404040404040404040404040404040404040404040404040404040404040404
310
04040404040404040404040404040404040404040404040404040404040404040404040404040404040404040404040404040404040404040404040404040404040404040404040404040404040404040404040404040404040404040404040404040404040404040404040404040404040404040404040404040404040404
310
04040404040404040404040404040404040404040404040404040404040404040404040404040404040404040404040404040404040404040404040404040404040404040404040404040404040404040404040404040404040404040404040404040404040404040404040404040404040404040404040404040404040404
310
04040404040404040404040404040404040404040404040404040404040404040404040404040404040404040404040404040404040404040404040404040404040404040404040404040404040404040404040404040404040404040404040404040404040404040404040404040404040404040404040404040404040404
310
04040404040404040404040404040404040404040404040404040404040404040404040404040404040404040404040404040404040404040404040404040404040404040404040404040404040404040404040404040404040404040404040404040404040404040404040404040404040404040404040404040404040404
310
04040404040404040404040404040404040404040404040404040404040404040404040404040404040404040404040404040404040404040404040404040404040404040404040404040404040404040404040404040404040404040404040404040404040404040404040404040404040404040404040404040404040404
310
04040404040404040404040404040404040404040404040404040404040404040404040404040404040404040404040404040404040404040404040404040404040404040404040404040404000000000000000000000000000000000000000000000000000000000000000000000000000000000000000000000000000000
310
00000000000000000000000000000000000000000000000000000000000000000000000000000000000000000000000000000000000000000000000000000000000000000000000000000000000000000000000000000000000000000000000000000000000000000000000000000000000000000000000000000000000000
310
0102
  0
ENDSEC
  0
EOF
