  0
SECTION
  2
HEADER
  9
$ACADVER
  1
AC1015
  9
$ACADMAINTVER
 70
     6
  9
$DWGCODEPAGE
  3
ANSI_1252
  9
$INSBASE
 10
0.0
 20
0.0
 30
0.0
  9
$EXTMIN
 10
3389.937
 20
3.034
 30
0.0
  9
$EXTMAX
 10
3991.138
 20
604.235
 30
0.0
  9
$LIMMIN
 10
1990.084284
 20
-1396.818716
  9
$LIMMAX
 10
5390.990716
 20
2004.087716
  9
$ORTHOMODE
 70
     0
  9
$REGENMODE
 70
     1
  9
$FILLMODE
 70
     1
  9
$QTEXTMODE
 70
     0
  9
$MIRRTEXT
 70
     1
  9
$LTSCALE
 40
1.0
  9
$ATTMODE
 70
     1
  9
$TEXTSIZE
 40
100.0
  9
$TRACEWID
 40
0.05
  9
$TEXTSTYLE
  7
Standard
  9
$CLAYER
  8
Level 8
  9
$CELTYPE
  6
Continuous
  9
$CECOLOR
 62
    98
  9
$CELTSCALE
 40
1.0
  9
$DISPSILH
 70
     0
  9
$DIMSCALE
 40
1.0
  9
$DIMASZ
 40
100.0
  9
$DIMEXO
 40
50.0
  9
$DIMDLI
 40
0.0
  9
$DIMRND
 40
0.0
  9
$DIMDLE
 40
0.0
  9
$DIMEXE
 40
50.0
  9
$DIMTP
 40
0.0
  9
$DIMTM
 40
0.0
  9
$DIMTXT
 40
100.0
  9
$DIMCEN
 40
0.09
  9
$DIMTSZ
 40
0.0
  9
$DIMTOL
 70
     0
  9
$DIMLIM
 70
     0
  9
$DIMTIH
 70
     0
  9
$DIMTOH
 70
     0
  9
$DIMSE1
 70
     0
  9
$DIMSE2
 70
     0
  9
$DIMTAD
 70
     1
  9
$DIMZIN
 70
    11
  9
$DIMBLK
  1
TerminatorOpen_0.5
  9
$DIMASO
 70
     1
  9
$DIMSHO
 70
     1
  9
$DIMPOST
  1

  9
$DIMAPOST
  1

  9
$DIMALT
 70
     0
  9
$DIMALTD
 70
     4
  9
$DIMALTF
 40
25.4
  9
$DIMLFAC
 40
1.0
  9
$DIMTOFL
 70
     0
  9
$DIMTVP
 40
0.0
  9
$DIMTIX
 70
     0
  9
$DIMSOXD
 70
     0
  9
$DIMSAH
 70
     0
  9
$DIMBLK1
  1

  9
$DIMBLK2
  1

  9
$DIMSTYLE
  2
Standard
  9
$DIMCLRD
 70
     0
  9
$DIMCLRE
 70
     0
  9
$DIMCLRT
 70
     0
  9
$DIMTFAC
 40
1.0
  9
$DIMGAP
 40
50.0
  9
$DIMJUST
 70
     0
  9
$DIMSD1
 70
     0
  9
$DIMSD2
 70
     0
  9
$DIMTOLJ
 70
     0
  9
$DIMTZIN
 70
    11
  9
$DIMALTZ
 70
    15
  9
$DIMALTTZ
 70
    15
  9
$DIMUPT
 70
     0
  9
$DIMDEC
 70
     0
  9
$DIMTDEC
 70
     0
  9
$DIMALTU
 70
     2
  9
$DIMALTTD
 70
     4
  9
$DIMTXSTY
  7
Style-ENGINEERING
  9
$DIMAUNIT
 70
     0
  9
$DIMADEC
 70
     0
  9
$DIMALTRND
 40
0.0
  9
$DIMAZIN
 70
     3
  9
$DIMDSEP
 70
    46
  9
$DIMATFIT
 70
     3
  9
$DIMFRAC
 70
     2
  9
$DIMLDRBLK
  1
TerminatorOpen_0.5
  9
$DIMLUNIT
 70
     2
  9
$DIMLWD
 70
    -2
  9
$DIMLWE
 70
    -2
  9
$DIMTMOVE
 70
     0
  9
$LUNITS
 70
     2
  9
$LUPREC
 70
     0
  9
$SKETCHINC
 40
0.1
  9
$FILLETRAD
 40
0.5
  9
$AUNITS
 70
     0
  9
$AUPREC
 70
     0
  9
$MENU
  1
.
  9
$ELEVATION
 40
0.0
  9
$PELEVATION
 40
0.0
  9
$THICKNESS
 40
0.0
  9
$LIMCHECK
 70
     0
  9
$CHAMFERA
 40
0.5
  9
$CHAMFERB
 40
0.5
  9
$CHAMFERC
 40
1.0
  9
$CHAMFERD
 40
0.0
  9
$SKPOLY
 70
     0
  9
$TDCREATE
 40
2451789.870802037
  9
$TDUCREATE
 40
2451789.537468704
  9
$TDUPDATE
 40
2451789.87089463
  9
$TDUUPDATE
 40
2451789.537561297
  9
$TDINDWG
 40
0.0000927662
  9
$TDUSRTIMER
 40
0.0000925926
  9
$USRTIMER
 70
     1
  9
$ANGBASE
 50
0.0
  9
$ANGDIR
 70
     0
  9
$PDMODE
 70
     0
  9
$PDSIZE
 40
0.0
  9
$PLINEWID
 40
0.0
  9
$SPLFRAME
 70
     0
  9
$SPLINETYPE
 70
     6
  9
$SPLINESEGS
 70
     8
  9
$HANDSEED
  5
7370E
  9
$SURFTAB1
 70
     6
  9
$SURFTAB2
 70
     6
  9
$SURFTYPE
 70
     6
  9
$SURFU
 70
     6
  9
$SURFV
 70
     6
  9
$UCSBASE
  2

  9
$UCSNAME
  2

  9
$UCSORG
 10
0.0
 20
0.0
 30
0.0
  9
$UCSXDIR
 10
1.0
 20
0.0
 30
0.0
  9
$UCSYDIR
 10
0.0
 20
1.0
 30
0.0
  9
$UCSORTHOREF
  2

  9
$UCSORTHOVIEW
 70
     0
  9
$UCSORGTOP
 10
0.0
 20
0.0
 30
0.0
  9
$UCSORGBOTTOM
 10
0.0
 20
0.0
 30
0.0
  9
$UCSORGLEFT
 10
0.0
 20
0.0
 30
0.0
  9
$UCSORGRIGHT
 10
0.0
 20
0.0
 30
0.0
  9
$UCSORGFRONT
 10
0.0
 20
0.0
 30
0.0
  9
$UCSORGBACK
 10
0.0
 20
0.0
 30
0.0
  9
$PUCSBASE
  2

  9
$PUCSNAME
  2

  9
$PUCSORG
 10
0.0
 20
0.0
 30
0.0
  9
$PUCSXDIR
 10
1.0
 20
0.0
 30
0.0
  9
$PUCSYDIR
 10
0.0
 20
1.0
 30
0.0
  9
$PUCSORTHOREF
  2

  9
$PUCSORTHOVIEW
 70
     0
  9
$PUCSORGTOP
 10
0.0
 20
0.0
 30
0.0
  9
$PUCSORGBOTTOM
 10
0.0
 20
0.0
 30
0.0
  9
$PUCSORGLEFT
 10
0.0
 20
0.0
 30
0.0
  9
$PUCSORGRIGHT
 10
0.0
 20
0.0
 30
0.0
  9
$PUCSORGFRONT
 10
0.0
 20
0.0
 30
0.0
  9
$PUCSORGBACK
 10
0.0
 20
0.0
 30
0.0
  9
$USERI1
 70
     0
  9
$USERI2
 70
     0
  9
$USERI3
 70
     0
  9
$USERI4
 70
     0
  9
$USERI5
 70
     0
  9
$USERR1
 40
0.0
  9
$USERR2
 40
0.0
  9
$USERR3
 40
0.0
  9
$USERR4
 40
0.0
  9
$USERR5
 40
0.0
  9
$WORLDVIEW
 70
     1
  9
$SHADEDGE
 70
     3
  9
$SHADEDIF
 70
    70
  9
$TILEMODE
 70
     1
  9
$MAXACTVP
 70
    64
  9
$PINSBASE
 10
0.0
 20
0.0
 30
0.0
  9
$PLIMCHECK
 70
     0
  9
$PEXTMIN
 10
1.000000E+20
 20
1.000000E+20
 30
1.000000E+20
  9
$PEXTMAX
 10
-1.000000E+20
 20
-1.000000E+20
 30
-1.000000E+20
  9
$PLIMMIN
 10
0.0
 20
0.0
  9
$PLIMMAX
 10
12.0
 20
9.0
  9
$UNITMODE
 70
     0
  9
$VISRETAIN
 70
     1
  9
$PLINEGEN
 70
     0
  9
$PSLTSCALE
 70
     0
  9
$TREEDEPTH
 70
  3020
  9
$CMLSTYLE
  2
Standard
  9
$CMLJUST
 70
     0
  9
$CMLSCALE
 40
1.0
  9
$PROXYGRAPHICS
 70
     1
  9
$MEASUREMENT
 70
     0
  9
$CELWEIGHT
370
     0
  9
$ENDCAPS
280
     0
  9
$JOINSTYLE
280
     0
  9
$LWDISPLAY
290
     1
  9
$INSUNITS
 70
     4
  9
$HYPERLINKBASE
  1

  9
$STYLESHEET
  1

  9
$XEDIT
290
     1
  9
$CEPSNTYPE
380
     0
  9
$PSTYLEMODE
290
     1
  9
$FINGERPRINTGUID
  2
{FDEAD576-A652-11D2-9A35-0060089B3A3F}
  9
$VERSIONGUID
  2
{A257D680-BC79-11D2-9A46-0060089B3A3F}
  9
$EXTNAMES
290
     1
  9
$PSVPSCALE
 40
0.0
  9
$OLESTARTUP
290
     0
  0
ENDSEC
  0
SECTION
  2
CLASSES
  0
CLASS
  1
ACDBDICTIONARYWDFLT
  2
AcDbDictionaryWithDefault
  3
ObjectDBX Classes
 90
        0
280
     0
281
     0
  0
CLASS
  1
ACDBPLACEHOLDER
  2
AcDbPlaceHolder
  3
ObjectDBX Classes
 90
        0
280
     0
281
     0
  0
CLASS
  1
LAYOUT
  2
AcDbLayout
  3
ObjectDBX Classes
 90
        0
280
     0
281
     0
  0
ENDSEC
  0
SECTION
  2
TABLES
  0
TABLE
  2
VPORT
  5
73576
330
0
100
AcDbSymbolTable
 70
     3
  0
VPORT
  5
4B
330
73576
100
AcDbSymbolTableRecord
100
AcDbViewportTableRecord
  2
*ACTIVE
 70
     0
 10
0.0
 20
0.0
 11
1.0
 21
1.0
 12
4452.810134
 22
205.276387
 13
0.0
 23
0.0
 14
1.0
 24
1.0
 15
1.0
 25
1.0
 16
0.0
 26
0.0
 36
1.0
 17
0.0
 27
0.0
 37
0.0
 40
8734.1639
 41
2.064189
 42
50.0
 43
0.0
 44
0.0
 50
0.0
 51
0.0
 71
     0
 72
   100
 73
     1
 74
     2
 75
     0
 76
     0
 77
     0
 78
     1
281
     0
 65
     1
110
0.0
120
0.0
130
0.0
111
1.0
121
0.0
131
0.0
112
0.0
122
1.0
132
0.0
 79
     0
146
0.0
  0
ENDTAB
  0
TABLE
  2
LTYPE
  5
73572
330
0
100
AcDbSymbolTable
 70
     2
  0
LTYPE
  5
73573
330
73572
100
AcDbSymbolTableRecord
100
AcDbLinetypeTableRecord
  2
ByBlock
 70
     0
  3

 72
    65
 73
     0
 40
0.0
  0
LTYPE
  5
73564
330
73572
100
AcDbSymbolTableRecord
100
AcDbLinetypeTableRecord
  2
ByLayer
 70
     0
  3

 72
    65
 73
     0
 40
0.0
  0
LTYPE
  5
73562
330
73572
100
AcDbSymbolTableRecord
100
AcDbLinetypeTableRecord
  2
Continuous
 70
     0
  3
Solid line
 72
    65
 73
     0
 40
0.0
  0
LTYPE
  5
4E1B6
330
73572
100
AcDbSymbolTableRecord
100
AcDbLinetypeTableRecord
  2
Continuous_1
 70
     0
  3

 72
    65
 73
     0
 40
0.0
  0
ENDTAB
  0
TABLE
  2
LAYER
  5
73570
102
{ACAD_XDICTIONARY
360
73581
102
}
330
0
100
AcDbSymbolTable
 70
    65
  0
LAYER
  5
73560
330
73570
100
AcDbSymbolTableRecord
100
AcDbLayerTableRecord
  2
0
 70
     0
 62
     7
  6
Continuous
370
    -3
390
73561
  0
LAYER
  5
7
330
73570
100
AcDbSymbolTableRecord
100
AcDbLayerTableRecord
  2
Level 1
 70
     0
 62
     7
  6
Continuous
370
     0
390
73561
  0
LAYER
  5
8
330
73570
100
AcDbSymbolTableRecord
100
AcDbLayerTableRecord
  2
Level 2
 70
     0
 62
     7
  6
Continuous
370
     0
390
73561
  0
LAYER
  5
9
330
73570
100
AcDbSymbolTableRecord
100
AcDbLayerTableRecord
  2
Level 3
 70
     0
 62
     7
  6
Continuous
370
     0
390
73561
  0
LAYER
  5
A
330
73570
100
AcDbSymbolTableRecord
100
AcDbLayerTableRecord
  2
Level 4
 70
     0
 62
     7
  6
Continuous
370
     0
390
73561
  0
LAYER
  5
B
330
73570
100
AcDbSymbolTableRecord
100
AcDbLayerTableRecord
  2
Level 5
 70
     0
 62
     7
  6
Continuous
370
     0
390
73561
  0
LAYER
  5
C
330
73570
100
AcDbSymbolTableRecord
100
AcDbLayerTableRecord
  2
Level 6
 70
     0
 62
     7
  6
Continuous
370
     0
390
73561
  0
LAYER
  5
D
330
73570
100
AcDbSymbolTableRecord
100
AcDbLayerTableRecord
  2
Level 7
 70
     0
 62
     7
  6
Continuous
370
     0
390
73561
  0
LAYER
  5
E
330
73570
100
AcDbSymbolTableRecord
100
AcDbLayerTableRecord
  2
Level 8
 70
     0
 62
     7
  6
Continuous
370
     0
390
73561
  0
LAYER
  5
F
330
73570
100
AcDbSymbolTableRecord
100
AcDbLayerTableRecord
  2
Level 9
 70
     0
 62
     7
  6
Continuous
370
     0
390
73561
  0
LAYER
  5
10
330
73570
100
AcDbSymbolTableRecord
100
AcDbLayerTableRecord
  2
Level 10
 70
     0
 62
     7
  6
Continuous
370
     0
390
73561
  0
LAYER
  5
11
330
73570
100
AcDbSymbolTableRecord
100
AcDbLayerTableRecord
  2
Level 11
 70
     0
 62
     7
  6
Continuous
370
     0
390
73561
  0
LAYER
  5
12
330
73570
100
AcDbSymbolTableRecord
100
AcDbLayerTableRecord
  2
Level 12
 70
     0
 62
     7
  6
Continuous
370
     0
390
73561
  0
LAYER
  5
13
330
73570
100
AcDbSymbolTableRecord
100
AcDbLayerTableRecord
  2
Level 13
 70
     0
 62
     7
  6
Continuous
370
     0
390
73561
  0
LAYER
  5
14
330
73570
100
AcDbSymbolTableRecord
100
AcDbLayerTableRecord
  2
Level 14
 70
     0
 62
     7
  6
Continuous
370
     0
390
73561
  0
LAYER
  5
15
330
73570
100
AcDbSymbolTableRecord
100
AcDbLayerTableRecord
  2
Level 15
 70
     0
 62
     7
  6
Continuous
370
     0
390
73561
  0
LAYER
  5
16
330
73570
100
AcDbSymbolTableRecord
100
AcDbLayerTableRecord
  2
Level 16
 70
     0
 62
     7
  6
Continuous
370
     0
390
73561
  0
LAYER
  5
17
330
73570
100
AcDbSymbolTableRecord
100
AcDbLayerTableRecord
  2
Level 17
 70
     0
 62
     7
  6
Continuous
370
     0
390
73561
  0
LAYER
  5
18
330
73570
100
AcDbSymbolTableRecord
100
AcDbLayerTableRecord
  2
Level 18
 70
     0
 62
     7
  6
Continuous
370
     0
390
73561
  0
LAYER
  5
19
330
73570
100
AcDbSymbolTableRecord
100
AcDbLayerTableRecord
  2
Level 19
 70
     0
 62
     7
  6
Continuous
370
     0
390
73561
  0
LAYER
  5
1A
330
73570
100
AcDbSymbolTableRecord
100
AcDbLayerTableRecord
  2
Level 20
 70
     0
 62
     7
  6
Continuous
370
     0
390
73561
  0
LAYER
  5
1B
330
73570
100
AcDbSymbolTableRecord
100
AcDbLayerTableRecord
  2
Level 21
 70
     0
 62
     7
  6
Continuous
370
     0
390
73561
  0
LAYER
  5
1C
330
73570
100
AcDbSymbolTableRecord
100
AcDbLayerTableRecord
  2
Level 22
 70
     0
 62
     7
  6
Continuous
370
     0
390
73561
  0
LAYER
  5
1D
330
73570
100
AcDbSymbolTableRecord
100
AcDbLayerTableRecord
  2
Level 23
 70
     0
 62
     7
  6
Continuous
370
     0
390
73561
  0
LAYER
  5
1E
330
73570
100
AcDbSymbolTableRecord
100
AcDbLayerTableRecord
  2
Level 24
 70
     0
 62
     7
  6
Continuous
370
     0
390
73561
  0
LAYER
  5
1F
330
73570
100
AcDbSymbolTableRecord
100
AcDbLayerTableRecord
  2
Level 25
 70
     0
 62
     7
  6
Continuous
370
     0
390
73561
  0
LAYER
  5
20
330
73570
100
AcDbSymbolTableRecord
100
AcDbLayerTableRecord
  2
Level 26
 70
     0
 62
     7
  6
Continuous
370
     0
390
73561
  0
LAYER
  5
21
330
73570
100
AcDbSymbolTableRecord
100
AcDbLayerTableRecord
  2
Level 27
 70
     0
 62
     7
  6
Continuous
370
     0
390
73561
  0
LAYER
  5
22
330
73570
100
AcDbSymbolTableRecord
100
AcDbLayerTableRecord
  2
Level 28
 70
     0
 62
     7
  6
Continuous
370
     0
390
73561
  0
LAYER
  5
23
330
73570
100
AcDbSymbolTableRecord
100
AcDbLayerTableRecord
  2
Level 29
 70
     0
 62
     7
  6
Continuous
370
     0
390
73561
  0
LAYER
  5
24
330
73570
100
AcDbSymbolTableRecord
100
AcDbLayerTableRecord
  2
Level 30
 70
     0
 62
     7
  6
Continuous
370
     0
390
73561
  0
LAYER
  5
25
330
73570
100
AcDbSymbolTableRecord
100
AcDbLayerTableRecord
  2
Level 31
 70
     0
 62
     7
  6
Continuous
370
     0
390
73561
  0
LAYER
  5
26
330
73570
100
AcDbSymbolTableRecord
100
AcDbLayerTableRecord
  2
Level 32
 70
     0
 62
     7
  6
Continuous
370
     0
390
73561
  0
LAYER
  5
27
330
73570
100
AcDbSymbolTableRecord
100
AcDbLayerTableRecord
  2
Level 33
 70
     0
 62
     7
  6
Continuous
370
     0
390
73561
  0
LAYER
  5
28
330
73570
100
AcDbSymbolTableRecord
100
AcDbLayerTableRecord
  2
Level 34
 70
     0
 62
     7
  6
Continuous
370
     0
390
73561
  0
LAYER
  5
29
330
73570
100
AcDbSymbolTableRecord
100
AcDbLayerTableRecord
  2
Level 35
 70
     0
 62
     7
  6
Continuous
370
     0
390
73561
  0
LAYER
  5
2A
330
73570
100
AcDbSymbolTableRecord
100
AcDbLayerTableRecord
  2
Level 36
 70
     0
 62
     7
  6
Continuous
370
     0
390
73561
  0
LAYER
  5
2B
330
73570
100
AcDbSymbolTableRecord
100
AcDbLayerTableRecord
  2
Level 37
 70
     0
 62
     7
  6
Continuous
370
     0
390
73561
  0
LAYER
  5
2C
330
73570
100
AcDbSymbolTableRecord
100
AcDbLayerTableRecord
  2
Level 38
 70
     0
 62
     7
  6
Continuous
370
     0
390
73561
  0
LAYER
  5
2D
330
73570
100
AcDbSymbolTableRecord
100
AcDbLayerTableRecord
  2
Level 39
 70
     0
 62
     7
  6
Continuous
370
     0
390
73561
  0
LAYER
  5
2E
330
73570
100
AcDbSymbolTableRecord
100
AcDbLayerTableRecord
  2
Level 40
 70
     0
 62
     7
  6
Continuous
370
     0
390
73561
  0
LAYER
  5
2F
330
73570
100
AcDbSymbolTableRecord
100
AcDbLayerTableRecord
  2
Level 41
 70
     0
 62
     7
  6
Continuous
370
     0
390
73561
  0
LAYER
  5
30
330
73570
100
AcDbSymbolTableRecord
100
AcDbLayerTableRecord
  2
Level 42
 70
     0
 62
     7
  6
Continuous
370
     0
390
73561
  0
LAYER
  5
31
330
73570
100
AcDbSymbolTableRecord
100
AcDbLayerTableRecord
  2
Level 43
 70
     0
 62
     7
  6
Continuous
370
     0
390
73561
  0
LAYER
  5
32
330
73570
100
AcDbSymbolTableRecord
100
AcDbLayerTableRecord
  2
Level 44
 70
     0
 62
     7
  6
Continuous
370
     0
390
73561
  0
LAYER
  5
33
330
73570
100
AcDbSymbolTableRecord
100
AcDbLayerTableRecord
  2
Level 45
 70
     0
 62
     7
  6
Continuous
370
     0
390
73561
  0
LAYER
  5
34
330
73570
100
AcDbSymbolTableRecord
100
AcDbLayerTableRecord
  2
Level 46
 70
     0
 62
     7
  6
Continuous
370
     0
390
73561
  0
LAYER
  5
35
330
73570
100
AcDbSymbolTableRecord
100
AcDbLayerTableRecord
  2
Level 47
 70
     0
 62
     7
  6
Continuous
370
     0
390
73561
  0
LAYER
  5
36
330
73570
100
AcDbSymbolTableRecord
100
AcDbLayerTableRecord
  2
Level 48
 70
     0
 62
     7
  6
Continuous
370
     0
390
73561
  0
LAYER
  5
37
330
73570
100
AcDbSymbolTableRecord
100
AcDbLayerTableRecord
  2
Level 49
 70
     0
 62
     7
  6
Continuous
370
     0
390
73561
  0
LAYER
  5
38
330
73570
100
AcDbSymbolTableRecord
100
AcDbLayerTableRecord
  2
Level 50
 70
     0
 62
     7
  6
Continuous
370
     0
390
73561
  0
LAYER
  5
39
330
73570
100
AcDbSymbolTableRecord
100
AcDbLayerTableRecord
  2
Level 51
 70
     0
 62
     7
  6
Continuous
370
     0
390
73561
  0
LAYER
  5
3A
330
73570
100
AcDbSymbolTableRecord
100
AcDbLayerTableRecord
  2
Level 52
 70
     0
 62
     7
  6
Continuous
370
     0
390
73561
  0
LAYER
  5
3B
330
73570
100
AcDbSymbolTableRecord
100
AcDbLayerTableRecord
  2
Level 53
 70
     0
 62
     7
  6
Continuous
370
     0
390
73561
  0
LAYER
  5
3C
330
73570
100
AcDbSymbolTableRecord
100
AcDbLayerTableRecord
  2
Level 54
 70
     0
 62
     7
  6
Continuous
370
     0
390
73561
  0
LAYER
  5
3D
330
73570
100
AcDbSymbolTableRecord
100
AcDbLayerTableRecord
  2
Level 55
 70
     0
 62
     7
  6
Continuous
370
     0
390
73561
  0
LAYER
  5
3E
330
73570
100
AcDbSymbolTableRecord
100
AcDbLayerTableRecord
  2
Level 56
 70
     0
 62
     7
  6
Continuous
370
     0
390
73561
  0
LAYER
  5
3F
330
73570
100
AcDbSymbolTableRecord
100
AcDbLayerTableRecord
  2
Level 57
 70
     0
 62
     7
  6
Continuous
370
     0
390
73561
  0
LAYER
  5
40
330
73570
100
AcDbSymbolTableRecord
100
AcDbLayerTableRecord
  2
Level 58
 70
     0
 62
     7
  6
Continuous
370
     0
390
73561
  0
LAYER
  5
41
330
73570
100
AcDbSymbolTableRecord
100
AcDbLayerTableRecord
  2
Level 59
 70
     0
 62
     7
  6
Continuous
370
     0
390
73561
  0
LAYER
  5
42
330
73570
100
AcDbSymbolTableRecord
100
AcDbLayerTableRecord
  2
Level 60
 70
     0
 62
     7
  6
Continuous
370
     0
390
73561
  0
LAYER
  5
43
330
73570
100
AcDbSymbolTableRecord
100
AcDbLayerTableRecord
  2
Level 61
 70
     0
 62
     7
  6
Continuous
370
     0
390
73561
  0
LAYER
  5
44
330
73570
100
AcDbSymbolTableRecord
100
AcDbLayerTableRecord
  2
Level 62
 70
     0
 62
     7
  6
Continuous
370
     0
390
73561
  0
LAYER
  5
45
330
73570
100
AcDbSymbolTableRecord
100
AcDbLayerTableRecord
  2
Level 63
 70
     0
 62
     7
  6
Continuous
370
     0
390
73561
  0
LAYER
  5
50CA0
330
73570
100
AcDbSymbolTableRecord
100
AcDbLayerTableRecord
  2
25
 70
     0
 62
     7
  6
Continuous
370
     0
390
73561
  0
ENDTAB
  0
TABLE
  2
STYLE
  5
73571
330
0
100
AcDbSymbolTable
 70
     2
  0
STYLE
  5
73563
330
73571
100
AcDbSymbolTableRecord
100
AcDbTextStyleTableRecord
  2
Standard
 70
     0
 40
0.0
 41
1.0
 50
0.0
 71
     0
 42
100.0
  3
txt
  4

  0
STYLE
  5
7358B
330
73571
100
AcDbSymbolTableRecord
100
AcDbTextStyleTableRecord
  2
Style-ENGINEERING
 70
     0
 40
0.0
 41
1.0
 50
0.0
 71
     0
 42
0.2
  3
ENGINEERING.shx
  4

  0
ENDTAB
  0
TABLE
  2
VIEW
  5
73574
330
0
100
AcDbSymbolTable
 70
     0
  0
ENDTAB
  0
TABLE
  2
UCS
  5
73575
330
0
100
AcDbSymbolTable
 70
     0
  0
ENDTAB
  0
TABLE
  2
APPID
  5
73577
330
0
100
AcDbSymbolTable
 70
     1
  0
APPID
  5
7357F
330
73577
100
AcDbSymbolTableRecord
100
AcDbRegAppTableRecord
  2
ACAD
 70
     0
  0
ENDTAB
  0
TABLE
  2
DIMSTYLE
  5
73578
330
0
100
AcDbSymbolTable
 70
     1
100
AcDbDimStyleTable
  0
DIMSTYLE
105
73565
330
73578
100
AcDbSymbolTableRecord
100
AcDbDimStyleTableRecord
  2
Standard
 70
     0
340
73563
  0
ENDTAB
  0
TABLE
  2
BLOCK_RECORD
  5
73567
330
0
100
AcDbSymbolTable
 70
    52
  0
BLOCK_RECORD
  5
73568
330
73567
100
AcDbSymbolTableRecord
100
AcDbBlockTableRecord
  2
*Model_Space
340
7356B
  0
BLOCK_RECORD
  5
7356C
330
73567
100
AcDbSymbolTableRecord
100
AcDbBlockTableRecord
  2
*Paper_Space
340
7356F
  0
BLOCK_RECORD
  5
734B9
330
73567
100
AcDbSymbolTableRecord
100
AcDbBlockTableRecord
  2
*U0
340
0
  0
BLOCK_RECORD
  5
734C3
330
73567
100
AcDbSymbolTableRecord
100
AcDbBlockTableRecord
  2
*U1
340
0
  0
BLOCK_RECORD
  5
734CD
330
73567
100
AcDbSymbolTableRecord
100
AcDbBlockTableRecord
  2
*U2
340
0
  0
BLOCK_RECORD
  5
734D2
330
73567
100
AcDbSymbolTableRecord
100
AcDbBlockTableRecord
  2
*U3
340
0
  0
BLOCK_RECORD
  5
7358C
330
73567
100
AcDbSymbolTableRecord
100
AcDbBlockTableRecord
  2
TerminatorOpen_0.5
340
0
  0
BLOCK_RECORD
  5
73593
330
73567
100
AcDbSymbolTableRecord
100
AcDbBlockTableRecord
  2
FS22
340
0
102
{BLKREFS
331
73276
102
}
  0
BLOCK_RECORD
  5
73596
330
73567
100
AcDbSymbolTableRecord
100
AcDbBlockTableRecord
  2
Smart Surface
340
0
102
{BLKREFS
331
732B1
102
}
  0
BLOCK_RECORD
  5
73599
330
73567
100
AcDbSymbolTableRecord
100
AcDbBlockTableRecord
  2
From Bspline Surface
340
0
102
{BLKREFS
331
734DF
102
}
  0
BLOCK_RECORD
  5
7359C
330
73567
100
AcDbSymbolTableRecord
100
AcDbBlockTableRecord
  2
Smart Surface_1
340
0
102
{BLKREFS
331
732BB
102
}
  0
BLOCK_RECORD
  5
7359F
330
73567
100
AcDbSymbolTableRecord
100
AcDbBlockTableRecord
  2
From Bspline Surface_1
340
0
102
{BLKREFS
331
734F5
102
}
  0
BLOCK_RECORD
  5
735A2
330
73567
100
AcDbSymbolTableRecord
100
AcDbBlockTableRecord
  2
Smart Surface_2
340
0
102
{BLKREFS
331
732C5
102
}
  0
BLOCK_RECORD
  5
735A5
330
73567
100
AcDbSymbolTableRecord
100
AcDbBlockTableRecord
  2
From Bspline Surface_2
340
0
102
{BLKREFS
331
7350B
102
}
  0
BLOCK_RECORD
  5
735A8
330
73567
100
AcDbSymbolTableRecord
100
AcDbBlockTableRecord
  2
Smart Surface_3
340
0
102
{BLKREFS
331
732CF
102
}
  0
BLOCK_RECORD
  5
735AB
330
73567
100
AcDbSymbolTableRecord
100
AcDbBlockTableRecord
  2
From Bspline Surface_3
340
0
102
{BLKREFS
331
73521
102
}
  0
BLOCK_RECORD
  5
735AE
330
73567
100
AcDbSymbolTableRecord
100
AcDbBlockTableRecord
  2
Smart Solid
340
0
102
{BLKREFS
331
73327
102
}
  0
BLOCK_RECORD
  5
735B1
330
73567
100
AcDbSymbolTableRecord
100
AcDbBlockTableRecord
  2
Smart Solid_1
340
0
102
{BLKREFS
331
7332C
102
}
  0
BLOCK_RECORD
  5
735B4
330
73567
100
AcDbSymbolTableRecord
100
AcDbBlockTableRecord
  2
Smart Solid_2
340
0
102
{BLKREFS
331
73331
102
}
  0
BLOCK_RECORD
  5
735B7
330
73567
100
AcDbSymbolTableRecord
100
AcDbBlockTableRecord
  2
Smart Solid_3
340
0
102
{BLKREFS
331
73339
102
}
  0
BLOCK_RECORD
  5
735BA
330
73567
100
AcDbSymbolTableRecord
100
AcDbBlockTableRecord
  2
Smart Solid_4
340
0
102
{BLKREFS
331
73342
102
}
  0
BLOCK_RECORD
  5
735BD
330
73567
100
AcDbSymbolTableRecord
100
AcDbBlockTableRecord
  2
Smart Solid_5
340
0
102
{BLKREFS
331
73354
102
}
  0
BLOCK_RECORD
  5
735C0
330
73567
100
AcDbSymbolTableRecord
100
AcDbBlockTableRecord
  2
Smart Solid_6
340
0
102
{BLKREFS
331
7335C
102
}
  0
BLOCK_RECORD
  5
735C3
330
73567
100
AcDbSymbolTableRecord
100
AcDbBlockTableRecord
  2
Smart Solid_7
340
0
102
{BLKREFS
331
73365
102
}
  0
BLOCK_RECORD
  5
735C6
330
73567
100
AcDbSymbolTableRecord
100
AcDbBlockTableRecord
  2
Smart Solid_8
340
0
102
{BLKREFS
331
7336D
102
}
  0
BLOCK_RECORD
  5
735C9
330
73567
100
AcDbSymbolTableRecord
100
AcDbBlockTableRecord
  2
Smart Solid_9
340
0
102
{BLKREFS
331
73375
102
}
  0
BLOCK_RECORD
  5
735CC
330
73567
100
AcDbSymbolTableRecord
100
AcDbBlockTableRecord
  2
Smart Solid_10
340
0
102
{BLKREFS
331
7337D
102
}
  0
BLOCK_RECORD
  5
735CF
330
73567
100
AcDbSymbolTableRecord
100
AcDbBlockTableRecord
  2
Smart Solid_11
340
0
102
{BLKREFS
331
73385
102
}
  0
BLOCK_RECORD
  5
735D2
330
73567
100
AcDbSymbolTableRecord
100
AcDbBlockTableRecord
  2
Smart Solid_12
340
0
102
{BLKREFS
331
7338B
102
}
  0
BLOCK_RECORD
  5
735D5
330
73567
100
AcDbSymbolTableRecord
100
AcDbBlockTableRecord
  2
Smart Solid_13
340
0
102
{BLKREFS
331
73391
102
}
  0
BLOCK_RECORD
  5
735D8
330
73567
100
AcDbSymbolTableRecord
100
AcDbBlockTableRecord
  2
Smart Solid_14
340
0
102
{BLKREFS
331
73397
102
}
  0
BLOCK_RECORD
  5
735DB
330
73567
100
AcDbSymbolTableRecord
100
AcDbBlockTableRecord
  2
Smart Solid_15
340
0
102
{BLKREFS
331
7339D
102
}
  0
BLOCK_RECORD
  5
735DE
330
73567
100
AcDbSymbolTableRecord
100
AcDbBlockTableRecord
  2
Smart Solid_16
340
0
102
{BLKREFS
331
733A7
102
}
  0
BLOCK_RECORD
  5
735E1
330
73567
100
AcDbSymbolTableRecord
100
AcDbBlockTableRecord
  2
Smart Solid_17
340
0
102
{BLKREFS
331
733B1
102
}
  0
BLOCK_RECORD
  5
735E4
330
73567
100
AcDbSymbolTableRecord
100
AcDbBlockTableRecord
  2
Smart Solid_18
340
0
102
{BLKREFS
331
733BB
102
}
  0
BLOCK_RECORD
  5
735E7
330
73567
100
AcDbSymbolTableRecord
100
AcDbBlockTableRecord
  2
Smart Solid_19
340
0
102
{BLKREFS
331
733C5
102
}
  0
BLOCK_RECORD
  5
735EA
330
73567
100
AcDbSymbolTableRecord
100
AcDbBlockTableRecord
  2
Smart Solid_20
340
0
102
{BLKREFS
331
733CE
102
}
  0
BLOCK_RECORD
  5
735ED
330
73567
100
AcDbSymbolTableRecord
100
AcDbBlockTableRecord
  2
Smart Solid_21
340
0
102
{BLKREFS
331
733D6
102
}
  0
BLOCK_RECORD
  5
735F0
330
73567
100
AcDbSymbolTableRecord
100
AcDbBlockTableRecord
  2
Smart Solid_22
340
0
102
{BLKREFS
331
733DF
102
}
  0
BLOCK_RECORD
  5
735F3
330
73567
100
AcDbSymbolTableRecord
100
AcDbBlockTableRecord
  2
Smart Solid_23
340
0
102
{BLKREFS
331
733E7
102
}
  0
BLOCK_RECORD
  5
735F6
330
73567
100
AcDbSymbolTableRecord
100
AcDbBlockTableRecord
  2
Smart Solid_24
340
0
102
{BLKREFS
331
733EC
102
}
  0
BLOCK_RECORD
  5
735F9
330
73567
100
AcDbSymbolTableRecord
100
AcDbBlockTableRecord
  2
Feature Solid
340
0
102
{BLKREFS
331
733F1
102
}
  0
BLOCK_RECORD
  5
735FC
330
73567
100
AcDbSymbolTableRecord
100
AcDbBlockTableRecord
  2
THICKN
340
0
102
{BLKREFS
331
733F2
102
}
  0
BLOCK_RECORD
  5
735FF
330
73567
100
AcDbSymbolTableRecord
100
AcDbBlockTableRecord
  2
SUBTRC
340
0
102
{BLKREFS
331
733F3
102
}
  0
BLOCK_RECORD
  5
73602
330
73567
100
AcDbSymbolTableRecord
100
AcDbBlockTableRecord
  2
Feature Solid_1
340
0
102
{BLKREFS
331
733F6
102
}
  0
BLOCK_RECORD
  5
73605
330
73567
100
AcDbSymbolTableRecord
100
AcDbBlockTableRecord
  2
SHEET
340
0
102
{BLKREFS
331
733F7
102
}
  0
BLOCK_RECORD
  5
73608
330
73567
100
AcDbSymbolTableRecord
100
AcDbBlockTableRecord
  2
Feature Solid_2
340
0
102
{BLKREFS
331
7344C
102
}
  0
BLOCK_RECORD
  5
7360B
330
73567
100
AcDbSymbolTableRecord
100
AcDbBlockTableRecord
  2
SUBTRC_1
340
0
102
{BLKREFS
331
7344D
102
}
  0
BLOCK_RECORD
  5
7360E
330
73567
100
AcDbSymbolTableRecord
100
AcDbBlockTableRecord
  2
Feature Solid_3
340
0
102
{BLKREFS
331
73450
102
}
  0
BLOCK_RECORD
  5
73611
330
73567
100
AcDbSymbolTableRecord
100
AcDbBlockTableRecord
  2
SHEET_1
340
0
102
{BLKREFS
331
73451
102
}
  0
BLOCK_RECORD
  5
73614
330
73567
100
AcDbSymbolTableRecord
100
AcDbBlockTableRecord
  2
Feature Solid_4
340
0
102
{BLKREFS
331
73460
102
}
  0
BLOCK_RECORD
  5
73617
330
73567
100
AcDbSymbolTableRecord
100
AcDbBlockTableRecord
  2
CONE
340
0
102
{BLKREFS
331
73461
102
}
  0
BLOCK_RECORD
  5
7361A
330
73567
100
AcDbSymbolTableRecord
100
AcDbBlockTableRecord
  2
Feature Solid_5
340
0
102
{BLKREFS
331
73468
102
}
  0
BLOCK_RECORD
  5
7361D
330
73567
100
AcDbSymbolTableRecord
100
AcDbBlockTableRecord
  2
CONE_1
340
0
102
{BLKREFS
331
73469
102
}
  0
ENDTAB
  0
ENDSEC
  0
SECTION
  2
BLOCKS
  0
BLOCK
  5
73569
330
73568
100
AcDbEntity
  8
0
100
AcDbBlockBegin
  2
*Model_Space
 70
     0
 71
     0
 10
0.0
 20
0.0
 30
0.0
  3
*Model_Space
  1

  0
ENDBLK
  5
7356A
330
73568
100
AcDbEntity
  8
0
100
AcDbBlockEnd
  0
BLOCK
  5
7356D
330
7356C
100
AcDbEntity
 67
     1
  8
0
100
AcDbBlockBegin
  2
*Paper_Space
 70
     0
 71
     0
 10
0.0
 20
0.0
 30
0.0
  3
*Paper_Space
  1

  0
ENDBLK
  5
7356E
330
7356C
100
AcDbEntity
 67
     1
  8
0
100
AcDbBlockEnd
  0
BLOCK
  5
73583
330
734B9
100
AcDbEntity
  8
0
100
AcDbBlockBegin
  2
*U0
 70
     1
 71
     0
 10
0.0
 20
0.0
 30
0.0
  3
*U0
  1

  0
LWPOLYLINE
  5
734BA
330
734B9
100
AcDbEntity
  8
0
100
AcDbPolyline
 90
        8
 70
   129
 43
0.0
 38
-0.000208
 10
-2.706006
 20
2.206183
 42
-0.414214
 10
-2.206006
 20
2.706183
 10
2.205994
 20
2.706183
 42
-0.414214
 10
2.705994
 20
2.206183
 10
2.705994
 20
-2.205817
 42
-0.414214
 10
2.205994
 20
-2.705817
 10
-2.206006
 20
-2.705817
 42
-0.414214
 10
-2.706006
 20
-2.205817
  0
ENDBLK
  5
73584
330
734B9
100
AcDbEntity
  8
0
100
AcDbBlockEnd
  0
BLOCK
  5
73585
330
734C3
100
AcDbEntity
  8
0
100
AcDbBlockBegin
  2
*U1
 70
     1
 71
     0
 10
0.0
 20
0.0
 30
0.0
  3
*U1
  1

  0
SPLINE
  5
734C4
330
734C3
100
AcDbEntity
  8
0
100
AcDbSpline
210
0.0
220
0.0
230
1.0
 70
    15
 71
     2
 72
    20
 73
    17
 74
     0
 42
0.0000000001
 43
0.00000001
 40
0.0
 40
0.0
 40
0.0
 40
0.125
 40
0.125
 40
0.25
 40
0.25
 40
0.375
 40
0.375
 40
0.5
 40
0.5
 40
0.625
 40
0.625
 40
0.75
 40
0.75
 40
0.875
 40
0.875
 40
1.0
 40
1.0
 40
1.0
 10
-2.889005237981165
 20
-2.19790164735671
 30
-0.0002084152535735
 41
1.0
 10
-2.889005237981166
 20
-0.0003170502361309
 30
-0.0002084152535735
 41
1.0
 10
-2.889005237981166
 20
2.197267546884448
 30
-0.0002084152535735
 41
1.0
 10
-2.889005237981166
 20
2.889181737435326
 30
-0.0002084152535735
 41
0.7151814047843484
 10
-2.19709104743029
 20
2.889181737435324
 30
-0.0002084152535735
 41
1.0
 10
0.0004935496902881
 20
2.889181737435322
 30
-0.0002084152535735
 41
1.0
 10
2.198078146810867
 20
2.889181737435322
 30
-0.0002084152535735
 41
1.0
 10
2.889992337361742
 20
2.889181737435325
 30
-0.0002084152535735
 41
0.7151814047843487
 10
2.889992337361741
 20
2.197267546884449
 30
-0.0002084152535735
 41
1.0
 10
2.889992337361742
 20
-0.0003170502361309
 30
-0.0002084152535735
 41
1.0
 10
2.889992337361742
 20
-2.19790164735671
 30
-0.0002084152535735
 41
1.0
 10
2.889992337361744
 20
-2.889815837907589
 30
-0.0002084152535735
 41
0.715181404784348
 10
2.198078146810868
 20
-2.889815837907587
 30
-0.0002084152535735
 41
1.0
 10
0.0004935496902876
 20
-2.889815837907586
 30
-0.0002084152535735
 41
1.0
 10
-2.197091047430292
 20
-2.889815837907585
 30
-0.0002084152535735
 41
1.0
 10
-2.889005237981166
 20
-2.889815837907585
 30
-0.0002084152535735
 41
0.7151814047843491
 10
-2.889005237981165
 20
-2.19790164735671
 30
-0.0002084152535735
 41
1.0
  0
ENDBLK
  5
73586
330
734C3
100
AcDbEntity
  8
0
100
AcDbBlockEnd
  0
BLOCK
  5
73587
330
734CD
100
AcDbEntity
  8
0
100
AcDbBlockBegin
  2
*U2
 70
     1
 71
     0
 10
0.0
 20
0.0
 30
0.0
  3
*U2
  1

  0
LWPOLYLINE
  5
734CE
330
734CD
100
AcDbEntity
  8
0
  6
Continuous
 62
    98
370
     0
100
AcDbPolyline
 90
        3
 70
   129
 43
0.0
 38
-0.000101
 10
22.441331
 20
-38.582796
 10
-22.440559
 20
38.582558
 10
-22.440559
 20
-38.582796
210
1.0
220
0.0
230
0.0
  0
ENDBLK
  5
73588
330
734CD
100
AcDbEntity
  8
0
100
AcDbBlockEnd
  0
BLOCK
  5
73589
330
734D2
100
AcDbEntity
  8
0
100
AcDbBlockBegin
  2
*U3
 70
     1
 71
     0
 10
0.0
 20
0.0
 30
0.0
  3
*U3
  1

  0
LWPOLYLINE
  5
734D3
330
734D2
100
AcDbEntity
  8
0
  6
Continuous
 62
    98
370
     0
100
AcDbPolyline
 90
       11
 70
   129
 43
0.0
 38
-0.000101
 10
61.41748
 20
-15.747978
 10
-7.086457
 20
100.787456
 10
-40.157323
 20
100.787456
 10
-40.157323
 20
-25.196796
 10
-61.417165
 20
-25.196796
 10
-61.417165
 20
-58.267663
 10
-40.157323
 20
-58.267663
 10
-40.157323
 20
-100.787348
 10
-8.267559
 20
-100.787348
 10
-8.267559
 20
-58.267663
 10
61.41748
 20
-58.267663
210
1.0
220
0.0
230
0.0
  0
ENDBLK
  5
7358A
330
734D2
100
AcDbEntity
  8
0
100
AcDbBlockEnd
  0
BLOCK
  5
73590
330
7358C
100
AcDbEntity
  8
0
100
AcDbBlockBegin
  2
TerminatorOpen_0.5
 70
     0
 71
     0
 10
0.0
 20
0.0
 30
0.0
  3
TerminatorOpen_0.5
  1

  0
LINE
  5
7358D
330
7358C
100
AcDbEntity
  8
0
  6
ByBlock
 62
     0
370
    -2
100
AcDbLine
 10
0.0
 20
0.0
 30
0.0
 11
-1.0
 21
0.0
 31
0.0
  0
LINE
  5
7358E
330
7358C
100
AcDbEntity
  8
0
  6
ByBlock
 62
     0
370
    -2
100
AcDbLine
 10
0.0
 20
0.0
 30
0.0
 11
-1.0
 21
0.25
 31
0.0
  0
LINE
  5
7358F
330
7358C
100
AcDbEntity
  8
0
  6
ByBlock
 62
     0
370
    -2
100
AcDbLine
 10
0.0
 20
0.0
 30
0.0
 11
-1.0
 21
-0.25
 31
0.0
  0
ENDBLK
  5
73591
330
7358C
100
AcDbEntity
  8
0
100
AcDbBlockEnd
  0
BLOCK
  5
73594
330
73593
100
AcDbEntity
  8
0
100
AcDbBlockBegin
  2
FS22
 70
     0
 71
     0
 10
0.0
 20
0.0
 30
0.0
  3
FS22
  1

  0
SPLINE
  5
73277
330
73593
100
AcDbEntity
  8
Level 27
 62
    12
100
AcDbSpline
210
0.0
220
0.0
230
1.0
 70
    15
 71
     2
 72
    14
 73
    11
 74
     0
 42
0.0000000001
 43
0.00000001
 40
0.0
 40
0.0
 40
0.0
 40
0.2
 40
0.2
 40
0.4
 40
0.4
 40
0.6
 40
0.6
 40
0.8
 40
0.8
 40
1.0
 40
1.0
 40
1.0
 10
-212.2263748649643
 20
-217.22637486488
 30
0.0
 41
1.0
 10
-108.6131874324842
 20
-113.6131874324004
 30
0.0
 41
1.0
 10
-5.000000000004093
 20
-9.999999999920817
 30
0.0
 41
1.0
 10
-5.000000000004093
 20
-71.55771082639973
 30
0.0
 41
1.0
 10
-5.000000000004093
 20
-133.1154216528786
 30
0.0
 41
1.0
 10
-50.68568074256973
 20
-178.8011023954435
 30
0.0
 41
1.0
 10
-96.37136148513537
 20
-224.4867831380083
 30
0.0
 41
1.0
 10
-123.5494976434852
 20
-227.145162215685
 30
0.0
 41
1.0
 10
-150.7276338018351
 20
-229.8035412933617
 30
0.0
 41
1.0
 10
-184.9834330458411
 20
-233.1542088839882
 30
0.0
 41
0.9341765546320838
 10
-212.2263748649643
 20
-217.22637486488
 30
0.0
 41
1.0
  0
SPLINE
  5
7327D
330
73593
100
AcDbEntity
  8
Level 27
 62
    12
100
AcDbSpline
210
0.0
220
0.0
230
1.0
 70
    15
 71
     2
 72
    14
 73
    11
 74
     0
 42
0.0000000001
 43
0.00000001
 40
0.0
 40
0.0
 40
0.0
 40
0.2
 40
0.2
 40
0.4
 40
0.4
 40
0.6
 40
0.6
 40
0.8
 40
0.8
 40
1.0
 40
1.0
 40
1.0
 10
-0.0000000000004547
 20
138.115421652752
 30
0.0
 41
1.0
 10
-0.0000000000004547
 20
74.05771082641559
 30
0.0
 41
1.0
 10
-0.0000000000004547
 20
10.00000000007918
 30
0.0
 41
1.0
 10
103.2328022670909
 20
113.2328022671703
 30
0.0
 41
1.0
 10
206.4656045341822
 20
216.4656045342614
 30
0.0
 41
1.0
 10
181.9498274141542
 20
229.2719641665241
 30
0.0
 41
0.9428394124266371
 10
152.2314531251241
 20
226.365116398434
 30
0.0
 41
1.0
 10
116.7721919430546
 20
222.8967344061094
 30
0.0
 41
1.0
 10
81.31293076098655
 20
219.4283524137857
 30
0.0
 41
1.0
 10
40.65646538043802
 20
178.7718870332874
 30
0.0
 41
1.0
 10
-0.0000000000004547
 20
138.115421652752
 30
0.0
 41
1.0
  0
LWPOLYLINE
  5
73283
330
73593
100
AcDbEntity
  8
Level 27
 62
    12
100
AcDbPolyline
 90
        4
 70
   129
 43
0.0
 10
-5.0
 20
133.115422
 10
-133.115422
 20
5.0
 10
-10.0
 20
5.0
 42
0.414214
 10
-5.0
 20
10.0
  0
SPLINE
  5
73288
330
73593
100
AcDbEntity
  8
Level 27
 62
    12
100
AcDbSpline
210
0.0
220
0.0
230
1.0
 70
    15
 71
     2
 72
    14
 73
    11
 74
     0
 42
0.0000000001
 43
0.00000001
 40
0.0
 40
0.0
 40
0.0
 40
0.2
 40
0.2
 40
0.4
 40
0.4
 40
0.6
 40
0.6
 40
0.8
 40
0.8
 40
1.0
 40
1.0
 40
1.0
 10
9.999999999992269
 20
0.0000000000731575
 30
0.0
 41
1.0
 10
74.05771082638512
 20
-0.000000000005798
 30
0.0
 41
1.0
 10
138.1154216527784
 20
-0.0000000000847535
 30
0.0
 41
1.0
 10
178.771887033286
 20
40.65646538043069
 30
0.0
 41
1.0
 10
219.4283524137936
 20
81.31293076094613
 30
0.0
 41
1.0
 10
222.8967344061148
 20
116.7721919430367
 30
0.0
 41
1.0
 10
226.3651163984346
 20
152.2314531251271
 30
0.0
 41
1.0
 10
229.2719641665162
 20
181.9498274141538
 30
0.0
 41
0.942839412426625
 10
216.465604534063
 20
206.4656045341365
 30
0.0
 41
1.0
 10
113.2328022670276
 20
103.2328022671079
 30
0.0
 41
1.0
 10
9.999999999992269
 20
0.0000000000731575
 30
0.0
 41
1.0
  0
LWPOLYLINE
  5
7328E
330
73593
100
AcDbEntity
  8
Level 27
 62
    12
100
AcDbPolyline
 90
        4
 70
   129
 43
0.0
 10
10.0
 20
-5.0
 42
0.414214
 10
5.0
 20
-10.0
 10
5.0
 20
-133.115422
 10
133.115422
 20
-5.0
  0
SPLINE
  5
73293
330
73593
100
AcDbEntity
  8
Level 27
 62
    12
100
AcDbSpline
210
0.0
220
0.0
230
1.0
 70
    15
 71
     2
 72
    14
 73
    11
 74
     0
 42
0.0000000001
 43
0.00000001
 40
0.0
 40
0.0
 40
0.0
 40
0.2
 40
0.2
 40
0.4
 40
0.4
 40
0.6
 40
0.6
 40
0.8
 40
0.8
 40
1.0
 40
1.0
 40
1.0
 10
-229.8035412933718
 20
-150.7276338018402
 30
0.0
 41
1.0
 10
-227.1451622156897
 20
-123.5494976434847
 30
0.0
 41
1.0
 10
-224.4867831380075
 20
-96.3713614851292
 30
0.0
 41
1.0
 10
-178.8011023954455
 20
-50.68568074256413
 30
0.0
 41
1.0
 10
-133.1154216528835
 20
-4.999999999999034
 30
0.0
 41
1.0
 10
-71.55771082644378
 20
-4.999999999961347
 30
0.0
 41
1.0
 10
-10.00000000000409
 20
-4.999999999923602
 30
0.0
 41
1.0
 10
-113.6131874324701
 20
-108.6131874323897
 30
0.0
 41
1.0
 10
-217.2263748649361
 20
-212.2263748648558
 30
0.0
 41
1.0
 10
-233.1542088839924
 20
-184.9834330457706
 30
0.0
 41
0.9341765546323613
 10
-229.8035412933718
 20
-150.7276338018402
 30
0.0
 41
1.0
  0
SPLINE
  5
73299
330
73593
100
AcDbEntity
  8
Level 27
 62
    12
100
AcDbSpline
210
0.0
220
0.0
230
1.0
 70
    15
 71
     2
 72
    14
 73
    11
 74
     0
 42
0.0000000001
 43
0.00000001
 40
0.0
 40
0.0
 40
0.0
 40
0.2
 40
0.2
 40
0.4
 40
0.4
 40
0.6
 40
0.6
 40
0.8
 40
0.8
 40
1.0
 40
1.0
 40
1.0
 10
9.999999999986358
 20
5.000000000069861
 30
0.0
 41
1.0
 10
113.6131874324219
 20
108.6131874325057
 30
0.0
 41
1.0
 10
217.2263748648575
 20
212.2263748649415
 30
0.0
 41
1.0
 10
233.1542088839874
 20
184.983433045834
 30
0.0
 41
0.9341765546321079
 10
229.8035412933609
 20
150.7276338018348
 30
0.0
 41
1.0
 10
227.1451622156824
 20
123.5494976434852
 30
0.0
 41
1.0
 10
224.4867831380047
 20
96.37136148513577
 30
0.0
 41
1.0
 10
178.8011023954
 20
50.68568074252528
 30
0.0
 41
1.0
 10
133.1154216527934
 20
4.999999999918089
 30
0.0
 41
1.0
 10
71.55771082639012
 20
4.999999999993975
 30
0.0
 41
1.0
 10
9.999999999986358
 20
5.000000000069861
 30
0.0
 41
1.0
  0
SPLINE
  5
7329F
330
73593
100
AcDbEntity
  8
Level 27
 62
    12
100
AcDbSpline
210
0.0
220
0.0
230
1.0
 70
    15
 71
     2
 72
    14
 73
    11
 74
     0
 42
0.0000000001
 43
0.00000001
 40
0.0
 40
0.0
 40
0.0
 40
0.2
 40
0.2
 40
0.4
 40
0.4
 40
0.6
 40
0.6
 40
0.8
 40
0.8
 40
1.0
 40
1.0
 40
1.0
 10
-10.00000000000773
 20
0.0000000000731575
 30
0.0
 41
1.0
 10
-74.05771082642377
 20
-0.000000000005798
 30
0.0
 41
1.0
 10
-138.1154216528389
 20
-0.0000000000847535
 30
0.0
 41
1.0
 10
-178.7718870333179
 20
-40.65646538051516
 30
0.0
 41
1.0
 10
-219.4283524137964
 20
-81.31293076094565
 30
0.0
 41
1.0
 10
-222.8967344061157
 20
-116.7721919430352
 30
0.0
 41
1.0
 10
-226.3651163984355
 20
-152.2314531251248
 30
0.0
 41
1.0
 10
-229.2719641665167
 20
-181.949827414091
 30
0.0
 41
0.9428394124268618
 10
-216.4656045341335
 20
-206.4656045340522
 30
0.0
 41
1.0
 10
-113.2328022670713
 20
-103.2328022669896
 30
0.0
 41
1.0
 10
-10.00000000000773
 20
0.0000000000731575
 30
0.0
 41
1.0
  0
SPLINE
  5
732A5
330
73593
100
AcDbEntity
  8
Level 27
 62
    12
100
AcDbSpline
210
0.0
220
0.0
230
1.0
 70
    15
 71
     2
 72
    14
 73
    11
 74
     0
 42
0.0000000001
 43
0.00000001
 40
0.0
 40
0.0
 40
0.0
 40
0.2
 40
0.2
 40
0.4
 40
0.4
 40
0.6
 40
0.6
 40
0.8
 40
0.8
 40
1.0
 40
1.0
 40
1.0
 10
-0.0000000000004547
 20
-138.1154216528647
 30
0.0
 41
1.0
 10
-0.0000000000004547
 20
-74.05771082639274
 30
0.0
 41
1.0
 10
-0.0000000000004547
 20
-9.999999999920817
 30
0.0
 41
1.0
 10
-103.2328022670713
 20
-113.2328022669912
 30
0.0
 41
1.0
 10
-206.4656045341421
 20
-216.4656045340616
 30
0.0
 41
1.0
 10
-181.9498274141579
 20
-229.2719641665178
 30
0.0
 41
0.9428394124266117
 10
-152.2314531251277
 20
-226.3651163984341
 30
0.0
 41
1.0
 10
-116.7721919430333
 20
-222.8967344061152
 30
0.0
 41
1.0
 10
-81.31293076093925
 20
-219.4283524137964
 30
0.0
 41
1.0
 10
-40.6564653804835
 20
-178.7718870333293
 30
0.0
 41
1.0
 10
-0.0000000000004547
 20
-138.1154216528647
 30
0.0
 41
1.0
  0
SPLINE
  5
732AB
330
73593
100
AcDbEntity
  8
Level 27
 62
    12
100
AcDbSpline
210
0.0
220
0.0
230
1.0
 70
    15
 71
     2
 72
    14
 73
    11
 74
     0
 42
0.0000000001
 43
0.00000001
 40
0.0
 40
0.0
 40
0.0
 40
0.2
 40
0.2
 40
0.4
 40
0.4
 40
0.6
 40
0.6
 40
0.8
 40
0.8
 40
1.0
 40
1.0
 40
1.0
 10
212.2263748648575
 20
217.2263748649359
 30
0.0
 41
1.0
 10
108.6131874324228
 20
113.6131874325029
 30
0.0
 41
1.0
 10
4.999999999988631
 20
10.00000000006986
 30
0.0
 41
1.0
 10
4.999999999951342
 20
71.55771082643349
 30
0.0
 41
1.0
 10
4.999999999914053
 20
133.1154216527972
 30
0.0
 41
1.0
 10
50.68568074252062
 20
178.8011023954032
 30
0.0
 41
1.0
 10
96.37136148512718
 20
224.4867831380093
 30
0.0
 41
1.0
 10
123.5494976434834
 20
227.1451622156897
 30
0.0
 41
1.0
 10
150.7276338018401
 20
229.8035412933701
 30
0.0
 41
1.0
 10
184.9834330457716
 20
233.1542088839931
 30
0.0
 41
0.9341765546323591
 10
212.2263748648575
 20
217.2263748649359
 30
0.0
 41
1.0
  0
INSERT
  5
732B1
330
73593
100
AcDbEntity
  8
Level 27
 62
    12
100
AcDbBlockReference
  2
Smart Surface
 10
260.650535
 20
-260.649355
 30
0.0
 41
100.0
 42
100.0
 43
100.0
  0
INSERT
  5
732BB
330
73593
100
AcDbEntity
  8
Level 27
 62
    12
100
AcDbBlockReference
  2
Smart Surface_1
 10
-260.649465
 20
-260.649355
 30
0.0
 41
100.0
 42
100.0
 43
100.0
  0
INSERT
  5
732C5
330
73593
100
AcDbEntity
  8
Level 27
 62
    12
100
AcDbBlockReference
  2
Smart Surface_2
 10
260.650535
 20
260.650645
 30
0.0
 41
100.0
 42
100.0
 43
100.0
  0
INSERT
  5
732CF
330
73593
100
AcDbEntity
  8
Level 27
 62
    12
100
AcDbBlockReference
  2
Smart Surface_3
 10
-260.649465
 20
260.650645
 30
0.0
 41
100.0
 42
100.0
 43
100.0
  0
LWPOLYLINE
  5
732D9
330
73593
100
AcDbEntity
  8
Level 27
 62
    12
100
AcDbPolyline
 90
        4
 70
   129
 43
0.0
 10
-270.6
 20
220.6
 10
-270.6
 20
-220.6
 10
-270.6
 20
-220.6
 10
-270.6
 20
220.6
  0
LWPOLYLINE
  5
732DE
330
73593
100
AcDbEntity
  8
Level 27
 62
    12
100
AcDbPolyline
 90
        4
 70
   129
 43
0.0
 10
-220.6
 20
270.6
 10
220.6
 20
270.6
 10
220.6
 20
270.6
 10
-220.6
 20
270.6
  0
LWPOLYLINE
  5
732E3
330
73593
100
AcDbEntity
  8
Level 27
 62
    12
100
AcDbPolyline
 90
        4
 70
   129
 43
0.0
 10
270.6
 20
-220.6
 10
270.6
 20
220.6
 10
270.6
 20
220.6
 10
270.6
 20
-220.6
  0
LWPOLYLINE
  5
732E8
330
73593
100
AcDbEntity
  8
Level 27
 62
    12
100
AcDbPolyline
 90
        4
 70
   129
 43
0.0
 10
220.6
 20
-270.6
 10
-220.6
 20
-270.6
 10
-220.6
 20
-270.6
 10
220.6
 20
-270.6
  0
SPLINE
  5
732ED
330
73593
100
AcDbEntity
  8
Level 27
 62
    12
100
AcDbSpline
210
0.0
220
0.0
230
1.0
 70
    15
 71
     2
 72
    14
 73
    11
 74
     0
 42
0.0000000001
 43
0.00000001
 40
0.0
 40
0.0
 40
0.0
 40
0.2
 40
0.2
 40
0.4
 40
0.4
 40
0.6
 40
0.6
 40
0.8
 40
0.8
 40
1.0
 40
1.0
 40
1.0
 10
-4.999999999914508
 20
133.1154216528367
 30
0.0
 41
1.0
 10
-4.999999999953616
 20
71.55771082645333
 30
0.0
 41
1.0
 10
-4.999999999992724
 20
10.00000000006986
 30
0.0
 41
1.0
 10
-108.6131874324256
 20
113.6131874325034
 30
0.0
 41
1.0
 10
-212.2263748648579
 20
217.2263748649368
 30
0.0
 41
1.0
 10
-184.9834330457716
 20
233.1542088839931
 30
0.0
 41
0.9341765546323613
 10
-150.727633801841
 20
229.8035412933704
 30
0.0
 41
1.0
 10
-123.549497643487
 20
227.1451622156881
 30
0.0
 41
1.0
 10
-96.37136148513127
 20
224.486783138006
 30
0.0
 41
1.0
 10
-50.68568074255563
 20
178.8011023954375
 30
0.0
 41
1.0
 10
-4.999999999914508
 20
133.1154216528367
 30
0.0
 41
1.0
  0
SPLINE
  5
732F3
330
73593
100
AcDbEntity
  8
Level 27
 62
    12
100
AcDbSpline
210
0.0
220
0.0
230
1.0
 70
    15
 71
     2
 72
    14
 73
    11
 74
     0
 42
0.0000000001
 43
0.00000001
 40
0.0
 40
0.0
 40
0.0
 40
0.2
 40
0.2
 40
0.4
 40
0.4
 40
0.6
 40
0.6
 40
0.8
 40
0.8
 40
1.0
 40
1.0
 40
1.0
 10
206.4656045341412
 20
-216.4656045340635
 30
0.0
 41
1.0
 10
103.2328022670704
 20
-113.2328022669921
 30
0.0
 41
1.0
 10
-0.0000000000004547
 20
-9.999999999920817
 30
0.0
 41
1.0
 10
-0.0000000000004547
 20
-74.05771082639274
 30
0.0
 41
1.0
 10
-0.0000000000004547
 20
-138.1154216528647
 30
0.0
 41
1.0
 10
40.65646538047258
 20
-178.7718870333291
 30
0.0
 41
1.0
 10
81.31293076094562
 20
-219.4283524137936
 30
0.0
 41
1.0
 10
116.772191943036
 20
-222.8967344061138
 30
0.0
 41
1.0
 10
152.2314531251263
 20
-226.3651163984341
 30
0.0
 41
1.0
 10
181.949827414152
 20
-229.2719641665174
 30
0.0
 41
0.9428394124266246
 10
206.4656045341412
 20
-216.4656045340635
 30
0.0
 41
1.0
  0
SPLINE
  5
732F9
330
73593
100
AcDbEntity
  8
Level 27
 62
    12
100
AcDbSpline
210
0.0
220
0.0
230
1.0
 70
    15
 71
     2
 72
    14
 73
    11
 74
     0
 42
0.0000000001
 43
0.00000001
 40
0.0
 40
0.0
 40
0.0
 40
0.2
 40
0.2
 40
0.4
 40
0.4
 40
0.6
 40
0.6
 40
0.8
 40
0.8
 40
1.0
 40
1.0
 40
1.0
 10
219.4283524137918
 20
-81.31293076094656
 30
0.0
 41
1.0
 10
178.7718870333183
 20
-40.65646538047326
 30
0.0
 41
1.0
 10
138.1154216528457
 20
0.0
 30
0.0
 41
1.0
 10
74.05771082641877
 20
0.0000000000365503
 30
0.0
 41
1.0
 10
9.999999999992269
 20
0.0000000000731575
 30
0.0
 41
1.0
 10
113.2328022671263
 20
-103.2328022670546
 30
0.0
 41
1.0
 10
216.4656045342604
 20
-206.4656045341822
 30
0.0
 41
1.0
 10
229.2719641665231
 20
-181.9498274141549
 30
0.0
 41
0.9428394124266369
 10
226.3651163984314
 20
-152.2314531251245
 30
0.0
 41
1.0
 10
222.8967344061075
 20
-116.7721919430564
 30
0.0
 41
1.0
 10
219.4283524137918
 20
-81.31293076094656
 30
0.0
 41
1.0
  0
SPLINE
  5
732FF
330
73593
100
AcDbEntity
  8
Level 27
 62
    12
100
AcDbSpline
210
0.0
220
0.0
230
1.0
 70
    15
 71
     2
 72
    14
 73
    11
 74
     0
 42
0.0000000001
 43
0.00000001
 40
0.0
 40
0.0
 40
0.0
 40
0.2
 40
0.2
 40
0.4
 40
0.4
 40
0.6
 40
0.6
 40
0.8
 40
0.8
 40
1.0
 40
1.0
 40
1.0
 10
-9.999999999989086
 20
5.000000000069861
 30
0.0
 41
1.0
 10
-71.55771082641286
 20
4.999999999994202
 30
0.0
 41
1.0
 10
-133.1154216528353
 20
4.999999999918543
 30
0.0
 41
1.0
 10
-178.8011023954236
 20
50.68568074252596
 30
0.0
 41
1.0
 10
-224.4867831380111
 20
96.37136148513343
 30
0.0
 41
1.0
 10
-227.1451622156874
 20
123.5494976434839
 30
0.0
 41
1.0
 10
-229.8035412933646
 20
150.7276338018342
 30
0.0
 41
1.0
 10
-233.1542088839915
 20
184.9834330458402
 30
0.0
 41
0.9341765546320837
 10
-217.2263748648552
 20
212.2263748649509
 30
0.0
 41
1.0
 10
-113.6131874324356
 20
108.6131874325168
 30
0.0
 41
1.0
 10
-9.999999999989086
 20
5.000000000069861
 30
0.0
 41
1.0
  0
SPLINE
  5
73305
330
73593
100
AcDbEntity
  8
Level 27
 62
    12
100
AcDbSpline
210
0.0
220
0.0
230
1.0
 70
    15
 71
     2
 72
    14
 73
    11
 74
     0
 42
0.0000000001
 43
0.00000001
 40
0.0
 40
0.0
 40
0.0
 40
0.2
 40
0.2
 40
0.4
 40
0.4
 40
0.6
 40
0.6
 40
0.8
 40
0.8
 40
1.0
 40
1.0
 40
1.0
 10
-219.4283524137964
 20
81.31293076094755
 30
0.0
 41
1.0
 10
-178.7718870333238
 20
40.656465380474
 30
0.0
 41
1.0
 10
-138.1154216528503
 20
0.0000000000005116
 30
0.0
 41
1.0
 10
-74.05771082642877
 20
0.0000000000368345
 30
0.0
 41
1.0
 10
-10.00000000000773
 20
0.0000000000731575
 30
0.0
 41
1.0
 10
-113.2328022670358
 20
103.2328022671075
 30
0.0
 41
1.0
 10
-216.4656045340639
 20
206.4656045341417
 30
0.0
 41
1.0
 10
-229.271964166519
 20
181.9498274141576
 30
0.0
 41
0.9428394124266117
 10
-226.3651163984355
 20
152.2314531251271
 30
0.0
 41
1.0
 10
-222.8967344061166
 20
116.7721919430329
 30
0.0
 41
1.0
 10
-219.4283524137964
 20
81.31293076094755
 30
0.0
 41
1.0
  0
SPLINE
  5
7330B
330
73593
100
AcDbEntity
  8
Level 27
 62
    12
100
AcDbSpline
210
0.0
220
0.0
230
1.0
 70
    15
 71
     2
 72
    14
 73
    11
 74
     0
 42
0.0000000001
 43
0.00000001
 40
0.0
 40
0.0
 40
0.0
 40
0.2
 40
0.2
 40
0.4
 40
0.4
 40
0.6
 40
0.6
 40
0.8
 40
0.8
 40
1.0
 40
1.0
 40
1.0
 10
-206.4656045340544
 20
216.4656045341329
 30
0.0
 41
1.0
 10
-103.2328022670276
 20
113.232802267106
 30
0.0
 41
1.0
 10
-0.0000000000004547
 20
10.00000000007918
 30
0.0
 41
1.0
 10
-0.0000000000004547
 20
74.05771082641559
 30
0.0
 41
1.0
 10
-0.0000000000004547
 20
138.115421652752
 30
0.0
 41
1.0
 10
-40.65646538047349
 20
178.7718870332735
 30
0.0
 41
1.0
 10
-81.31293076094653
 20
219.428352413795
 30
0.0
 41
1.0
 10
-116.7721919430369
 20
222.8967344061143
 30
0.0
 41
1.0
 10
-152.2314531251273
 20
226.3651163984338
 30
0.0
 41
1.0
 10
-181.9498274140924
 20
229.2719641665178
 30
0.0
 41
0.9428394124268619
 10
-206.4656045340544
 20
216.4656045341329
 30
0.0
 41
1.0
  0
SPLINE
  5
73311
330
73593
100
AcDbEntity
  8
Level 27
 62
    12
100
AcDbSpline
210
0.0
220
0.0
230
1.0
 70
    15
 71
     2
 72
    14
 73
    11
 74
     0
 42
0.0000000001
 43
0.00000001
 40
0.0
 40
0.0
 40
0.0
 40
0.2
 40
0.2
 40
0.4
 40
0.4
 40
0.6
 40
0.6
 40
0.8
 40
0.8
 40
1.0
 40
1.0
 40
1.0
 10
10.00000000000136
 20
-4.999999999923602
 30
0.0
 41
1.0
 10
71.55771082643241
 20
-4.999999999961801
 30
0.0
 41
1.0
 10
133.1154216528644
 20
-5.0
 30
0.0
 41
1.0
 10
178.801102395435
 20
-50.68568074256319
 30
0.0
 41
1.0
 10
224.4867831380066
 20
-96.37136148512641
 30
0.0
 41
1.0
 10
227.1451622156874
 20
-123.5494976434833
 30
0.0
 41
1.0
 10
229.8035412933673
 20
-150.7276338018402
 30
0.0
 41
1.0
 10
233.1542088839915
 20
-184.9834330457713
 30
0.0
 41
0.9341765546323593
 10
217.2263748649352
 20
-212.2263748648567
 30
0.0
 41
1.0
 10
113.6131874324674
 20
-108.6131874323902
 30
0.0
 41
1.0
 10
10.00000000000136
 20
-4.999999999923602
 30
0.0
 41
1.0
  0
SPLINE
  5
73317
330
73593
100
AcDbEntity
  8
Level 27
 62
    12
100
AcDbSpline
210
0.0
220
0.0
230
1.0
 70
    15
 71
     2
 72
    14
 73
    11
 74
     0
 42
0.0000000001
 43
0.00000001
 40
0.0
 40
0.0
 40
0.0
 40
0.2
 40
0.2
 40
0.4
 40
0.4
 40
0.6
 40
0.6
 40
0.8
 40
0.8
 40
1.0
 40
1.0
 40
1.0
 10
5.000000000001364
 20
-133.1154216528614
 30
0.0
 41
1.0
 10
5.000000000001364
 20
-71.55771082639109
 30
0.0
 41
1.0
 10
5.000000000001364
 20
-9.999999999920817
 30
0.0
 41
1.0
 10
108.6131874324706
 20
-113.6131874323899
 30
0.0
 41
1.0
 10
212.2263748649393
 20
-217.226374864859
 30
0.0
 41
1.0
 10
184.983433045833
 20
-233.1542088839875
 30
0.0
 41
0.9341765546321079
 10
150.7276338018323
 20
-229.8035412933617
 30
0.0
 41
1.0
 10
123.5494976434834
 20
-227.1451622156833
 30
0.0
 41
1.0
 10
96.37136148513446
 20
-224.4867831380051
 30
0.0
 41
1.0
 10
50.68568074255791
 20
-178.8011023954346
 30
0.0
 41
1.0
 10
5.000000000001364
 20
-133.1154216528614
 30
0.0
 41
1.0
  0
LWPOLYLINE
  5
7331D
330
73593
100
AcDbEntity
  8
Level 27
 62
    12
100
AcDbPolyline
 90
        4
 70
   129
 43
0.0
 10
10.0
 20
5.0
 10
133.115422
 20
5.0
 10
5.0
 20
133.115422
 10
5.0
 20
10.0
 42
0.414214
  0
LWPOLYLINE
  5
73322
330
73593
100
AcDbEntity
  8
Level 27
 62
    12
100
AcDbPolyline
 90
        4
 70
   129
 43
0.0
 10
-5.0
 20
-133.115422
 10
-5.0
 20
-10.0
 42
0.414214
 10
-10.0
 20
-5.0
 10
-133.115422
 20
-5.0
  0
INSERT
  5
73327
330
73593
100
AcDbEntity
  8
Level 27
 62
    12
100
AcDbBlockReference
  2
Smart Solid
 10
-2.499465
 20
2.500645
 30
0.0
 41
100.0
 42
100.0
 43
100.0
  0
INSERT
  5
7332C
330
73593
100
AcDbEntity
  8
Level 27
 62
    12
100
AcDbBlockReference
  2
Smart Solid_1
 10
2.500535
 20
-2.499355
 30
0.0
 41
100.0
 42
100.0
 43
100.0
  0
INSERT
  5
73331
330
73593
100
AcDbEntity
  8
Level 27
 62
    12
100
AcDbBlockReference
  2
Smart Solid_2
 10
111.100535
 20
111.100645
 30
0.0
 41
100.0
 42
100.0
 43
100.0
  0
INSERT
  5
73339
330
73593
100
AcDbEntity
  8
Level 27
 62
    12
100
AcDbBlockReference
  2
Smart Solid_3
 10
-108.249465
 20
-108.249355
 30
0.0
 41
100.0
 42
100.0
 43
100.0
  0
INSERT
  5
73342
330
73593
100
AcDbEntity
  8
Level 27
 62
    12
100
AcDbBlockReference
  2
Smart Solid_4
 10
0.000535
 20
0.000645
 30
0.0
 41
100.0
 42
100.0
 43
100.0
  0
INSERT
  5
73354
330
73593
100
AcDbEntity
  8
Level 27
 62
    12
100
AcDbBlockReference
  2
Smart Solid_5
 10
-111.099465
 20
-111.099355
 30
0.0
 41
100.0
 42
100.0
 43
100.0
  0
INSERT
  5
7335C
330
73593
100
AcDbEntity
  8
Level 27
 62
    12
100
AcDbBlockReference
  2
Smart Solid_6
 10
108.250535
 20
108.250645
 30
0.0
 41
100.0
 42
100.0
 43
100.0
  0
INSERT
  5
73365
330
73593
100
AcDbEntity
  8
Level 27
 62
    12
100
AcDbBlockReference
  2
Smart Solid_7
 10
0.000645
 20
-293.950535
 30
0.0
 41
100.0
 42
100.0
 43
100.0
  0
INSERT
  5
7336D
330
73593
100
AcDbEntity
  8
Level 27
 62
    12
100
AcDbBlockReference
  2
Smart Solid_8
 10
293.950645
 20
-0.000535
 30
0.0
 41
100.0
 42
100.0
 43
100.0
  0
INSERT
  5
73375
330
73593
100
AcDbEntity
  8
Level 27
 62
    12
100
AcDbBlockReference
  2
Smart Solid_9
 10
-293.949355
 20
-0.000535
 30
0.0
 41
100.0
 42
100.0
 43
100.0
  0
INSERT
  5
7337D
330
73593
100
AcDbEntity
  8
Level 27
 62
    12
100
AcDbBlockReference
  2
Smart Solid_10
 10
0.000535
 20
293.950645
 30
0.0
 41
100.0
 42
100.0
 43
100.0
  0
INSERT
  5
73385
330
73593
100
AcDbEntity
  8
Level 27
 62
    12
100
AcDbBlockReference
  2
Smart Solid_11
 10
-245.649355
 20
-245.550535
 30
0.0
 41
100.0
 42
100.0
 43
100.0
  0
INSERT
  5
7338B
330
73593
100
AcDbEntity
  8
Level 27
 62
    12
100
AcDbBlockReference
  2
Smart Solid_12
 10
245.550645
 20
245.649465
 30
0.0
 41
100.0
 42
100.0
 43
100.0
  0
INSERT
  5
73391
330
73593
100
AcDbEntity
  8
Level 27
 62
    12
100
AcDbBlockReference
  2
Smart Solid_13
 10
245.550645
 20
-245.550535
 30
0.0
 41
100.0
 42
100.0
 43
100.0
  0
INSERT
  5
73397
330
73593
100
AcDbEntity
  8
Level 27
 62
    12
100
AcDbBlockReference
  2
Smart Solid_14
 10
-245.649355
 20
245.649465
 30
0.0
 41
100.0
 42
100.0
 43
100.0
  0
INSERT
  5
7339D
330
73593
100
AcDbEntity
  8
Level 27
 62
    12
100
AcDbBlockReference
  2
Smart Solid_15
 10
-224.799465
 20
-224.799355
 30
0.0
 41
100.0
 42
100.0
 43
100.0
  0
INSERT
  5
733A7
330
73593
100
AcDbEntity
  8
Level 27
 62
    12
100
AcDbBlockReference
  2
Smart Solid_16
 10
224.800535
 20
224.800645
 30
0.0
 41
100.0
 42
100.0
 43
100.0
  0
INSERT
  5
733B1
330
73593
100
AcDbEntity
  8
Level 27
 62
    12
100
AcDbBlockReference
  2
Smart Solid_17
 10
224.800535
 20
-224.799355
 30
0.0
 41
100.0
 42
100.0
 43
100.0
  0
INSERT
  5
733BB
330
73593
100
AcDbEntity
  8
Level 27
 62
    12
100
AcDbBlockReference
  2
Smart Solid_18
 10
-224.799465
 20
224.800645
 30
0.0
 41
100.0
 42
100.0
 43
100.0
  0
INSERT
  5
733C5
330
73593
100
AcDbEntity
  8
Level 27
 62
    12
100
AcDbBlockReference
  2
Smart Solid_19
 10
108.250535
 20
-108.249355
 30
0.0
 41
100.0
 42
100.0
 43
100.0
  0
INSERT
  5
733CE
330
73593
100
AcDbEntity
  8
Level 27
 62
    12
100
AcDbBlockReference
  2
Smart Solid_20
 10
-111.099465
 20
111.100645
 30
0.0
 41
100.0
 42
100.0
 43
100.0
  0
INSERT
  5
733D6
330
73593
100
AcDbEntity
  8
Level 27
 62
    12
100
AcDbBlockReference
  2
Smart Solid_21
 10
-108.249465
 20
108.250645
 30
0.0
 41
100.0
 42
100.0
 43
100.0
  0
INSERT
  5
733DF
330
73593
100
AcDbEntity
  8
Level 27
 62
    12
100
AcDbBlockReference
  2
Smart Solid_22
 10
111.100535
 20
-111.099355
 30
0.0
 41
100.0
 42
100.0
 43
100.0
  0
INSERT
  5
733E7
330
73593
100
AcDbEntity
  8
Level 27
 62
    12
100
AcDbBlockReference
  2
Smart Solid_23
 10
2.500535
 20
2.500645
 30
0.0
 41
100.0
 42
100.0
 43
100.0
  0
INSERT
  5
733EC
330
73593
100
AcDbEntity
  8
Level 27
 62
    12
100
AcDbBlockReference
  2
Smart Solid_24
 10
-2.499465
 20
-2.499355
 30
0.0
 41
100.0
 42
100.0
 43
100.0
  0
INSERT
  5
733F1
330
73593
100
AcDbEntity
  8
Level 27
 62
    12
100
AcDbBlockReference
  2
Feature Solid
 10
0.0
 20
0.0
 30
0.0
 41
100.0
 42
100.0
 43
100.0
  0
LWPOLYLINE
  5
73438
330
73593
100
AcDbEntity
  8
Level 26
  6
Continuous
 62
     7
370
     0
100
AcDbPolyline
 90
       14
 70
   129
 43
0.0
 10
-56.696136
 20
-291.562295
 10
-56.695928
 20
-287.743589
 10
-16.538448
 20
-287.743639
 10
-16.537295
 20
-266.502089
 10
16.533571
 20
-266.50213
 10
16.531926
 20
-296.813107
 10
-11.814531
 20
-296.813072
 10
-17.719952
 20
-295.14238
 10
-21.263207
 20
-294.1877
 10
-25.987565
 20
-293.233017
 10
-31.893038
 20
-292.517003
 10
-37.798524
 20
-292.039657
 10
-43.70401
 20
-291.562311
 10
-50.790624
 20
-291.562303
  0
LWPOLYLINE
  5
7343D
330
73593
100
AcDbEntity
  8
Level 26
  6
Continuous
 62
     7
370
     0
100
AcDbPolyline
 90
      146
 70
   129
 43
0.0
 10
287.982364
 20
-51.969201
 10
288.698371
 20
-51.969162
 10
289.414378
 20
-51.969123
 10
290.369054
 20
-50.787969
 10
290.846392
 20
-50.787943
 10
292.039736
 20
-48.425673
 10
292.755742
 20
-46.06343
 10
293.710416
 20
-42.520071
 10
294.187753
 20
-40.15784
 10
294.66509
 20
-37.79561
 10
295.142427
 20
-35.433379
 10
295.619763
 20
-31.890046
 10
296.097099
 20
-29.527815
 10
296.335766
 20
-25.984495
 10
296.813102
 20
-22.441162
 10
297.051769
 20
-18.897842
 10
297.290435
 20
-12.992318
 10
297.529101
 20
-8.267895
 10
297.767767
 20
-3.543473
 10
297.767764
 20
1.180937
 10
297.76776
 20
7.086448
 10
297.767757
 20
11.810858
 10
297.529084
 20
17.716357
 10
297.290412
 20
22.440753
 10
296.5744
 20
30.708431
 10
296.33573
 20
31.88952
 10
296.097059
 20
35.432814
 10
295.619718
 20
38.976096
 10
295.142378
 20
41.338274
 10
294.426369
 20
44.881543
 10
293.710359
 20
48.424811
 10
292.755681
 20
51.968066
 10
291.323665
 20
54.330193
 10
290.607656
 20
55.511257
 10
289.65298
 20
55.511205
 10
288.220965
 20
55.511127
 10
287.504959
 20
54.329986
 10
286.788952
 20
53.148845
 10
286.072946
 20
50.786601
 10
285.834278
 20
49.605486
 10
285.118273
 20
46.06214
 10
284.402268
 20
41.337692
 10
283.924933
 20
36.613256
 10
283.447599
 20
29.526616
 10
282.970257
 20
35.432102
 10
282.492916
 20
40.156486
 10
282.254245
 20
43.69978
 10
282.015574
 20
47.243074
 10
281.538233
 20
50.786355
 10
281.060893
 20
53.148534
 10
280.344885
 20
55.5107
 10
279.628876
 20
57.872866
 10
278.912868
 20
59.053929
 10
278.19686
 20
60.234993
 10
277.242182
 20
61.416043
 10
276.287505
 20
62.597094
 10
275.332829
 20
62.597042
 10
274.378153
 20
61.415888
 10
273.423477
 20
60.234734
 10
272.707471
 20
59.053592
 10
271.991465
 20
56.691349
 10
271.275459
 20
54.329105
 10
270.082116
 20
50.785733
 10
269.366111
 20
46.061285
 10
268.411439
 20
40.155722
 10
267.934103
 20
35.431286
 10
267.456769
 20
29.525749
 10
266.979434
 20
23.620211
 10
266.740769
 20
17.714686
 10
266.502104
 20
10.628059
 10
266.502108
 20
4.722547
 10
266.502112
 20
-1.182965
 10
266.502114
 20
-4.726272
 10
266.979458
 20
-14.175065
 10
267.21813
 20
-18.899461
 10
267.695472
 20
-24.804947
 10
268.172813
 20
-29.529331
 10
268.650154
 20
-33.072612
 10
269.127494
 20
-36.615893
 10
269.604834
 20
-38.978072
 10
271.275523
 20
-47.245698
 10
270.798183
 20
-44.883519
 10
271.514193
 20
-48.426787
 10
272.230201
 20
-50.788953
 10
273.184879
 20
-53.151106
 10
274.139557
 20
-54.332157
 10
275.332904
 20
-56.694297
 10
277.242257
 20
-56.694193
 10
277.480906
 20
-25.985519
 10
276.048892
 20
-25.985596
 10
274.616876
 20
-23.623469
 10
273.662198
 20
-21.261316
 10
272.707519
 20
-17.718061
 10
271.991509
 20
-12.99369
 10
271.514168
 20
-9.450409
 10
271.275496
 20
-4.726013
 10
271.275492
 20
1.179499
 10
271.275489
 20
5.903908
 10
271.514155
 20
11.809433
 10
271.99149
 20
16.533869
 10
272.468825
 20
21.258304
 10
273.184831
 20
24.80165
 10
274.139505
 20
28.345009
 10
275.09418
 20
29.526163
 10
276.048857
 20
29.526215
 10
277.242203
 20
28.345177
 10
278.196881
 20
25.983024
 10
279.15156
 20
22.439769
 10
279.6289
 20
20.07759
 10
279.86757
 20
17.715398
 10
280.583582
 20
10.628823
 10
280.822255
 20
4.723324
 10
280.822258
 20
-0.001085
 10
280.822263
 20
-8.268802
 10
285.118307
 20
-8.268569
 10
285.118302
 20
-0.000852
 10
285.1183
 20
2.361353
 10
285.356967
 20
5.904673
 10
285.595634
 20
9.447993
 10
285.834301
 20
12.991313
 10
286.311637
 20
16.534646
 10
287.027642
 20
20.077992
 10
287.504979
 20
22.440222
 10
287.982316
 20
23.62135
 10
288.698323
 20
24.802492
 10
289.652999
 20
24.802543
 10
290.369007
 20
23.62148
 10
291.085015
 20
22.440416
 10
291.562354
 20
21.25934
 10
292.039694
 20
18.897161
 10
292.517034
 20
16.534982
 10
292.755704
 20
14.172791
 10
292.994376
 20
10.629496
 10
293.233047
 20
7.086202
 10
293.233049
 20
3.542895
 10
293.233052
 20
-1.181514
 10
292.994385
 20
-4.724834
 10
292.755719
 20
-9.449257
 10
292.278383
 20
-12.99259
 10
291.801046
 20
-15.35482
 10
291.32371
 20
-17.717051
 10
290.846372
 20
-18.898179
 10
290.130366
 20
-20.07932
 10
289.653028
 20
-21.260449
 10
288.937022
 20
-22.44159
 10
287.743676
 20
-22.441655
  0
LWPOLYLINE
  5
73445
330
73593
100
AcDbEntity
  8
Level 26
  6
Continuous
 62
     7
370
     0
100
AcDbPolyline
 90
       80
 70
   129
 43
0.0
 10
56.104225
 20
266.502144
 10
-56.1005
 20
266.502074
 10
-56.100785
 20
271.752794
 10
14.765357
 20
271.752839
 10
8.859767
 20
273.18485
 10
2.954191
 20
274.378192
 10
-4.132475
 20
275.332864
 10
-12.400243
 20
276.287535
 10
-21.849114
 20
277.242205
 10
-27.754665
 20
277.958209
 10
-33.660228
 20
278.912882
 10
-39.565805
 20
280.106224
 10
-45.471382
 20
281.299566
 10
-47.833651
 20
282.49291
 10
-51.377036
 20
283.924922
 10
-53.739344
 20
285.834273
 10
-54.920524
 20
287.266287
 10
-54.920589
 20
288.459633
 10
-53.739564
 20
289.891648
 10
-52.558514
 20
290.846326
 10
-51.377437
 20
291.323665
 10
-50.196361
 20
291.801004
 10
-49.015297
 20
292.517012
 10
-47.834221
 20
292.994351
 10
-45.472042
 20
293.47169
 10
-44.290953
 20
293.71036
 10
-43.109863
 20
293.94903
 10
-41.928774
 20
294.1877
 10
-40.747684
 20
294.42637
 10
-39.566595
 20
294.66504
 10
-38.385506
 20
294.903709
 10
-36.023314
 20
295.14238
 10
-34.842224
 20
295.38105
 10
-32.480033
 20
295.61972
 10
-30.117841
 20
295.858391
 10
-25.393457
 20
296.335732
 10
-23.031266
 20
296.574403
 10
-19.487971
 20
296.813074
 10
-14.763575
 20
297.051746
 10
-10.039165
 20
297.051749
 10
-2.952564
 20
297.290423
 10
2.952948
 20
297.290426
 10
8.858459
 20
297.29043
 10
15.945087
 20
297.051765
 10
23.031714
 20
296.813101
 10
30.118354
 20
296.335767
 10
33.6617
 20
295.619762
 10
38.386148
 20
294.903757
 10
41.929494
 20
294.187752
 10
44.29175
 20
293.233077
 10
46.654007
 20
292.278402
 10
49.016276
 20
291.085058
 10
51.378546
 20
289.891714
 10
52.559713
 20
288.698369
 10
52.559791
 20
287.266355
 10
52.55983
 20
286.550347
 10
23.032283
 20
286.31166
 10
23.032219
 20
287.505005
 10
20.66991
 20
289.414357
 10
15.94541
 20
291.085038
 10
10.03986
 20
291.801041
 10
1.772117
 20
292.278374
 10
-6.495599
 20
292.278369
 10
-12.401072
 20
291.562358
 10
-18.306545
 20
290.846347
 10
-21.849762
 20
289.175661
 10
-21.849645
 20
287.027639
 10
-19.487337
 20
285.118288
 10
-13.581734
 20
283.447608
 10
-5.313953
 20
282.254267
 10
2.953841
 20
280.822258
 10
10.040507
 20
279.867586
 10
18.308288
 20
278.674245
 10
26.576083
 20
277.242236
 10
33.662775
 20
275.810226
 10
39.568364
 20
274.378215
 10
45.47398
 20
272.468865
 10
50.198467
 20
271.036854
 10
52.560762
 20
269.366171
 10
54.923044
 20
267.934158
  0
INSERT
  5
7344C
330
73593
100
AcDbEntity
  8
Level 26
  6
Continuous
 62
     7
370
     0
100
AcDbBlockReference
  2
Feature Solid_2
 10
-281.7885
 20
8.269
 30
0.0
  0
INSERT
  5
73460
330
73593
100
AcDbEntity
  8
Level 25
  6
Continuous
 62
   174
370
     0
100
AcDbBlockReference
  2
Feature Solid_4
 10
-5140.044181
 20
-1208.210588
 30
0.0
  0
INSERT
  5
73468
330
73593
100
AcDbEntity
  8
Level 25
  6
Continuous
 62
   174
370
     0
100
AcDbBlockReference
  2
Feature Solid_5
 10
0.0
 20
0.0
 30
0.0
  0
SPLINE
  5
73470
330
73593
100
AcDbEntity
  8
Level 27
 62
    12
100
AcDbSpline
210
0.0
220
0.0
230
1.0
 70
    15
 71
     2
 72
    30
 73
    27
 74
     0
 42
0.0000000001
 43
0.00000001
 40
0.0
 40
0.0
 40
0.0
 40
0.0833333333333333
 40
0.0833333333333333
 40
0.1666666666666667
 40
0.1666666666666667
 40
0.25
 40
0.25
 40
0.2916666666666667
 40
0.2916666666666667
 40
0.3333333333333333
 40
0.3333333333333333
 40
0.4166666666666667
 40
0.4166666666666667
 40
0.5
 40
0.5
 40
0.5833333333333334
 40
0.5833333333333334
 40
0.6666666666666666
 40
0.6666666666666666
 40
0.75
 40
0.75
 40
0.8333333333333334
 40
0.8333333333333334
 40
0.9166666666666666
 40
0.9166666666666666
 40
1.0
 40
1.0
 40
1.0
 10
-224.4867831380066
 20
96.37136148513622
 30
0.0
 41
1.0
 10
-224.4867831380066
 20
94.0006115889135
 30
0.0
 41
1.0
 10
-224.4867831380066
 20
91.62986169269078
 30
0.0
 41
1.0
 10
-229.9372639727776
 20
125.0020602522623
 30
0.0
 41
0.9308658366581063
 10
-237.3728904297855
 20
125.0020602847974
 30
0.0
 41
1.0
 10
-239.6462257360358
 20
125.0020602947444
 30
0.0
 41
1.0
 10
-241.9195610422858
 20
125.0020603046916
 30
0.0
 41
1.0
 10
-260.8640219277158
 20
125.0020603875843
 30
0.0
 41
0.7071067811865476
 10
-260.8640219402778
 20
0.0020603875038887
 30
0.0
 41
1.0
 10
-260.8640219528411
 20
-124.9979396125765
 30
0.0
 41
0.7071067811865476
 10
-241.9195610674115
 20
-124.9979396954694
 30
0.0
 41
1.0
 10
-239.6462257611615
 20
-124.9979397054163
 30
0.0
 41
1.0
 10
-237.3728904549112
 20
-124.9979397153635
 30
0.0
 41
1.0
 10
-229.9372639834023
 20
-124.9979397478984
 30
0.0
 41
0.9308658364158194
 10
-224.4867831380061
 20
-91.62574112325677
 30
0.0
 41
1.0
 10
-224.4867831380066
 20
-93.9985513041932
 30
0.0
 41
1.0
 10
-224.4867831380066
 20
-96.3713614851292
 30
0.0
 41
1.0
 10
-227.1451622156883
 20
-123.5494976434847
 30
0.0
 41
1.0
 10
-229.80354129337
 20
-150.7276338018402
 30
0.0
 41
1.0
 10
-264.3189542484784
 20
-185.2430467569488
 30
0.0
 41
1.0
 10
-298.8343672035871
 20
-219.7584597120573
 30
0.0
 41
1.0
 10
-298.8343672035871
 20
0.0000000000005116
 30
0.0
 41
1.0
 10
-298.8343672035871
 20
219.7584597120583
 30
0.0
 41
1.0
 10
-264.3189542484747
 20
185.2430467569463
 30
0.0
 41
1.0
 10
-229.8035412933627
 20
150.7276338018342
 30
0.0
 41
1.0
 10
-227.1451622156847
 20
123.5494976434852
 30
0.0
 41
1.0
 10
-224.4867831380066
 20
96.37136148513622
 30
0.0
 41
1.0
  0
SPLINE
  5
7347D
330
73593
100
AcDbEntity
  8
Level 27
 62
    12
100
AcDbSpline
210
0.0
220
0.0
230
1.0
 70
    15
 71
     2
 72
    12
 73
     9
 74
     0
 42
0.0000000001
 43
0.00000001
 40
0.0
 40
0.0
 40
0.0
 40
0.25
 40
0.25
 40
0.5
 40
0.5
 40
0.75
 40
0.75
 40
1.0
 40
1.0
 40
1.0
 10
-96.37136148513628
 20
-219.5445389197846
 30
0.0
 41
1.0
 10
-94.00815255456564
 20
-219.5445389197846
 30
0.0
 41
1.0
 10
-91.64494362399501
 20
-219.5445389197846
 30
0.0
 41
1.0
 10
-91.63740337928175
 20
-222.0158643854572
 30
0.0
 41
0.9999999960662391
 10
-91.62986169268697
 20
-224.486783138012
 30
0.0
 41
1.0
 10
-94.00061158891322
 20
-224.4867831380051
 30
0.0
 41
1.0
 10
-96.37136148513628
 20
-224.4867831380051
 30
0.0
 41
1.0
 10
-96.37136148513628
 20
-222.0156610288948
 30
0.0
 41
1.0
 10
-96.37136148513628
 20
-219.5445389197846
 30
0.0
 41
1.0
  0
SPLINE
  5
73482
330
73593
100
AcDbEntity
  8
Level 27
 62
    12
100
AcDbSpline
210
0.0
220
0.0
230
1.0
 70
    15
 71
     2
 72
    12
 73
     9
 74
     0
 42
0.0000000001
 43
0.00000001
 40
0.0
 40
0.0
 40
0.0
 40
0.25
 40
0.25
 40
0.5
 40
0.5
 40
0.75
 40
0.75
 40
1.0
 40
1.0
 40
1.0
 10
96.371361485129
 20
-224.4867831380051
 30
0.0
 41
1.0
 10
93.99855130419292
 20
-224.4867831380051
 30
0.0
 41
1.0
 10
91.62574112325683
 20
-224.4867831380051
 30
0.0
 41
1.0
 10
91.63328280985616
 20
-222.015864385446
 30
0.0
 41
0.9999999960662391
 10
91.64082305456532
 20
-219.5445389198004
 30
0.0
 41
1.0
 10
94.00609226984489
 20
-219.5445389197846
 30
0.0
 41
1.0
 10
96.371361485129
 20
-219.5445389197846
 30
0.0
 41
1.0
 10
96.371361485129
 20
-222.0156610288948
 30
0.0
 41
1.0
 10
96.371361485129
 20
-224.4867831380051
 30
0.0
 41
1.0
  0
LWPOLYLINE
  5
73487
330
73593
100
AcDbEntity
  8
Level 27
 62
    12
100
AcDbPolyline
 90
        4
 70
   129
 43
0.0
 10
-96.371361
 20
-224.486783
 10
-150.727634
 20
-229.803541
 10
-150.727634
 20
-224.861297
 10
-96.371361
 20
-219.544539
  0
LWPOLYLINE
  5
7348C
330
73593
100
AcDbEntity
  8
Level 27
 62
    12
100
AcDbPolyline
 90
        4
 70
   129
 43
0.0
 10
150.727634
 20
-229.803541
 10
96.371361
 20
-224.486783
 10
96.371361
 20
-219.544539
 10
150.727634
 20
-224.861297
  0
SPLINE
  5
73491
330
73593
100
AcDbEntity
  8
Level 27
 62
    12
100
AcDbSpline
210
0.0
220
0.0
230
1.0
 70
    15
 71
     2
 72
    30
 73
    27
 74
     0
 42
0.0000000001
 43
0.00000001
 40
0.0
 40
0.0
 40
0.0
 40
0.0833333333333333
 40
0.0833333333333333
 40
0.1666666666666667
 40
0.1666666666666667
 40
0.25
 40
0.25
 40
0.2916666666666667
 40
0.2916666666666667
 40
0.3333333333333333
 40
0.3333333333333333
 40
0.4166666666666667
 40
0.4166666666666667
 40
0.5
 40
0.5
 40
0.5833333333333334
 40
0.5833333333333334
 40
0.6666666666666666
 40
0.6666666666666666
 40
0.75
 40
0.75
 40
0.8333333333333334
 40
0.8333333333333334
 40
0.9166666666666666
 40
0.9166666666666666
 40
1.0
 40
1.0
 40
1.0
 10
-96.37136148513446
 20
-224.486783138006
 30
0.0
 41
1.0
 10
-94.0006115889114
 20
-224.486783138006
 30
0.0
 41
1.0
 10
-91.62986169268879
 20
-224.486783138006
 30
0.0
 41
1.0
 10
-125.0020602522613
 20
-229.937263972776
 30
0.0
 41
0.9308658366581063
 10
-125.0020602847953
 20
-237.3728904297852
 30
0.0
 41
1.0
 10
-125.0020602947425
 20
-239.6462257360355
 30
0.0
 41
1.0
 10
-125.0020603046896
 20
-241.9195610422855
 30
0.0
 41
1.0
 10
-125.0020603875828
 20
-260.8640219277148
 30
0.0
 41
0.7071067811865476
 10
-0.0020603875022971
 20
-260.8640219402776
 30
0.0
 41
1.0
 10
124.9979396125782
 20
-260.8640219528404
 30
0.0
 41
0.7071067811865476
 10
124.9979396954709
 20
-241.9195610674109
 30
0.0
 41
1.0
 10
124.9979397054185
 20
-239.6462257611612
 30
0.0
 41
1.0
 10
124.9979397153657
 20
-237.3728904549107
 30
0.0
 41
1.0
 10
124.9979397479024
 20
-229.9372639834033
 30
0.0
 41
0.9308658364158194
 10
91.6257411232591
 20
-224.4867831380056
 30
0.0
 41
1.0
 10
93.99855130419473
 20
-224.486783138006
 30
0.0
 41
1.0
 10
96.37136148513082
 20
-224.486783138006
 30
0.0
 41
1.0
 10
123.5494976434866
 20
-227.1451622156878
 30
0.0
 41
1.0
 10
150.7276338018428
 20
-229.8035412933696
 30
0.0
 41
1.0
 10
185.2430467569511
 20
-264.3189542484781
 30
0.0
 41
1.0
 10
219.7584597120599
 20
-298.8343672035867
 30
0.0
 41
1.0
 10
0.0000000000013642
 20
-298.8343672035867
 30
0.0
 41
1.0
 10
-219.7584597120567
 20
-298.8343672035867
 30
0.0
 41
1.0
 10
-185.2430467569448
 20
-264.3189542484744
 30
0.0
 41
1.0
 10
-150.7276338018323
 20
-229.8035412933621
 30
0.0
 41
1.0
 10
-123.5494976434834
 20
-227.1451622156841
 30
0.0
 41
1.0
 10
-96.37136148513446
 20
-224.486783138006
 30
0.0
 41
1.0
  0
SPLINE
  5
7349E
330
73593
100
AcDbEntity
  8
Level 27
 62
    12
100
AcDbSpline
210
0.0
220
0.0
230
1.0
 70
    15
 71
     2
 72
    30
 73
    27
 74
     0
 42
0.0000000001
 43
0.00000001
 40
0.0
 40
0.0
 40
0.0
 40
0.0833333333333333
 40
0.0833333333333333
 40
0.1666666666666667
 40
0.1666666666666667
 40
0.25
 40
0.25
 40
0.2916666666666667
 40
0.2916666666666667
 40
0.3333333333333333
 40
0.3333333333333333
 40
0.4166666666666667
 40
0.4166666666666667
 40
0.5
 40
0.5
 40
0.5833333333333334
 40
0.5833333333333334
 40
0.6666666666666666
 40
0.6666666666666666
 40
0.75
 40
0.75
 40
0.8333333333333334
 40
0.8333333333333334
 40
0.9166666666666666
 40
0.9166666666666666
 40
1.0
 40
1.0
 40
1.0
 10
224.4867831380084
 20
-96.37136148513386
 30
0.0
 41
1.0
 10
224.4867831380084
 20
-94.00061158891114
 30
0.0
 41
1.0
 10
224.4867831380084
 20
-91.62986169268839
 30
0.0
 41
1.0
 10
229.9372639727772
 20
-125.0020602522596
 30
0.0
 41
0.9308658366581063
 10
237.3728904297873
 20
-125.0020602847946
 30
0.0
 41
1.0
 10
239.6462257360377
 20
-125.0020602947422
 30
0.0
 41
1.0
 10
241.919561042288
 20
-125.0020603046892
 30
0.0
 41
1.0
 10
260.8640219277158
 20
-125.0020603875824
 30
0.0
 41
0.7071067811865476
 10
260.8640219402787
 20
-0.0020603875020129
 30
0.0
 41
1.0
 10
260.864021952842
 20
124.9979396125784
 30
0.0
 41
0.7071067811865476
 10
241.9195610674128
 20
124.9979396954714
 30
0.0
 41
1.0
 10
239.6462257611624
 20
124.9979397054189
 30
0.0
 41
1.0
 10
237.3728904549121
 20
124.9979397153659
 30
0.0
 41
1.0
 10
229.9372639834064
 20
124.9979397479013
 30
0.0
 41
0.9308658364158194
 10
224.4867831380079
 20
91.62574112325967
 30
0.0
 41
1.0
 10
224.4867831380084
 20
93.99855130419508
 30
0.0
 41
1.0
 10
224.4867831380084
 20
96.3713614851311
 30
0.0
 41
1.0
 10
227.1451622156897
 20
123.5494976434871
 30
0.0
 41
1.0
 10
229.8035412933709
 20
150.7276338018431
 30
0.0
 41
1.0
 10
264.3189542484802
 20
185.2430467569516
 30
0.0
 41
1.0
 10
298.834367203589
 20
219.7584597120602
 30
0.0
 41
1.0
 10
298.834367203589
 20
0.0000000000018758
 30
0.0
 41
1.0
 10
298.834367203589
 20
-219.7584597120564
 30
0.0
 41
1.0
 10
264.3189542484765
 20
-185.2430467569441
 30
0.0
 41
1.0
 10
229.8035412933637
 20
-150.7276338018318
 30
0.0
 41
1.0
 10
227.145162215686
 20
-123.5494976434829
 30
0.0
 41
1.0
 10
224.4867831380084
 20
-96.37136148513386
 30
0.0
 41
1.0
  0
SPLINE
  5
734AB
330
73593
100
AcDbEntity
  8
Level 27
 62
    12
100
AcDbSpline
210
0.0
220
0.0
230
1.0
 70
    15
 71
     2
 72
    30
 73
    27
 74
     0
 42
0.0000000001
 43
0.00000001
 40
0.0
 40
0.0
 40
0.0
 40
0.0833333333333333
 40
0.0833333333333333
 40
0.1666666666666667
 40
0.1666666666666667
 40
0.25
 40
0.25
 40
0.2916666666666667
 40
0.2916666666666667
 40
0.3333333333333333
 40
0.3333333333333333
 40
0.4166666666666667
 40
0.4166666666666667
 40
0.5
 40
0.5
 40
0.5833333333333334
 40
0.5833333333333334
 40
0.6666666666666666
 40
0.6666666666666666
 40
0.75
 40
0.75
 40
0.8333333333333334
 40
0.8333333333333334
 40
0.9166666666666666
 40
0.9166666666666666
 40
1.0
 40
1.0
 40
1.0
 10
96.37136148513446
 20
224.4867831380097
 30
0.0
 41
1.0
 10
94.00061158891185
 20
224.4867831380097
 30
0.0
 41
1.0
 10
91.62986169268879
 20
224.4867831380097
 30
0.0
 41
1.0
 10
125.0020602522586
 20
229.9372639727797
 30
0.0
 41
0.9308658366581063
 10
125.0020602847953
 20
237.3728904297889
 30
0.0
 41
1.0
 10
125.0020602947434
 20
239.6462257360388
 30
0.0
 41
1.0
 10
125.0020603046896
 20
241.9195610422893
 30
0.0
 41
1.0
 10
125.0020603875832
 20
260.8640219277175
 30
0.0
 41
0.7071067811865476
 10
0.0020603875022971
 20
260.8640219402805
 30
0.0
 41
1.0
 10
-124.9979396125782
 20
260.8640219528435
 30
0.0
 41
0.7071067811865476
 10
-124.9979396954709
 20
241.919561067414
 30
0.0
 41
1.0
 10
-124.9979397054181
 20
239.646225761164
 30
0.0
 41
1.0
 10
-124.9979397153652
 20
237.3728904549135
 30
0.0
 41
1.0
 10
-124.9979397478992
 20
229.9372639834073
 30
0.0
 41
0.9308658364158194
 10
-91.6257411232591
 20
224.4867831380094
 30
0.0
 41
1.0
 10
-93.99855130419383
 20
224.4867831380097
 30
0.0
 41
1.0
 10
-96.37136148512946
 20
224.4867831380097
 30
0.0
 41
1.0
 10
-123.5494976434861
 20
227.1451622156911
 30
0.0
 41
1.0
 10
-150.7276338018423
 20
229.8035412933724
 30
0.0
 41
1.0
 10
-185.2430467569507
 20
264.3189542484814
 30
0.0
 41
1.0
 10
-219.7584597120585
 20
298.8343672035906
 30
0.0
 41
1.0
 10
-0.0000000000004547
 20
298.8343672035906
 30
0.0
 41
1.0
 10
219.7584597120581
 20
298.8343672035906
 30
0.0
 41
1.0
 10
185.2430467569452
 20
264.3189542484778
 30
0.0
 41
1.0
 10
150.7276338018323
 20
229.803541293365
 30
0.0
 41
1.0
 10
123.5494976434834
 20
227.1451622156874
 30
0.0
 41
1.0
 10
96.37136148513446
 20
224.4867831380097
 30
0.0
 41
1.0
  0
ENDBLK
  5
73595
330
73593
100
AcDbEntity
  8
0
100
AcDbBlockEnd
  0
BLOCK
  5
73597
330
73596
100
AcDbEntity
  8
0
100
AcDbBlockBegin
  2
Smart Surface
 70
     0
 71
     0
 10
0.0
 20
0.0
 30
0.0
  3
Smart Surface
  1

  0
INSERT
  5
734DF
330
73596
100
AcDbEntity
  8
Level 27
 62
    12
100
AcDbBlockReference
  2
From Bspline Surface
 10
-39.511885
 20
-0.429847
 30
0.0
 41
0.01
 42
0.01
 43
0.01
  0
ENDBLK
  5
73598
330
73596
100
AcDbEntity
  8
0
100
AcDbBlockEnd
  0
BLOCK
  5
7359A
330
73599
100
AcDbEntity
  8
0
100
AcDbBlockBegin
  2
From Bspline Surface
 70
     0
 71
     0
 10
0.0
 20
0.0
 30
0.0
  3
From Bspline Surface
  1

  0
SPLINE
  5
732B2
330
73599
100
AcDbEntity
  8
Level 27
 62
    12
100
AcDbSpline
210
0.0
220
0.0
230
1.0
 70
    28
 71
     2
 72
     6
 73
     3
 74
     0
 42
0.0000000001
 43
0.00000001
 40
0.0
 40
0.0
 40
0.0
 40
1.0
 40
1.0
 40
1.0
 10
3979.487825869477
 20
83.87562851776788
 30
0.0
 41
1.0
 10
3991.137947102333
 20
83.87562851776788
 30
0.0
 41
0.6513236959865314
 10
3989.372314305919
 20
83.87562851776788
 30
0.0
 41
1.0
  0
SPLINE
  5
73537
330
73599
100
AcDbEntity
  8
Level 27
 62
    12
100
AcDbSpline
210
0.0
220
0.0
230
1.0
 70
    12
 71
     2
 72
     6
 73
     3
 74
     0
 42
0.0000000001
 43
0.00000001
 40
0.0
 40
0.0
 40
0.0
 40
1.0
 40
1.0
 40
1.0
 10
3974.014355615724
 20
57.05139998573141
 30
0.0
 41
1.0
 10
3985.248742146382
 20
52.90715551336583
 30
0.0
 41
0.6338041918742139
 10
3983.048093941639
 20
53.28888599953645
 30
0.0
 41
1.0
  0
SPLINE
  5
73538
330
73599
100
AcDbEntity
  8
Level 27
 62
    12
100
AcDbSpline
210
0.0
220
0.0
230
1.0
 70
    28
 71
     2
 72
     6
 73
     3
 74
     0
 42
0.0000000001
 43
0.00000001
 40
0.0
 40
0.0
 40
0.0
 40
1.0
 40
1.0
 40
1.0
 10
3959.125955194121
 20
35.04608013803652
 30
0.0
 41
1.0
 10
3967.592174227184
 20
26.57986110497467
 30
0.0
 41
0.6279643571701099
 10
3966.009375329456
 20
28.16266000270256
 30
0.0
 41
1.0
  0
SPLINE
  5
73539
330
73599
100
AcDbEntity
  8
Level 27
 62
    12
100
AcDbSpline
210
0.0
220
0.0
230
1.0
 70
    12
 71
     2
 72
     6
 73
     3
 74
     0
 42
0.0000000001
 43
0.00000001
 40
0.0
 40
0.0
 40
0.0
 40
1.0
 40
1.0
 40
1.0
 10
3937.120635346425
 20
20.15767971643544
 30
0.0
 41
1.0
 10
3941.264879818792
 20
8.923293185777457
 30
0.0
 41
0.6338041918742161
 10
3940.883149332622
 20
11.12394139051921
 30
0.0
 41
1.0
  0
SPLINE
  5
7353A
330
73599
100
AcDbEntity
  8
Level 27
 62
    12
100
AcDbSpline
210
0.0
220
0.0
230
1.0
 70
    28
 71
     2
 72
     6
 73
     3
 74
     0
 42
0.0000000001
 43
0.00000001
 40
0.0
 40
0.0
 40
0.0
 40
1.0
 40
1.0
 40
1.0
 10
3910.29640681439
 20
14.68420946268039
 30
0.0
 41
1.0
 10
3910.29640681439
 20
3.034088229825255
 30
0.0
 41
0.6513236959865294
 10
3910.29640681439
 20
4.799721026239451
 30
0.0
 41
1.0
  0
SPLINE
  5
7353B
330
73599
100
AcDbEntity
  8
Level 27
 62
    12
100
AcDbSpline
210
0.0
220
0.0
230
1.0
 70
    12
 71
     3
 72
     8
 73
     4
 74
     0
 42
0.0000000001
 43
0.00000001
 40
0.0
 40
0.0
 40
0.0
 40
0.0
 40
1.0
 40
1.0
 40
1.0
 40
1.0
 10
3979.487825869477
 20
83.87562851776788
 30
0.0
 41
1.0
 10
3979.487823750487
 20
45.91872279293695
 30
0.0
 41
1.0
 10
3948.253312539215
 20
14.68421158167766
 30
0.0
 41
1.0
 10
3910.29640681439
 20
14.68420946268039
 30
0.0
 41
1.0
  0
SPLINE
  5
7353C
330
73599
100
AcDbEntity
  8
Level 27
 62
    12
100
AcDbSpline
210
0.0
220
0.0
230
1.0
 70
    12
 71
     3
 72
     8
 73
     4
 74
     0
 42
0.0000000001
 43
0.00000001
 40
0.0
 40
0.0
 40
0.0
 40
0.0
 40
1.0
 40
1.0
 40
1.0
 40
1.0
 10
3983.472059328028
 20
83.87562851776788
 30
0.0
 41
0.8692463859949493
 10
3983.617922072012
 20
43.72846777788979
 30
0.0
 41
0.8575667165867367
 10
3950.443567554263
 20
10.55411326015059
 30
0.0
 41
0.8575667165867407
 10
3910.29640681439
 20
10.69997600412959
 30
0.0
 41
0.8692463859949485
  0
SPLINE
  5
7353D
330
73599
100
AcDbEntity
  8
Level 27
 62
    12
100
AcDbSpline
210
0.0
220
0.0
230
1.0
 70
    12
 71
     3
 72
     8
 73
     4
 74
     0
 42
0.0000000001
 43
0.00000001
 40
0.0
 40
0.0
 40
0.0
 40
0.0
 40
1.0
 40
1.0
 40
1.0
 40
1.0
 10
3987.075825889552
 20
83.87562851776788
 30
0.0
 41
0.8256618479932657
 10
3987.32593948272
 20
41.73718018520803
 30
0.0
 41
0.8100889554489821
 10
3952.434855146949
 20
6.846095849441577
 30
0.0
 41
0.8100889554489876
 10
3910.29640681439
 20
7.09620944260617
 30
0.0
 41
0.8256618479932647
  0
SPLINE
  5
7353E
330
73599
100
AcDbEntity
  8
Level 27
 62
    12
100
AcDbSpline
210
0.0
220
0.0
230
1.0
 70
    12
 71
     3
 72
     8
 73
     4
 74
     0
 42
0.0000000001
 43
0.00000001
 40
0.0
 40
0.0
 40
0.0
 40
0.0
 40
1.0
 40
1.0
 40
1.0
 40
1.0
 10
3989.157724862966
 20
83.87562851776788
 30
0.0
 41
0.8692463859949493
 10
3989.310043089702
 20
40.63937256048327
 30
0.0
 41
0.8575667165867367
 10
3953.532662771673
 20
4.861992242458372
 30
0.0
 41
0.8575667165867407
 10
3910.29640681439
 20
5.014310469192075
 30
0.0
 41
0.8692463859949485
  0
SPLINE
  5
7353F
330
73599
100
AcDbEntity
  8
Level 27
 62
    12
100
AcDbSpline
210
0.0
220
0.0
230
1.0
 70
    12
 71
     3
 72
     8
 73
     4
 74
     0
 42
0.0000000001
 43
0.00000001
 40
0.0
 40
0.0
 40
0.0
 40
0.0
 40
1.0
 40
1.0
 40
1.0
 40
1.0
 10
3989.372314305919
 20
83.87562851776788
 30
0.0
 41
1.0
 10
3989.250570813595
 20
40.62051230730675
 30
0.0
 41
1.0
 10
3953.551523024852
 20
4.921464518564288
 30
0.0
 41
1.0
 10
3910.29640681439
 20
4.799721026239451
 30
0.0
 41
1.0
  0
SPLINE
  5
73540
330
73599
100
AcDbEntity
  8
Level 27
 62
    12
100
AcDbSpline
210
0.0
220
0.0
230
1.0
 70
    11
 71
     1
 72
    34
 73
    32
 74
     0
 42
0.0000000001
 43
0.00000001
 40
0.0
 40
0.0
 40
0.032258064516129
 40
0.0645161290322581
 40
0.0967741935483871
 40
0.1290322580645161
 40
0.1612903225806452
 40
0.1935483870967742
 40
0.2258064516129032
 40
0.2580645161290323
 40
0.2903225806451613
 40
0.3225806451612903
 40
0.3548387096774193
 40
0.3870967741935483
 40
0.4193548387096773
 40
0.4516129032258063
 40
0.4838709677419353
 40
0.5161290322580643
 40
0.5483870967741933
 40
0.5806451612903223
 40
0.6129032258064513
 40
0.6451612903225803
 40
0.6774193548387093
 40
0.7096774193548383
 40
0.7419354838709673
 40
0.7741935483870963
 40
0.8064516129032253
 40
0.8387096774193543
 40
0.8709677419354833
 40
0.9032258064516123
 40
0.9354838709677413
 40
0.9677419354838703
 40
1.0
 40
1.0
 10
3989.372314305919
 20
83.87562851776788
 30
0.0
 10
3989.47745037886
 20
83.87562851776788
 30
0.0
 10
3989.157724862966
 20
83.87562851776788
 30
0.0
 10
3988.355117151288
 20
83.87562851776788
 30
0.0
 10
3987.075825889552
 20
83.87562851776788
 30
0.0
 10
3985.401201032115
 20
83.87562851776788
 30
0.0
 10
3983.472059328028
 20
83.87562851776788
 30
0.0
 10
3981.451955987267
 20
83.87562851776787
 30
0.0
 10
3979.487825869477
 20
83.87562851776788
 30
0.0
 10
3979.487825869477
 20
83.87562851776788
 30
0.0
 10
3976.99843106423
 20
65.57085721008843
 30
0.0
 10
3969.984176815234
 20
49.06737705963455
 30
0.0
 10
3959.125955194121
 20
35.04608013803652
 30
0.0
 10
3945.104658272522
 20
24.18785851692462
 30
0.0
 10
3928.601178122067
 20
17.17360426792915
 30
0.0
 10
3910.29640681439
 20
14.68420946268039
 30
0.0
 10
3910.29640681439
 20
14.68420946268039
 30
0.0
 10
3910.29640681439
 20
12.72007934489144
 30
0.0
 10
3910.29640681439
 20
10.69997600412959
 30
0.0
 10
3910.29640681439
 20
8.770834300042816
 30
0.0
 10
3910.29640681439
 20
7.09620944260617
 30
0.0
 10
3910.29640681439
 20
5.816918180870663
 30
0.0
 10
3910.29640681439
 20
5.014310469192074
 30
0.0
 10
3910.29640681439
 20
4.694584953298548
 30
0.0
 10
3910.29640681439
 20
4.799721026239451
 30
0.0
 10
3910.29640681439
 20
4.799721026239451
 30
0.0
 10
3931.16456460728
 20
7.695640186572319
 30
0.0
 10
3949.995010000031
 20
15.74274239978873
 30
0.0
 10
3966.009375329456
 20
28.16266000270256
 30
0.0
 10
3978.42929293237
 20
44.17702533212774
 30
0.0
 10
3986.476395145587
 20
63.0074707248782
 30
0.0
 10
3989.372314305919
 20
83.87562851776788
 30
0.0
  0
ENDBLK
  5
7359B
330
73599
100
AcDbEntity
  8
0
100
AcDbBlockEnd
  0
BLOCK
  5
7359D
330
7359C
100
AcDbEntity
  8
0
100
AcDbBlockBegin
  2
Smart Surface_1
 70
     0
 71
     0
 10
0.0
 20
0.0
 30
0.0
  3
Smart Surface_1
  1

  0
INSERT
  5
734F5
330
7359C
100
AcDbEntity
  8
Level 27
 62
    12
100
AcDbBlockReference
  2
From Bspline Surface_1
 10
-34.298885
 20
-0.429847
 30
0.0
 41
0.01
 42
0.01
 43
0.01
  0
ENDBLK
  5
7359E
330
7359C
100
AcDbEntity
  8
0
100
AcDbBlockEnd
  0
BLOCK
  5
735A0
330
7359F
100
AcDbEntity
  8
0
100
AcDbBlockBegin
  2
From Bspline Surface_1
 70
     0
 71
     0
 10
0.0
 20
0.0
 30
0.0
  3
From Bspline Surface_1
  1

  0
SPLINE
  5
732BC
330
7359F
100
AcDbEntity
  8
Level 27
 62
    12
100
AcDbSpline
210
0.0
220
0.0
230
1.0
 70
    28
 71
     2
 72
     6
 73
     3
 74
     0
 42
0.0000000001
 43
0.00000001
 40
0.0
 40
0.0
 40
0.0
 40
1.0
 40
1.0
 40
1.0
 10
3470.779487390275
 20
14.68420946268039
 30
0.0
 41
1.0
 10
3470.779487390275
 20
3.034088229825255
 30
0.0
 41
0.6513236959865294
 10
3470.779487390275
 20
4.799721026239451
 30
0.0
 41
1.0
  0
SPLINE
  5
73541
330
7359F
100
AcDbEntity
  8
Level 27
 62
    12
100
AcDbSpline
210
0.0
220
0.0
230
1.0
 70
    12
 71
     2
 72
     6
 73
     3
 74
     0
 42
0.0000000001
 43
0.00000001
 40
0.0
 40
0.0
 40
0.0
 40
1.0
 40
1.0
 40
1.0
 10
3443.95525885824
 20
20.15767971643301
 30
0.0
 41
1.0
 10
3439.811014385874
 20
8.923293185775087
 30
0.0
 41
0.6338041918742153
 10
3440.192744872044
 20
11.12394139051921
 30
0.0
 41
1.0
  0
SPLINE
  5
73542
330
7359F
100
AcDbEntity
  8
Level 27
 62
    12
100
AcDbSpline
210
0.0
220
0.0
230
1.0
 70
    28
 71
     2
 72
     6
 73
     3
 74
     0
 42
0.0000000001
 43
0.00000001
 40
0.0
 40
0.0
 40
0.0
 40
1.0
 40
1.0
 40
1.0
 10
3421.949939010543
 20
35.04608013803599
 30
0.0
 41
1.0
 10
3413.483719977482
 20
26.57986110497408
 30
0.0
 41
0.6279643571701109
 10
3415.06651887521
 20
28.16266000270256
 30
0.0
 41
1.0
  0
SPLINE
  5
73543
330
7359F
100
AcDbEntity
  8
Level 27
 62
    12
100
AcDbSpline
210
0.0
220
0.0
230
1.0
 70
    12
 71
     2
 72
     6
 73
     3
 74
     0
 42
0.0000000001
 43
0.00000001
 40
0.0
 40
0.0
 40
0.0
 40
1.0
 40
1.0
 40
1.0
 10
3407.061538588939
 20
57.05139998573304
 30
0.0
 41
1.0
 10
3395.827152058284
 20
52.90715551336717
 30
0.0
 41
0.6338041918742157
 10
3398.027800263026
 20
53.28888599953645
 30
0.0
 41
1.0
  0
SPLINE
  5
73544
330
7359F
100
AcDbEntity
  8
Level 27
 62
    12
100
AcDbSpline
210
0.0
220
0.0
230
1.0
 70
    28
 71
     2
 72
     6
 73
     3
 74
     0
 42
0.0000000001
 43
0.00000001
 40
0.0
 40
0.0
 40
0.0
 40
1.0
 40
1.0
 40
1.0
 10
3401.588068335185
 20
83.87562851776788
 30
0.0
 41
1.0
 10
3389.937947102333
 20
83.87562851776788
 30
0.0
 41
0.6513236959865294
 10
3391.703579898745
 20
83.87562851776788
 30
0.0
 41
1.0
  0
SPLINE
  5
73545
330
7359F
100
AcDbEntity
  8
Level 27
 62
    12
100
AcDbSpline
210
0.0
220
0.0
230
1.0
 70
    12
 71
     3
 72
     8
 73
     4
 74
     0
 42
0.0000000001
 43
0.00000001
 40
0.0
 40
0.0
 40
0.0
 40
0.0
 40
1.0
 40
1.0
 40
1.0
 40
1.0
 10
3470.779487390275
 20
14.68420946268039
 30
0.0
 41
1.0
 10
3432.822581665451
 20
14.68421158166975
 30
0.0
 41
1.0
 10
3401.588070454175
 20
45.91872279294348
 30
0.0
 41
1.0
 10
3401.588068335185
 20
83.87562851776788
 30
0.0
 41
1.0
  0
SPLINE
  5
73546
330
7359F
100
AcDbEntity
  8
Level 27
 62
    12
100
AcDbSpline
210
0.0
220
0.0
230
1.0
 70
    12
 71
     3
 72
     8
 73
     4
 74
     0
 42
0.0000000001
 43
0.00000001
 40
0.0
 40
0.0
 40
0.0
 40
0.0
 40
1.0
 40
1.0
 40
1.0
 40
1.0
 10
3470.779487390275
 20
10.69997600412959
 30
0.0
 41
0.8692463859949485
 10
3430.632326650402
 20
10.55411326014326
 30
0.0
 41
0.8575667165867391
 10
3397.457972132653
 20
43.72846777789573
 30
0.0
 41
0.8575667165867393
 10
3397.603834876637
 20
83.87562851776788
 30
0.0
 41
0.8692463859949485
  0
SPLINE
  5
73547
330
7359F
100
AcDbEntity
  8
Level 27
 62
    12
100
AcDbSpline
210
0.0
220
0.0
230
1.0
 70
    12
 71
     3
 72
     8
 73
     4
 74
     0
 42
0.0000000001
 43
0.00000001
 40
0.0
 40
0.0
 40
0.0
 40
0.0
 40
1.0
 40
1.0
 40
1.0
 40
1.0
 10
3470.779487390274
 20
7.09620944260617
 30
0.0
 41
0.8256618479932647
 10
3428.641039057716
 20
6.846095849436114
 30
0.0
 41
0.8100889554489856
 10
3393.749954721945
 20
41.73718018521235
 30
0.0
 41
0.8100889554489859
 10
3394.000068315112
 20
83.87562851776787
 30
0.0
 41
0.8256618479932647
  0
SPLINE
  5
73548
330
7359F
100
AcDbEntity
  8
Level 27
 62
    12
100
AcDbSpline
210
0.0
220
0.0
230
1.0
 70
    12
 71
     3
 72
     8
 73
     4
 74
     0
 42
0.0000000001
 43
0.00000001
 40
0.0
 40
0.0
 40
0.0
 40
0.0
 40
1.0
 40
1.0
 40
1.0
 40
1.0
 10
3470.779487390275
 20
5.014310469192075
 30
0.0
 41
0.8692463859949485
 10
3427.543231432991
 20
4.861992242455654
 30
0.0
 41
0.8575667165867391
 10
3391.765851114965
 20
40.63937256048541
 30
0.0
 41
0.8575667165867393
 10
3391.918169341699
 20
83.87562851776788
 30
0.0
 41
0.8692463859949485
  0
SPLINE
  5
73549
330
7359F
100
AcDbEntity
  8
Level 27
 62
    12
100
AcDbSpline
210
0.0
220
0.0
230
1.0
 70
    12
 71
     3
 72
     8
 73
     4
 74
     0
 42
0.0000000001
 43
0.00000001
 40
0.0
 40
0.0
 40
0.0
 40
0.0
 40
1.0
 40
1.0
 40
1.0
 40
1.0
 10
3470.779487390275
 20
4.799721026239451
 30
0.0
 41
1.0
 10
3427.524371179814
 20
4.921464518564288
 30
0.0
 41
1.0
 10
3391.825323391071
 20
40.62051230730675
 30
0.0
 41
1.0
 10
3391.703579898745
 20
83.87562851776788
 30
0.0
 41
1.0
  0
SPLINE
  5
7354A
330
7359F
100
AcDbEntity
  8
Level 27
 62
    12
100
AcDbSpline
210
0.0
220
0.0
230
1.0
 70
    11
 71
     1
 72
    34
 73
    32
 74
     0
 42
0.0000000001
 43
0.00000001
 40
0.0
 40
0.0
 40
0.032258064516129
 40
0.0645161290322581
 40
0.0967741935483871
 40
0.1290322580645161
 40
0.1612903225806452
 40
0.1935483870967742
 40
0.2258064516129032
 40
0.2580645161290323
 40
0.2903225806451613
 40
0.3225806451612903
 40
0.3548387096774193
 40
0.3870967741935483
 40
0.4193548387096773
 40
0.4516129032258063
 40
0.4838709677419353
 40
0.5161290322580643
 40
0.5483870967741933
 40
0.5806451612903223
 40
0.6129032258064513
 40
0.6451612903225803
 40
0.6774193548387093
 40
0.7096774193548383
 40
0.7419354838709673
 40
0.7741935483870963
 40
0.8064516129032253
 40
0.8387096774193543
 40
0.8709677419354833
 40
0.9032258064516123
 40
0.9354838709677413
 40
0.9677419354838703
 40
1.0
 40
1.0
 10
3401.588068335185
 20
83.87562851776788
 30
0.0
 10
3399.623938217397
 20
83.87562851776788
 30
0.0
 10
3397.603834876635
 20
83.87562851776788
 30
0.0
 10
3395.674693172548
 20
83.87562851776788
 30
0.0
 10
3394.000068315112
 20
83.87562851776787
 30
0.0
 10
3392.720777053377
 20
83.87562851776788
 30
0.0
 10
3391.918169341699
 20
83.87562851776788
 30
0.0
 10
3391.598443825805
 20
83.87562851776788
 30
0.0
 10
3391.703579898745
 20
83.87562851776788
 30
0.0
 10
3391.703579898745
 20
83.87562851776788
 30
0.0
 10
3394.599499059079
 20
63.00747072487825
 30
0.0
 10
3402.646601272295
 20
44.17702533212779
 30
0.0
 10
3415.06651887521
 20
28.16266000270256
 30
0.0
 10
3431.080884204635
 20
15.7427423997887
 30
0.0
 10
3449.911329597386
 20
7.695640186572319
 30
0.0
 10
3470.779487390275
 20
4.799721026239451
 30
0.0
 10
3470.779487390275
 20
4.799721026239451
 30
0.0
 10
3470.779487390275
 20
4.694584953298548
 30
0.0
 10
3470.779487390275
 20
5.014310469192074
 30
0.0
 10
3470.779487390275
 20
5.816918180870663
 30
0.0
 10
3470.779487390275
 20
7.09620944260617
 30
0.0
 10
3470.779487390275
 20
8.770834300042816
 30
0.0
 10
3470.779487390275
 20
10.69997600412959
 30
0.0
 10
3470.779487390275
 20
12.72007934489144
 30
0.0
 10
3470.779487390275
 20
14.68420946268039
 30
0.0
 10
3470.779487390275
 20
14.68420946268039
 30
0.0
 10
3452.474716082598
 20
17.17360426792685
 30
0.0
 10
3435.971235932142
 20
24.18785851692256
 30
0.0
 10
3421.949939010543
 20
35.04608013803599
 30
0.0
 10
3411.091717389428
 20
49.06737705963568
 30
0.0
 10
3404.077463140432
 20
65.57085721009018
 30
0.0
 10
3401.588068335185
 20
83.87562851776788
 30
0.0
  0
ENDBLK
  5
735A1
330
7359F
100
AcDbEntity
  8
0
100
AcDbBlockEnd
  0
BLOCK
  5
735A3
330
735A2
100
AcDbEntity
  8
0
100
AcDbBlockBegin
  2
Smart Surface_2
 70
     0
 71
     0
 10
0.0
 20
0.0
 30
0.0
  3
Smart Surface_2
  1

  0
INSERT
  5
7350B
330
735A2
100
AcDbEntity
  8
Level 27
 62
    12
100
AcDbBlockReference
  2
From Bspline Surface_2
 10
-39.511885
 20
-5.642847
 30
0.0
 41
0.01
 42
0.01
 43
0.01
  0
ENDBLK
  5
735A4
330
735A2
100
AcDbEntity
  8
0
100
AcDbBlockEnd
  0
BLOCK
  5
735A6
330
735A5
100
AcDbEntity
  8
0
100
AcDbBlockBegin
  2
From Bspline Surface_2
 70
     0
 71
     0
 10
0.0
 20
0.0
 30
0.0
  3
From Bspline Surface_2
  1

  0
SPLINE
  5
732C6
330
735A5
100
AcDbEntity
  8
Level 27
 62
    12
100
AcDbSpline
210
0.0
220
0.0
230
1.0
 70
    28
 71
     2
 72
     6
 73
     3
 74
     0
 42
0.0000000001
 43
0.00000001
 40
0.0
 40
0.0
 40
0.0
 40
1.0
 40
1.0
 40
1.0
 10
3910.29640681439
 20
592.5839669969711
 30
0.0
 41
1.0
 10
3910.296406814392
 20
604.2340882298262
 30
0.0
 41
0.6513236959865294
 10
3910.29640681439
 20
602.468455433412
 30
0.0
 41
1.0
  0
SPLINE
  5
7354B
330
735A5
100
AcDbEntity
  8
Level 27
 62
    12
100
AcDbSpline
210
0.0
220
0.0
230
1.0
 70
    12
 71
     2
 72
     6
 73
     3
 74
     0
 42
0.0000000001
 43
0.00000001
 40
0.0
 40
0.0
 40
0.0
 40
1.0
 40
1.0
 40
1.0
 10
3937.120635346425
 20
587.1104967432161
 30
0.0
 41
1.0
 10
3941.264879818791
 20
598.344883273874
 30
0.0
 41
0.6338041918742152
 10
3940.883149332622
 20
596.1442350691323
 30
0.0
 41
1.0
  0
SPLINE
  5
7354C
330
735A5
100
AcDbEntity
  8
Level 27
 62
    12
100
AcDbSpline
210
0.0
220
0.0
230
1.0
 70
    28
 71
     2
 72
     6
 73
     3
 74
     0
 42
0.0000000001
 43
0.00000001
 40
0.0
 40
0.0
 40
0.0
 40
1.0
 40
1.0
 40
1.0
 10
3959.125955194122
 20
572.2220963216149
 30
0.0
 41
1.0
 10
3967.592174227185
 20
580.6883153546768
 30
0.0
 41
0.6279643571701105
 10
3966.009375329456
 20
579.1055164569491
 30
0.0
 41
1.0
  0
SPLINE
  5
7354D
330
735A5
100
AcDbEntity
  8
Level 27
 62
    12
100
AcDbSpline
210
0.0
220
0.0
230
1.0
 70
    12
 71
     2
 72
     6
 73
     3
 74
     0
 42
0.0000000001
 43
0.00000001
 40
0.0
 40
0.0
 40
0.0
 40
1.0
 40
1.0
 40
1.0
 10
3974.014355615724
 20
550.2167764739201
 30
0.0
 41
1.0
 10
3985.248742146384
 20
554.3610209462856
 30
0.0
 41
0.6338041918742158
 10
3983.048093941639
 20
553.9792904601152
 30
0.0
 41
1.0
  0
SPLINE
  5
7354E
330
735A5
100
AcDbEntity
  8
Level 27
 62
    12
100
AcDbSpline
210
0.0
220
0.0
230
1.0
 70
    28
 71
     2
 72
     6
 73
     3
 74
     0
 42
0.0000000001
 43
0.00000001
 40
0.0
 40
0.0
 40
0.0
 40
1.0
 40
1.0
 40
1.0
 10
3979.487825869477
 20
523.3925479418836
 30
0.0
 41
1.0
 10
3991.137947102333
 20
523.3925479418836
 30
0.0
 41
0.6513236959865314
 10
3989.372314305919
 20
523.3925479418836
 30
0.0
 41
1.0
  0
SPLINE
  5
7354F
330
735A5
100
AcDbEntity
  8
Level 27
 62
    12
100
AcDbSpline
210
0.0
220
0.0
230
1.0
 70
    12
 71
     3
 72
     8
 73
     4
 74
     0
 42
0.0000000001
 43
0.00000001
 40
0.0
 40
0.0
 40
0.0
 40
0.0
 40
1.0
 40
1.0
 40
1.0
 40
1.0
 10
3910.29640681439
 20
592.5839669969711
 30
0.0
 41
1.0
 10
3948.253312539215
 20
592.5839648779738
 30
0.0
 41
1.0
 10
3979.487823750487
 20
561.3494536667145
 30
0.0
 41
1.0
 10
3979.487825869477
 20
523.3925479418836
 30
0.0
 41
1.0
  0
SPLINE
  5
73550
330
735A5
100
AcDbEntity
  8
Level 27
 62
    12
100
AcDbSpline
210
0.0
220
0.0
230
1.0
 70
    12
 71
     3
 72
     8
 73
     4
 74
     0
 42
0.0000000001
 43
0.00000001
 40
0.0
 40
0.0
 40
0.0
 40
0.0
 40
1.0
 40
1.0
 40
1.0
 40
1.0
 10
3910.296406814392
 20
596.5682004555222
 30
0.0
 41
0.8692463859949485
 10
3950.443567554263
 20
596.714063199501
 30
0.0
 41
0.8575667165867391
 10
3983.617922072015
 20
563.5397086817617
 30
0.0
 41
0.8575667165867388
 10
3983.472059328028
 20
523.3925479418837
 30
0.0
 41
0.8692463859949493
  0
SPLINE
  5
73551
330
735A5
100
AcDbEntity
  8
Level 27
 62
    12
100
AcDbSpline
210
0.0
220
0.0
230
1.0
 70
    12
 71
     3
 72
     8
 73
     4
 74
     0
 42
0.0000000001
 43
0.00000001
 40
0.0
 40
0.0
 40
0.0
 40
0.0
 40
1.0
 40
1.0
 40
1.0
 40
1.0
 10
3910.29640681439
 20
600.1719670170452
 30
0.0
 41
0.8256618479932647
 10
3952.434855146945
 20
600.4220806102098
 30
0.0
 41
0.8100889554489855
 10
3987.325939482723
 20
565.5309962744436
 30
0.0
 41
0.8100889554489851
 10
3987.075825889552
 20
523.3925479418837
 30
0.0
 41
0.8256618479932657
  0
SPLINE
  5
73552
330
735A5
100
AcDbEntity
  8
Level 27
 62
    12
100
AcDbSpline
210
0.0
220
0.0
230
1.0
 70
    12
 71
     3
 72
     8
 73
     4
 74
     0
 42
0.0000000001
 43
0.00000001
 40
0.0
 40
0.0
 40
0.0
 40
0.0
 40
1.0
 40
1.0
 40
1.0
 40
1.0
 10
3910.29640681439
 20
602.2538659904593
 30
0.0
 41
0.8692463859949485
 10
3953.532662771673
 20
602.4061842171931
 30
0.0
 41
0.8575667165867391
 10
3989.310043089704
 20
566.6288038991685
 30
0.0
 41
0.8575667165867388
 10
3989.157724862966
 20
523.3925479418837
 30
0.0
 41
0.8692463859949493
  0
SPLINE
  5
73553
330
735A5
100
AcDbEntity
  8
Level 27
 62
    12
100
AcDbSpline
210
0.0
220
0.0
230
1.0
 70
    12
 71
     3
 72
     8
 73
     4
 74
     0
 42
0.0000000001
 43
0.00000001
 40
0.0
 40
0.0
 40
0.0
 40
0.0
 40
1.0
 40
1.0
 40
1.0
 40
1.0
 10
3910.29640681439
 20
602.468455433412
 30
0.0
 41
1.0
 10
3953.551523024852
 20
602.3467119410872
 30
0.0
 41
1.0
 10
3989.250570813595
 20
566.6476641523452
 30
0.0
 41
1.0
 10
3989.372314305919
 20
523.3925479418836
 30
0.0
 41
1.0
  0
SPLINE
  5
73554
330
735A5
100
AcDbEntity
  8
Level 27
 62
    12
100
AcDbSpline
210
0.0
220
0.0
230
1.0
 70
    11
 71
     1
 72
    34
 73
    32
 74
     0
 42
0.0000000001
 43
0.00000001
 40
0.0
 40
0.0
 40
0.032258064516129
 40
0.0645161290322581
 40
0.0967741935483871
 40
0.1290322580645161
 40
0.1612903225806452
 40
0.1935483870967742
 40
0.2258064516129032
 40
0.2580645161290323
 40
0.2903225806451613
 40
0.3225806451612903
 40
0.3548387096774193
 40
0.3870967741935483
 40
0.4193548387096773
 40
0.4516129032258063
 40
0.4838709677419353
 40
0.5161290322580643
 40
0.5483870967741933
 40
0.5806451612903223
 40
0.6129032258064513
 40
0.6451612903225803
 40
0.6774193548387093
 40
0.7096774193548383
 40
0.7419354838709673
 40
0.7741935483870963
 40
0.8064516129032253
 40
0.8387096774193543
 40
0.8709677419354833
 40
0.9032258064516123
 40
0.9354838709677413
 40
0.9677419354838703
 40
1.0
 40
1.0
 10
3910.29640681439
 20
602.468455433412
 30
0.0
 10
3910.29640681439
 20
602.573591506353
 30
0.0
 10
3910.29640681439
 20
602.2538659904593
 30
0.0
 10
3910.296406814391
 20
601.4512582787808
 30
0.0
 10
3910.29640681439
 20
600.1719670170453
 30
0.0
 10
3910.296406814391
 20
598.4973421596086
 30
0.0
 10
3910.296406814391
 20
596.568200455522
 30
0.0
 10
3910.29640681439
 20
594.5480971147601
 30
0.0
 10
3910.29640681439
 20
592.5839669969711
 30
0.0
 10
3910.29640681439
 20
592.5839669969711
 30
0.0
 10
3928.601178122068
 20
590.0945721917225
 30
0.0
 10
3945.104658272522
 20
583.0803179427268
 30
0.0
 10
3959.125955194122
 20
572.2220963216149
 30
0.0
 10
3969.984176815235
 20
558.2007994000169
 30
0.0
 10
3976.99843106423
 20
541.6973192495631
 30
0.0
 10
3979.487825869477
 20
523.3925479418836
 30
0.0
 10
3979.487825869477
 20
523.3925479418836
 30
0.0
 10
3981.451955987267
 20
523.3925479418836
 30
0.0
 10
3983.472059328027
 20
523.3925479418836
 30
0.0
 10
3985.401201032115
 20
523.3925479418836
 30
0.0
 10
3987.075825889552
 20
523.3925479418836
 30
0.0
 10
3988.355117151288
 20
523.3925479418836
 30
0.0
 10
3989.157724862966
 20
523.3925479418837
 30
0.0
 10
3989.477450378859
 20
523.3925479418836
 30
0.0
 10
3989.372314305919
 20
523.3925479418836
 30
0.0
 10
3989.372314305919
 20
523.3925479418836
 30
0.0
 10
3986.476395145586
 20
544.2607057347733
 30
0.0
 10
3978.42929293237
 20
563.0911511275239
 30
0.0
 10
3966.009375329456
 20
579.1055164569491
 30
0.0
 10
3949.995010000031
 20
591.5254340598627
 30
0.0
 10
3931.16456460728
 20
599.5725362730793
 30
0.0
 10
3910.29640681439
 20
602.468455433412
 30
0.0
  0
ENDBLK
  5
735A7
330
735A5
100
AcDbEntity
  8
0
100
AcDbBlockEnd
  0
BLOCK
  5
735A9
330
735A8
100
AcDbEntity
  8
0
100
AcDbBlockBegin
  2
Smart Surface_3
 70
     0
 71
     0
 10
0.0
 20
0.0
 30
0.0
  3
Smart Surface_3
  1

  0
INSERT
  5
73521
330
735A8
100
AcDbEntity
  8
Level 27
 62
    12
100
AcDbBlockReference
  2
From Bspline Surface_3
 10
-34.298885
 20
-5.642847
 30
0.0
 41
0.01
 42
0.01
 43
0.01
  0
ENDBLK
  5
735AA
330
735A8
100
AcDbEntity
  8
0
100
AcDbBlockEnd
  0
BLOCK
  5
735AC
330
735AB
100
AcDbEntity
  8
0
100
AcDbBlockBegin
  2
From Bspline Surface_3
 70
     0
 71
     0
 10
0.0
 20
0.0
 30
0.0
  3
From Bspline Surface_3
  1

  0
SPLINE
  5
732D0
330
735AB
100
AcDbEntity
  8
Level 27
 62
    12
100
AcDbSpline
210
0.0
220
0.0
230
1.0
 70
    28
 71
     2
 72
     6
 73
     3
 74
     0
 42
0.0000000001
 43
0.00000001
 40
0.0
 40
0.0
 40
0.0
 40
1.0
 40
1.0
 40
1.0
 10
3401.588068335185
 20
523.3925479418836
 30
0.0
 41
1.0
 10
3389.937947102333
 20
523.3925479418836
 30
0.0
 41
0.6513236959865294
 10
3391.703579898745
 20
523.3925479418836
 30
0.0
 41
1.0
  0
SPLINE
  5
73555
330
735AB
100
AcDbEntity
  8
Level 27
 62
    12
100
AcDbSpline
210
0.0
220
0.0
230
1.0
 70
    12
 71
     2
 72
     6
 73
     3
 74
     0
 42
0.0000000001
 43
0.00000001
 40
0.0
 40
0.0
 40
0.0
 40
1.0
 40
1.0
 40
1.0
 10
3407.061538588938
 20
550.2167764739186
 30
0.0
 41
1.0
 10
3395.827152058285
 20
554.3610209462845
 30
0.0
 41
0.6338041918742142
 10
3398.027800263026
 20
553.9792904601152
 30
0.0
 41
1.0
  0
SPLINE
  5
73556
330
735AB
100
AcDbEntity
  8
Level 27
 62
    12
100
AcDbSpline
210
0.0
220
0.0
230
1.0
 70
    28
 71
     2
 72
     6
 73
     3
 74
     0
 42
0.0000000001
 43
0.00000001
 40
0.0
 40
0.0
 40
0.0
 40
1.0
 40
1.0
 40
1.0
 10
3421.949939010542
 20
572.2220963216158
 30
0.0
 41
1.0
 10
3413.483719977483
 20
580.6883153546778
 30
0.0
 41
0.6279643571701101
 10
3415.06651887521
 20
579.1055164569491
 30
0.0
 41
1.0
  0
SPLINE
  5
73557
330
735AB
100
AcDbEntity
  8
Level 27
 62
    12
100
AcDbSpline
210
0.0
220
0.0
230
1.0
 70
    12
 71
     2
 72
     6
 73
     3
 74
     0
 42
0.0000000001
 43
0.00000001
 40
0.0
 40
0.0
 40
0.0
 40
1.0
 40
1.0
 40
1.0
 10
3443.955258858239
 20
587.1104967432187
 30
0.0
 41
1.0
 10
3439.811014385873
 20
598.3448832738767
 30
0.0
 41
0.6338041918742156
 10
3440.192744872044
 20
596.1442350691323
 30
0.0
 41
1.0
  0
SPLINE
  5
73558
330
735AB
100
AcDbEntity
  8
Level 27
 62
    12
100
AcDbSpline
210
0.0
220
0.0
230
1.0
 70
    28
 71
     2
 72
     6
 73
     3
 74
     0
 42
0.0000000001
 43
0.00000001
 40
0.0
 40
0.0
 40
0.0
 40
1.0
 40
1.0
 40
1.0
 10
3470.779487390275
 20
592.5839669969711
 30
0.0
 41
1.0
 10
3470.779487390275
 20
604.2340882298262
 30
0.0
 41
0.6513236959865294
 10
3470.779487390275
 20
602.468455433412
 30
0.0
 41
1.0
  0
SPLINE
  5
73559
330
735AB
100
AcDbEntity
  8
Level 27
 62
    12
100
AcDbSpline
210
0.0
220
0.0
230
1.0
 70
    12
 71
     3
 72
     8
 73
     4
 74
     0
 42
0.0000000001
 43
0.00000001
 40
0.0
 40
0.0
 40
0.0
 40
0.0
 40
1.0
 40
1.0
 40
1.0
 40
1.0
 10
3401.588068335185
 20
523.3925479418836
 30
0.0
 41
1.0
 10
3401.588070454175
 20
561.3494536667084
 30
0.0
 41
1.0
 10
3432.822581665449
 20
592.5839648779822
 30
0.0
 41
1.0
 10
3470.779487390275
 20
592.5839669969711
 30
0.0
 41
1.0
  0
SPLINE
  5
7355A
330
735AB
100
AcDbEntity
  8
Level 27
 62
    12
100
AcDbSpline
210
0.0
220
0.0
230
1.0
 70
    12
 71
     3
 72
     8
 73
     4
 74
     0
 42
0.0000000001
 43
0.00000001
 40
0.0
 40
0.0
 40
0.0
 40
0.0
 40
1.0
 40
1.0
 40
1.0
 40
1.0
 10
3397.603834876637
 20
523.3925479418837
 30
0.0
 41
0.8692463859949485
 10
3397.457972132652
 20
563.5397086817562
 30
0.0
 41
0.857566716586738
 10
3430.632326650399
 20
596.7140631995086
 30
0.0
 41
0.8575667165867398
 10
3470.779487390275
 20
596.5682004555222
 30
0.0
 41
0.8692463859949485
  0
SPLINE
  5
7355B
330
735AB
100
AcDbEntity
  8
Level 27
 62
    12
100
AcDbSpline
210
0.0
220
0.0
230
1.0
 70
    12
 71
     3
 72
     8
 73
     4
 74
     0
 42
0.0000000001
 43
0.00000001
 40
0.0
 40
0.0
 40
0.0
 40
0.0
 40
1.0
 40
1.0
 40
1.0
 40
1.0
 10
3394.000068315112
 20
523.3925479418833
 30
0.0
 41
0.8256618479932647
 10
3393.749954721946
 20
565.5309962744395
 30
0.0
 41
0.8100889554489841
 10
3428.641039057716
 20
600.4220806102156
 30
0.0
 41
0.8100889554489863
 10
3470.779487390274
 20
600.1719670170452
 30
0.0
 41
0.8256618479932647
  0
SPLINE
  5
7355C
330
735AB
100
AcDbEntity
  8
Level 27
 62
    12
100
AcDbSpline
210
0.0
220
0.0
230
1.0
 70
    12
 71
     3
 72
     8
 73
     4
 74
     0
 42
0.0000000001
 43
0.00000001
 40
0.0
 40
0.0
 40
0.0
 40
0.0
 40
1.0
 40
1.0
 40
1.0
 40
1.0
 10
3391.918169341699
 20
523.3925479418837
 30
0.0
 41
0.8692463859949485
 10
3391.765851114966
 20
566.6288038991665
 30
0.0
 41
0.857566716586738
 10
3427.543231432991
 20
602.4061842171958
 30
0.0
 41
0.8575667165867398
 10
3470.779487390275
 20
602.2538659904593
 30
0.0
 41
0.8692463859949485
  0
SPLINE
  5
7355D
330
735AB
100
AcDbEntity
  8
Level 27
 62
    12
100
AcDbSpline
210
0.0
220
0.0
230
1.0
 70
    12
 71
     3
 72
     8
 73
     4
 74
     0
 42
0.0000000001
 43
0.00000001
 40
0.0
 40
0.0
 40
0.0
 40
0.0
 40
1.0
 40
1.0
 40
1.0
 40
1.0
 10
3391.703579898745
 20
523.3925479418836
 30
0.0
 41
1.0
 10
3391.825323391071
 20
566.6476641523452
 30
0.0
 41
1.0
 10
3427.524371179814
 20
602.3467119410872
 30
0.0
 41
1.0
 10
3470.779487390275
 20
602.468455433412
 30
0.0
 41
1.0
  0
SPLINE
  5
7355E
330
735AB
100
AcDbEntity
  8
Level 27
 62
    12
100
AcDbSpline
210
0.0
220
0.0
230
1.0
 70
    11
 71
     1
 72
    34
 73
    32
 74
     0
 42
0.0000000001
 43
0.00000001
 40
0.0
 40
0.0
 40
0.032258064516129
 40
0.0645161290322581
 40
0.0967741935483871
 40
0.1290322580645161
 40
0.1612903225806452
 40
0.1935483870967742
 40
0.2258064516129032
 40
0.2580645161290323
 40
0.2903225806451613
 40
0.3225806451612903
 40
0.3548387096774193
 40
0.3870967741935483
 40
0.4193548387096773
 40
0.4516129032258063
 40
0.4838709677419353
 40
0.5161290322580643
 40
0.5483870967741933
 40
0.5806451612903223
 40
0.6129032258064513
 40
0.6451612903225803
 40
0.6774193548387093
 40
0.7096774193548383
 40
0.7419354838709673
 40
0.7741935483870963
 40
0.8064516129032253
 40
0.8387096774193543
 40
0.8709677419354833
 40
0.9032258064516123
 40
0.9354838709677413
 40
0.9677419354838703
 40
1.0
 40
1.0
 10
3391.703579898745
 20
523.3925479418836
 30
0.0
 10
3391.598443825805
 20
523.3925479418836
 30
0.0
 10
3391.918169341699
 20
523.3925479418837
 30
0.0
 10
3392.720777053377
 20
523.3925479418836
 30
0.0
 10
3394.000068315112
 20
523.3925479418836
 30
0.0
 10
3395.674693172548
 20
523.3925479418836
 30
0.0
 10
3397.603834876635
 20
523.3925479418837
 30
0.0
 10
3399.623938217397
 20
523.3925479418836
 30
0.0
 10
3401.588068335185
 20
523.3925479418836
 30
0.0
 10
3401.588068335185
 20
523.3925479418836
 30
0.0
 10
3404.077463140433
 20
541.6973192495616
 30
0.0
 10
3411.091717389428
 20
558.2007994000161
 30
0.0
 10
3421.949939010542
 20
572.2220963216158
 30
0.0
 10
3435.971235932142
 20
583.0803179427293
 30
0.0
 10
3452.474716082596
 20
590.0945721917248
 30
0.0
 10
3470.779487390275
 20
592.5839669969711
 30
0.0
 10
3470.779487390275
 20
592.5839669969711
 30
0.0
 10
3470.779487390275
 20
594.5480971147601
 30
0.0
 10
3470.779487390275
 20
596.568200455522
 30
0.0
 10
3470.779487390275
 20
598.4973421596086
 30
0.0
 10
3470.779487390275
 20
600.1719670170453
 30
0.0
 10
3470.779487390275
 20
601.4512582787808
 30
0.0
 10
3470.779487390275
 20
602.2538659904593
 30
0.0
 10
3470.779487390275
 20
602.573591506353
 30
0.0
 10
3470.779487390275
 20
602.468455433412
 30
0.0
 10
3470.779487390275
 20
602.468455433412
 30
0.0
 10
3449.911329597386
 20
599.5725362730792
 30
0.0
 10
3431.080884204635
 20
591.5254340598629
 30
0.0
 10
3415.06651887521
 20
579.1055164569491
 30
0.0
 10
3402.646601272295
 20
563.0911511275239
 30
0.0
 10
3394.599499059079
 20
544.2607057347734
 30
0.0
 10
3391.703579898745
 20
523.3925479418836
 30
0.0
  0
ENDBLK
  5
735AD
330
735AB
100
AcDbEntity
  8
0
100
AcDbBlockEnd
  0
BLOCK
  5
735AF
330
735AE
100
AcDbEntity
  8
0
100
AcDbBlockBegin
  2
Smart Solid
 70
     0
 71
     0
 10
0.0
 20
0.0
 30
0.0
  3
Smart Solid
  1

  0
LINE
  5
73328
330
735AE
100
AcDbEntity
  8
Level 27
 62
    12
100
AcDbLine
 10
0.024995
 20
0.024994
 30
0.0
 11
-0.025005
 21
-0.025006
 31
0.0
  0
LINE
  5
73329
330
735AE
100
AcDbEntity
  8
Level 27
 62
    12
100
AcDbLine
 10
-0.025005
 20
-0.025006
 30
0.0
 11
0.024995
 21
-0.025006
 31
0.0
  0
LINE
  5
7332A
330
735AE
100
AcDbEntity
  8
Level 27
 62
    12
100
AcDbLine
 10
0.024995
 20
-0.025006
 30
0.0
 11
0.024995
 21
0.024994
 31
0.0
  0
ENDBLK
  5
735B0
330
735AE
100
AcDbEntity
  8
0
100
AcDbBlockEnd
  0
BLOCK
  5
735B2
330
735B1
100
AcDbEntity
  8
0
100
AcDbBlockBegin
  2
Smart Solid_1
 70
     0
 71
     0
 10
0.0
 20
0.0
 30
0.0
  3
Smart Solid_1
  1

  0
LINE
  5
7332D
330
735B1
100
AcDbEntity
  8
Level 27
 62
    12
100
AcDbLine
 10
0.024995
 20
0.024994
 30
0.0
 11
-0.025005
 21
-0.025006
 31
0.0
  0
LINE
  5
7332E
330
735B1
100
AcDbEntity
  8
Level 27
 62
    12
100
AcDbLine
 10
-0.025005
 20
0.024994
 30
0.0
 11
0.024995
 21
0.024994
 31
0.0
  0
LINE
  5
7332F
330
735B1
100
AcDbEntity
  8
Level 27
 62
    12
100
AcDbLine
 10
-0.025005
 20
-0.025006
 30
0.0
 11
-0.025005
 21
0.024994
 31
0.0
  0
ENDBLK
  5
735B3
330
735B1
100
AcDbEntity
  8
0
100
AcDbBlockEnd
  0
BLOCK
  5
735B5
330
735B4
100
AcDbEntity
  8
0
100
AcDbBlockBegin
  2
Smart Solid_2
 70
     0
 71
     0
 10
0.0
 20
0.0
 30
0.0
  3
Smart Solid_2
  1

  0
SPLINE
  5
73332
330
735B4
100
AcDbEntity
  8
Level 27
 62
    12
100
AcDbSpline
210
0.0
220
0.0
230
1.0
 70
     8
 71
     3
 72
    20
 73
    16
 74
     0
 42
0.0000000001
 43
0.00000001
 40
0.0
 40
0.0
 40
0.0
 40
0.0
 40
0.1624359408474453
 40
0.1624359408474453
 40
0.1624359408474453
 40
0.3792427586817836
 40
0.3792427586817836
 40
0.3792427586817836
 40
0.5885357247670862
 40
0.5885357247670862
 40
0.5885357247670862
 40
0.7940362960405234
 40
0.7940362960405234
 40
0.7940362960405234
 40
1.0
 40
1.0
 40
1.0
 40
1.0
 10
1.011258398371858
 20
1.061257298339643
 30
0.0
 10
1.013902707550173
 20
1.05971127889846
 30
0.0
 10
1.016787286925258
 20
1.057821509450982
 30
0.0
 10
1.019771398172473
 20
1.055661563890651
 30
0.0
 10
1.023750427503941
 20
1.05278148133779
 30
0.0
 10
1.028010603613573
 20
1.049338386789053
 30
0.0
 10
1.032163267695886
 20
1.045612568747598
 30
0.0
 10
1.036174865945228
 20
1.04201331659617
 30
0.0
 10
1.040198660763146
 20
1.038048485109811
 30
0.0
 10
1.043888634582871
 20
1.034056333695785
 30
0.0
 10
1.047514470073843
 20
1.030133572996268
 30
0.0
 10
1.050917339884883
 20
1.026078584367466
 30
0.0
 10
1.053840029129255
 20
1.022228210098469
 30
0.0
 10
1.056770121780097
 20
1.018368082522411
 30
0.0
 10
1.059296614155457
 20
1.01461273092432
 30
0.0
 10
1.061258398371876
 20
1.011257298339699
 30
0.0
  0
LINE
  5
73335
330
735B4
100
AcDbEntity
  8
Level 27
 62
    12
100
AcDbLine
 10
1.011258
 20
1.061257
 30
0.0
 11
-1.061005
 21
-1.011006
 31
0.0
  0
ARC
  5
73336
330
735B4
100
AcDbEntity
  8
Level 27
 62
    12
100
AcDbCircle
 10
1.011005
 20
-1.011006
 30
0.0
 40
0.0499999999999384
210
0.0
220
0.0
230
-1.0
100
AcDbArc
 50
270.0
 51
360.0
  0
LINE
  5
73337
330
735B4
100
AcDbEntity
  8
Level 27
 62
    12
100
AcDbLine
 10
1.061258
 20
1.011257
 30
0.0
 11
-1.011005
 21
-1.061006
 31
0.0
  0
ENDBLK
  5
735B6
330
735B4
100
AcDbEntity
  8
0
100
AcDbBlockEnd
  0
BLOCK
  5
735B8
330
735B7
100
AcDbEntity
  8
0
100
AcDbBlockBegin
  2
Smart Solid_3
 70
     0
 71
     0
 10
0.0
 20
0.0
 30
0.0
  3
Smart Solid_3
  1

  0
LINE
  5
7333A
330
735B7
100
AcDbEntity
  8
Level 27
 62
    12
100
AcDbLine
 10
1.082495
 20
0.982494
 30
0.0
 11
-0.982161
 21
-1.082162
 31
0.0
  0
SPLINE
  5
7333B
330
735B7
100
AcDbEntity
  8
Level 27
 62
    12
100
AcDbSpline
210
0.0
220
0.0
230
1.0
 70
     8
 71
     3
 72
    20
 73
    16
 74
     0
 42
0.0000000001
 43
0.00000001
 40
0.0
 40
0.0
 40
0.0
 40
0.0
 40
0.2123129032698946
 40
0.2123129032698946
 40
0.2123129032698946
 40
0.4251875696251068
 40
0.4251875696251068
 40
0.4251875696251068
 40
0.6302825716711022
 40
0.6302825716711022
 40
0.6302825716711022
 40
0.8311561292962826
 40
0.8311561292962826
 40
0.8311561292962826
 40
1.0
 40
1.0
 40
1.0
 40
1.0
 10
-1.082161395618037
 20
-0.9821624956502392
 30
0.0
 10
-1.07842049353799
 20
-0.9893238689252826
 30
0.0
 10
-1.07348996662671
 20
-0.9973404730371384
 30
0.0
 10
-1.067638665835467
 20
-1.005521856463891
 30
0.0
 10
-1.061778199585412
 20
-1.013716055183462
 30
0.0
 10
-1.054818075418822
 20
-1.022305258542136
 30
0.0
 10
-1.047303403371068
 20
-1.030482245996948
 30
0.0
 10
-1.040057986298109
 20
-1.038366247339081
 30
0.0
 10
-1.032093737978414
 20
-1.046086082737916
 30
0.0
 10
-1.024103646702955
 20
-1.052987428866965
 30
0.0
 10
-1.016269134607427
 20
-1.059754395333231
 30
0.0
 10
-1.008204055759514
 20
-1.065919502801476
 30
0.0
 10
-1.000578161181529
 20
-1.071079531532144
 30
0.0
 10
-0.9941398077027088
 20
-1.075436015691357
 30
0.0
 10
-0.9878863713352573
 20
-1.07917192767791
 30
0.0
 10
-0.9821613956189736
 20
-1.08216249565179
 30
0.0
  0
LINE
  5
7333E
330
735B7
100
AcDbEntity
  8
Level 27
 62
    12
100
AcDbLine
 10
0.982495
 20
1.082494
 30
0.0
 11
-1.082161
 21
-0.982162
 31
0.0
  0
LINE
  5
7333F
330
735B7
100
AcDbEntity
  8
Level 27
 62
    12
100
AcDbLine
 10
1.082495
 20
1.082494
 30
0.0
 11
0.982495
 21
1.082494
 31
0.0
  0
LINE
  5
73340
330
735B7
100
AcDbEntity
  8
Level 27
 62
    12
100
AcDbLine
 10
1.082495
 20
1.082494
 30
0.0
 11
1.082495
 21
0.982494
 31
0.0
  0
ENDBLK
  5
735B9
330
735B7
100
AcDbEntity
  8
0
100
AcDbBlockEnd
  0
BLOCK
  5
735BB
330
735BA
100
AcDbEntity
  8
0
100
AcDbBlockBegin
  2
Smart Solid_4
 70
     0
 71
     0
 10
0.0
 20
0.0
 30
0.0
  3
Smart Solid_4
  1

  0
LINE
  5
73343
330
735BA
100
AcDbEntity
  8
Level 27
 62
    12
100
AcDbLine
 10
2.244862
 20
0.963707
 30
0.0
 11
2.244862
 21
-0.96372
 31
0.0
  0
LINE
  5
73344
330
735BA
100
AcDbEntity
  8
Level 27
 62
    12
100
AcDbLine
 10
1.331149
 20
0.049994
 30
0.0
 11
2.244862
 21
0.963707
 31
0.0
  0
LINE
  5
73345
330
735BA
100
AcDbEntity
  8
Level 27
 62
    12
100
AcDbLine
 10
0.049995
 20
1.331148
 30
0.0
 11
1.331149
 21
0.049994
 31
0.0
  0
LINE
  5
73346
330
735BA
100
AcDbEntity
  8
Level 27
 62
    12
100
AcDbLine
 10
0.963708
 20
2.244861
 30
0.0
 11
0.049995
 21
1.331148
 31
0.0
  0
LINE
  5
73347
330
735BA
100
AcDbEntity
  8
Level 27
 62
    12
100
AcDbLine
 10
-0.963719
 20
2.244861
 30
0.0
 11
0.963708
 21
2.244861
 31
0.0
  0
LINE
  5
73348
330
735BA
100
AcDbEntity
  8
Level 27
 62
    12
100
AcDbLine
 10
-0.050005
 20
1.331148
 30
0.0
 11
-0.963719
 21
2.244861
 31
0.0
  0
LINE
  5
73349
330
735BA
100
AcDbEntity
  8
Level 27
 62
    12
100
AcDbLine
 10
-1.33116
 20
0.049994
 30
0.0
 11
-0.050005
 21
1.331148
 31
0.0
  0
LINE
  5
7334A
330
735BA
100
AcDbEntity
  8
Level 27
 62
    12
100
AcDbLine
 10
-2.244873
 20
0.963707
 30
0.0
 11
-1.33116
 21
0.049994
 31
0.0
  0
LINE
  5
7334B
330
735BA
100
AcDbEntity
  8
Level 27
 62
    12
100
AcDbLine
 10
-2.244873
 20
-0.96372
 30
0.0
 11
-2.244873
 21
0.963707
 31
0.0
  0
LINE
  5
7334C
330
735BA
100
AcDbEntity
  8
Level 27
 62
    12
100
AcDbLine
 10
-1.33116
 20
-0.050006
 30
0.0
 11
-2.244873
 21
-0.96372
 31
0.0
  0
LINE
  5
7334D
330
735BA
100
AcDbEntity
  8
Level 27
 62
    12
100
AcDbLine
 10
-0.050005
 20
-1.331161
 30
0.0
 11
-1.33116
 21
-0.050006
 31
0.0
  0
LINE
  5
7334E
330
735BA
100
AcDbEntity
  8
Level 27
 62
    12
100
AcDbLine
 10
-0.963719
 20
-2.244874
 30
0.0
 11
-0.050005
 21
-1.331161
 31
0.0
  0
LINE
  5
7334F
330
735BA
100
AcDbEntity
  8
Level 27
 62
    12
100
AcDbLine
 10
0.963708
 20
-2.244874
 30
0.0
 11
-0.963719
 21
-2.244874
 31
0.0
  0
LINE
  5
73350
330
735BA
100
AcDbEntity
  8
Level 27
 62
    12
100
AcDbLine
 10
0.049995
 20
-1.331161
 30
0.0
 11
0.963708
 21
-2.244874
 31
0.0
  0
LINE
  5
73351
330
735BA
100
AcDbEntity
  8
Level 27
 62
    12
100
AcDbLine
 10
1.331149
 20
-0.050006
 30
0.0
 11
0.049995
 21
-1.331161
 31
0.0
  0
LINE
  5
73352
330
735BA
100
AcDbEntity
  8
Level 27
 62
    12
100
AcDbLine
 10
2.244862
 20
-0.96372
 30
0.0
 11
1.331149
 21
-0.050006
 31
0.0
  0
ENDBLK
  5
735BC
330
735BA
100
AcDbEntity
  8
0
100
AcDbBlockEnd
  0
BLOCK
  5
735BE
330
735BD
100
AcDbEntity
  8
0
100
AcDbBlockBegin
  2
Smart Solid_5
 70
     0
 71
     0
 10
0.0
 20
0.0
 30
0.0
  3
Smart Solid_5
  1

  0
SPLINE
  5
73355
330
735BD
100
AcDbEntity
  8
Level 27
 62
    12
100
AcDbSpline
210
0.0
220
0.0
230
1.0
 70
     8
 71
     3
 72
    23
 73
    19
 74
     0
 42
0.0000000001
 43
0.00000001
 40
0.0
 40
0.0
 40
0.0
 40
0.0
 40
0.0870030487116576
 40
0.0870030487116576
 40
0.0870030487116576
 40
0.3063863035822366
 40
0.3063863035822366
 40
0.3063863035822366
 40
0.5181488351653553
 40
0.5181488351653553
 40
0.5181488351653553
 40
0.7243819633376891
 40
0.7243819633376891
 40
0.7243819633376891
 40
0.9308216974348843
 40
0.9308216974348843
 40
0.9308216974348843
 40
1.0
 40
1.0
 40
1.0
 40
1.0
 10
-1.011269098926277
 20
-1.061270198958223
 30
0.0
 10
-1.012691223198715
 20
-1.060438741051932
 30
0.0
 10
-1.014179213312602
 20
-1.059510683102291
 30
0.0
 10
-1.015712168431598
 20
-1.058496140203765
 30
0.0
 10
-1.019555772288797
 20
-1.055952359926198
 30
0.0
 10
-1.023770138883272
 20
-1.052795695439107
 30
0.0
 10
-1.02797028774971
 20
-1.049273385249837
 30
0.0
 10
-1.032026766126137
 20
-1.045871559368828
 30
0.0
 10
-1.036184951305629
 20
-1.042030652169911
 30
0.0
 10
-1.040076586119028
 20
-1.038076656872053
 30
0.0
 10
-1.043869688885714
 20
-1.034222772521921
 30
0.0
 10
-1.047514150357316
 20
-1.030156087284363
 30
0.0
 10
-1.050720631544827
 20
-1.026219063026467
 30
0.0
 10
-1.053931831003851
 20
-1.022276245517852
 30
0.0
 10
-1.056791213713417
 20
-1.018358820044645
 30
0.0
 10
-1.05910359419277
 20
-1.01478318415089
 30
0.0
 10
-1.059883097125272
 20
-1.013577838106146
 30
0.0
 10
-1.060606587300242
 20
-1.01240335778296
 30
0.0
 10
-1.061269098926076
 20
-1.011270198958274
 30
0.0
  0
LINE
  5
73358
330
735BD
100
AcDbEntity
  8
Level 27
 62
    12
100
AcDbLine
 10
1.060995
 20
1.010994
 30
0.0
 11
-1.011269
 21
-1.06127
 31
0.0
  0
ARC
  5
73359
330
735BD
100
AcDbEntity
  8
Level 27
 62
    12
100
AcDbCircle
 10
-1.010995
 20
1.010994
 30
0.0
 40
0.0500000000000616
210
0.0
220
0.0
230
-1.0
100
AcDbArc
 50
90.0
 51
180.0
  0
LINE
  5
7335A
330
735BD
100
AcDbEntity
  8
Level 27
 62
    12
100
AcDbLine
 10
1.010995
 20
1.060994
 30
0.0
 11
-1.061269
 21
-1.01127
 31
0.0
  0
ENDBLK
  5
735BF
330
735BD
100
AcDbEntity
  8
0
100
AcDbBlockEnd
  0
BLOCK
  5
735C1
330
735C0
100
AcDbEntity
  8
0
100
AcDbBlockBegin
  2
Smart Solid_6
 70
     0
 71
     0
 10
0.0
 20
0.0
 30
0.0
  3
Smart Solid_6
  1

  0
LINE
  5
7335D
330
735C0
100
AcDbEntity
  8
Level 27
 62
    12
100
AcDbLine
 10
0.982151
 20
1.08215
 30
0.0
 11
-1.082505
 21
-0.982506
 31
0.0
  0
SPLINE
  5
7335E
330
735C0
100
AcDbEntity
  8
Level 27
 62
    12
100
AcDbSpline
210
0.0
220
0.0
230
1.0
 70
     8
 71
     3
 72
    20
 73
    16
 74
     0
 42
0.0000000001
 43
0.00000001
 40
0.0
 40
0.0
 40
0.0
 40
0.0
 40
0.2123129032711161
 40
0.2123129032711161
 40
0.2123129032711161
 40
0.4251875696282347
 40
0.4251875696282347
 40
0.4251875696282347
 40
0.6302825716761169
 40
0.6302825716761169
 40
0.6302825716761169
 40
0.8311561293032554
 40
0.8311561293032554
 40
0.8311561293032554
 40
1.0
 40
1.0
 40
1.0
 40
1.0
 10
1.082150695063923
 20
0.9821495950316912
 30
0.0
 10
1.078409792983848
 20
0.9893109683067305
 30
0.0
 10
1.073479266072567
 20
0.9973275724185813
 30
0.0
 10
1.067627965281325
 20
1.00550895584532
 30
0.0
 10
1.061767499031262
 20
1.013703154564877
 30
0.0
 10
1.054807374864652
 20
1.022292357923537
 30
0.0
 10
1.047292702816876
 20
1.030469345378331
 30
0.0
 10
1.040047285743938
 20
1.03835334672045
 30
0.0
 10
1.032083037424222
 20
1.046073182119262
 30
0.0
 10
1.024092946148741
 20
1.052974528248291
 30
0.0
 10
1.016258434053199
 20
1.059741494714547
 30
0.0
 10
1.008193355205286
 20
1.065906602182779
 30
0.0
 10
1.000567460627281
 20
1.071066630913434
 30
0.0
 10
0.9941291071484457
 20
1.075423115072641
 30
0.0
 10
0.9878756707809728
 20
1.07915902705919
 30
0.0
 10
0.9821506950646821
 20
1.082149595033065
 30
0.0
  0
LINE
  5
73361
330
735C0
100
AcDbEntity
  8
Level 27
 62
    12
100
AcDbLine
 10
1.082151
 20
0.98215
 30
0.0
 11
-0.982505
 21
-1.082506
 31
0.0
  0
LINE
  5
73362
330
735C0
100
AcDbEntity
  8
Level 27
 62
    12
100
AcDbLine
 10
-0.982505
 20
-1.082506
 30
0.0
 11
-1.082505
 21
-1.082506
 31
0.0
  0
LINE
  5
73363
330
735C0
100
AcDbEntity
  8
Level 27
 62
    12
100
AcDbLine
 10
-1.082505
 20
-0.982506
 30
0.0
 11
-1.082505
 21
-1.082506
 31
0.0
  0
ENDBLK
  5
735C2
330
735C0
100
AcDbEntity
  8
0
100
AcDbBlockEnd
  0
BLOCK
  5
735C4
330
735C3
100
AcDbEntity
  8
0
100
AcDbBlockBegin
  2
Smart Solid_7
 70
     0
 71
     0
 10
0.0
 20
0.0
 30
0.0
  3
Smart Solid_7
  1

  0
LINE
  5
73366
330
735C3
100
AcDbEntity
  8
Level 27
 62
    12
100
AcDbLine
 10
2.197578
 20
0.050007
 30
0.0
 11
-2.197591
 21
0.050007
 31
0.0
  0
LINE
  5
73367
330
735C3
100
AcDbEntity
  8
Level 27
 62
    12
100
AcDbLine
 10
2.197578
 20
-0.049993
 30
0.0
 11
2.197578
 21
0.050007
 31
0.0
  0
LINE
  5
73368
330
735C3
100
AcDbEntity
  8
Level 27
 62
    12
100
AcDbLine
 10
2.197578
 20
-0.048838
 30
0.0
 11
-2.197591
 21
-0.048838
 31
0.0
  0
LINE
  5
73369
330
735C3
100
AcDbEntity
  8
Level 27
 62
    12
100
AcDbLine
 10
-2.197591
 20
-0.049993
 30
0.0
 11
-2.197591
 21
0.050007
 31
0.0
  0
LINE
  5
7336A
330
735C3
100
AcDbEntity
  8
Level 27
 62
    12
100
AcDbLine
 10
2.197578
 20
-0.049993
 30
0.0
 11
-2.197591
 21
-0.049993
 31
0.0
  0
LINE
  5
7336B
330
735C3
100
AcDbEntity
  8
Level 27
 62
    12
100
AcDbLine
 10
2.197578
 20
-0.049993
 30
0.0
 11
-2.197591
 21
-0.049993
 31
0.0
  0
ENDBLK
  5
735C5
330
735C3
100
AcDbEntity
  8
0
100
AcDbBlockEnd
  0
BLOCK
  5
735C7
330
735C6
100
AcDbEntity
  8
0
100
AcDbBlockBegin
  2
Smart Solid_8
 70
     0
 71
     0
 10
0.0
 20
0.0
 30
0.0
  3
Smart Solid_8
  1

  0
LINE
  5
7336E
330
735C6
100
AcDbEntity
  8
Level 27
 62
    12
100
AcDbLine
 10
-0.050008
 20
2.19759
 30
0.0
 11
-0.050008
 21
-2.197579
 31
0.0
  0
LINE
  5
7336F
330
735C6
100
AcDbEntity
  8
Level 27
 62
    12
100
AcDbLine
 10
0.049992
 20
2.19759
 30
0.0
 11
-0.050008
 21
2.19759
 31
0.0
  0
LINE
  5
73370
330
735C6
100
AcDbEntity
  8
Level 27
 62
    12
100
AcDbLine
 10
0.048837
 20
2.19759
 30
0.0
 11
0.048837
 21
-2.197579
 31
0.0
  0
LINE
  5
73371
330
735C6
100
AcDbEntity
  8
Level 27
 62
    12
100
AcDbLine
 10
0.049992
 20
-2.197579
 30
0.0
 11
-0.050008
 21
-2.197579
 31
0.0
  0
LINE
  5
73372
330
735C6
100
AcDbEntity
  8
Level 27
 62
    12
100
AcDbLine
 10
0.049992
 20
2.19759
 30
0.0
 11
0.049992
 21
-2.197579
 31
0.0
  0
LINE
  5
73373
330
735C6
100
AcDbEntity
  8
Level 27
 62
    12
100
AcDbLine
 10
0.049992
 20
2.19759
 30
0.0
 11
0.049992
 21
-2.197579
 31
0.0
  0
ENDBLK
  5
735C8
330
735C6
100
AcDbEntity
  8
0
100
AcDbBlockEnd
  0
BLOCK
  5
735CA
330
735C9
100
AcDbEntity
  8
0
100
AcDbBlockBegin
  2
Smart Solid_9
 70
     0
 71
     0
 10
0.0
 20
0.0
 30
0.0
  3
Smart Solid_9
  1

  0
LINE
  5
73376
330
735C9
100
AcDbEntity
  8
Level 27
 62
    12
100
AcDbLine
 10
0.049995
 20
-2.197579
 30
0.0
 11
0.049995
 21
2.19759
 31
0.0
  0
LINE
  5
73377
330
735C9
100
AcDbEntity
  8
Level 27
 62
    12
100
AcDbLine
 10
0.049995
 20
-2.197579
 30
0.0
 11
-0.050005
 21
-2.197579
 31
0.0
  0
LINE
  5
73378
330
735C9
100
AcDbEntity
  8
Level 27
 62
    12
100
AcDbLine
 10
-0.04885
 20
-2.197579
 30
0.0
 11
-0.04885
 21
2.19759
 31
0.0
  0
LINE
  5
73379
330
735C9
100
AcDbEntity
  8
Level 27
 62
    12
100
AcDbLine
 10
0.049995
 20
2.19759
 30
0.0
 11
-0.050005
 21
2.19759
 31
0.0
  0
LINE
  5
7337A
330
735C9
100
AcDbEntity
  8
Level 27
 62
    12
100
AcDbLine
 10
-0.050005
 20
-2.197579
 30
0.0
 11
-0.050005
 21
2.19759
 31
0.0
  0
LINE
  5
7337B
330
735C9
100
AcDbEntity
  8
Level 27
 62
    12
100
AcDbLine
 10
-0.050005
 20
-2.197579
 30
0.0
 11
-0.050005
 21
2.19759
 31
0.0
  0
ENDBLK
  5
735CB
330
735C9
100
AcDbEntity
  8
0
100
AcDbBlockEnd
  0
BLOCK
  5
735CD
330
735CC
100
AcDbEntity
  8
0
100
AcDbBlockBegin
  2
Smart Solid_10
 70
     0
 71
     0
 10
0.0
 20
0.0
 30
0.0
  3
Smart Solid_10
  1

  0
LINE
  5
7337E
330
735CC
100
AcDbEntity
  8
Level 27
 62
    12
100
AcDbLine
 10
2.197579
 20
0.048837
 30
0.0
 11
-2.19759
 21
0.048837
 31
0.0
  0
LINE
  5
7337F
330
735CC
100
AcDbEntity
  8
Level 27
 62
    12
100
AcDbLine
 10
2.197579
 20
-0.050008
 30
0.0
 11
2.197579
 21
0.049992
 31
0.0
  0
LINE
  5
73380
330
735CC
100
AcDbEntity
  8
Level 27
 62
    12
100
AcDbLine
 10
2.197579
 20
-0.050008
 30
0.0
 11
-2.19759
 21
-0.050008
 31
0.0
  0
LINE
  5
73381
330
735CC
100
AcDbEntity
  8
Level 27
 62
    12
100
AcDbLine
 10
-2.19759
 20
-0.050008
 30
0.0
 11
-2.19759
 21
0.049992
 31
0.0
  0
LINE
  5
73382
330
735CC
100
AcDbEntity
  8
Level 27
 62
    12
100
AcDbLine
 10
-2.19759
 20
0.049992
 30
0.0
 11
2.197579
 21
0.049992
 31
0.0
  0
LINE
  5
73383
330
735CC
100
AcDbEntity
  8
Level 27
 62
    12
100
AcDbLine
 10
2.197579
 20
0.049992
 30
0.0
 11
-2.19759
 21
0.049992
 31
0.0
  0
ENDBLK
  5
735CE
330
735CC
100
AcDbEntity
  8
0
100
AcDbBlockEnd
  0
BLOCK
  5
735D0
330
735CF
100
AcDbEntity
  8
0
100
AcDbBlockBegin
  2
Smart Solid_11
 70
     0
 71
     0
 10
0.0
 20
0.0
 30
0.0
  3
Smart Solid_11
  1

  0
POINT
  5
73386
330
735CF
100
AcDbEntity
  8
Level 27
 62
    12
100
AcDbPoint
 10
0.250494
 20
-0.250495
 30
0.0
  0
ARC
  5
73387
330
735CF
100
AcDbEntity
  8
Level 27
 62
    12
100
AcDbCircle
 10
0.250494
 20
0.249505
 30
0.0
 40
0.5000000000000002
100
AcDbArc
 50
180.0
 51
270.0
  0
POINT
  5
73388
330
735CF
100
AcDbEntity
  8
Level 27
 62
    12
100
AcDbPoint
 10
-0.249506
 20
0.249505
 30
0.0
  0
ARC
  5
73389
330
735CF
100
AcDbEntity
  8
Level 27
 62
    12
100
AcDbCircle
 10
0.250494
 20
0.249505
 30
0.0
 40
0.5000000000000002
100
AcDbArc
 50
180.0
 51
270.0
  0
ENDBLK
  5
735D1
330
735CF
100
AcDbEntity
  8
0
100
AcDbBlockEnd
  0
BLOCK
  5
735D3
330
735D2
100
AcDbEntity
  8
0
100
AcDbBlockBegin
  2
Smart Solid_12
 70
     0
 71
     0
 10
0.0
 20
0.0
 30
0.0
  3
Smart Solid_12
  1

  0
POINT
  5
7338C
330
735D2
100
AcDbEntity
  8
Level 27
 62
    12
100
AcDbPoint
 10
-0.249506
 20
0.249505
 30
0.0
  0
ARC
  5
7338D
330
735D2
100
AcDbEntity
  8
Level 27
 62
    12
100
AcDbCircle
 10
-0.249506
 20
-0.250495
 30
0.0
 40
0.5000000000000002
100
AcDbArc
 50
0.0
 51
90.0
  0
POINT
  5
7338E
330
735D2
100
AcDbEntity
  8
Level 27
 62
    12
100
AcDbPoint
 10
0.250494
 20
-0.250495
 30
0.0
  0
ARC
  5
7338F
330
735D2
100
AcDbEntity
  8
Level 27
 62
    12
100
AcDbCircle
 10
-0.249506
 20
-0.250495
 30
0.0
 40
0.5000000000000002
100
AcDbArc
 50
0.0
 51
90.0
  0
ENDBLK
  5
735D4
330
735D2
100
AcDbEntity
  8
0
100
AcDbBlockEnd
  0
BLOCK
  5
735D6
330
735D5
100
AcDbEntity
  8
0
100
AcDbBlockBegin
  2
Smart Solid_13
 70
     0
 71
     0
 10
0.0
 20
0.0
 30
0.0
  3
Smart Solid_13
  1

  0
POINT
  5
73392
330
735D5
100
AcDbEntity
  8
Level 27
 62
    12
100
AcDbPoint
 10
0.250494
 20
0.249505
 30
0.0
  0
ARC
  5
73393
330
735D5
100
AcDbEntity
  8
Level 27
 62
    12
100
AcDbCircle
 10
-0.249506
 20
0.249505
 30
0.0
 40
0.5000000000000002
100
AcDbArc
 50
270.0
 51
0.0
  0
POINT
  5
73394
330
735D5
100
AcDbEntity
  8
Level 27
 62
    12
100
AcDbPoint
 10
-0.249506
 20
-0.250495
 30
0.0
  0
ARC
  5
73395
330
735D5
100
AcDbEntity
  8
Level 27
 62
    12
100
AcDbCircle
 10
-0.249506
 20
0.249505
 30
0.0
 40
0.5000000000000002
100
AcDbArc
 50
270.0
 51
0.0
  0
ENDBLK
  5
735D7
330
735D5
100
AcDbEntity
  8
0
100
AcDbBlockEnd
  0
BLOCK
  5
735D9
330
735D8
100
AcDbEntity
  8
0
100
AcDbBlockBegin
  2
Smart Solid_14
 70
     0
 71
     0
 10
0.0
 20
0.0
 30
0.0
  3
Smart Solid_14
  1

  0
POINT
  5
73398
330
735D8
100
AcDbEntity
  8
Level 27
 62
    12
100
AcDbPoint
 10
-0.249506
 20
-0.250495
 30
0.0
  0
ARC
  5
73399
330
735D8
100
AcDbEntity
  8
Level 27
 62
    12
100
AcDbCircle
 10
0.250494
 20
-0.250495
 30
0.0
 40
0.5000000000000002
100
AcDbArc
 50
90.0
 51
180.0
  0
POINT
  5
7339A
330
735D8
100
AcDbEntity
  8
Level 27
 62
    12
100
AcDbPoint
 10
0.250494
 20
0.249505
 30
0.0
  0
ARC
  5
7339B
330
735D8
100
AcDbEntity
  8
Level 27
 62
    12
100
AcDbCircle
 10
0.250494
 20
-0.250495
 30
0.0
 40
0.5000000000000002
100
AcDbArc
 50
90.0
 51
180.0
  0
ENDBLK
  5
735DA
330
735D8
100
AcDbEntity
  8
0
100
AcDbBlockEnd
  0
BLOCK
  5
735DC
330
735DB
100
AcDbEntity
  8
0
100
AcDbBlockBegin
  2
Smart Solid_15
 70
     0
 71
     0
 10
0.0
 20
0.0
 30
0.0
  3
Smart Solid_15
  1

  0
SPLINE
  5
7339E
330
735DB
100
AcDbEntity
  8
Level 27
 62
    12
100
AcDbSpline
210
0.0
220
0.0
230
1.0
 70
     8
 71
     3
 72
    23
 73
    19
 74
     0
 42
0.0000000001
 43
0.00000001
 40
0.0
 40
0.0
 40
0.0
 40
0.0
 40
0.0870030487116583
 40
0.0870030487116583
 40
0.0870030487116583
 40
0.3063863035822373
 40
0.3063863035822373
 40
0.3063863035822373
 40
0.5181488351653559
 40
0.5181488351653559
 40
0.5181488351653559
 40
0.7243819633376899
 40
0.7243819633376899
 40
0.7243819633376899
 40
0.9308216974348851
 40
0.9308216974348851
 40
0.9308216974348851
 40
1.0
 40
1.0
 40
1.0
 40
1.0
 10
0.125730901073716
 20
0.0757298010417821
 30
0.0
 10
0.1243087768012785
 20
0.0765612589480683
 30
0.0
 10
0.1228207866873916
 20
0.0774893168977091
 30
0.0
 10
0.1212878315683952
 20
0.0785038597962355
 30
0.0
 10
0.1174442277111965
 20
0.0810476400738072
 30
0.0
 10
0.1132298611167215
 20
0.0842043045608933
 30
0.0
 10
0.1090297122502832
 20
0.0877266147501629
 30
0.0
 10
0.1049732338738565
 20
0.0911284406311719
 30
0.0
 10
0.1008150486943649
 20
0.0949693478300889
 30
0.0
 10
0.0969234138809654
 20
0.0989233431279521
 30
0.0
 10
0.0931303111142796
 20
0.1027772274780787
 30
0.0
 10
0.0894858496426778
 20
0.106843912715642
 30
0.0
 10
0.0862793684551662
 20
0.1107809369735329
 30
0.0
 10
0.0830681689961423
 20
0.1147237544821483
 30
0.0
 10
0.0802087862865761
 20
0.1186411799553551
 30
0.0
 10
0.0778964058072233
 20
0.1222168158491144
 30
0.0
 10
0.077116902874721
 20
0.123422161893854
 30
0.0
 10
0.0763934126997512
 20
0.1245966422170403
 30
0.0
 10
0.0757309010739178
 20
0.1257298010417262
 30
0.0
  0
ELLIPSE
  5
733A1
330
735DB
100
AcDbEntity
  8
Level 27
 62
    12
100
AcDbEllipse
 10
0.673576
 20
0.673575
 30
0.0
 11
-0.09602980485690413
 21
-0.8960298048569045
 31
0.0
210
0.0
220
0.0
230
-1.0
 40
0.806403
 41
0.8296067360053758
 42
1.559310874998698
  0
LINE
  5
733A2
330
735DB
100
AcDbEntity
  8
Level 27
 62
    12
100
AcDbLine
 10
-0.740349
 20
0.050409
 30
0.0
 11
-0.050041
 21
0.740717
 31
0.0
  0
ELLIPSE
  5
733A3
330
735DB
100
AcDbEntity
  8
Level 27
 62
    12
100
AcDbEllipse
 10
0.066676
 20
0.066675
 30
0.0
 11
-0.5755821467707307
 21
-0.5755821467707308
 31
0.0
210
0.0
220
0.0
230
-1.0
 40
0.982806
 41
5.509272595578338
 42
7.057098018780836
  0
LINE
  5
733A4
330
735DB
100
AcDbEntity
  8
Level 27
 62
    12
100
AcDbLine
 10
0.05041
 20
-0.74035
 30
0.0
 11
0.740718
 21
-0.050042
 31
0.0
  0
ELLIPSE
  5
733A5
330
735DB
100
AcDbEntity
  8
Level 27
 62
    12
100
AcDbEllipse
 10
0.673576
 20
0.673575
 30
0.0
 11
-0.8960298048567876
 21
-0.09602980485688997
 31
0.0
210
0.0
220
0.0
230
-1.0
 40
0.806403
 41
4.723874432181018
 42
5.453578571175895
  0
ENDBLK
  5
735DD
330
735DB
100
AcDbEntity
  8
0
100
AcDbBlockEnd
  0
BLOCK
  5
735DF
330
735DE
100
AcDbEntity
  8
0
100
AcDbBlockBegin
  2
Smart Solid_16
 70
     0
 71
     0
 10
0.0
 20
0.0
 30
0.0
  3
Smart Solid_16
  1

  0
LINE
  5
733A8
330
735DE
100
AcDbEntity
  8
Level 27
 62
    12
100
AcDbLine
 10
0.05003
 20
-0.74073
 30
0.0
 11
0.740338
 21
-0.050422
 31
0.0
  0
ELLIPSE
  5
733A9
330
735DE
100
AcDbEntity
  8
Level 27
 62
    12
100
AcDbEllipse
 10
-0.066687
 20
-0.066688
 30
0.0
 11
-0.5755821467707307
 21
-0.5755821467707308
 31
0.0
210
0.0
220
0.0
230
-1.0
 40
0.982806
 41
2.367679941988544
 42
3.915505365191043
  0
LINE
  5
733AA
330
735DE
100
AcDbEntity
  8
Level 27
 62
    12
100
AcDbLine
 10
-0.740729
 20
0.050029
 30
0.0
 11
-0.050421
 21
0.740337
 31
0.0
  0
ELLIPSE
  5
733AB
330
735DE
100
AcDbEntity
  8
Level 27
 62
    12
100
AcDbEllipse
 10
-0.673586
 20
-0.673588
 30
0.0
 11
-0.8960298048569043
 21
-0.09602980485690249
 31
0.0
210
0.0
220
0.0
230
-1.0
 40
0.806403
 41
1.582281778591094
 42
2.311985917584428
  0
SPLINE
  5
733AC
330
735DE
100
AcDbEntity
  8
Level 27
 62
    12
100
AcDbSpline
210
0.0
220
0.0
230
1.0
 70
     8
 71
     3
 72
    20
 73
    16
 74
     0
 42
0.0000000001
 43
0.00000001
 40
0.0
 40
0.0
 40
0.0
 40
0.0
 40
0.1624359408474455
 40
0.1624359408474455
 40
0.1624359408474455
 40
0.3792427586817836
 40
0.3792427586817836
 40
0.3792427586817836
 40
0.588535724767086
 40
0.588535724767086
 40
0.588535724767086
 40
0.7940362960405233
 40
0.7940362960405233
 40
0.7940362960405233
 40
1.0
 40
1.0
 40
1.0
 40
1.0
 10
-0.1257416016281425
 20
-0.0757427016603565
 30
0.0
 10
-0.1230972924498275
 20
-0.0772887211015396
 30
0.0
 10
-0.1202127130747428
 20
-0.079178490549018
 30
0.0
 10
-0.1172286018275273
 20
-0.0813384361093483
 30
0.0
 10
-0.1132495724960592
 20
-0.08421851866221
 30
0.0
 10
-0.108989396386427
 20
-0.0876616132109467
 30
0.0
 10
-0.1048367323041148
 20
-0.0913874312524019
 30
0.0
 10
-0.100825134054773
 20
-0.09498668340383
 30
0.0
 10
-0.0968013392368547
 20
-0.0989515148901887
 30
0.0
 10
-0.0931113654171298
 20
-0.1029436663042143
 30
0.0
 10
-0.0894855299261579
 20
-0.1068664270037312
 30
0.0
 10
-0.0860826601151174
 20
-0.110921415632534
 30
0.0
 10
-0.0831599708707458
 20
-0.1147717899015301
 30
0.0
 10
-0.0802298782199031
 20
-0.1186319174775887
 30
0.0
 10
-0.0777033858445435
 20
-0.1223872690756798
 30
0.0
 10
-0.075741601628124
 20
-0.1257427016603003
 30
0.0
  0
ELLIPSE
  5
733AF
330
735DE
100
AcDbEntity
  8
Level 27
 62
    12
100
AcDbEllipse
 10
-0.673586
 20
-0.673588
 30
0.0
 11
-0.09602980485689042
 21
-0.8960298048567876
 31
0.0
210
0.0
220
0.0
230
-1.0
 40
0.806403
 41
3.971199389593619
 42
4.700903528588361
  0
ENDBLK
  5
735E0
330
735DE
100
AcDbEntity
  8
0
100
AcDbBlockEnd
  0
BLOCK
  5
735E2
330
735E1
100
AcDbEntity
  8
0
100
AcDbBlockBegin
  2
Smart Solid_17
 70
     0
 71
     0
 10
0.0
 20
0.0
 30
0.0
  3
Smart Solid_17
  1

  0
SPLINE
  5
733B2
330
735E1
100
AcDbEntity
  8
Level 27
 62
    12
100
AcDbSpline
210
0.0
220
0.0
230
1.0
 70
     8
 71
     3
 72
    20
 73
    16
 74
     0
 42
0.0000000001
 43
0.00000001
 40
0.0
 40
0.0
 40
0.0
 40
0.0
 40
0.1624359408474435
 40
0.1624359408474435
 40
0.1624359408474435
 40
0.3792427586817757
 40
0.3792427586817757
 40
0.3792427586817757
 40
0.5885357247670855
 40
0.5885357247670855
 40
0.5885357247670855
 40
0.7940362960405304
 40
0.7940362960405304
 40
0.7940362960405304
 40
1.0
 40
1.0
 40
1.0
 40
1.0
 10
-0.0757416016273353
 20
0.1257298010417168
 30
0.0
 10
-0.0772876210685283
 20
0.1230854918633961
 30
0.0
 10
-0.0791773905160085
 20
0.1202009124883265
 30
0.0
 10
-0.0813373360763521
 20
0.1172168012410962
 30
0.0
 10
-0.0842174186292084
 20
0.1132377719096329
 30
0.0
 10
-0.0876605131779442
 20
0.1089775958000172
 30
0.0
 10
-0.0913863312193968
 20
0.1048249317176921
 30
0.0
 10
-0.0949855833708284
 20
0.1008133334683629
 30
0.0
 10
-0.0989504148571783
 20
0.0967895386504384
 30
0.0
 10
-0.1029425662712171
 20
0.0930995648307076
 30
0.0
 10
-0.1068653269707198
 20
0.0894737293397451
 30
0.0
 10
-0.110920315599536
 20
0.086070859528715
 30
0.0
 10
-0.1147706898685357
 20
0.0831481702843123
 30
0.0
 10
-0.1186308174445827
 20
0.0802180776334834
 30
0.0
 10
-0.1223861690426773
 20
0.0776915852581385
 30
0.0
 10
-0.1257416016273041
 20
0.0757298010416936
 30
0.0
  0
ELLIPSE
  5
733B5
330
735E1
100
AcDbEntity
  8
Level 27
 62
    12
100
AcDbEllipse
 10
-0.673586
 20
0.673575
 30
0.0
 11
-0.8960298048567872
 21
0.09602980485689273
 31
0.0
210
0.0
220
0.0
230
-1.0
 40
0.806403
 41
3.971199389593616
 42
4.700903528588357
  0
LINE
  5
733B6
330
735E1
100
AcDbEntity
  8
Level 27
 62
    12
100
AcDbLine
 10
-0.740729
 20
-0.050042
 30
0.0
 11
-0.050421
 21
-0.74035
 31
0.0
  0
ELLIPSE
  5
733B7
330
735E1
100
AcDbEntity
  8
Level 27
 62
    12
100
AcDbEllipse
 10
-0.066687
 20
0.066675
 30
0.0
 11
-0.5755821467707307
 21
0.5755821467707308
 31
0.0
210
0.0
220
0.0
230
-1.0
 40
0.982806
 41
2.367679941988541
 42
3.915505365191043
  0
LINE
  5
733B8
330
735E1
100
AcDbEntity
  8
Level 27
 62
    12
100
AcDbLine
 10
0.05003
 20
0.740717
 30
0.0
 11
0.740338
 21
0.050409
 31
0.0
  0
ELLIPSE
  5
733B9
330
735E1
100
AcDbEntity
  8
Level 27
 62
    12
100
AcDbEllipse
 10
-0.673586
 20
0.673575
 30
0.0
 11
-0.09602980485690274
 21
0.8960298048569043
 31
0.0
210
0.0
220
0.0
230
-1.0
 40
0.806403
 41
1.582281778591094
 42
2.311985917584427
  0
ENDBLK
  5
735E3
330
735E1
100
AcDbEntity
  8
0
100
AcDbBlockEnd
  0
BLOCK
  5
735E5
330
735E4
100
AcDbEntity
  8
0
100
AcDbBlockBegin
  2
Smart Solid_18
 70
     0
 71
     0
 10
0.0
 20
0.0
 30
0.0
  3
Smart Solid_18
  1

  0
SPLINE
  5
733BC
330
735E4
100
AcDbEntity
  8
Level 27
 62
    12
100
AcDbSpline
210
0.0
220
0.0
230
1.0
 70
     8
 71
     3
 72
    23
 73
    19
 74
     0
 42
0.0000000001
 43
0.00000001
 40
0.0
 40
0.0
 40
0.0
 40
0.0
 40
0.0870030487116689
 40
0.0870030487116689
 40
0.0870030487116689
 40
0.3063863035822506
 40
0.3063863035822506
 40
0.3063863035822506
 40
0.5181488351653593
 40
0.5181488351653593
 40
0.5181488351653593
 40
0.7243819633377066
 40
0.7243819633377066
 40
0.7243819633377066
 40
0.9308216974348947
 40
0.9308216974348947
 40
0.9308216974348947
 40
1.0
 40
1.0
 40
1.0
 40
1.0
 10
0.0757309010747775
 20
-0.1257427016601467
 30
0.0
 10
0.0765623589810716
 20
-0.124320577387711
 30
0.0
 10
0.0774904169307007
 20
-0.122832587273809
 30
0.0
 10
0.0785049598292389
 20
-0.121299632154833
 30
0.0
 10
0.0810487401067945
 20
-0.1174560282976263
 30
0.0
 10
0.0842054045938809
 20
-0.1132416617031335
 30
0.0
 10
0.0877277147831563
 20
-0.1090415128367104
 30
0.0
 10
0.091129540664177
 20
-0.1049850344602712
 30
0.0
 10
0.0949704478630906
 20
-0.1008268492807813
 30
0.0
 10
0.0989244431609393
 20
-0.0969352144673827
 30
0.0
 10
0.1027783275110821
 20
-0.0931421117006979
 30
0.0
 10
0.1068450127486287
 20
-0.0894976502291014
 30
0.0
 10
0.1107820370065156
 20
-0.0862911690415897
 30
0.0
 10
0.1147248545151527
 20
-0.083079969582557
 30
0.0
 10
0.1186422799883573
 20
-0.0802205868729846
 30
0.0
 10
0.1222179158821106
 20
-0.0779082063936389
 30
0.0
 10
0.1234232619268596
 20
-0.0771287034611392
 30
0.0
 10
0.1245977422500531
 20
-0.0764052132861677
 30
0.0
 10
0.1257309010747179
 20
-0.0757427016603476
 30
0.0
  0
ELLIPSE
  5
733BF
330
735E4
100
AcDbEntity
  8
Level 27
 62
    12
100
AcDbEllipse
 10
0.673576
 20
-0.673588
 30
0.0
 11
0.8960298048569048
 21
-0.09602980485690427
 31
0.0
210
0.0
220
0.0
230
-1.0
 40
0.806403
 41
3.971199389595169
 42
4.700903528588491
  0
LINE
  5
733C0
330
735E4
100
AcDbEntity
  8
Level 27
 62
    12
100
AcDbLine
 10
0.740718
 20
0.050029
 30
0.0
 11
0.05041
 21
0.740337
 31
0.0
  0
ELLIPSE
  5
733C1
330
735E4
100
AcDbEntity
  8
Level 27
 62
    12
100
AcDbEllipse
 10
0.066676
 20
-0.066688
 30
0.0
 11
0.5755821467707308
 21
-0.5755821467707307
 31
0.0
210
0.0
220
0.0
230
-1.0
 40
0.982806
 41
2.367679941988544
 42
3.915505365191043
  0
LINE
  5
733C2
330
735E4
100
AcDbEntity
  8
Level 27
 62
    12
100
AcDbLine
 10
-0.050041
 20
-0.74073
 30
0.0
 11
-0.740349
 21
-0.050422
 31
0.0
  0
ELLIPSE
  5
733C3
330
735E4
100
AcDbEntity
  8
Level 27
 62
    12
100
AcDbEllipse
 10
0.673576
 20
-0.673588
 30
0.0
 11
0.09602980485688885
 21
-0.8960298048567872
 31
0.0
210
0.0
220
0.0
230
-1.0
 40
0.806403
 41
1.582281778591224
 42
2.311985917586101
  0
ENDBLK
  5
735E6
330
735E4
100
AcDbEntity
  8
0
100
AcDbBlockEnd
  0
BLOCK
  5
735E8
330
735E7
100
AcDbEntity
  8
0
100
AcDbBlockBegin
  2
Smart Solid_19
 70
     0
 71
     0
 10
0.0
 20
0.0
 30
0.0
  3
Smart Solid_19
  1

  0
LINE
  5
733C6
330
735E7
100
AcDbEntity
  8
Level 27
 62
    12
100
AcDbLine
 10
1.082151
 20
-0.982162
 30
0.0
 11
-0.982505
 21
1.082494
 31
0.0
  0
SPLINE
  5
733C7
330
735E7
100
AcDbEntity
  8
Level 27
 62
    12
100
AcDbSpline
210
0.0
220
0.0
230
1.0
 70
     8
 71
     3
 72
    20
 73
    16
 74
     0
 42
0.0000000001
 43
0.00000001
 40
0.0
 40
0.0
 40
0.0
 40
0.0
 40
0.2123129032711134
 40
0.2123129032711134
 40
0.2123129032711134
 40
0.4251875696282341
 40
0.4251875696282341
 40
0.4251875696282341
 40
0.6302825716761166
 40
0.6302825716761166
 40
0.6302825716761166
 40
0.8311561293032537
 40
0.8311561293032537
 40
0.8311561293032537
 40
1.0
 40
1.0
 40
1.0
 40
1.0
 10
0.9821506950647034
 20
-1.082162495650332
 30
0.0
 10
0.9893120683397356
 20
-1.078421593570276
 30
0.0
 10
0.9973286724515873
 20
-1.073491066658981
 30
0.0
 10
1.005510055878332
 20
-1.06763976586774
 30
0.0
 10
1.01370425459789
 20
-1.061779299617666
 30
0.0
 10
1.022293457956536
 20
-1.054819175451072
 30
0.0
 10
1.030470445411339
 20
-1.047304503403292
 30
0.0
 10
1.038354446753452
 20
-1.040059086330342
 30
0.0
 10
1.046074282152262
 20
-1.032094838010622
 30
0.0
 10
1.052975628281295
 20
-1.024104746735161
 30
0.0
 10
1.059742594747561
 20
-1.016270234639621
 30
0.0
 10
1.065907702215782
 20
-1.008205155791705
 30
0.0
 10
1.071067730946453
 20
-1.000579261213699
 30
0.0
 10
1.075424215105642
 20
-0.9941409077348699
 30
0.0
 10
1.079160127092209
 20
-0.9878874713674
 30
0.0
 10
1.082150695066062
 20
-0.9821624956510866
 30
0.0
  0
LINE
  5
733CA
330
735E7
100
AcDbEntity
  8
Level 27
 62
    12
100
AcDbLine
 10
0.982151
 20
-1.082162
 30
0.0
 11
-1.082505
 21
0.982494
 31
0.0
  0
LINE
  5
733CB
330
735E7
100
AcDbEntity
  8
Level 27
 62
    12
100
AcDbLine
 10
-1.082505
 20
1.082494
 30
0.0
 11
-1.082505
 21
0.982494
 31
0.0
  0
LINE
  5
733CC
330
735E7
100
AcDbEntity
  8
Level 27
 62
    12
100
AcDbLine
 10
-0.982505
 20
1.082494
 30
0.0
 11
-1.082505
 21
1.082494
 31
0.0
  0
ENDBLK
  5
735E9
330
735E7
100
AcDbEntity
  8
0
100
AcDbBlockEnd
  0
BLOCK
  5
735EB
330
735EA
100
AcDbEntity
  8
0
100
AcDbBlockBegin
  2
Smart Solid_20
 70
     0
 71
     0
 10
0.0
 20
0.0
 30
0.0
  3
Smart Solid_20
  1

  0
LINE
  5
733CF
330
735EA
100
AcDbEntity
  8
Level 27
 62
    12
100
AcDbLine
 10
1.060995
 20
-1.011006
 30
0.0
 11
-1.011269
 21
1.061257
 31
0.0
  0
SPLINE
  5
733D0
330
735EA
100
AcDbEntity
  8
Level 27
 62
    12
100
AcDbSpline
210
0.0
220
0.0
230
1.0
 70
     8
 71
     3
 72
    23
 73
    19
 74
     0
 42
0.0000000001
 43
0.00000001
 40
0.0
 40
0.0
 40
0.0
 40
0.0
 40
0.0870030487116693
 40
0.0870030487116693
 40
0.0870030487116693
 40
0.3063863035822511
 40
0.3063863035822511
 40
0.3063863035822511
 40
0.5181488351653598
 40
0.5181488351653598
 40
0.5181488351653598
 40
0.7243819633377072
 40
0.7243819633377072
 40
0.7243819633377072
 40
0.9308216974348955
 40
0.9308216974348955
 40
0.9308216974348955
 40
1.0
 40
1.0
 40
1.0
 40
1.0
 10
-1.061269098925216
 20
1.011257298339853
 30
0.0
 10
-1.060437641018922
 20
1.012679422612289
 30
0.0
 10
-1.059509583069293
 20
1.014167412726191
 30
0.0
 10
-1.058495040170755
 20
1.015700367845167
 30
0.0
 10
-1.055951259893199
 20
1.019543971702373
 30
0.0
 10
-1.052794595406112
 20
1.023758338296866
 30
0.0
 10
-1.049272285216837
 20
1.027958487163289
 30
0.0
 10
-1.045870459335816
 20
1.032014965539728
 30
0.0
 10
-1.042029552136903
 20
1.036173150719218
 30
0.0
 10
-1.038075556839054
 20
1.040064785532617
 30
0.0
 10
-1.034221672488911
 20
1.043857888299302
 30
0.0
 10
-1.030154987251365
 20
1.047502349770898
 30
0.0
 10
-1.026217962993478
 20
1.05070883095841
 30
0.0
 10
-1.022275145484841
 20
1.053920030417443
 30
0.0
 10
-1.018357720011636
 20
1.056779413127015
 30
0.0
 10
-1.014782084117883
 20
1.059091793606361
 30
0.0
 10
-1.013576738073134
 20
1.05987129653886
 30
0.0
 10
-1.01240225774994
 20
1.060594786713832
 30
0.0
 10
-1.011269098925276
 20
1.061257298339652
 30
0.0
  0
LINE
  5
733D3
330
735EA
100
AcDbEntity
  8
Level 27
 62
    12
100
AcDbLine
 10
1.010995
 20
-1.061006
 30
0.0
 11
-1.061269
 21
1.011257
 31
0.0
  0
ARC
  5
733D4
330
735EA
100
AcDbEntity
  8
Level 27
 62
    12
100
AcDbCircle
 10
1.010995
 20
-1.011006
 30
0.0
 40
0.0499999999999384
100
AcDbArc
 50
270.0
 51
360.0
  0
ENDBLK
  5
735EC
330
735EA
100
AcDbEntity
  8
0
100
AcDbBlockEnd
  0
BLOCK
  5
735EE
330
735ED
100
AcDbEntity
  8
0
100
AcDbBlockBegin
  2
Smart Solid_21
 70
     0
 71
     0
 10
0.0
 20
0.0
 30
0.0
  3
Smart Solid_21
  1

  0
LINE
  5
733D7
330
735ED
100
AcDbEntity
  8
Level 27
 62
    12
100
AcDbLine
 10
0.982495
 20
-1.082506
 30
0.0
 11
-1.082161
 21
0.98215
 31
0.0
  0
SPLINE
  5
733D8
330
735ED
100
AcDbEntity
  8
Level 27
 62
    12
100
AcDbSpline
210
0.0
220
0.0
230
1.0
 70
     8
 71
     3
 72
    20
 73
    16
 74
     0
 42
0.0000000001
 43
0.00000001
 40
0.0
 40
0.0
 40
0.0
 40
0.0
 40
0.2123129032698946
 40
0.2123129032698946
 40
0.2123129032698946
 40
0.4251875696251079
 40
0.4251875696251079
 40
0.4251875696251079
 40
0.6302825716711016
 40
0.6302825716711016
 40
0.6302825716711016
 40
0.8311561292962822
 40
0.8311561292962822
 40
0.8311561292962822
 40
1.0
 40
1.0
 40
1.0
 40
1.0
 10
-0.9821613956172399
 20
1.082149595031613
 30
0.0
 10
-0.9893227688922721
 20
1.078408692951565
 30
0.0
 10
-0.997339373004138
 20
1.073478166040284
 30
0.0
 10
-1.005520756430883
 20
1.067626865249057
 30
0.0
 10
-1.013714955150469
 20
1.061766398998997
 30
0.0
 10
-1.02230415850913
 20
1.054806274832412
 30
0.0
 10
-1.030481145963947
 20
1.047291602784642
 30
0.0
 10
-1.038365147306081
 20
1.040046185711706
 30
0.0
 10
-1.046084982704912
 20
1.032081937391995
 30
0.0
 10
-1.05298632883396
 20
1.024091846116539
 30
0.0
 10
-1.059753295300233
 20
1.016257334021009
 30
0.0
 10
-1.065918402768467
 20
1.008192255173102
 30
0.0
 10
-1.071078431499132
 20
1.000566360595105
 30
0.0
 10
-1.075434915658349
 20
0.9941280071162897
 30
0.0
 10
-1.079170827644894
 20
0.9878745707488434
 30
0.0
 10
-1.082161395618783
 20
0.9821495950325438
 30
0.0
  0
LINE
  5
733DB
330
735ED
100
AcDbEntity
  8
Level 27
 62
    12
100
AcDbLine
 10
1.082495
 20
-0.982506
 30
0.0
 11
-0.982161
 21
1.08215
 31
0.0
  0
LINE
  5
733DC
330
735ED
100
AcDbEntity
  8
Level 27
 62
    12
100
AcDbLine
 10
1.082495
 20
-0.982506
 30
0.0
 11
1.082495
 21
-1.082506
 31
0.0
  0
LINE
  5
733DD
330
735ED
100
AcDbEntity
  8
Level 27
 62
    12
100
AcDbLine
 10
1.082495
 20
-1.082506
 30
0.0
 11
0.982495
 21
-1.082506
 31
0.0
  0
ENDBLK
  5
735EF
330
735ED
100
AcDbEntity
  8
0
100
AcDbBlockEnd
  0
BLOCK
  5
735F1
330
735F0
100
AcDbEntity
  8
0
100
AcDbBlockBegin
  2
Smart Solid_22
 70
     0
 71
     0
 10
0.0
 20
0.0
 30
0.0
  3
Smart Solid_22
  1

  0
LINE
  5
733E0
330
735F0
100
AcDbEntity
  8
Level 27
 62
    12
100
AcDbLine
 10
1.011258
 20
-1.06127
 30
0.0
 11
-1.061005
 21
1.010994
 31
0.0
  0
SPLINE
  5
733E1
330
735F0
100
AcDbEntity
  8
Level 27
 62
    12
100
AcDbSpline
210
0.0
220
0.0
230
1.0
 70
     8
 71
     3
 72
    20
 73
    16
 74
     0
 42
0.0000000001
 43
0.00000001
 40
0.0
 40
0.0
 40
0.0
 40
0.0
 40
0.1624359408474443
 40
0.1624359408474443
 40
0.1624359408474443
 40
0.3792427586817765
 40
0.3792427586817765
 40
0.3792427586817765
 40
0.5885357247670863
 40
0.5885357247670863
 40
0.5885357247670863
 40
0.7940362960405312
 40
0.7940362960405312
 40
0.7940362960405312
 40
1.0
 40
1.0
 40
1.0
 40
1.0
 10
1.061258398372665
 20
-1.011270198958283
 30
0.0
 10
1.059712378931472
 20
-1.013914508136604
 30
0.0
 10
1.057822609483992
 20
-1.016799087511674
 30
0.0
 10
1.055662663923648
 20
-1.019783198758904
 30
0.0
 10
1.052782581370792
 20
-1.023762228090367
 30
0.0
 10
1.049339486822056
 20
-1.028022404199983
 30
0.0
 10
1.045613668780604
 20
-1.032175068282308
 30
0.0
 10
1.042014416629172
 20
-1.036186666531637
 30
0.0
 10
1.038049585142822
 20
-1.040210461349562
 30
0.0
 10
1.034057433728783
 20
-1.043900435169292
 30
0.0
 10
1.030134673029281
 20
-1.047526270660255
 30
0.0
 10
1.026079684400465
 20
-1.050929140471285
 30
0.0
 10
1.022229310131465
 20
-1.053851829715688
 30
0.0
 10
1.018369182555418
 20
-1.056781922366521
 30
0.0
 10
1.014613830957323
 20
-1.059308414741861
 30
0.0
 10
1.011258398372696
 20
-1.061270198958306
 30
0.0
  0
LINE
  5
733E4
330
735F0
100
AcDbEntity
  8
Level 27
 62
    12
100
AcDbLine
 10
1.061258
 20
-1.01127
 30
0.0
 11
-1.011005
 21
1.060994
 31
0.0
  0
ARC
  5
733E5
330
735F0
100
AcDbEntity
  8
Level 27
 62
    12
100
AcDbCircle
 10
-1.011005
 20
1.010994
 30
0.0
 40
0.0500000000000616
100
AcDbArc
 50
90.0
 51
180.0
  0
ENDBLK
  5
735F2
330
735F0
100
AcDbEntity
  8
0
100
AcDbBlockEnd
  0
BLOCK
  5
735F4
330
735F3
100
AcDbEntity
  8
0
100
AcDbBlockBegin
  2
Smart Solid_23
 70
     0
 71
     0
 10
0.0
 20
0.0
 30
0.0
  3
Smart Solid_23
  1

  0
LINE
  5
733E8
330
735F3
100
AcDbEntity
  8
Level 27
 62
    12
100
AcDbLine
 10
0.024995
 20
-0.025006
 30
0.0
 11
-0.025005
 21
0.024994
 31
0.0
  0
LINE
  5
733E9
330
735F3
100
AcDbEntity
  8
Level 27
 62
    12
100
AcDbLine
 10
-0.025005
 20
-0.025006
 30
0.0
 11
-0.025005
 21
0.024994
 31
0.0
  0
LINE
  5
733EA
330
735F3
100
AcDbEntity
  8
Level 27
 62
    12
100
AcDbLine
 10
-0.025005
 20
-0.025006
 30
0.0
 11
0.024995
 21
-0.025006
 31
0.0
  0
ENDBLK
  5
735F5
330
735F3
100
AcDbEntity
  8
0
100
AcDbBlockEnd
  0
BLOCK
  5
735F7
330
735F6
100
AcDbEntity
  8
0
100
AcDbBlockBegin
  2
Smart Solid_24
 70
     0
 71
     0
 10
0.0
 20
0.0
 30
0.0
  3
Smart Solid_24
  1

  0
LINE
  5
733ED
330
735F6
100
AcDbEntity
  8
Level 27
 62
    12
100
AcDbLine
 10
0.024995
 20
-0.025006
 30
0.0
 11
-0.025005
 21
0.024994
 31
0.0
  0
LINE
  5
733EE
330
735F6
100
AcDbEntity
  8
Level 27
 62
    12
100
AcDbLine
 10
0.024995
 20
-0.025006
 30
0.0
 11
0.024995
 21
0.024994
 31
0.0
  0
LINE
  5
733EF
330
735F6
100
AcDbEntity
  8
Level 27
 62
    12
100
AcDbLine
 10
-0.025005
 20
0.024994
 30
0.0
 11
0.024995
 21
0.024994
 31
0.0
  0
ENDBLK
  5
735F8
330
735F6
100
AcDbEntity
  8
0
100
AcDbBlockEnd
  0
BLOCK
  5
735FA
330
735F9
100
AcDbEntity
  8
0
100
AcDbBlockBegin
  2
Feature Solid
 70
     0
 71
     0
 10
0.0
 20
0.0
 30
0.0
  3
Feature Solid
  1

  0
INSERT
  5
733F2
330
735F9
100
AcDbEntity
  8
Level 27
 62
    12
100
AcDbBlockReference
  2
THICKN
 10
-6.108494
 20
-4.881505
 30
0.0
  0
ENDBLK
  5
735FB
330
735F9
100
AcDbEntity
  8
0
100
AcDbBlockEnd
  0
BLOCK
  5
735FD
330
735FC
100
AcDbEntity
  8
0
100
AcDbBlockBegin
  2
THICKN
 70
     0
 71
     0
 10
0.0
 20
0.0
 30
0.0
  3
THICKN
  1

  0
INSERT
  5
733F3
330
735FC
100
AcDbEntity
  8
Level 27
 62
    12
100
AcDbBlockReference
  2
SUBTRC
 10
0.0
 20
-10.185178
 30
0.0
  0
POINT
  5
73408
330
735FC
100
AcDbEntity
  8
Level 27
 62
    12
100
AcDbPoint
 10
3.910909
 20
7.771004
 30
0.0
  0
POINT
  5
73409
330
735FC
100
AcDbEntity
  8
Level 27
 62
    12
100
AcDbPoint
 10
8.306078
 20
7.771004
 30
0.0
  0
POINT
  5
7340A
330
735FC
100
AcDbEntity
  8
Level 27
 62
    12
100
AcDbPoint
 10
8.997992
 20
7.07909
 30
0.0
  0
POINT
  5
7340B
330
735FC
100
AcDbEntity
  8
Level 27
 62
    12
100
AcDbPoint
 10
8.997992
 20
2.683921
 30
0.0
  0
POINT
  5
7340C
330
735FC
100
AcDbEntity
  8
Level 27
 62
    12
100
AcDbPoint
 10
8.306078
 20
1.992007
 30
0.0
  0
POINT
  5
7340D
330
735FC
100
AcDbEntity
  8
Level 27
 62
    12
100
AcDbPoint
 10
3.910909
 20
1.992007
 30
0.0
  0
POINT
  5
7340E
330
735FC
100
AcDbEntity
  8
Level 27
 62
    12
100
AcDbPoint
 10
3.218995
 20
2.683921
 30
0.0
  0
POINT
  5
7340F
330
735FC
100
AcDbEntity
  8
Level 27
 62
    12
100
AcDbPoint
 10
3.218995
 20
7.07909
 30
0.0
  0
POINT
  5
73410
330
735FC
100
AcDbEntity
  8
Level 27
 62
    12
100
AcDbPoint
 10
3.402494
 20
2.675505
 30
0.0
  0
POINT
  5
73411
330
735FC
100
AcDbEntity
  8
Level 27
 62
    12
100
AcDbPoint
 10
3.902494
 20
2.175505
 30
0.0
  0
POINT
  5
73412
330
735FC
100
AcDbEntity
  8
Level 27
 62
    12
100
AcDbPoint
 10
8.314494
 20
2.175505
 30
0.0
  0
POINT
  5
73413
330
735FC
100
AcDbEntity
  8
Level 27
 62
    12
100
AcDbPoint
 10
8.814494
 20
2.675505
 30
0.0
  0
POINT
  5
73414
330
735FC
100
AcDbEntity
  8
Level 27
 62
    12
100
AcDbPoint
 10
8.814494
 20
7.087505
 30
0.0
  0
POINT
  5
73415
330
735FC
100
AcDbEntity
  8
Level 27
 62
    12
100
AcDbPoint
 10
8.314494
 20
7.587505
 30
0.0
  0
POINT
  5
73416
330
735FC
100
AcDbEntity
  8
Level 27
 62
    12
100
AcDbPoint
 10
3.902494
 20
7.587505
 30
0.0
  0
POINT
  5
73417
330
735FC
100
AcDbEntity
  8
Level 27
 62
    12
100
AcDbPoint
 10
3.402494
 20
7.087505
 30
0.0
  0
ARC
  5
73418
330
735FC
100
AcDbEntity
  8
Level 27
 62
    12
100
AcDbCircle
 10
-3.902494
 20
7.087505
 30
0.0
 40
0.5000000000000002
210
0.0
220
0.0
230
-1.0
100
AcDbArc
 50
0.0
 51
90.0
  0
LINE
  5
73419
330
735FC
100
AcDbEntity
  8
Level 27
 62
    12
100
AcDbLine
 10
8.314494
 20
7.587505
 30
0.0
 11
3.902494
 21
7.587505
 31
0.0
  0
ARC
  5
7341A
330
735FC
100
AcDbEntity
  8
Level 27
 62
    12
100
AcDbCircle
 10
-8.314494
 20
7.087505
 30
0.0
 40
0.5000000000000002
210
0.0
220
0.0
230
-1.0
100
AcDbArc
 50
90.0
 51
180.0
  0
LINE
  5
7341B
330
735FC
100
AcDbEntity
  8
Level 27
 62
    12
100
AcDbLine
 10
8.814494
 20
2.675505
 30
0.0
 11
8.814494
 21
7.087505
 31
0.0
  0
ARC
  5
7341C
330
735FC
100
AcDbEntity
  8
Level 27
 62
    12
100
AcDbCircle
 10
-8.314494
 20
2.675505
 30
0.0
 40
0.5000000000000002
210
0.0
220
0.0
230
-1.0
100
AcDbArc
 50
180.0
 51
270.0
  0
LINE
  5
7341D
330
735FC
100
AcDbEntity
  8
Level 27
 62
    12
100
AcDbLine
 10
8.314494
 20
2.175505
 30
0.0
 11
3.902494
 21
2.175505
 31
0.0
  0
ARC
  5
7341E
330
735FC
100
AcDbEntity
  8
Level 27
 62
    12
100
AcDbCircle
 10
-3.902494
 20
2.675505
 30
0.0
 40
0.5000000000000002
210
0.0
220
0.0
230
-1.0
100
AcDbArc
 50
270.0
 51
360.0
  0
LINE
  5
7341F
330
735FC
100
AcDbEntity
  8
Level 27
 62
    12
100
AcDbLine
 10
3.402494
 20
2.675505
 30
0.0
 11
3.402494
 21
7.087505
 31
0.0
  0
ELLIPSE
  5
73420
330
735FC
100
AcDbEntity
  8
Level 27
 62
    12
100
AcDbEllipse
 10
3.927175
 20
2.700187
 30
0.0
 11
-0.5064773827883566
 21
-0.5064773827883562
 31
0.0
210
0.0
220
0.0
230
-1.0
 40
0.977289
 41
5.509272595578338
 42
7.057098018780836
  0
LINE
  5
73421
330
735FC
100
AcDbEntity
  8
Level 27
 62
    12
100
AcDbLine
 10
8.306078
 20
1.992007
 30
0.0
 11
3.910909
 21
1.992007
 31
0.0
  0
ELLIPSE
  5
73422
330
735FC
100
AcDbEntity
  8
Level 27
 62
    12
100
AcDbEllipse
 10
8.289812
 20
2.700187
 30
0.0
 11
-0.5064773827883567
 21
0.5064773827883572
 31
0.0
210
0.0
220
0.0
230
-1.0
 40
0.977289
 41
2.367679941988542
 42
3.915505365191044
  0
LINE
  5
73423
330
735FC
100
AcDbEntity
  8
Level 27
 62
    12
100
AcDbLine
 10
8.997992
 20
2.683921
 30
0.0
 11
8.997992
 21
7.07909
 31
0.0
  0
ELLIPSE
  5
73424
330
735FC
100
AcDbEntity
  8
Level 27
 62
    12
100
AcDbEllipse
 10
8.289812
 20
7.062824
 30
0.0
 11
-0.5064773827883566
 21
-0.5064773827883562
 31
0.0
210
0.0
220
0.0
230
-1.0
 40
0.977289
 41
2.367679941988544
 42
3.915505365191043
  0
LINE
  5
73425
330
735FC
100
AcDbEntity
  8
Level 27
 62
    12
100
AcDbLine
 10
8.306078
 20
7.771004
 30
0.0
 11
3.910909
 21
7.771004
 31
0.0
  0
ELLIPSE
  5
73426
330
735FC
100
AcDbEntity
  8
Level 27
 62
    12
100
AcDbEllipse
 10
3.927175
 20
7.062824
 30
0.0
 11
0.5064773827883565
 21
-0.5064773827883564
 31
0.0
210
0.0
220
0.0
230
-1.0
 40
0.977289
 41
2.367679941988544
 42
3.915505365191044
  0
LINE
  5
73427
330
735FC
100
AcDbEntity
  8
Level 27
 62
    12
100
AcDbLine
 10
3.218995
 20
2.683921
 30
0.0
 11
3.218995
 21
7.07909
 31
0.0
  0
POINT
  5
73428
330
735FC
100
AcDbEntity
  8
Level 27
 62
    12
100
AcDbPoint
 10
8.945631
 20
7.345064
 30
0.0
  0
POINT
  5
73429
330
735FC
100
AcDbEntity
  8
Level 27
 62
    12
100
AcDbPoint
 10
8.796289
 20
7.569301
 30
0.0
  0
POINT
  5
7342A
330
735FC
100
AcDbEntity
  8
Level 27
 62
    12
100
AcDbPoint
 10
8.572052
 20
7.718643
 30
0.0
  0
POINT
  5
7342B
330
735FC
100
AcDbEntity
  8
Level 27
 62
    12
100
AcDbPoint
 10
8.306078
 20
7.771004
 30
0.0
  0
POINT
  5
7342C
330
735FC
100
AcDbEntity
  8
Level 27
 62
    12
100
AcDbPoint
 10
8.572052
 20
2.044368
 30
0.0
  0
POINT
  5
7342D
330
735FC
100
AcDbEntity
  8
Level 27
 62
    12
100
AcDbPoint
 10
8.796289
 20
2.193709
 30
0.0
  0
POINT
  5
7342E
330
735FC
100
AcDbEntity
  8
Level 27
 62
    12
100
AcDbPoint
 10
8.945631
 20
2.417947
 30
0.0
  0
POINT
  5
7342F
330
735FC
100
AcDbEntity
  8
Level 27
 62
    12
100
AcDbPoint
 10
8.997992
 20
2.683921
 30
0.0
  0
POINT
  5
73430
330
735FC
100
AcDbEntity
  8
Level 27
 62
    12
100
AcDbPoint
 10
3.271356
 20
2.417947
 30
0.0
  0
POINT
  5
73431
330
735FC
100
AcDbEntity
  8
Level 27
 62
    12
100
AcDbPoint
 10
3.420698
 20
2.193709
 30
0.0
  0
POINT
  5
73432
330
735FC
100
AcDbEntity
  8
Level 27
 62
    12
100
AcDbPoint
 10
3.644935
 20
2.044368
 30
0.0
  0
POINT
  5
73433
330
735FC
100
AcDbEntity
  8
Level 27
 62
    12
100
AcDbPoint
 10
3.910909
 20
1.992007
 30
0.0
  0
POINT
  5
73434
330
735FC
100
AcDbEntity
  8
Level 27
 62
    12
100
AcDbPoint
 10
3.644935
 20
7.718643
 30
0.0
  0
POINT
  5
73435
330
735FC
100
AcDbEntity
  8
Level 27
 62
    12
100
AcDbPoint
 10
3.420698
 20
7.569301
 30
0.0
  0
POINT
  5
73436
330
735FC
100
AcDbEntity
  8
Level 27
 62
    12
100
AcDbPoint
 10
3.271356
 20
7.345064
 30
0.0
  0
POINT
  5
73437
330
735FC
100
AcDbEntity
  8
Level 27
 62
    12
100
AcDbPoint
 10
3.218995
 20
7.07909
 30
0.0
  0
ENDBLK
  5
735FE
330
735FC
100
AcDbEntity
  8
0
100
AcDbBlockEnd
  0
BLOCK
  5
73600
330
735FF
100
AcDbEntity
  8
0
100
AcDbBlockBegin
  2
SUBTRC
 70
     0
 71
     0
 10
0.0
 20
0.0
 30
0.0
  3
SUBTRC
  1

  0
INSERT
  5
733F6
330
735FF
100
AcDbEntity
  8
Level 27
 62
    12
100
AcDbBlockReference
  2
Feature Solid_1
 10
0.0
 20
0.0
 30
0.0
  0
ARC
  5
73400
330
735FF
100
AcDbEntity
  8
Level 27
 62
    12
100
AcDbCircle
 10
-3.902494
 20
17.272683
 30
0.0
 40
0.5000000000000002
210
0.0
220
0.0
230
-1.0
100
AcDbArc
 50
0.0
 51
90.0
  0
LINE
  5
73401
330
735FF
100
AcDbEntity
  8
Level 27
 62
    12
100
AcDbLine
 10
3.902494
 20
17.772683
 30
0.0
 11
8.314494
 21
17.772683
 31
0.0
  0
ARC
  5
73402
330
735FF
100
AcDbEntity
  8
Level 27
 62
    12
100
AcDbCircle
 10
-8.314494
 20
17.272683
 30
0.0
 40
0.5000000000000002
210
0.0
220
0.0
230
-1.0
100
AcDbArc
 50
90.0
 51
180.0
  0
LINE
  5
73403
330
735FF
100
AcDbEntity
  8
Level 27
 62
    12
100
AcDbLine
 10
8.814494
 20
17.272683
 30
0.0
 11
8.814494
 21
12.860683
 31
0.0
  0
ARC
  5
73404
330
735FF
100
AcDbEntity
  8
Level 27
 62
    12
100
AcDbCircle
 10
-8.314494
 20
12.860683
 30
0.0
 40
0.5000000000000002
210
0.0
220
0.0
230
-1.0
100
AcDbArc
 50
180.0
 51
270.0
  0
LINE
  5
73405
330
735FF
100
AcDbEntity
  8
Level 27
 62
    12
100
AcDbLine
 10
8.314494
 20
12.360683
 30
0.0
 11
3.902494
 21
12.360683
 31
0.0
  0
ARC
  5
73406
330
735FF
100
AcDbEntity
  8
Level 27
 62
    12
100
AcDbCircle
 10
-3.902494
 20
12.860683
 30
0.0
 40
0.5000000000000002
210
0.0
220
0.0
230
-1.0
100
AcDbArc
 50
270.0
 51
0.0
  0
LINE
  5
73407
330
735FF
100
AcDbEntity
  8
Level 27
 62
    12
100
AcDbLine
 10
3.402494
 20
12.860683
 30
0.0
 11
3.402494
 21
17.272683
 31
0.0
  0
ENDBLK
  5
73601
330
735FF
100
AcDbEntity
  8
0
100
AcDbBlockEnd
  0
BLOCK
  5
73603
330
73602
100
AcDbEntity
  8
0
100
AcDbBlockBegin
  2
Feature Solid_1
 70
     0
 71
     0
 10
0.0
 20
0.0
 30
0.0
  3
Feature Solid_1
  1

  0
INSERT
  5
733F7
330
73602
100
AcDbEntity
  8
Level 27
 62
    12
100
AcDbBlockReference
  2
SHEET
 10
0.0
 20
0.0
 30
0.0
  0
ENDBLK
  5
73604
330
73602
100
AcDbEntity
  8
0
100
AcDbBlockEnd
  0
BLOCK
  5
73606
330
73605
100
AcDbEntity
  8
0
100
AcDbBlockBegin
  2
SHEET
 70
     0
 71
     0
 10
0.0
 20
0.0
 30
0.0
  3
SHEET
  1

  0
ELLIPSE
  5
733F8
330
73605
100
AcDbEntity
  8
Level 27
 62
    12
100
AcDbEllipse
 10
3.927175
 20
12.885364
 30
0.0
 11
-0.5064773827883566
 21
-0.5064773827883562
 31
0.0
210
0.0
220
0.0
230
-1.0
 40
0.977289
 41
5.509272595578338
 42
7.057098018780836
  0
LINE
  5
733F9
330
73605
100
AcDbEntity
  8
Level 27
 62
    12
100
AcDbLine
 10
8.306078
 20
12.177184
 30
0.0
 11
3.910909
 21
12.177184
 31
0.0
  0
ELLIPSE
  5
733FA
330
73605
100
AcDbEntity
  8
Level 27
 62
    12
100
AcDbEllipse
 10
8.289812
 20
12.885364
 30
0.0
 11
-0.5064773827883567
 21
0.5064773827883572
 31
0.0
210
0.0
220
0.0
230
-1.0
 40
0.977289
 41
2.367679941988542
 42
3.915505365191044
  0
LINE
  5
733FB
330
73605
100
AcDbEntity
  8
Level 27
 62
    12
100
AcDbLine
 10
8.997992
 20
17.264268
 30
0.0
 11
8.997992
 21
12.869098
 31
0.0
  0
ELLIPSE
  5
733FC
330
73605
100
AcDbEntity
  8
Level 27
 62
    12
100
AcDbEllipse
 10
8.289812
 20
17.248001
 30
0.0
 11
-0.5064773827883566
 21
-0.5064773827883562
 31
0.0
210
0.0
220
0.0
230
-1.0
 40
0.977289
 41
2.367679941988544
 42
3.915505365191043
  0
LINE
  5
733FD
330
73605
100
AcDbEntity
  8
Level 27
 62
    12
100
AcDbLine
 10
3.910909
 20
17.956182
 30
0.0
 11
8.306078
 21
17.956182
 31
0.0
  0
ELLIPSE
  5
733FE
330
73605
100
AcDbEntity
  8
Level 27
 62
    12
100
AcDbEllipse
 10
3.927175
 20
17.248001
 30
0.0
 11
0.5064773827883565
 21
-0.5064773827883564
 31
0.0
210
0.0
220
0.0
230
-1.0
 40
0.977289
 41
2.367679941988544
 42
3.915505365191044
  0
LINE
  5
733FF
330
73605
100
AcDbEntity
  8
Level 27
 62
    12
100
AcDbLine
 10
3.218995
 20
12.869098
 30
0.0
 11
3.218995
 21
17.264268
 31
0.0
  0
ENDBLK
  5
73607
330
73605
100
AcDbEntity
  8
0
100
AcDbBlockEnd
  0
BLOCK
  5
73609
330
73608
100
AcDbEntity
  8
0
100
AcDbBlockBegin
  2
Feature Solid_2
 70
     0
 71
     0
 10
0.0
 20
0.0
 30
0.0
  3
Feature Solid_2
  1

  0
INSERT
  5
7344D
330
73608
100
AcDbEntity
  8
Level 26
  6
Continuous
 62
     7
370
     0
100
AcDbBlockReference
  2
SUBTRC_1
 10
-4440.732427
 20
-1666.452771
 30
0.0
  0
ENDBLK
  5
7360A
330
73608
100
AcDbEntity
  8
0
100
AcDbBlockEnd
  0
BLOCK
  5
7360C
330
7360B
100
AcDbEntity
  8
0
100
AcDbBlockBegin
  2
SUBTRC_1
 70
     0
 71
     0
 10
0.0
 20
0.0
 30
0.0
  3
SUBTRC_1
  1

  0
INSERT
  5
73450
330
7360B
100
AcDbEntity
  8
Level 26
  6
Continuous
 62
     7
370
     0
100
AcDbBlockReference
  2
Feature Solid_3
 10
0.0
 20
0.0
 30
0.0
  0
LINE
  5
7345D
330
7360B
100
AcDbEntity
  8
Level 26
  6
Continuous
 62
     7
370
     0
100
AcDbLine
 10
4444.551121
 20
1703.066901
 30
0.0
 11
4432.856363
 21
1658.184377
 31
0.0
  0
LINE
  5
7345E
330
7360B
100
AcDbEntity
  8
Level 26
  6
Continuous
 62
     7
370
     0
100
AcDbLine
 10
4432.856363
 20
1658.184377
 30
0.0
 11
4444.551149
 21
1658.185011
 31
0.0
  0
LINE
  5
7345F
330
7360B
100
AcDbEntity
  8
Level 26
  6
Continuous
 62
     7
370
     0
100
AcDbLine
 10
4444.551149
 20
1658.185011
 30
0.0
 11
4444.551121
 21
1703.066901
 31
0.0
  0
ENDBLK
  5
7360D
330
7360B
100
AcDbEntity
  8
0
100
AcDbBlockEnd
  0
BLOCK
  5
7360F
330
7360E
100
AcDbEntity
  8
0
100
AcDbBlockBegin
  2
Feature Solid_3
 70
     0
 71
     0
 10
0.0
 20
0.0
 30
0.0
  3
Feature Solid_3
  1

  0
INSERT
  5
73451
330
7360E
100
AcDbEntity
  8
Level 26
  6
Continuous
 62
     7
370
     0
100
AcDbBlockReference
  2
SHEET_1
 10
0.0
 20
0.0
 30
0.0
  0
ENDBLK
  5
73610
330
7360E
100
AcDbEntity
  8
0
100
AcDbBlockEnd
  0
BLOCK
  5
73612
330
73611
100
AcDbEntity
  8
0
100
AcDbBlockBegin
  2
SHEET_1
 70
     0
 71
     0
 10
0.0
 20
0.0
 30
0.0
  3
SHEET_1
  1

  0
LINE
  5
73452
330
73611
100
AcDbEntity
  8
Level 26
  6
Continuous
 62
     7
370
     0
100
AcDbLine
 10
4449.563157
 20
1727.870323
 30
0.0
 11
4443.119091
 21
1727.869973
 31
0.0
  0
LINE
  5
73453
330
73611
100
AcDbEntity
  8
Level 26
  6
Continuous
 62
     7
370
     0
100
AcDbLine
 10
4449.563201
 20
1658.185283
 30
0.0
 11
4449.563157
 21
1727.870323
 31
0.0
  0
LINE
  5
73454
330
73611
100
AcDbEntity
  8
Level 26
  6
Continuous
 62
     7
370
     0
100
AcDbLine
 10
4456.007267
 20
1658.185633
 30
0.0
 11
4449.563201
 21
1658.185283
 31
0.0
  0
LINE
  5
73455
330
73611
100
AcDbEntity
  8
Level 26
  6
Continuous
 62
     7
370
     0
100
AcDbLine
 10
4456.007287
 20
1626.295869
 30
0.0
 11
4456.007267
 21
1658.185633
 31
0.0
  0
LINE
  5
73456
330
73611
100
AcDbEntity
  8
Level 26
  6
Continuous
 62
     7
370
     0
100
AcDbLine
 10
4449.563221
 20
1626.29552
 30
0.0
 11
4456.007287
 21
1626.295869
 31
0.0
  0
LINE
  5
73457
330
73611
100
AcDbEntity
  8
Level 26
  6
Continuous
 62
     7
370
     0
100
AcDbLine
 10
4449.563234
 20
1605.035677
 30
0.0
 11
4449.563221
 21
1626.29552
 31
0.0
  0
LINE
  5
73458
330
73611
100
AcDbEntity
  8
Level 26
  6
Continuous
 62
     7
370
     0
100
AcDbLine
 10
4444.551182
 20
1605.035405
 30
0.0
 11
4449.563234
 21
1605.035677
 31
0.0
  0
LINE
  5
73459
330
73611
100
AcDbEntity
  8
Level 26
  6
Continuous
 62
     7
370
     0
100
AcDbLine
 10
4444.551169
 20
1626.295248
 30
0.0
 11
4444.551182
 21
1605.035405
 31
0.0
  0
LINE
  5
7345A
330
73611
100
AcDbEntity
  8
Level 26
  6
Continuous
 62
     7
370
     0
100
AcDbLine
 10
4425.45764
 20
1626.294212
 30
0.0
 11
4444.551169
 21
1626.295248
 31
0.0
  0
LINE
  5
7345B
330
73611
100
AcDbEntity
  8
Level 26
  6
Continuous
 62
     7
370
     0
100
AcDbLine
 10
4425.457619
 20
1659.365078
 30
0.0
 11
4425.45764
 21
1626.294212
 31
0.0
  0
LINE
  5
7345C
330
73611
100
AcDbEntity
  8
Level 26
  6
Continuous
 62
     7
370
     0
100
AcDbLine
 10
4443.119091
 20
1727.869973
 30
0.0
 11
4425.457619
 21
1659.365078
 31
0.0
  0
ENDBLK
  5
73613
330
73611
100
AcDbEntity
  8
0
100
AcDbBlockEnd
  0
BLOCK
  5
73615
330
73614
100
AcDbEntity
  8
0
100
AcDbBlockBegin
  2
Feature Solid_4
 70
     0
 71
     0
 10
0.0
 20
0.0
 30
0.0
  3
Feature Solid_4
  1

  0
INSERT
  5
73461
330
73614
100
AcDbEntity
  8
Level 25
  6
Continuous
 62
   174
370
     0
100
AcDbBlockReference
  2
CONE
 10
0.0
 20
0.0
 30
0.0
  0
ENDBLK
  5
73616
330
73614
100
AcDbEntity
  8
0
100
AcDbBlockEnd
  0
BLOCK
  5
73618
330
73617
100
AcDbEntity
  8
0
100
AcDbBlockBegin
  2
CONE
 70
     0
 71
     0
 10
0.0
 20
0.0
 30
0.0
  3
CONE
  1

  0
ARC
  5
73462
330
73617
100
AcDbEntity
  8
Level 25
  6
Continuous
 62
   174
370
     0
100
AcDbCircle
 10
5140.044181
 20
1208.210588
 30
0.0
 40
51.0
100
AcDbArc
 50
0.0
 51
360.0
  0
ARC
  5
73463
330
73617
100
AcDbEntity
  8
Level 25
  6
Continuous
 62
   174
370
     0
100
AcDbCircle
 10
-5140.044181
 20
1208.210588
 30
0.0
 40
51.0
210
0.0
220
0.0
230
-1.0
100
AcDbArc
 50
0.0
 51
360.0
  0
POINT
  5
73464
330
73617
100
AcDbEntity
  8
Level 25
  6
Continuous
 62
   174
370
     0
100
AcDbPoint
 10
5140.044181
 20
1157.210588
 30
0.0
  0
POINT
  5
73465
330
73617
100
AcDbEntity
  8
Level 25
  6
Continuous
 62
   174
370
     0
100
AcDbPoint
 10
5191.044181
 20
1208.210588
 30
0.0
  0
POINT
  5
73466
330
73617
100
AcDbEntity
  8
Level 25
  6
Continuous
 62
   174
370
     0
100
AcDbPoint
 10
5140.044181
 20
1259.210588
 30
0.0
  0
POINT
  5
73467
330
73617
100
AcDbEntity
  8
Level 25
  6
Continuous
 62
   174
370
     0
100
AcDbPoint
 10
5089.044181
 20
1208.210588
 30
0.0
  0
ENDBLK
  5
73619
330
73617
100
AcDbEntity
  8
0
100
AcDbBlockEnd
  0
BLOCK
  5
7361B
330
7361A
100
AcDbEntity
  8
0
100
AcDbBlockBegin
  2
Feature Solid_5
 70
     0
 71
     0
 10
0.0
 20
0.0
 30
0.0
  3
Feature Solid_5
  1

  0
INSERT
  5
73469
330
7361A
100
AcDbEntity
  8
Level 25
  6
Continuous
 62
   174
370
     0
100
AcDbBlockReference
  2
CONE_1
 10
-5140.044181
 20
-1208.210588
 30
0.0
  0
ENDBLK
  5
7361C
330
7361A
100
AcDbEntity
  8
0
100
AcDbBlockEnd
  0
BLOCK
  5
7361E
330
7361D
100
AcDbEntity
  8
0
100
AcDbBlockBegin
  2
CONE_1
 70
     0
 71
     0
 10
0.0
 20
0.0
 30
0.0
  3
CONE_1
  1

  0
ARC
  5
7346A
330
7361D
100
AcDbEntity
  8
Level 25
  6
Continuous
 62
   174
370
     0
100
AcDbCircle
 10
5140.044181
 20
1208.210588
 30
0.0
 40
51.0
100
AcDbArc
 50
0.0
 51
360.0
  0
ARC
  5
7346B
330
7361D
100
AcDbEntity
  8
Level 25
  6
Continuous
 62
   174
370
     0
100
AcDbCircle
 10
-5140.044181
 20
1208.210588
 30
0.0
 40
51.0
210
0.0
220
0.0
230
-1.0
100
AcDbArc
 50
0.0
 51
360.0
  0
POINT
  5
7346C
330
7361D
100
AcDbEntity
  8
Level 25
  6
Continuous
 62
   174
370
     0
100
AcDbPoint
 10
5140.044181
 20
1157.210588
 30
0.0
  0
POINT
  5
7346D
330
7361D
100
AcDbEntity
  8
Level 25
  6
Continuous
 62
   174
370
     0
100
AcDbPoint
 10
5191.044181
 20
1208.210588
 30
0.0
  0
POINT
  5
7346E
330
7361D
100
AcDbEntity
  8
Level 25
  6
Continuous
 62
   174
370
     0
100
AcDbPoint
 10
5140.044181
 20
1259.210588
 30
0.0
  0
POINT
  5
7346F
330
7361D
100
AcDbEntity
  8
Level 25
  6
Continuous
 62
   174
370
     0
100
AcDbPoint
 10
5089.044181
 20
1208.210588
 30
0.0
  0
ENDBLK
  5
7361F
330
7361D
100
AcDbEntity
  8
0
100
AcDbBlockEnd
  0
ENDSEC
  0
SECTION
  2
ENTITIES
  0
INSERT
  5
73276
330
73568
100
AcDbEntity
  8
Level 27
 62
    12
100
AcDbBlockReference
  2
FS22
 10
3690.537947
 20
303.634088
 30
0.0
  0
ENDSEC
  0
SECTION
  2
OBJECTS
  0
DICTIONARY
  5
7357B
330
0
100
AcDbDictionary
281
     1
  3
ACAD_GROUP
350
73579
  3
ACAD_LAYOUT
350
7357C
  3
ACAD_MLINESTYLE
350
7357A
  3
ACAD_PLOTSETTINGS
350
7357D
  3
ACAD_PLOTSTYLENAME
350
7357E
  3
ACAD_TABLESTYLE
350
73625
  3
AcadDim
350
73592
  3
DWGPROPS
350
7370D
  0
DICTIONARY
  5
73581
330
73570
100
AcDbDictionary
280
     1
281
     1
  3
ACAD_LAYERFILTERS
360
73582
  0
DICTIONARY
  5
73579
102
{ACAD_REACTORS
330
7357B
102
}
330
7357B
100
AcDbDictionary
281
     1
  0
DICTIONARY
  5
7357C
102
{ACAD_REACTORS
330
7357B
102
}
330
7357B
100
AcDbDictionary
281
     1
  3
Layout1
350
7356F
  3
Model
350
7356B
  0
DICTIONARY
  5
7357A
102
{ACAD_REACTORS
330
7357B
102
}
330
7357B
100
AcDbDictionary
281
     1
  3
Standard
350
73566
  0
DICTIONARY
  5
7357D
102
{ACAD_REACTORS
330
7357B
102
}
330
7357B
100
AcDbDictionary
281
     1
  0
ACDBDICTIONARYWDFLT
  5
7357E
102
{ACAD_REACTORS
330
7357B
102
}
330
7357B
100
AcDbDictionary
281
     1
  3
Normal
350
73561
100
AcDbDictionaryWithDefault
340
73561
  0
DICTIONARY
  5
73625
102
{ACAD_REACTORS
330
7357B
102
}
330
7357B
100
AcDbDictionary
281
     1
  0
XRECORD
  5
73592
102
{ACAD_REACTORS
330
7357B
102
}
330
7357B
100
AcDbXrecord
280
     1
 90
   990106
  3
 
 60
     0
 61
     0
 62
     1
 63
     1
 64
     0
 65
     0
 66
     0
 67
     3
 68
     1
 69
     1
 70
     0
 71
     0
 72
     0
 40
0.0
170
     0
  0
XRECORD
  5
7370D
102
{ACAD_REACTORS
330
7357B
102
}
330
7357B
100
AcDbXrecord
280
     1
  1
DWGPROPS COOKIE
  2

  3

  4
WAEngineering1
  6

  7

  8

  9

300
=
301
=
302
=
303
=
304
=
305
=
306
=
307
=
308
=
309
=
 40
0.0
 41
2451789.537469
 42
2451789.537561
  1

 90
        0
  0
DICTIONARY
  5
73582
102
{ACAD_REACTORS
330
73581
102
}
330
73581
100
AcDbDictionary
281
     1
  0
LAYOUT
  5
7356F
102
{ACAD_REACTORS
330
7357C
330
7357C
102
}
330
7357C
100
AcDbPlotSettings
  1

  2

  4

  6

 40
0.0
 41
0.0
 42
0.0
 43
0.0
 44
0.0
 45
0.0
 46
0.0
 47
0.0
 48
0.0
 49
0.0
140
0.0
141
0.0
142
1.0
143
1.0
 70
   688
 72
     0
 73
     0
 74
     5
  7

 75
    16
147
1.0
148
0.0
149
0.0
100
AcDbLayout
  1
Layout1
 70
     1
 71
     1
 10
0.0
 20
0.0
 11
12.0
 21
9.0
 12
0.0
 22
0.0
 32
0.0
 14
1.000000E+20
 24
1.000000E+20
 34
1.000000E+20
 15
-1.000000E+20
 25
-1.000000E+20
 35
-1.000000E+20
146
0.0
 13
0.0
 23
0.0
 33
0.0
 16
1.0
 26
0.0
 36
0.0
 17
0.0
 27
1.0
 37
0.0
 76
     0
330
7356C
  0
LAYOUT
  5
7356B
102
{ACAD_REACTORS
330
7357C
330
7357C
102
}
330
7357C
100
AcDbPlotSettings
  1

  2

  4

  6

 40
0.0
 41
0.0
 42
0.0
 43
0.0
 44
0.0
 45
0.0
 46
0.0
 47
0.0
 48
0.0
 49
0.0
140
0.0
141
0.0
142
1.0
143
1.0
 70
  1712
 72
     0
 73
     0
 74
     0
  7

 75
     0
147
1.0
148
0.0
149
0.0
100
AcDbLayout
  1
Model
 70
     1
 71
     0
 10
0.0
 20
0.0
 11
12.0
 21
9.0
 12
0.0
 22
0.0
 32
0.0
 14
0.0
 24
0.0
 34
0.0
 15
0.0
 25
0.0
 35
0.0
146
0.0
 13
0.0
 23
0.0
 33
0.0
 16
1.0
 26
0.0
 36
0.0
 17
0.0
 27
1.0
 37
0.0
 76
     0
330
73568
  0
MLINESTYLE
  5
73566
102
{ACAD_REACTORS
330
7357A
102
}
330
7357A
100
AcDbMlineStyle
  2
STANDARD
 70
     0
  3

 62
   256
 51
90.0
 52
90.0
 71
     2
 49
0.5
 62
   256
  6
BYLAYER
 49
-0.5
 62
   256
  6
BYLAYER
  0
ACDBPLACEHOLDER
  5
73561
102
{ACAD_REACTORS
330
7357E
102
}
330
7357E
  0
ENDSEC
  0
SECTION
  2
THUMBNAILIMAGE
 90
    16004
310
28000000B40000005300000001000800000000005C3A000000040000000400000001000006000000FFFFFF001018E0004800000090689000D878280090000000FFFFFF00FFFFFF00FFFFFF00FFFFFF00FFFFFF00FFFFFF00FFFFFF00FFFFFF00FFFFFF00FFFFFF00FFFFFF00FFFFFF00FFFFFF00FFFFFF00FFFFFF00FFFFFF
310
00FFFFFF00FFFFFF00FFFFFF00FFFFFF00FFFFFF00FFFFFF00FFFFFF00FFFFFF00FFFFFF00FFFFFF00FFFFFF00FFFFFF00FFFFFF00FFFFFF00FFFFFF00FFFFFF00FFFFFF00FFFFFF00FFFFFF00FFFFFF00FFFFFF00FFFFFF00FFFFFF00FFFFFF00FFFFFF00FFFFFF00FFFFFF00FFFFFF00FFFFFF00FFFFFF00FFFFFF00FFFF
310
FF00FFFFFF00FFFFFF00FFFFFF00FFFFFF00FFFFFF00FFFFFF00FFFFFF00FFFFFF00FFFFFF00FFFFFF00FFFFFF00FFFFFF00FFFFFF00FFFFFF00FFFFFF00FFFFFF00FFFFFF00FFFFFF00FFFFFF00FFFFFF00FFFFFF00FFFFFF00FFFFFF00FFFFFF00FFFFFF00FFFFFF00FFFFFF00FFFFFF00FFFFFF00FFFFFF00FFFFFF00FF
310
FFFF00FFFFFF00FFFFFF00FFFFFF00FFFFFF00FFFFFF00FFFFFF00FFFFFF00FFFFFF00FFFFFF00FFFFFF00FFFFFF00FFFFFF00FFFFFF00FFFFFF00FFFFFF00FFFFFF00FFFFFF00FFFFFF00FFFFFF00FFFFFF00FFFFFF00FFFFFF00FFFFFF00FFFFFF00FFFFFF00FFFFFF00FFFFFF00FFFFFF00FFFFFF00FFFFFF00FFFFFF00
310
FFFFFF00FFFFFF00FFFFFF00FFFFFF00FFFFFF00FFFFFF00FFFFFF00FFFFFF00FFFFFF00FFFFFF00FFFFFF00FFFFFF00FFFFFF00FFFFFF00FFFFFF00FFFFFF00FFFFFF00FFFFFF00FFFFFF00FFFFFF00FFFFFF00FFFFFF00FFFFFF00FFFFFF00FFFFFF00FFFFFF00FFFFFF00FFFFFF00FFFFFF00FFFFFF00FFFFFF00FFFFFF
310
00FFFFFF00FFFFFF00FFFFFF00FFFFFF00FFFFFF00FFFFFF00FFFFFF00FFFFFF00FFFFFF00FFFFFF00FFFFFF00FFFFFF00FFFFFF00FFFFFF00FFFFFF00FFFFFF00FFFFFF00FFFFFF00FFFFFF00FFFFFF00FFFFFF00FFFFFF00FFFFFF00FFFFFF00FFFFFF00FFFFFF00FFFFFF00FFFFFF00FFFFFF00FFFFFF00FFFFFF00FFFF
310
FF00FFFFFF00FFFFFF00FFFFFF00FFFFFF00FFFFFF00FFFFFF00FFFFFF00FFFFFF00FFFFFF00FFFFFF00FFFFFF00FFFFFF00FFFFFF00FFFFFF00FFFFFF00FFFFFF00FFFFFF00FFFFFF00FFFFFF00FFFFFF00FFFFFF00FFFFFF00FFFFFF00FFFFFF00FFFFFF00FFFFFF00FFFFFF00FFFFFF00FFFFFF00FFFFFF00FFFFFF00FF
310
FFFF00FFFFFF00FFFFFF00FFFFFF00FFFFFF00FFFFFF00FFFFFF00FFFFFF00FFFFFF00FFFFFF00FFFFFF00FFFFFF00FFFFFF00FFFFFF00FFFFFF00FFFFFF00FFFFFF00FFFFFF00FFFFFF00FFFFFF00FFFFFF00FFFFFF00FFFFFF00FFFFFF00FFFFFF00FFFFFF00FFFFFF00FFFFFF00FFFFFF00FFFFFF00FFFFFF00FFFFFF00
310
FFFFFF00FFFFFF00FFFFFF00FFFFFF00FFFFFF00FFFFFF00FFFFFF00FFFFFF00FFFFFF00FFFFFF00FFFFFF00FFFFFF0003030303030303030303030303030303030303030303030303030303030303030303030303030303030303030303030303030303030303030303030303030303030303030303030303030303030303
310
03030303030303030303030303030303030303030303030303030303030303030303030303030303030303030303030303030303030303030303030303030303030303030303030303030303030303030303030303030303030303030303030303030303030303030303030303030303030303030303030303030303030303
310
03030303030303030303030303030303030303030303030303030303030303030303030303030303030303030303030303030303030303030303030303030303030303030303030303030303030303030303030303030303030303030303030303030303030303030303030303030303030303030303030303030303030303
310
03030303030303030303030303030303030303030303030303030303030303030303030303030303030303030303030303030303030303030303030303030303030303030303030303030303030303030303030303030303030303030303030303030303030303030303030303030303030303030303030303030303030303
310
03030303030303030303030303030303030303030303030303030303030303030303030303030303030303030303030303030303030303030303030303030303030303030303030303030303030303030303030303030303030303030303030303030303030303030303030303030303030303030303030303030303030303
310
03030303030303030303030303030303030303030303030303030303030303030303030303030303030303030303030303030303030303030303030303030303030303030303030303030303030303030303030303030303030303030303030303030303030303030303030303030303030303030303030303030303030303
310
03030303030303030303030303030303030303030303030303030303030303030303030303030303030303030303030303030303030303030303030303030303030303030303030303030303030303030303030303030303030303030303030303030303030303030303030303030303030303030303030303030303030303
310
03030303030303030303030303030303030303030303030303030303030303030303030303030303030303030303030303030303030303030303030303030303030303030303030303030303030303030303030303030303030303030303030303030303030303030303030303030303030303030303030303030303030303
310
03030303030303030303030303030303030303030303030303030303030303030303030303030303030303030303030303030303030303030303030303030303030303030303030303030303030303030303030303030303030303030303030303030303030303030303030303030303030303030303030303030303030303
310
03030303030303030303030303030303030303030303030303030303030303030303030303030303030303030303030303030303030303030303030303030303030303030303030303030303030303030303030303030303030303030303030303030303030303030303030303030303030303030303030303030303030303
310
03030303030303030303030303030303030303030303030303030303030303030303030303030303030303030303030303030303030303030303030303030303030303030303030303030303030303030303030303030303030303030303030303030303030303030303030303030303030303030303030303030303030303
310
03030303030303030303030303030303030303030303030303030303030303030303030303030303030303030303030303030303030303030303030303030303030303030303030303030303030303030303030303030303030303030303030303030303030303030303030303030303030303030303030303030303030303
310
03030303030303030303030303030303030303030303030303030303030303030303030303030303030303030303030303030303030303030303030303030303030303030303030303030303030303030303030303030303030303030303030303030303030303030303030303030303030303030303030303030303030303
310
03030303030303030303030303030303030303030303030303030303030303030303030303030303030303030303030303030303030303030303030303030303030303030303030303030303030303030303030303030303030303030303030303030303030303030303030303030303030303030303030303030303030303
310
03030303030303030303030303030303030303030303030303030303030303030303030303030303030303030303030303030303030303030303030303030303030303030303030303030303030303030303030303030303030303030303030303030303030303030303030303030303030303030303030303030303030303
310
03030303030303030303030303030303030303030303030303030303030303030303030303030303030303030303030303030303030303030303030303030303030303030303030303030303030303030303030303030303030303030303030303030303030303030303030303030303030303030303030303030303030303
310
03030303030303030303030303030303030303030303030303030303030303030303030303030303030303030303030303030303030303030303030303030303030303030303030303030303030303030303030303030303030303030303030303030303030303030303030303030303030303030303030303030303030303
310
03030303030303030303030303030303030303030303030303030303030303030303030303030303030303030303030303030303030303030303030303030303030303030303030303030303030303030303030303030303030303030303030303030303030303030303030303030303030303030303030303030303030303
310
03030303030303030303030303030303030303030303030303030303030303030303030303030303030303030303030303030303030303030303030303030303030303030303030303030303030303030303030303030303030303030303030303030303030303030303030303030303030303030303030303030303030303
310
03030303030303030303030303030303030303030303030303030303030303030303030303030303030303030303030303030303030303030303030303030303030303030303030303030303030303030303030303030303030303030303030303030303030303030303030303030303030303030303030303030303030303
310
03030303030303030303030303030303030303030303030303030303030303030303030303030303030303030303030303030303030303030303030303030303030303030303030303030303030303030303030303030303030303030303030303030303030303030303030303030303030303030303030303030303030303
310
03030303030303030303030303030303030303030303030303030303030303030303030303030303030303030303030303030303030303030303030303030303030303030303030303030303030303030303030303030303030303030303030303030303030303030303030303030303030303030303030303030303030303
310
03030303030303030303030303030303030303030303030303030303030303030303030303030303030303030303030303030303030303030303030303030303030303030303030303030303030303030303030303030303030303030303030303030303030303030303030303030303030303030303030303030303030303
310
03030303030303030303030303030303030303030303030303030303030303030303030303030303030303030303030303030303030303030303030303030303030303030303030303030303030303030303030303030303030303030303030303030303030303030303030303030303030303030303030303030303030303
310
03030303030303030303030303030303030303030303030303030303030303030303030303030303030303030303030303030303030303030303030303030303030303030303030303030303030303030303030303030303030303030303030303030303030303030303030303030303030303030303030303030303030303
310
03030303030303030303030303030303030303030303030303030303030303030303030303030303030303030303030303030303030303030303030303030303030303030303030303030303030303030303030303030303030303030303030303030303030303030303030303030303030303030303030303030303030303
310
03030303030303030303030303030303030303030303030303030303030303030303030303030303030303030303030303030303030303030303030303030303030303030303030303030303030303030303030303030303030303030303030303030303030303030303030303030303030303030303030303030303030303
310
03030303030303030303030303030303030303030303030303030303030303030303030303030303030303030303030303030303030303030303030303030303030303030303030303030303030303030303030303030303030303030303030303030303030303030303030303030303030303030303030303030303030303
310
03030303030303030303030303030303030303030303030303030303030303030303030303030303030303030303030303030303030303030303030303030303030303030303030303030303030303030303030303030303030303030303030303030303030303030303030303030303030303030303030303030303030303
310
03030303030303030303030303030303030303030303030303030303030303030303030303030303030303030303030303030303030303030303030303030303030303030303030303030303030303030303030303030303030303030303030303030303030303030303030303030303030303030303030303030303030303
310
03030303030303030303030303030303030303030303030303030303030303030303030303030303030303030303030303030303030303030303030303030303030303030303030303030303030303030303030303030303030303030303030303030303030303030303030303030303030303030303030303030303030303
310
03030303030303030303030303030303030303030303030303030303030303030303030303030303030303030303030303030303030303030303030303030303030303030303030303030303030303030303030303030303030303030303030303030303030303030303030303030303030303030303030303030303030303
310
03030303030303030303030303030303030303030303030303030303030303030303030303030303030303030303030303030303030303030303030303030303030303030303030303030303030303030303030303030303030303030303030303030303030303030303030303030303030303030303030303030303030303
310
03030303030303030303030303030303030303030303030303030303030303030303030303030303030303030303030303030303030303030303030303030303030303030303030303030303030303030303030303030303030303030303030303030303030303030303030303030303030303030303030303030303030303
310
03030303030303030303030303030303030303030303030303030303030303030303030303030303030303030303030303030303030303030303030303030303030303030303030303030303030303030303030303030303030303030303030303030303030303030303030303030303030303030303030303030303030303
310
03030303030303030303030303030303030303030303030303030303030303030303030303030303030303030303030303030303030303030303030303030303030303030303030303030303030303030303030303030303030303030303030303030303030303030303030303030303030303030303030303030303030303
310
03030303030303030303030303030303030303030303030303030303030303030303030303030303030303030303030303030303030303030303030303030303030303030303030303030303030303030303030303030303030303030303030303030303030303030303030303030303030303030303030303030303030303
310
03030303030303030303030303030303030303030303030303030303030303030303030303030303030303030303030303030303030303030303030303030303030303030303030303030303030303030303030303030303030303030303030303030303030303030303030303030303030303030303030303030303030303
310
03030303030303030303030303030303030303030303030303030303030303030303030303030303030303030303030303030303030303030303030303030303030303030303030303030303030303030303030303030303030303030303030303030303030303030303030303030303030303030303030303030303030303
310
03030303030303030303030303030303030303030303030303030303030303030303030303030303030303030303030303030303030303030303030303030303030303030303030303030303030303030303030303030303030303030303030303030303030303030303030303030303030303030303030303030303030303
310
03030303030303030303030303030303030303030303030303030303030303030303030303030303030303030303030303030303030303030303030303030303030303030303030303030303030303030303030303030303030303030303030303030303030303030303030303030303030303030303030303030303030303
310
03030303030303030303030303030303030303030303030303030303030303030303030303030303030303030303030303030303030303030303030303030303030303030303030303030303030303030303030303030303030303030303030303030303030303030303030303030303030303030303030303030303030303
310
03030303030303030303030303030303030303030303030303030303030303030303030303030303030303030303030303030303030303030303030303030303030303030303030303030303030303030303030303030303030303030303030303030303030303030303030303030303030303030303030303030303030303
310
03030303030303030303030303030303030303030303030303030303030303030303030303030303030303030303030303030303030303030303030303030303030303030303030303030303030303030303030303030303030303030303030303030303030303030303030303030303030303030303030303030303030303
310
03030303030303030303030303030303030303030303030303030303030303030303030303030303030303030303030303030303030303030303030303030303030303030303030303030303030303030303030303030303030303030303030303030303030303030303030303030303030303030303030303030303030303
310
03030303030303030303030303030303030303030303030303030303030303030303030303030303030303030303030303030303030303030303030303030303030303030303030303030303030303030303030303030303030303030303030303030303030303030303030303030303030303030303030303030303030303
310
03030303030303030303030303030303030303030303030303030303030303030303030303030303030303030303030303030303030303030303030303030303030303030303030303030303030303030303030303030303030303030303030303030303030303030303030303030303030303030303030303030303030303
310
03030303030303030303030303030303030303030303030303030303030303030303030303030303030303030303030303030303030303030303030303030303030303030303030303030303030303030303030303030303030303030303030303030303030303030303030303030303030303030303030303030303030303
310
03030303030303030303030303030303030303030303030303030303030303030303030303030303030303030303030303030303030303030303030303030303030303030303030303030303030303030303030303030303030303030303030303030303030303030303030303030303030303030303030303030303030303
310
03030303030303030303030303030303030303030303030303030303030303030303030303030303030303030303030303030303030303030303030303030303030303030303030303030303030303030303030303030303030303030303030303030303030303030303030303030303030303030303030303030303030303
310
03030303030303030303030303030303030303030303030303030303030303030303030303030303030303030303030303030303030303030303030303030303030303030303030303030303030303030303030303030303030303030303030303030303030303030303030303030303030303030303030303030303030303
310
03030303030303030303030303030303030303030303030303030303030303030303030303030303030303030303030303030303030303030303030303030303030303030303030303030303030303030303030303030303030303030303030303030303030303030303030303030303030303030303030303030303030303
310
03030303030303030303030303030303030303030303030303030303030303030303030303030303030303030303030303030303030303030303030303030303030303030303030303030303030303030303030303030303030303030303030303030303030303030303030303030303030303030303030303030303030303
310
03030303030303030303030303030303030303030303030303030303030303030303030303030303030303030303030303030303030303030303030303030303030303030303030303030303030303030303030303030303030303030303030303030303030303030303030303030303030303030303030303030303030303
310
03030303030303030303030303030303030303030303030303030303030303030303030303030303030303030303030303030303030303030303030303030303030303030303030303030303030303030303030303030303030303030303030303030303030303030303030303030303030303030303030303030303030303
310
03030303030303030303030303030303030303030303030303030303030303030303030303030303030303030303030303030303030303030303030303030303030303030303030303030303030303030303030303030303030303030303030303030303030303030303030303030303030303030303030303030303030303
310
03030303030303030303030303030303030303030303030303030303030303030303030303030303030303030303030303030303030303030303030303030303030303030303030303030303030303030303030303030303030303030303030303030303030303030303030303030303030303030303030303030303030303
310
03030303030303030303030303030303030303030303030303030303030303030303030303030303030303030303030303030303030303030303030303030303030303030303030303030303030303030303030303030303010101010101010303030303030303030303030303030303030303030303030303030303030303
310
03030303030303030303030303030303030303030303030303030303030303030303030303030303030303030303030303030303030303030303030303030303030303030303030303030303030303030303030303030303030303030303030303030303030303030303030303030303030303030303030303030303030303
310
03030303030303030303030303030101010101010103030303030303030303030303030303030303030303030303030303030303030303030303030303030303030303030303030303030303030303030303030303030303030303030303030303030303030303030303030303030303030303030303030303030303030303
310
03030303030303030303030303030303030303030303030303030303030303030303030303030303030303030303030303030303030303030303030303030303030303010101050101010303030303030303030303030303030303030303030303030303030303030303030303030303030303030303030303030303030303
310
03030303030303030303030303030303030303030303030303030303030303030303030303030303030303030303030303030303030303030303030303030303030303030303030303030303030303030303030303030303030303030303030303030303030303030303030303030303030303030303030301010505010101
310
03030303030303030303030303030303030303030303030303030303030303030303030303030303030303030303030303030303030303030303030303030303030303030303030303030303030303030303030303030303030303030303030303030303030303030303030303030303030303030303030303030303030303
310
03030303030303030303030303030303030303030303030303030303030303030303030303030303030303030303010105010101010303030303030303030303030303030303030303030303030303030303030303030303030303030303030303030303030303030303030303030303030303030303030303030303030303
310
03030303030303030303030303030303030303030303030303030303030303030303030303030303030303030303030303030303030303030303030303030303030303030303030303030303030303030303030303030303030303030303030303030301010101010101030303030303030303030303030303030303030303
310
03030303030303030303030303030303030303030303030303030303030303030303030303030303030303030303030303030303030303030303030303030303030303030303030303030303030303030303030303030303030303030303030303030303030303030303030303030303030303030303030303030303030303
310
03030303030303030303030303030303030303030303030303010101010101010303030303030303030303030303030303030303030303030303030303030303030303030303030303030303030303030303030303030303030303030303030303030303030303030303030303030303030303030303030303030303030303
310
03030303030303030303030303030303030303030303030303030303030303030303030303030303030303030303030303030303030303030303030303030303030303030303030303030303030303030303030303030303030303030303030303030303030303030303030303030303030303030303030303030303030303
310
03030303030303030303030303030303030303030303030303030303030303030303030303030303030303030303030303030303030303030303030303030303030303030303030303030303030303030303030303030303030303030303030303030303030303030303030303030303030303030303030303030303030303
310
03030303030303030303030303030303030303030303030303030303030303030303030303030303030303030303030303030303030303030303030303030303030303030303030303030303030303030303030303030303030303030303030303030303030303030303030303030303030303030303030303030303030303
310
03030303030303030303030303030303030303030303030303030303030303030303030303030303030303030303030303030303030303030303030303030303030303030303030303030303030303030303030303030303030303030303030303030303030303030303030303030303030303030303030303030303030303
310
03030303030303030303030303030303030303030303030303030303030303030303030303030303030303030303030303030303030303030303030303030303030303030303030303030303030303030303030303030303030303030303030303030303030303030303030303030303030303030303030303030303030303
310
03030303030303030303030303030303030303030303030303030303030303030303030303030303030303030303030303030303030303030303030303030303030303030303030303030303030303030303030303030303030303030303030303030303030303030303030303030303030303030303030303030303030303
310
03030303030303030303030303030303030303030303030303030303030303030303030303030303030303030303030303030303030303030303030303030303030303030303030303030303030303030303030303030303030303030303030303030303030303030303030303030303030303030303030303030303030303
310
03030303030303030303030303030303030303030303030303030303030303030303030303030303030303030303030303030303030303030303030303030303030303030303030303030303030303030303030303030303030303030303030303030303030303030303030303030303030303030303030303030303030303
310
03030303030303030303030303030303030303030303030303030303030303030303030303030303030303030303030303030303030303030303030303030303030303030303030303030303030303030303030303030303030303030303030303030303030303030303030303030303030303030303030303030303030303
310
03030303030303030303030303030303030303030303030303030303030303030303030303030303030303030303030303030303030303030303030303030303030303030303030303030303030303030303030303030303030303030303030303030303030303030303030303030303030303030303030303030303030303
310
03030303030303030303030303030303030303030303030303030303030303030303030303030303030303030303030303030303030303030303030303030303030303030303030303030303030303030303030303030303030303030303030303030303030303030303030303030303030303030303030303030303030303
310
03030303030303030303030303030303030303030303030303030303030303030303030303030303030303030303030303030303030303030303030303030303030303030303030303030303030303030303030303030303030303030303030303030303030303030303030303030303030303030303030303030303030303
310
03030303030303030303030303030303030303030303030303030303030303030303030303030303030303030303030303030303030303030303030303030303030303030303030303030303030303030303030303030303030303030303030303030303030303030303030303030303030303030303030303030303030303
310
03030303030303030303030303030303030303030303030303030303030303030303030303030303030303030303030303030303030303030303030303030303030303030303030303030303030303030303030303030303030303030303030303030303030303030303030303030303030303030303030303030303030303
310
03030303030303030303030303030303030303030303030303030303030303030303030303030303030303030303030303030303030303030303030303030303030303030303030303030303030303030303030303030303030303030303030303030303030303030303030303030303030303030303030303030303030303
310
03030303030303030303030303030303030303030303030303030303030303030303030303030303030303030303030303030303030303030303030303030303030303030303030303030303030303030303030303030303030303030303030303030303030303030303030303030303030303030303030303030303030303
310
03030303030303030303030303030303030303030303030303030303030303030303030303030303030303030303030303030303030303030303030303030303030303030303030303030303030303030303030303030303030303030303030303030303030303030303030303030303030303030303030303030303030303
310
03030303030303030303030303030303030303030303030303030303030303030303030303030303030303030303030303030303030303030303030303030303030303030303030303030303030303030303030303030303030303030303030303030303030303030303030303030303030303030303030303030303030303
310
03030303030303030303030303030303030303030303030303030303030303030303030303030303030303030303030303030303030303030303030303030303030303030303030303030303030303030303030303030303030303030303030303030303030303030303030303030303030303030303030303030303030303
310
03030303030303030303030303030303030303030303030303030303030303030303030303030303030303030303030303030303030303030303030303030303030303030303030303030303030303030303030303030303030303030303030303030303030303030303030303030303030303030303030303030303030303
310
03030303030303030303030303030303030303030303030303030303030303030303030303030303030303030303030303030303030303030303030303030303030303030303030303030303030303030303030303030303030303030303030303030303030303030303030303030303030303030303030303030303030303
310
03030303030303030303030303030303030303030303030303030303030303030303030303030303030303030303030303030303030303030303030303030303030303030303030303030303030303030303030303030303030303030303030303030303030303030303030303030303030303030303030303030303030303
310
03030303030303030303030303030303030303030303030303030303030303030303030303030303030303030303030303030303030303030303030303030303030303030303030303030303030303030303030303030303030303030303030303030303030303030303030303030303030303030303030303030303030303
310
03030303030303030303030303030303030303030303030303030303030303030303030303030303030303030303030303030303030303030303030303030303030303030303030303030303030303030303030303030303030303030303030303030303030303030303030303030303030303030303030303030303030303
310
03030303030303030303030303030303030303030303030303030303030303030303030303030303030303030303030303030303030303030303030303030303030303030303030303030303030303030303030303030303030303030303030303030303030303030303030303030303030303030303030303030303030303
310
03030303030303030303030303030303030303030303030303030303030303030303030303030303030303030303030303030303030303030303030303030303030303030303030303030303030303030303030303030303030303030303030303030303030303030303030303030303030303030303030303030303030303
310
03030303030303030303030303030303030303030303030303030303030303030303030303030303030303030303030303030303030303030303030303030303030303030303030303030303030303030303030303030303030303030303030303030303030303030303030303030303030303030303030303030303030303
310
03030303030303030303030303030303030303030303030303030303030303030303030303030303030303030303030303030303030303030303030303030303030303030303030303030303030303030303030303030303030303030303030303030303030303030303030303030303030303030303030303030303030303
310
03030303030303030303030303030303030303030303030303030303030303030303030303030303030303030303030303030303030303030303030303030303030303030303030303030303030303030303030303030303030303030303030303030303030303030303030303030303030303030303030303030303030303
310
03030303030303030303030303030303030303030303030303030303030303030303030303030303030303030303030303030303030303030303030303030303030303030303030303030303030303030303030303030303030303030303030303030303030303030303030303030303030303030303030303030303030303
310
03030303030303030303030303030303030303030303030303030303030303030303030303030303030303030303030303030303030303030303030303030303030303030303030303030303030303030303030303030303030303030303030303030303030303030303030303030303030303030303030303030303030303
310
03030303030303030303030303030303030303030303030303030303030303030303030303030303030303030303030303030303030303030303030303030303030303030303030303030303030303030303030303030303030303030303030303030303030303030303030303030303030303030303030303030303030303
310
03030303030303030303030303030303030303030303030303030303030303030303030303030303030303030303030303030303030303030303030303030303030303030303030303030303030303030303030303030303030303030303030303030303030303030303030303030303030303030303030303030303030303
310
03030303030303030303030303030303030303030303030303030303030303030303030303030303030303030303030303030303030303030303030303030303030303030303030303030303030303030303030303030303030303030303030303030303030303030303030303030303030303030303030303030303030303
310
03030303030303030303030303030303030303030303030303030303030303030303030303030303030303030303030303030303030303030303030303030303030303030303030303030303030303030303030303030303030303030303030303030303030303030303030303030303030303030303030303030303030303
310
03030303030303030303030303030303030303030303030303030303030303030303030303030303030303030303030303030303030303030303030303030303030303030303030303030303030303030303030303030303030303030303030303030303030303030303030303030303030303030303030303030303030303
310
03030303030303030303030303030303030303030303030303030303030303030303030303030303030303030303030303030303030303030303030303030303030303030303030303030303030303030303030303030303030303030303030303030303030303030303030303030303030303030303030303030303030303
310
03030303030303030303030303030303030303030303030303030303030303030303030303030303030303030303030303030303030303030303030303030303030303030303030303030303030303030303030303030303030303030303030303030303030303030303030303030303030303030303030303030303030303
310
03030303030303030303030303030303030303030303030303030303030303030303030303030303030303030303030303030303030303030303030303030303030303030303030303030303030303030303030303030303030303030303030303030303030303030303030303030303030303030303030303030303030303
310
03030303030303030303030303030303030303030303030303030303030303030303030303030303030303030303030303030303030303030303030303030303030303030303030303030303030303030303030303030303030303030303030303030303030303030303030303030303030303030303030303030303030303
310
03030303030303030303030303030303030303030303030303030303030303030303030303030303030303030303030303030303030303030303030303030303030303030303030303030303030303030303030303030303030303030303030303030303030303030303030303030303030303030303030303030303030303
310
03030303030303030303030303030303030303030303030303030303030303030303030303030303030303030303030303030303030303030303030303030303030303030303030303030303030303030303030303030303030303030303030303030303030303030303030303030303030303030303030303030303030303
310
03030303030303030303030303030303030303030303030303030303030303030303030303030303030303030303030303030303030303030303030303030303030303030303030303030303030303030303030303030303030303030303030303030303030303030303030303030303030303030303030303030303030303
310
03030303030303030303030303030303030303030303030303030303030303030303030303030303030303030303030303030303030303030303030303030303030303030303030303030303030303030303030303030303030303030303030303030303030303030303030303030303030303030303030303030303030303
310
03030303030303030303030303030303030303030303030303030303030303030303030303030303030303030303030303030303030303030303030303030303030303030303030303030303030303030303030303030303030303030303030303030303030303030303030303030303030303030303030303030303030303
310
03030303030303030303030303030303030303030303030303030303030303030303030303030303030303030303030303030303030303030303030303030303030303030303030303030303030303030303030303030303030303030303030303030303030303030303030303030303030303030303030303030303030303
310
03030303030303030303030303030303030303030303030303030303030303030303030303030303030303030303030303030303030303030303030303030303030303030303030303030303030303030303030303030303030303030303030303030303030303030303030303030303030303030303030303030303030303
310
03030303030303030303030303030303030303030303030303030303030303030303030303030303030303030303030303030303030303030303030303030303030303030303030303030303030303030303030303030303030303030303030303030303030303030303030303030303030303030303030303030303030303
310
03030303030303030303030303030303030303030303030303030303030303030303030303030303030303030303030303030303030303030303030303030303030303030303030303030303030303030303030303030303030303030303030303030303030303030303030303030303030303030303030303030303030303
310
03030303030303030303030303030303030303030303030303030303030303030303030303030303030303030303030303030303030303030303030303030303030303030303030303030303000000000000000000000000000000000000000000000000000000000000000000000000000000000000000000000000000000
310
00000000000000000000000000000000000000000000000000000000000000000000000000000000000000000000000000000000000000000000000000000000000000000000000000000000000000000000000000000000000000000000000000000000000000000000000000000000000000000000000000000000000000
310
0204
  0
ENDSEC
  0
EOF
