  0
SECTION
  2
HEADER
  9
$ACADVER
  1
AC1015
  9
$ACADMAINTVER
 70
     6
  9
$DWGCODEPAGE
  3
ANSI_1252
  9
$INSBASE
 10
0.0
 20
0.0
 30
0.0
  9
$EXTMIN
 10
3370.025
 20
1774.207
 30
0.0
  9
$EXTMAX
 10
4720.026
 20
1849.208
 30
0.0
  9
$LIMMIN
 10
1340.859936
 20
-892.458064
  9
$LIMMAX
 10
6749.191064
 20
4515.873064
  9
$ORTHOMODE
 70
     0
  9
$REGENMODE
 70
     1
  9
$FILLMODE
 70
     1
  9
$QTEXTMODE
 70
     0
  9
$MIRRTEXT
 70
     1
  9
$LTSCALE
 40
1.0
  9
$ATTMODE
 70
     1
  9
$TEXTSIZE
 40
100.0
  9
$TRACEWID
 40
0.05
  9
$TEXTSTYLE
  7
Standard
  9
$CLAYER
  8
Level 8
  9
$CELTYPE
  6
Continuous
  9
$CECOLOR
 62
    98
  9
$CELTSCALE
 40
1.0
  9
$DISPSILH
 70
     0
  9
$DIMSCALE
 40
1.0
  9
$DIMASZ
 40
100.0
  9
$DIMEXO
 40
50.0
  9
$DIMDLI
 40
0.0
  9
$DIMRND
 40
0.0
  9
$DIMDLE
 40
0.0
  9
$DIMEXE
 40
50.0
  9
$DIMTP
 40
0.0
  9
$DIMTM
 40
0.0
  9
$DIMTXT
 40
100.0
  9
$DIMCEN
 40
0.09
  9
$DIMTSZ
 40
0.0
  9
$DIMTOL
 70
     0
  9
$DIMLIM
 70
     0
  9
$DIMTIH
 70
     0
  9
$DIMTOH
 70
     0
  9
$DIMSE1
 70
     0
  9
$DIMSE2
 70
     0
  9
$DIMTAD
 70
     1
  9
$DIMZIN
 70
    11
  9
$DIMBLK
  1
TerminatorOpen_0.5
  9
$DIMASO
 70
     1
  9
$DIMSHO
 70
     1
  9
$DIMPOST
  1

  9
$DIMAPOST
  1

  9
$DIMALT
 70
     0
  9
$DIMALTD
 70
     4
  9
$DIMALTF
 40
25.4
  9
$DIMLFAC
 40
1.0
  9
$DIMTOFL
 70
     0
  9
$DIMTVP
 40
0.0
  9
$DIMTIX
 70
     0
  9
$DIMSOXD
 70
     0
  9
$DIMSAH
 70
     0
  9
$DIMBLK1
  1

  9
$DIMBLK2
  1

  9
$DIMSTYLE
  2
Standard
  9
$DIMCLRD
 70
     0
  9
$DIMCLRE
 70
     0
  9
$DIMCLRT
 70
     0
  9
$DIMTFAC
 40
1.0
  9
$DIMGAP
 40
50.0
  9
$DIMJUST
 70
     0
  9
$DIMSD1
 70
     0
  9
$DIMSD2
 70
     0
  9
$DIMTOLJ
 70
     0
  9
$DIMTZIN
 70
    11
  9
$DIMALTZ
 70
    15
  9
$DIMALTTZ
 70
    15
  9
$DIMUPT
 70
     0
  9
$DIMDEC
 70
     0
  9
$DIMTDEC
 70
     0
  9
$DIMALTU
 70
     2
  9
$DIMALTTD
 70
     4
  9
$DIMTXSTY
  7
Style-ENGINEERING
  9
$DIMAUNIT
 70
     0
  9
$DIMADEC
 70
     0
  9
$DIMALTRND
 40
0.0
  9
$DIMAZIN
 70
     3
  9
$DIMDSEP
 70
    46
  9
$DIMATFIT
 70
     3
  9
$DIMFRAC
 70
     2
  9
$DIMLDRBLK
  1
TerminatorOpen_0.5
  9
$DIMLUNIT
 70
     2
  9
$DIMLWD
 70
    -2
  9
$DIMLWE
 70
    -2
  9
$DIMTMOVE
 70
     0
  9
$LUNITS
 70
     2
  9
$LUPREC
 70
     0
  9
$SKETCHINC
 40
0.1
  9
$FILLETRAD
 40
0.5
  9
$AUNITS
 70
     0
  9
$AUPREC
 70
     0
  9
$MENU
  1
.
  9
$ELEVATION
 40
0.0
  9
$PELEVATION
 40
0.0
  9
$THICKNESS
 40
0.0
  9
$LIMCHECK
 70
     0
  9
$CHAMFERA
 40
0.5
  9
$CHAMFERB
 40
0.5
  9
$CHAMFERC
 40
1.0
  9
$CHAMFERD
 40
0.0
  9
$SKPOLY
 70
     0
  9
$TDCREATE
 40
2451789.870802037
  9
$TDUCREATE
 40
2451789.537468704
  9
$TDUPDATE
 40
2451789.87089463
  9
$TDUUPDATE
 40
2451789.537561297
  9
$TDINDWG
 40
0.0000927662
  9
$TDUSRTIMER
 40
0.0000925926
  9
$USRTIMER
 70
     1
  9
$ANGBASE
 50
0.0
  9
$ANGDIR
 70
     0
  9
$PDMODE
 70
     0
  9
$PDSIZE
 40
0.0
  9
$PLINEWID
 40
0.0
  9
$SPLFRAME
 70
     0
  9
$SPLINETYPE
 70
     6
  9
$SPLINESEGS
 70
     8
  9
$HANDSEED
  5
7DBB3
  9
$SURFTAB1
 70
     6
  9
$SURFTAB2
 70
     6
  9
$SURFTYPE
 70
     6
  9
$SURFU
 70
     6
  9
$SURFV
 70
     6
  9
$UCSBASE
  2

  9
$UCSNAME
  2

  9
$UCSORG
 10
0.0
 20
0.0
 30
0.0
  9
$UCSXDIR
 10
1.0
 20
0.0
 30
0.0
  9
$UCSYDIR
 10
0.0
 20
1.0
 30
0.0
  9
$UCSORTHOREF
  2

  9
$UCSORTHOVIEW
 70
     0
  9
$UCSORGTOP
 10
0.0
 20
0.0
 30
0.0
  9
$UCSORGBOTTOM
 10
0.0
 20
0.0
 30
0.0
  9
$UCSORGLEFT
 10
0.0
 20
0.0
 30
0.0
  9
$UCSORGRIGHT
 10
0.0
 20
0.0
 30
0.0
  9
$UCSORGFRONT
 10
0.0
 20
0.0
 30
0.0
  9
$UCSORGBACK
 10
0.0
 20
0.0
 30
0.0
  9
$PUCSBASE
  2

  9
$PUCSNAME
  2

  9
$PUCSORG
 10
0.0
 20
0.0
 30
0.0
  9
$PUCSXDIR
 10
1.0
 20
0.0
 30
0.0
  9
$PUCSYDIR
 10
0.0
 20
1.0
 30
0.0
  9
$PUCSORTHOREF
  2

  9
$PUCSORTHOVIEW
 70
     0
  9
$PUCSORGTOP
 10
0.0
 20
0.0
 30
0.0
  9
$PUCSORGBOTTOM
 10
0.0
 20
0.0
 30
0.0
  9
$PUCSORGLEFT
 10
0.0
 20
0.0
 30
0.0
  9
$PUCSORGRIGHT
 10
0.0
 20
0.0
 30
0.0
  9
$PUCSORGFRONT
 10
0.0
 20
0.0
 30
0.0
  9
$PUCSORGBACK
 10
0.0
 20
0.0
 30
0.0
  9
$USERI1
 70
     0
  9
$USERI2
 70
     0
  9
$USERI3
 70
     0
  9
$USERI4
 70
     0
  9
$USERI5
 70
     0
  9
$USERR1
 40
0.0
  9
$USERR2
 40
0.0
  9
$USERR3
 40
0.0
  9
$USERR4
 40
0.0
  9
$USERR5
 40
0.0
  9
$WORLDVIEW
 70
     1
  9
$SHADEDGE
 70
     3
  9
$SHADEDIF
 70
    70
  9
$TILEMODE
 70
     1
  9
$MAXACTVP
 70
    64
  9
$PINSBASE
 10
0.0
 20
0.0
 30
0.0
  9
$PLIMCHECK
 70
     0
  9
$PEXTMIN
 10
1.000000E+20
 20
1.000000E+20
 30
1.000000E+20
  9
$PEXTMAX
 10
-1.000000E+20
 20
-1.000000E+20
 30
-1.000000E+20
  9
$PLIMMIN
 10
0.0
 20
0.0
  9
$PLIMMAX
 10
12.0
 20
9.0
  9
$UNITMODE
 70
     0
  9
$VISRETAIN
 70
     1
  9
$PLINEGEN
 70
     0
  9
$PSLTSCALE
 70
     0
  9
$TREEDEPTH
 70
  3020
  9
$CMLSTYLE
  2
Standard
  9
$CMLJUST
 70
     0
  9
$CMLSCALE
 40
1.0
  9
$PROXYGRAPHICS
 70
     1
  9
$MEASUREMENT
 70
     0
  9
$CELWEIGHT
370
     0
  9
$ENDCAPS
280
     0
  9
$JOINSTYLE
280
     0
  9
$LWDISPLAY
290
     1
  9
$INSUNITS
 70
     4
  9
$HYPERLINKBASE
  1

  9
$STYLESHEET
  1

  9
$XEDIT
290
     1
  9
$CEPSNTYPE
380
     0
  9
$PSTYLEMODE
290
     1
  9
$FINGERPRINTGUID
  2
{FDEAD576-A652-11D2-9A35-0060089B3A3F}
  9
$VERSIONGUID
  2
{A257D680-BC79-11D2-9A46-0060089B3A3F}
  9
$EXTNAMES
290
     1
  9
$PSVPSCALE
 40
0.0
  9
$OLESTARTUP
290
     0
  0
ENDSEC
  0
SECTION
  2
CLASSES
  0
CLASS
  1
ACDBDICTIONARYWDFLT
  2
AcDbDictionaryWithDefault
  3
ObjectDBX Classes
 90
        0
280
     0
281
     0
  0
CLASS
  1
ACDBPLACEHOLDER
  2
AcDbPlaceHolder
  3
ObjectDBX Classes
 90
        0
280
     0
281
     0
  0
CLASS
  1
LAYOUT
  2
AcDbLayout
  3
ObjectDBX Classes
 90
        0
280
     0
281
     0
  0
ENDSEC
  0
SECTION
  2
TABLES
  0
TABLE
  2
VPORT
  5
7DAB4
330
0
100
AcDbSymbolTable
 70
     3
  0
VPORT
  5
4B
330
7DAB4
100
AcDbSymbolTableRecord
100
AcDbViewportTableRecord
  2
*ACTIVE
 70
     0
 10
0.0
 20
0.0
 11
1.0
 21
1.0
 12
3506.755707
 22
2003.030962
 13
0.0
 23
0.0
 14
1.0
 24
1.0
 15
1.0
 25
1.0
 16
0.0
 26
0.0
 36
1.0
 17
0.0
 27
0.0
 37
0.0
 40
2718.31664
 41
2.064189
 42
50.0
 43
0.0
 44
0.0
 50
0.0
 51
0.0
 71
     0
 72
   100
 73
     1
 74
     2
 75
     0
 76
     0
 77
     0
 78
     1
281
     0
 65
     1
110
0.0
120
0.0
130
0.0
111
1.0
121
0.0
131
0.0
112
0.0
122
1.0
132
0.0
 79
     0
146
0.0
  0
ENDTAB
  0
TABLE
  2
LTYPE
  5
7DAB0
330
0
100
AcDbSymbolTable
 70
     2
  0
LTYPE
  5
7DAB1
330
7DAB0
100
AcDbSymbolTableRecord
100
AcDbLinetypeTableRecord
  2
ByBlock
 70
     0
  3

 72
    65
 73
     0
 40
0.0
  0
LTYPE
  5
7DAA2
330
7DAB0
100
AcDbSymbolTableRecord
100
AcDbLinetypeTableRecord
  2
ByLayer
 70
     0
  3

 72
    65
 73
     0
 40
0.0
  0
LTYPE
  5
7DAA0
330
7DAB0
100
AcDbSymbolTableRecord
100
AcDbLinetypeTableRecord
  2
Continuous
 70
     0
  3
Solid line
 72
    65
 73
     0
 40
0.0
  0
LTYPE
  5
4E1B6
330
7DAB0
100
AcDbSymbolTableRecord
100
AcDbLinetypeTableRecord
  2
Continuous_1
 70
     0
  3

 72
    65
 73
     0
 40
0.0
  0
ENDTAB
  0
TABLE
  2
LAYER
  5
7DAAE
102
{ACAD_XDICTIONARY
360
7DABF
102
}
330
0
100
AcDbSymbolTable
 70
    65
  0
LAYER
  5
7DA9E
330
7DAAE
100
AcDbSymbolTableRecord
100
AcDbLayerTableRecord
  2
0
 70
     0
 62
     7
  6
Continuous
370
    -3
390
7DA9F
  0
LAYER
  5
7
330
7DAAE
100
AcDbSymbolTableRecord
100
AcDbLayerTableRecord
  2
Level 1
 70
     0
 62
     7
  6
Continuous
370
     0
390
7DA9F
  0
LAYER
  5
8
330
7DAAE
100
AcDbSymbolTableRecord
100
AcDbLayerTableRecord
  2
Level 2
 70
     0
 62
     7
  6
Continuous
370
     0
390
7DA9F
  0
LAYER
  5
9
330
7DAAE
100
AcDbSymbolTableRecord
100
AcDbLayerTableRecord
  2
Level 3
 70
     0
 62
     7
  6
Continuous
370
     0
390
7DA9F
  0
LAYER
  5
A
330
7DAAE
100
AcDbSymbolTableRecord
100
AcDbLayerTableRecord
  2
Level 4
 70
     0
 62
     7
  6
Continuous
370
     0
390
7DA9F
  0
LAYER
  5
B
330
7DAAE
100
AcDbSymbolTableRecord
100
AcDbLayerTableRecord
  2
Level 5
 70
     0
 62
     7
  6
Continuous
370
     0
390
7DA9F
  0
LAYER
  5
C
330
7DAAE
100
AcDbSymbolTableRecord
100
AcDbLayerTableRecord
  2
Level 6
 70
     0
 62
     7
  6
Continuous
370
     0
390
7DA9F
  0
LAYER
  5
D
330
7DAAE
100
AcDbSymbolTableRecord
100
AcDbLayerTableRecord
  2
Level 7
 70
     0
 62
     7
  6
Continuous
370
     0
390
7DA9F
  0
LAYER
  5
E
330
7DAAE
100
AcDbSymbolTableRecord
100
AcDbLayerTableRecord
  2
Level 8
 70
     0
 62
     7
  6
Continuous
370
     0
390
7DA9F
  0
LAYER
  5
F
330
7DAAE
100
AcDbSymbolTableRecord
100
AcDbLayerTableRecord
  2
Level 9
 70
     0
 62
     7
  6
Continuous
370
     0
390
7DA9F
  0
LAYER
  5
10
330
7DAAE
100
AcDbSymbolTableRecord
100
AcDbLayerTableRecord
  2
Level 10
 70
     0
 62
     7
  6
Continuous
370
     0
390
7DA9F
  0
LAYER
  5
11
330
7DAAE
100
AcDbSymbolTableRecord
100
AcDbLayerTableRecord
  2
Level 11
 70
     0
 62
     7
  6
Continuous
370
     0
390
7DA9F
  0
LAYER
  5
12
330
7DAAE
100
AcDbSymbolTableRecord
100
AcDbLayerTableRecord
  2
Level 12
 70
     0
 62
     7
  6
Continuous
370
     0
390
7DA9F
  0
LAYER
  5
13
330
7DAAE
100
AcDbSymbolTableRecord
100
AcDbLayerTableRecord
  2
Level 13
 70
     0
 62
     7
  6
Continuous
370
     0
390
7DA9F
  0
LAYER
  5
14
330
7DAAE
100
AcDbSymbolTableRecord
100
AcDbLayerTableRecord
  2
Level 14
 70
     0
 62
     7
  6
Continuous
370
     0
390
7DA9F
  0
LAYER
  5
15
330
7DAAE
100
AcDbSymbolTableRecord
100
AcDbLayerTableRecord
  2
Level 15
 70
     0
 62
     7
  6
Continuous
370
     0
390
7DA9F
  0
LAYER
  5
16
330
7DAAE
100
AcDbSymbolTableRecord
100
AcDbLayerTableRecord
  2
Level 16
 70
     0
 62
     7
  6
Continuous
370
     0
390
7DA9F
  0
LAYER
  5
17
330
7DAAE
100
AcDbSymbolTableRecord
100
AcDbLayerTableRecord
  2
Level 17
 70
     0
 62
     7
  6
Continuous
370
     0
390
7DA9F
  0
LAYER
  5
18
330
7DAAE
100
AcDbSymbolTableRecord
100
AcDbLayerTableRecord
  2
Level 18
 70
     0
 62
     7
  6
Continuous
370
     0
390
7DA9F
  0
LAYER
  5
19
330
7DAAE
100
AcDbSymbolTableRecord
100
AcDbLayerTableRecord
  2
Level 19
 70
     0
 62
     7
  6
Continuous
370
     0
390
7DA9F
  0
LAYER
  5
1A
330
7DAAE
100
AcDbSymbolTableRecord
100
AcDbLayerTableRecord
  2
Level 20
 70
     0
 62
     7
  6
Continuous
370
     0
390
7DA9F
  0
LAYER
  5
1B
330
7DAAE
100
AcDbSymbolTableRecord
100
AcDbLayerTableRecord
  2
Level 21
 70
     0
 62
     7
  6
Continuous
370
     0
390
7DA9F
  0
LAYER
  5
1C
330
7DAAE
100
AcDbSymbolTableRecord
100
AcDbLayerTableRecord
  2
Level 22
 70
     0
 62
     7
  6
Continuous
370
     0
390
7DA9F
  0
LAYER
  5
1D
330
7DAAE
100
AcDbSymbolTableRecord
100
AcDbLayerTableRecord
  2
Level 23
 70
     0
 62
     7
  6
Continuous
370
     0
390
7DA9F
  0
LAYER
  5
1E
330
7DAAE
100
AcDbSymbolTableRecord
100
AcDbLayerTableRecord
  2
Level 24
 70
     0
 62
     7
  6
Continuous
370
     0
390
7DA9F
  0
LAYER
  5
1F
330
7DAAE
100
AcDbSymbolTableRecord
100
AcDbLayerTableRecord
  2
Level 25
 70
     0
 62
     7
  6
Continuous
370
     0
390
7DA9F
  0
LAYER
  5
20
330
7DAAE
100
AcDbSymbolTableRecord
100
AcDbLayerTableRecord
  2
Level 26
 70
     0
 62
     7
  6
Continuous
370
     0
390
7DA9F
  0
LAYER
  5
21
330
7DAAE
100
AcDbSymbolTableRecord
100
AcDbLayerTableRecord
  2
Level 27
 70
     0
 62
     7
  6
Continuous
370
     0
390
7DA9F
  0
LAYER
  5
22
330
7DAAE
100
AcDbSymbolTableRecord
100
AcDbLayerTableRecord
  2
Level 28
 70
     0
 62
     7
  6
Continuous
370
     0
390
7DA9F
  0
LAYER
  5
23
330
7DAAE
100
AcDbSymbolTableRecord
100
AcDbLayerTableRecord
  2
Level 29
 70
     0
 62
     7
  6
Continuous
370
     0
390
7DA9F
  0
LAYER
  5
24
330
7DAAE
100
AcDbSymbolTableRecord
100
AcDbLayerTableRecord
  2
Level 30
 70
     0
 62
     7
  6
Continuous
370
     0
390
7DA9F
  0
LAYER
  5
25
330
7DAAE
100
AcDbSymbolTableRecord
100
AcDbLayerTableRecord
  2
Level 31
 70
     0
 62
     7
  6
Continuous
370
     0
390
7DA9F
  0
LAYER
  5
26
330
7DAAE
100
AcDbSymbolTableRecord
100
AcDbLayerTableRecord
  2
Level 32
 70
     0
 62
     7
  6
Continuous
370
     0
390
7DA9F
  0
LAYER
  5
27
330
7DAAE
100
AcDbSymbolTableRecord
100
AcDbLayerTableRecord
  2
Level 33
 70
     0
 62
     7
  6
Continuous
370
     0
390
7DA9F
  0
LAYER
  5
28
330
7DAAE
100
AcDbSymbolTableRecord
100
AcDbLayerTableRecord
  2
Level 34
 70
     0
 62
     7
  6
Continuous
370
     0
390
7DA9F
  0
LAYER
  5
29
330
7DAAE
100
AcDbSymbolTableRecord
100
AcDbLayerTableRecord
  2
Level 35
 70
     0
 62
     7
  6
Continuous
370
     0
390
7DA9F
  0
LAYER
  5
2A
330
7DAAE
100
AcDbSymbolTableRecord
100
AcDbLayerTableRecord
  2
Level 36
 70
     0
 62
     7
  6
Continuous
370
     0
390
7DA9F
  0
LAYER
  5
2B
330
7DAAE
100
AcDbSymbolTableRecord
100
AcDbLayerTableRecord
  2
Level 37
 70
     0
 62
     7
  6
Continuous
370
     0
390
7DA9F
  0
LAYER
  5
2C
330
7DAAE
100
AcDbSymbolTableRecord
100
AcDbLayerTableRecord
  2
Level 38
 70
     0
 62
     7
  6
Continuous
370
     0
390
7DA9F
  0
LAYER
  5
2D
330
7DAAE
100
AcDbSymbolTableRecord
100
AcDbLayerTableRecord
  2
Level 39
 70
     0
 62
     7
  6
Continuous
370
     0
390
7DA9F
  0
LAYER
  5
2E
330
7DAAE
100
AcDbSymbolTableRecord
100
AcDbLayerTableRecord
  2
Level 40
 70
     0
 62
     7
  6
Continuous
370
     0
390
7DA9F
  0
LAYER
  5
2F
330
7DAAE
100
AcDbSymbolTableRecord
100
AcDbLayerTableRecord
  2
Level 41
 70
     0
 62
     7
  6
Continuous
370
     0
390
7DA9F
  0
LAYER
  5
30
330
7DAAE
100
AcDbSymbolTableRecord
100
AcDbLayerTableRecord
  2
Level 42
 70
     0
 62
     7
  6
Continuous
370
     0
390
7DA9F
  0
LAYER
  5
31
330
7DAAE
100
AcDbSymbolTableRecord
100
AcDbLayerTableRecord
  2
Level 43
 70
     0
 62
     7
  6
Continuous
370
     0
390
7DA9F
  0
LAYER
  5
32
330
7DAAE
100
AcDbSymbolTableRecord
100
AcDbLayerTableRecord
  2
Level 44
 70
     0
 62
     7
  6
Continuous
370
     0
390
7DA9F
  0
LAYER
  5
33
330
7DAAE
100
AcDbSymbolTableRecord
100
AcDbLayerTableRecord
  2
Level 45
 70
     0
 62
     7
  6
Continuous
370
     0
390
7DA9F
  0
LAYER
  5
34
330
7DAAE
100
AcDbSymbolTableRecord
100
AcDbLayerTableRecord
  2
Level 46
 70
     0
 62
     7
  6
Continuous
370
     0
390
7DA9F
  0
LAYER
  5
35
330
7DAAE
100
AcDbSymbolTableRecord
100
AcDbLayerTableRecord
  2
Level 47
 70
     0
 62
     7
  6
Continuous
370
     0
390
7DA9F
  0
LAYER
  5
36
330
7DAAE
100
AcDbSymbolTableRecord
100
AcDbLayerTableRecord
  2
Level 48
 70
     0
 62
     7
  6
Continuous
370
     0
390
7DA9F
  0
LAYER
  5
37
330
7DAAE
100
AcDbSymbolTableRecord
100
AcDbLayerTableRecord
  2
Level 49
 70
     0
 62
     7
  6
Continuous
370
     0
390
7DA9F
  0
LAYER
  5
38
330
7DAAE
100
AcDbSymbolTableRecord
100
AcDbLayerTableRecord
  2
Level 50
 70
     0
 62
     7
  6
Continuous
370
     0
390
7DA9F
  0
LAYER
  5
39
330
7DAAE
100
AcDbSymbolTableRecord
100
AcDbLayerTableRecord
  2
Level 51
 70
     0
 62
     7
  6
Continuous
370
     0
390
7DA9F
  0
LAYER
  5
3A
330
7DAAE
100
AcDbSymbolTableRecord
100
AcDbLayerTableRecord
  2
Level 52
 70
     0
 62
     7
  6
Continuous
370
     0
390
7DA9F
  0
LAYER
  5
3B
330
7DAAE
100
AcDbSymbolTableRecord
100
AcDbLayerTableRecord
  2
Level 53
 70
     0
 62
     7
  6
Continuous
370
     0
390
7DA9F
  0
LAYER
  5
3C
330
7DAAE
100
AcDbSymbolTableRecord
100
AcDbLayerTableRecord
  2
Level 54
 70
     0
 62
     7
  6
Continuous
370
     0
390
7DA9F
  0
LAYER
  5
3D
330
7DAAE
100
AcDbSymbolTableRecord
100
AcDbLayerTableRecord
  2
Level 55
 70
     0
 62
     7
  6
Continuous
370
     0
390
7DA9F
  0
LAYER
  5
3E
330
7DAAE
100
AcDbSymbolTableRecord
100
AcDbLayerTableRecord
  2
Level 56
 70
     0
 62
     7
  6
Continuous
370
     0
390
7DA9F
  0
LAYER
  5
3F
330
7DAAE
100
AcDbSymbolTableRecord
100
AcDbLayerTableRecord
  2
Level 57
 70
     0
 62
     7
  6
Continuous
370
     0
390
7DA9F
  0
LAYER
  5
40
330
7DAAE
100
AcDbSymbolTableRecord
100
AcDbLayerTableRecord
  2
Level 58
 70
     0
 62
     7
  6
Continuous
370
     0
390
7DA9F
  0
LAYER
  5
41
330
7DAAE
100
AcDbSymbolTableRecord
100
AcDbLayerTableRecord
  2
Level 59
 70
     0
 62
     7
  6
Continuous
370
     0
390
7DA9F
  0
LAYER
  5
42
330
7DAAE
100
AcDbSymbolTableRecord
100
AcDbLayerTableRecord
  2
Level 60
 70
     0
 62
     7
  6
Continuous
370
     0
390
7DA9F
  0
LAYER
  5
43
330
7DAAE
100
AcDbSymbolTableRecord
100
AcDbLayerTableRecord
  2
Level 61
 70
     0
 62
     7
  6
Continuous
370
     0
390
7DA9F
  0
LAYER
  5
44
330
7DAAE
100
AcDbSymbolTableRecord
100
AcDbLayerTableRecord
  2
Level 62
 70
     0
 62
     7
  6
Continuous
370
     0
390
7DA9F
  0
LAYER
  5
45
330
7DAAE
100
AcDbSymbolTableRecord
100
AcDbLayerTableRecord
  2
Level 63
 70
     0
 62
     7
  6
Continuous
370
     0
390
7DA9F
  0
LAYER
  5
50CA0
330
7DAAE
100
AcDbSymbolTableRecord
100
AcDbLayerTableRecord
  2
25
 70
     0
 62
     7
  6
Continuous
370
     0
390
7DA9F
  0
ENDTAB
  0
TABLE
  2
STYLE
  5
7DAAF
330
0
100
AcDbSymbolTable
 70
     2
  0
STYLE
  5
7DAA1
330
7DAAF
100
AcDbSymbolTableRecord
100
AcDbTextStyleTableRecord
  2
Standard
 70
     0
 40
0.0
 41
1.0
 50
0.0
 71
     0
 42
100.0
  3
txt
  4

  0
STYLE
  5
7DAC5
330
7DAAF
100
AcDbSymbolTableRecord
100
AcDbTextStyleTableRecord
  2
Style-ENGINEERING
 70
     0
 40
0.0
 41
1.0
 50
0.0
 71
     0
 42
0.2
  3
ENGINEERING.shx
  4

  0
ENDTAB
  0
TABLE
  2
VIEW
  5
7DAB2
330
0
100
AcDbSymbolTable
 70
     0
  0
ENDTAB
  0
TABLE
  2
UCS
  5
7DAB3
330
0
100
AcDbSymbolTable
 70
     0
  0
ENDTAB
  0
TABLE
  2
APPID
  5
7DAB5
330
0
100
AcDbSymbolTable
 70
     1
  0
APPID
  5
7DABD
330
7DAB5
100
AcDbSymbolTableRecord
100
AcDbRegAppTableRecord
  2
ACAD
 70
     0
  0
ENDTAB
  0
TABLE
  2
DIMSTYLE
  5
7DAB6
330
0
100
AcDbSymbolTable
 70
     1
100
AcDbDimStyleTable
  0
DIMSTYLE
105
7DAA3
330
7DAB6
100
AcDbSymbolTableRecord
100
AcDbDimStyleTableRecord
  2
Standard
 70
     0
340
7DAA1
  0
ENDTAB
  0
TABLE
  2
BLOCK_RECORD
  5
7DAA5
330
0
100
AcDbSymbolTable
 70
    54
  0
BLOCK_RECORD
  5
7DAA6
330
7DAA5
100
AcDbSymbolTableRecord
100
AcDbBlockTableRecord
  2
*Model_Space
340
7DAA9
  0
BLOCK_RECORD
  5
7DAAA
330
7DAA5
100
AcDbSymbolTableRecord
100
AcDbBlockTableRecord
  2
*Paper_Space
340
7DAAD
  0
BLOCK_RECORD
  5
7DA8F
330
7DAA5
100
AcDbSymbolTableRecord
100
AcDbBlockTableRecord
  2
*U0
340
0
  0
BLOCK_RECORD
  5
7DA95
330
7DAA5
100
AcDbSymbolTableRecord
100
AcDbBlockTableRecord
  2
*U1
340
0
  0
BLOCK_RECORD
  5
7DAC6
330
7DAA5
100
AcDbSymbolTableRecord
100
AcDbBlockTableRecord
  2
TerminatorOpen_0.5
340
0
  0
BLOCK_RECORD
  5
7DACD
330
7DAA5
100
AcDbSymbolTableRecord
100
AcDbBlockTableRecord
  2
FS38
340
0
102
{BLKREFS
331
7D955
102
}
  0
BLOCK_RECORD
  5
7DAD0
330
7DAA5
100
AcDbSymbolTableRecord
100
AcDbBlockTableRecord
  2
Feature Solid
340
0
102
{BLKREFS
331
7D963
102
}
  0
BLOCK_RECORD
  5
7DAD3
330
7DAA5
100
AcDbSymbolTableRecord
100
AcDbBlockTableRecord
  2
UNITE
340
0
102
{BLKREFS
331
7D964
102
}
  0
BLOCK_RECORD
  5
7DAD6
330
7DAA5
100
AcDbSymbolTableRecord
100
AcDbBlockTableRecord
  2
Feature Solid_1
340
0
102
{BLKREFS
331
7D965
102
}
  0
BLOCK_RECORD
  5
7DAD9
330
7DAA5
100
AcDbSymbolTableRecord
100
AcDbBlockTableRecord
  2
DDPROJ
340
0
102
{BLKREFS
331
7D966
102
}
  0
BLOCK_RECORD
  5
7DADC
330
7DAA5
100
AcDbSymbolTableRecord
100
AcDbBlockTableRecord
  2
Feature Solid_2
340
0
102
{BLKREFS
331
7D96C
102
}
  0
BLOCK_RECORD
  5
7DADF
330
7DAA5
100
AcDbSymbolTableRecord
100
AcDbBlockTableRecord
  2
DDPROJ_1
340
0
102
{BLKREFS
331
7D96D
102
}
  0
BLOCK_RECORD
  5
7DAE2
330
7DAA5
100
AcDbSymbolTableRecord
100
AcDbBlockTableRecord
  2
Feature Solid_3
340
0
102
{BLKREFS
331
7D973
102
}
  0
BLOCK_RECORD
  5
7DAE5
330
7DAA5
100
AcDbSymbolTableRecord
100
AcDbBlockTableRecord
  2
UNITE_1
340
0
102
{BLKREFS
331
7D974
102
}
  0
BLOCK_RECORD
  5
7DAE8
330
7DAA5
100
AcDbSymbolTableRecord
100
AcDbBlockTableRecord
  2
Feature Solid_4
340
0
102
{BLKREFS
331
7D975
102
}
  0
BLOCK_RECORD
  5
7DAEB
330
7DAA5
100
AcDbSymbolTableRecord
100
AcDbBlockTableRecord
  2
CONE
340
0
102
{BLKREFS
331
7D976
102
}
  0
BLOCK_RECORD
  5
7DAEE
330
7DAA5
100
AcDbSymbolTableRecord
100
AcDbBlockTableRecord
  2
Feature Solid_5
340
0
102
{BLKREFS
331
7D98B
102
}
  0
BLOCK_RECORD
  5
7DAF1
330
7DAA5
100
AcDbSymbolTableRecord
100
AcDbBlockTableRecord
  2
DDPROJ_2
340
0
102
{BLKREFS
331
7D98C
102
}
  0
BLOCK_RECORD
  5
7DAF4
330
7DAA5
100
AcDbSymbolTableRecord
100
AcDbBlockTableRecord
  2
From Solid
340
0
102
{BLKREFS
331
7DA9B
102
}
  0
BLOCK_RECORD
  5
7DAF7
330
7DAA5
100
AcDbSymbolTableRecord
100
AcDbBlockTableRecord
  2
Feature Solid_6
340
0
102
{BLKREFS
331
7D9AE
102
}
  0
BLOCK_RECORD
  5
7DAFA
330
7DAA5
100
AcDbSymbolTableRecord
100
AcDbBlockTableRecord
  2
UNITE_2
340
0
102
{BLKREFS
331
7D9AF
102
}
  0
BLOCK_RECORD
  5
7DAFD
330
7DAA5
100
AcDbSymbolTableRecord
100
AcDbBlockTableRecord
  2
Feature Solid_7
340
0
102
{BLKREFS
331
7D9B0
102
}
  0
BLOCK_RECORD
  5
7DB00
330
7DAA5
100
AcDbSymbolTableRecord
100
AcDbBlockTableRecord
  2
DDPROJ_3
340
0
102
{BLKREFS
331
7D9B1
102
}
  0
BLOCK_RECORD
  5
7DB03
330
7DAA5
100
AcDbSymbolTableRecord
100
AcDbBlockTableRecord
  2
Feature Solid_8
340
0
102
{BLKREFS
331
7D9B7
102
}
  0
BLOCK_RECORD
  5
7DB06
330
7DAA5
100
AcDbSymbolTableRecord
100
AcDbBlockTableRecord
  2
DDPROJ_4
340
0
102
{BLKREFS
331
7D9B8
102
}
  0
BLOCK_RECORD
  5
7DB09
330
7DAA5
100
AcDbSymbolTableRecord
100
AcDbBlockTableRecord
  2
Feature Solid_9
340
0
102
{BLKREFS
331
7D9BE
102
}
  0
BLOCK_RECORD
  5
7DB0C
330
7DAA5
100
AcDbSymbolTableRecord
100
AcDbBlockTableRecord
  2
UNITE_3
340
0
102
{BLKREFS
331
7D9BF
102
}
  0
BLOCK_RECORD
  5
7DB0F
330
7DAA5
100
AcDbSymbolTableRecord
100
AcDbBlockTableRecord
  2
Feature Solid_10
340
0
102
{BLKREFS
331
7D9C0
102
}
  0
BLOCK_RECORD
  5
7DB12
330
7DAA5
100
AcDbSymbolTableRecord
100
AcDbBlockTableRecord
  2
CONE_1
340
0
102
{BLKREFS
331
7D9C1
102
}
  0
BLOCK_RECORD
  5
7DB15
330
7DAA5
100
AcDbSymbolTableRecord
100
AcDbBlockTableRecord
  2
Feature Solid_11
340
0
102
{BLKREFS
331
7D9D6
102
}
  0
BLOCK_RECORD
  5
7DB18
330
7DAA5
100
AcDbSymbolTableRecord
100
AcDbBlockTableRecord
  2
DDPROJ_5
340
0
102
{BLKREFS
331
7D9D7
102
}
  0
BLOCK_RECORD
  5
7DB1B
330
7DAA5
100
AcDbSymbolTableRecord
100
AcDbBlockTableRecord
  2
Feature Solid_12
340
0
102
{BLKREFS
331
7D9FF
102
}
  0
BLOCK_RECORD
  5
7DB1E
330
7DAA5
100
AcDbSymbolTableRecord
100
AcDbBlockTableRecord
  2
UNITE_4
340
0
102
{BLKREFS
331
7DA00
102
}
  0
BLOCK_RECORD
  5
7DB21
330
7DAA5
100
AcDbSymbolTableRecord
100
AcDbBlockTableRecord
  2
Feature Solid_13
340
0
102
{BLKREFS
331
7DA01
102
}
  0
BLOCK_RECORD
  5
7DB24
330
7DAA5
100
AcDbSymbolTableRecord
100
AcDbBlockTableRecord
  2
DDPROJ_6
340
0
102
{BLKREFS
331
7DA02
102
}
  0
BLOCK_RECORD
  5
7DB27
330
7DAA5
100
AcDbSymbolTableRecord
100
AcDbBlockTableRecord
  2
Feature Solid_14
340
0
102
{BLKREFS
331
7DA08
102
}
  0
BLOCK_RECORD
  5
7DB2A
330
7DAA5
100
AcDbSymbolTableRecord
100
AcDbBlockTableRecord
  2
DDPROJ_7
340
0
102
{BLKREFS
331
7DA09
102
}
  0
BLOCK_RECORD
  5
7DB2D
330
7DAA5
100
AcDbSymbolTableRecord
100
AcDbBlockTableRecord
  2
Feature Solid_15
340
0
102
{BLKREFS
331
7DA0F
102
}
  0
BLOCK_RECORD
  5
7DB30
330
7DAA5
100
AcDbSymbolTableRecord
100
AcDbBlockTableRecord
  2
UNITE_5
340
0
102
{BLKREFS
331
7DA10
102
}
  0
BLOCK_RECORD
  5
7DB33
330
7DAA5
100
AcDbSymbolTableRecord
100
AcDbBlockTableRecord
  2
Feature Solid_16
340
0
102
{BLKREFS
331
7DA11
102
}
  0
BLOCK_RECORD
  5
7DB36
330
7DAA5
100
AcDbSymbolTableRecord
100
AcDbBlockTableRecord
  2
CONE_2
340
0
102
{BLKREFS
331
7DA12
102
}
  0
BLOCK_RECORD
  5
7DB39
330
7DAA5
100
AcDbSymbolTableRecord
100
AcDbBlockTableRecord
  2
Feature Solid_17
340
0
102
{BLKREFS
331
7DA27
102
}
  0
BLOCK_RECORD
  5
7DB3C
330
7DAA5
100
AcDbSymbolTableRecord
100
AcDbBlockTableRecord
  2
DDPROJ_8
340
0
102
{BLKREFS
331
7DA28
102
}
  0
BLOCK_RECORD
  5
7DB3F
330
7DAA5
100
AcDbSymbolTableRecord
100
AcDbBlockTableRecord
  2
From Solid_1
340
0
102
{BLKREFS
331
7DA9C
102
}
  0
BLOCK_RECORD
  5
7DB42
330
7DAA5
100
AcDbSymbolTableRecord
100
AcDbBlockTableRecord
  2
Feature Solid_18
340
0
102
{BLKREFS
331
7DA4A
102
}
  0
BLOCK_RECORD
  5
7DB45
330
7DAA5
100
AcDbSymbolTableRecord
100
AcDbBlockTableRecord
  2
UNITE_6
340
0
102
{BLKREFS
331
7DA4B
102
}
  0
BLOCK_RECORD
  5
7DB48
330
7DAA5
100
AcDbSymbolTableRecord
100
AcDbBlockTableRecord
  2
Feature Solid_19
340
0
102
{BLKREFS
331
7DA4C
102
}
  0
BLOCK_RECORD
  5
7DB4B
330
7DAA5
100
AcDbSymbolTableRecord
100
AcDbBlockTableRecord
  2
DDPROJ_9
340
0
102
{BLKREFS
331
7DA4D
102
}
  0
BLOCK_RECORD
  5
7DB4E
330
7DAA5
100
AcDbSymbolTableRecord
100
AcDbBlockTableRecord
  2
Feature Solid_20
340
0
102
{BLKREFS
331
7DA53
102
}
  0
BLOCK_RECORD
  5
7DB51
330
7DAA5
100
AcDbSymbolTableRecord
100
AcDbBlockTableRecord
  2
DDPROJ_10
340
0
102
{BLKREFS
331
7DA54
102
}
  0
BLOCK_RECORD
  5
7DB54
330
7DAA5
100
AcDbSymbolTableRecord
100
AcDbBlockTableRecord
  2
Feature Solid_21
340
0
102
{BLKREFS
331
7DA5A
102
}
  0
BLOCK_RECORD
  5
7DB57
330
7DAA5
100
AcDbSymbolTableRecord
100
AcDbBlockTableRecord
  2
UNITE_7
340
0
102
{BLKREFS
331
7DA5B
102
}
  0
BLOCK_RECORD
  5
7DB5A
330
7DAA5
100
AcDbSymbolTableRecord
100
AcDbBlockTableRecord
  2
Feature Solid_22
340
0
102
{BLKREFS
331
7DA5C
102
}
  0
BLOCK_RECORD
  5
7DB5D
330
7DAA5
100
AcDbSymbolTableRecord
100
AcDbBlockTableRecord
  2
CONE_3
340
0
102
{BLKREFS
331
7DA5D
102
}
  0
BLOCK_RECORD
  5
7DB60
330
7DAA5
100
AcDbSymbolTableRecord
100
AcDbBlockTableRecord
  2
Feature Solid_23
340
0
102
{BLKREFS
331
7DA72
102
}
  0
BLOCK_RECORD
  5
7DB63
330
7DAA5
100
AcDbSymbolTableRecord
100
AcDbBlockTableRecord
  2
DDPROJ_11
340
0
102
{BLKREFS
331
7DA73
102
}
  0
ENDTAB
  0
ENDSEC
  0
SECTION
  2
BLOCKS
  0
BLOCK
  5
7DAA7
330
7DAA6
100
AcDbEntity
  8
0
100
AcDbBlockBegin
  2
*Model_Space
 70
     0
 71
     0
 10
0.0
 20
0.0
 30
0.0
  3
*Model_Space
  1

  0
ENDBLK
  5
7DAA8
330
7DAA6
100
AcDbEntity
  8
0
100
AcDbBlockEnd
  0
BLOCK
  5
7DAAB
330
7DAAA
100
AcDbEntity
 67
     1
  8
0
100
AcDbBlockBegin
  2
*Paper_Space
 70
     0
 71
     0
 10
0.0
 20
0.0
 30
0.0
  3
*Paper_Space
  1

  0
ENDBLK
  5
7DAAC
330
7DAAA
100
AcDbEntity
 67
     1
  8
0
100
AcDbBlockEnd
  0
BLOCK
  5
7DAC1
330
7DA8F
100
AcDbEntity
  8
0
100
AcDbBlockBegin
  2
*U0
 70
     1
 71
     0
 10
0.0
 20
0.0
 30
0.0
  3
*U0
  1

  0
LWPOLYLINE
  5
7DA90
330
7DA8F
100
AcDbEntity
  8
0
100
AcDbPolyline
 90
        4
 70
   129
 43
0.0
 10
0.82
 20
0.0
 42
0.853659
 10
0.0
 20
0.0
 10
0.0
 20
-0.07
 10
0.82
 20
-0.07
  0
ENDBLK
  5
7DAC2
330
7DA8F
100
AcDbEntity
  8
0
100
AcDbBlockEnd
  0
BLOCK
  5
7DAC3
330
7DA95
100
AcDbEntity
  8
0
100
AcDbBlockBegin
  2
*U1
 70
     1
 71
     0
 10
0.0
 20
0.0
 30
0.0
  3
*U1
  1

  0
LWPOLYLINE
  5
7DA96
330
7DA95
100
AcDbEntity
  8
0
100
AcDbPolyline
 90
        4
 70
   129
 43
0.0
 10
0.325
 20
0.325
 42
1.0
 10
0.325
 20
-0.325
 10
1.145
 20
-0.325
 42
1.0
 10
1.145
 20
0.325
  0
ENDBLK
  5
7DAC4
330
7DA95
100
AcDbEntity
  8
0
100
AcDbBlockEnd
  0
BLOCK
  5
7DACA
330
7DAC6
100
AcDbEntity
  8
0
100
AcDbBlockBegin
  2
TerminatorOpen_0.5
 70
     0
 71
     0
 10
0.0
 20
0.0
 30
0.0
  3
TerminatorOpen_0.5
  1

  0
LINE
  5
7DAC7
330
7DAC6
100
AcDbEntity
  8
0
  6
ByBlock
 62
     0
370
    -2
100
AcDbLine
 10
0.0
 20
0.0
 30
0.0
 11
-1.0
 21
0.0
 31
0.0
  0
LINE
  5
7DAC8
330
7DAC6
100
AcDbEntity
  8
0
  6
ByBlock
 62
     0
370
    -2
100
AcDbLine
 10
0.0
 20
0.0
 30
0.0
 11
-1.0
 21
0.25
 31
0.0
  0
LINE
  5
7DAC9
330
7DAC6
100
AcDbEntity
  8
0
  6
ByBlock
 62
     0
370
    -2
100
AcDbLine
 10
0.0
 20
0.0
 30
0.0
 11
-1.0
 21
-0.25
 31
0.0
  0
ENDBLK
  5
7DACB
330
7DAC6
100
AcDbEntity
  8
0
100
AcDbBlockEnd
  0
BLOCK
  5
7DACE
330
7DACD
100
AcDbEntity
  8
0
100
AcDbBlockBegin
  2
FS38
 70
     0
 71
     0
 10
0.0
 20
0.0
 30
0.0
  3
FS38
  1

  0
LWPOLYLINE
  5
7D956
330
7DACD
100
AcDbEntity
  8
Level 25
  6
Continuous
 62
   174
370
    13
100
AcDbPolyline
 90
        4
 70
   129
 43
0.0
 10
-600.0
 20
-37.5
 10
-600.0
 20
37.5
 10
-600.0
 20
37.5
 10
-600.0
 20
-37.5
  0
LWPOLYLINE
  5
7D957
330
7DACD
100
AcDbEntity
  8
Level 25
  6
Continuous
 62
   174
370
    13
100
AcDbPolyline
 90
        4
 70
   129
 43
0.0
 10
-675.0
 20
-37.5
 10
-600.0
 20
-37.5
 10
-600.0
 20
-37.5
 10
-675.0
 20
-37.5
  0
LWPOLYLINE
  5
7D958
330
7DACD
100
AcDbEntity
  8
Level 25
  6
Continuous
 62
   174
370
    13
100
AcDbPolyline
 90
        4
 70
   129
 43
0.0
 10
-600.0
 20
37.5
 10
-675.0
 20
37.5
 10
-675.0
 20
37.5
 10
-600.0
 20
37.5
  0
LWPOLYLINE
  5
7D959
330
7DACD
100
AcDbEntity
  8
Level 25
  6
Continuous
 62
   174
370
    13
100
AcDbPolyline
 90
        4
 70
   129
 43
0.0
 10
-675.0
 20
37.5
 10
-675.0
 20
-37.5
 10
-675.0
 20
-37.5
 10
-675.0
 20
37.5
  0
LWPOLYLINE
  5
7D95A
330
7DACD
100
AcDbEntity
  8
Level 26
  6
Continuous
 62
   163
370
    13
100
AcDbPolyline
 90
        4
 70
   129
 43
0.0
 10
-600.0
 20
37.5
 10
-675.0
 20
37.5
 10
-675.0
 20
37.5
 10
-600.0
 20
37.5
  0
LWPOLYLINE
  5
7D95B
330
7DACD
100
AcDbEntity
  8
Level 26
  6
Continuous
 62
   163
370
    13
100
AcDbPolyline
 90
        4
 70
   129
 43
0.0
 10
-600.0
 20
-37.5
 10
-600.0
 20
37.5
 10
-600.0
 20
37.5
 10
-600.0
 20
-37.5
  0
LWPOLYLINE
  5
7D95C
330
7DACD
100
AcDbEntity
  8
Level 26
  6
Continuous
 62
   163
370
    13
100
AcDbPolyline
 90
        4
 70
   129
 43
0.0
 10
-675.0
 20
-37.5
 10
-600.0
 20
-37.5
 10
-600.0
 20
-37.5
 10
-675.0
 20
-37.5
  0
LWPOLYLINE
  5
7D95D
330
7DACD
100
AcDbEntity
  8
Level 26
  6
Continuous
 62
   163
370
    13
100
AcDbPolyline
 90
        4
 70
   129
 43
0.0
 10
-675.0
 20
37.5
 10
-675.0
 20
-37.5
 10
-675.0
 20
-37.5
 10
-675.0
 20
37.5
  0
LWPOLYLINE
  5
7D95E
330
7DACD
100
AcDbEntity
  8
Level 26
  6
Continuous
 62
   163
370
    13
100
AcDbPolyline
 90
        4
 70
   129
 43
0.0
 10
-600.0
 20
37.5
 10
-675.0
 20
37.5
 10
-675.0
 20
-37.5
 10
-600.0
 20
-37.5
  0
INSERT
  5
7D963
330
7DACD
100
AcDbEntity
  8
Level 26
 62
   133
370
     0
100
AcDbBlockReference
  2
Feature Solid
 10
579.0005
 20
0.0
 30
0.0
  0
INSERT
  5
7DA9B
330
7DACD
100
AcDbEntity
  8
Level 27
  6
Continuous
 62
    40
370
     0
100
AcDbBlockReference
  2
From Solid
 10
-4045.025751
 20
-1811.707727
 30
0.0
  0
INSERT
  5
7D9AE
330
7DACD
100
AcDbEntity
  8
Level 26
 62
   133
370
     0
100
AcDbBlockReference
  2
Feature Solid_6
 10
-579.0005
 20
0.0
 30
0.0
  0
LWPOLYLINE
  5
7D9F2
330
7DACD
100
AcDbEntity
  8
Level 25
  6
Continuous
 62
   174
370
    13
100
AcDbPolyline
 90
        4
 70
   129
 43
0.0
 10
675.0
 20
-37.5
 10
675.0
 20
37.5
 10
675.0
 20
37.5
 10
675.0
 20
-37.5
  0
LWPOLYLINE
  5
7D9F3
330
7DACD
100
AcDbEntity
  8
Level 25
  6
Continuous
 62
   174
370
    13
100
AcDbPolyline
 90
        4
 70
   129
 43
0.0
 10
600.0
 20
-37.5
 10
675.0
 20
-37.5
 10
675.0
 20
-37.5
 10
600.0
 20
-37.5
  0
LWPOLYLINE
  5
7D9F4
330
7DACD
100
AcDbEntity
  8
Level 25
  6
Continuous
 62
   174
370
    13
100
AcDbPolyline
 90
        4
 70
   129
 43
0.0
 10
675.0
 20
37.5
 10
600.0
 20
37.5
 10
600.0
 20
37.5
 10
675.0
 20
37.5
  0
LWPOLYLINE
  5
7D9F5
330
7DACD
100
AcDbEntity
  8
Level 25
  6
Continuous
 62
   174
370
    13
100
AcDbPolyline
 90
        4
 70
   129
 43
0.0
 10
600.0
 20
37.5
 10
600.0
 20
-37.5
 10
600.0
 20
-37.5
 10
600.0
 20
37.5
  0
LWPOLYLINE
  5
7D9F6
330
7DACD
100
AcDbEntity
  8
Level 26
  6
Continuous
 62
   163
370
    13
100
AcDbPolyline
 90
        4
 70
   129
 43
0.0
 10
675.0
 20
37.5
 10
600.0
 20
37.5
 10
600.0
 20
37.5
 10
675.0
 20
37.5
  0
LWPOLYLINE
  5
7D9F7
330
7DACD
100
AcDbEntity
  8
Level 26
  6
Continuous
 62
   163
370
    13
100
AcDbPolyline
 90
        4
 70
   129
 43
0.0
 10
675.0
 20
-37.5
 10
675.0
 20
37.5
 10
675.0
 20
37.5
 10
675.0
 20
-37.5
  0
LWPOLYLINE
  5
7D9F8
330
7DACD
100
AcDbEntity
  8
Level 26
  6
Continuous
 62
   163
370
    13
100
AcDbPolyline
 90
        4
 70
   129
 43
0.0
 10
600.0
 20
-37.5
 10
675.0
 20
-37.5
 10
675.0
 20
-37.5
 10
600.0
 20
-37.5
  0
LWPOLYLINE
  5
7D9F9
330
7DACD
100
AcDbEntity
  8
Level 26
  6
Continuous
 62
   163
370
    13
100
AcDbPolyline
 90
        4
 70
   129
 43
0.0
 10
600.0
 20
37.5
 10
600.0
 20
-37.5
 10
600.0
 20
-37.5
 10
600.0
 20
37.5
  0
LWPOLYLINE
  5
7D9FA
330
7DACD
100
AcDbEntity
  8
Level 26
  6
Continuous
 62
   163
370
    13
100
AcDbPolyline
 90
        4
 70
   129
 43
0.0
 10
675.0
 20
37.5
 10
600.0
 20
37.5
 10
600.0
 20
-37.5
 10
675.0
 20
-37.5
  0
INSERT
  5
7D9FF
330
7DACD
100
AcDbEntity
  8
Level 26
 62
   133
370
     0
100
AcDbBlockReference
  2
Feature Solid_12
 10
579.0005
 20
0.0
 30
0.0
  0
INSERT
  5
7DA9C
330
7DACD
100
AcDbEntity
  8
Level 27
  6
Continuous
 62
    40
370
     0
100
AcDbBlockReference
  2
From Solid_1
 10
-4045.025751
 20
-1811.707727
 30
0.0
  0
INSERT
  5
7DA4A
330
7DACD
100
AcDbEntity
  8
Level 26
 62
   133
370
     0
100
AcDbBlockReference
  2
Feature Solid_18
 10
-579.0005
 20
0.0
 30
0.0
  0
ENDBLK
  5
7DACF
330
7DACD
100
AcDbEntity
  8
0
100
AcDbBlockEnd
  0
BLOCK
  5
7DAD1
330
7DAD0
100
AcDbEntity
  8
0
100
AcDbBlockBegin
  2
Feature Solid
 70
     0
 71
     0
 10
0.0
 20
0.0
 30
0.0
  3
Feature Solid
  1

  0
INSERT
  5
7D964
330
7DAD0
100
AcDbEntity
  8
Level 26
 62
   133
370
     0
100
AcDbBlockReference
  2
UNITE
 10
22.17087
 20
215.851704
 30
0.0
 41
100.0
 42
100.0
 43
100.0
  0
ENDBLK
  5
7DAD2
330
7DAD0
100
AcDbEntity
  8
0
100
AcDbBlockEnd
  0
BLOCK
  5
7DAD4
330
7DAD3
100
AcDbEntity
  8
0
100
AcDbBlockBegin
  2
UNITE
 70
     0
 71
     0
 10
0.0
 20
0.0
 30
0.0
  3
UNITE
  1

  0
INSERT
  5
7D965
330
7DAD3
100
AcDbEntity
  8
Level 26
 62
   133
370
     0
100
AcDbBlockReference
  2
Feature Solid_1
 10
0.0
 20
0.0
 30
0.0
  0
INSERT
  5
7D96C
330
7DAD3
100
AcDbEntity
  8
Level 26
 62
   133
370
     0
100
AcDbBlockReference
  2
Feature Solid_2
 10
0.0
 20
-0.55
 30
0.0
  0
INSERT
  5
7D973
330
7DAD3
100
AcDbEntity
  8
Level 8
 62
   133
370
     0
100
AcDbBlockReference
  2
Feature Solid_3
 10
0.0
 20
0.0
 30
0.0
  0
ENDBLK
  5
7DAD5
330
7DAD3
100
AcDbEntity
  8
0
100
AcDbBlockEnd
  0
BLOCK
  5
7DAD7
330
7DAD6
100
AcDbEntity
  8
0
100
AcDbBlockBegin
  2
Feature Solid_1
 70
     0
 71
     0
 10
0.0
 20
0.0
 30
0.0
  3
Feature Solid_1
  1

  0
INSERT
  5
7D966
330
7DAD6
100
AcDbEntity
  8
Level 26
 62
   133
370
     0
100
AcDbBlockReference
  2
DDPROJ
 10
0.0
 20
0.0
 30
0.0
  0
ENDBLK
  5
7DAD8
330
7DAD6
100
AcDbEntity
  8
0
100
AcDbBlockEnd
  0
BLOCK
  5
7DADA
330
7DAD9
100
AcDbEntity
  8
0
100
AcDbBlockBegin
  2
DDPROJ
 70
     0
 71
     0
 10
0.0
 20
0.0
 30
0.0
  3
DDPROJ
  1

  0
POINT
  5
7D967
330
7DAD9
100
AcDbEntity
  8
Level 26
 62
   133
370
     0
100
AcDbPoint
 10
-0.011714
 20
-1.833517
 30
0.0
  0
LINE
  5
7D968
330
7DAD9
100
AcDbEntity
  8
Level 26
 62
   133
370
     0
100
AcDbLine
 10
-0.131714
 20
-1.933517
 30
0.0
 11
-0.359125
 21
-1.933517
 31
0.0
  0
LINE
  5
7D969
330
7DAD9
100
AcDbEntity
  8
Level 26
 62
   133
370
     0
100
AcDbLine
 10
-0.131714
 20
-1.833517
 30
0.0
 11
-0.431714
 21
-1.833517
 31
0.0
  0
LINE
  5
7D96A
330
7DAD9
100
AcDbEntity
  8
Level 26
 62
   133
370
     0
100
AcDbLine
 10
-0.131714
 20
-1.833517
 30
0.0
 11
-0.431714
 21
-1.833517
 31
0.0
  0
LINE
  5
7D96B
330
7DAD9
100
AcDbEntity
  8
Level 26
 62
   133
370
     0
100
AcDbLine
 10
-0.131714
 20
-1.933517
 30
0.0
 11
-0.359125
 21
-1.933517
 31
0.0
  0
ENDBLK
  5
7DADB
330
7DAD9
100
AcDbEntity
  8
0
100
AcDbBlockEnd
  0
BLOCK
  5
7DADD
330
7DADC
100
AcDbEntity
  8
0
100
AcDbBlockBegin
  2
Feature Solid_2
 70
     0
 71
     0
 10
0.0
 20
0.0
 30
0.0
  3
Feature Solid_2
  1

  0
INSERT
  5
7D96D
330
7DADC
100
AcDbEntity
  8
Level 26
 62
   133
370
     0
100
AcDbBlockReference
  2
DDPROJ_1
 10
0.0
 20
0.0
 30
0.0
  0
ENDBLK
  5
7DADE
330
7DADC
100
AcDbEntity
  8
0
100
AcDbBlockEnd
  0
BLOCK
  5
7DAE0
330
7DADF
100
AcDbEntity
  8
0
100
AcDbBlockBegin
  2
DDPROJ_1
 70
     0
 71
     0
 10
0.0
 20
0.0
 30
0.0
  3
DDPROJ_1
  1

  0
POINT
  5
7D96E
330
7DADF
100
AcDbEntity
  8
Level 26
 62
   133
370
     0
100
AcDbPoint
 10
-0.011714
 20
-1.933517
 30
0.0
  0
LINE
  5
7D96F
330
7DADF
100
AcDbEntity
  8
Level 26
 62
   133
370
     0
100
AcDbLine
 10
-0.131714
 20
-1.933517
 30
0.0
 11
-0.431714
 21
-1.933517
 31
0.0
  0
LINE
  5
7D970
330
7DADF
100
AcDbEntity
  8
Level 26
 62
   133
370
     0
100
AcDbLine
 10
-0.131714
 20
-1.833517
 30
0.0
 11
-0.359125
 21
-1.833517
 31
0.0
  0
LINE
  5
7D971
330
7DADF
100
AcDbEntity
  8
Level 26
 62
   133
370
     0
100
AcDbLine
 10
-0.131714
 20
-1.833517
 30
0.0
 11
-0.359125
 21
-1.833517
 31
0.0
  0
LINE
  5
7D972
330
7DADF
100
AcDbEntity
  8
Level 26
 62
   133
370
     0
100
AcDbLine
 10
-0.131714
 20
-1.933517
 30
0.0
 11
-0.431714
 21
-1.933517
 31
0.0
  0
ENDBLK
  5
7DAE1
330
7DADF
100
AcDbEntity
  8
0
100
AcDbBlockEnd
  0
BLOCK
  5
7DAE3
330
7DAE2
100
AcDbEntity
  8
0
100
AcDbBlockBegin
  2
Feature Solid_3
 70
     0
 71
     0
 10
0.0
 20
0.0
 30
0.0
  3
Feature Solid_3
  1

  0
INSERT
  5
7D974
330
7DAE2
100
AcDbEntity
  8
Level 8
 62
   133
370
     0
100
AcDbBlockReference
  2
UNITE_1
 10
0.0
 20
0.0
 30
0.0
  0
ENDBLK
  5
7DAE4
330
7DAE2
100
AcDbEntity
  8
0
100
AcDbBlockEnd
  0
BLOCK
  5
7DAE6
330
7DAE5
100
AcDbEntity
  8
0
100
AcDbBlockBegin
  2
UNITE_1
 70
     0
 71
     0
 10
0.0
 20
0.0
 30
0.0
  3
UNITE_1
  1

  0
INSERT
  5
7D975
330
7DAE5
100
AcDbEntity
  8
Level 8
 62
   133
370
     0
100
AcDbBlockReference
  2
Feature Solid_4
 10
0.0
 20
0.0
 30
0.0
  0
INSERT
  5
7D98B
330
7DAE5
100
AcDbEntity
  8
Level 26
 62
   133
370
     0
100
AcDbBlockReference
  2
Feature Solid_5
 10
0.0
 20
0.0
 30
0.0
  0
ENDBLK
  5
7DAE7
330
7DAE5
100
AcDbEntity
  8
0
100
AcDbBlockEnd
  0
BLOCK
  5
7DAE9
330
7DAE8
100
AcDbEntity
  8
0
100
AcDbBlockBegin
  2
Feature Solid_4
 70
     0
 71
     0
 10
0.0
 20
0.0
 30
0.0
  3
Feature Solid_4
  1

  0
INSERT
  5
7D976
330
7DAE8
100
AcDbEntity
  8
Level 8
 62
   133
370
     0
100
AcDbBlockReference
  2
CONE
 10
0.0
 20
0.0
 30
0.0
  0
ENDBLK
  5
7DAEA
330
7DAE8
100
AcDbEntity
  8
0
100
AcDbBlockEnd
  0
BLOCK
  5
7DAEC
330
7DAEB
100
AcDbEntity
  8
0
100
AcDbBlockBegin
  2
CONE
 70
     0
 71
     0
 10
0.0
 20
0.0
 30
0.0
  3
CONE
  1

  0
LINE
  5
7D977
330
7DAEB
100
AcDbEntity
  8
Level 8
 62
   133
370
     0
100
AcDbLine
 10
-0.431714
 20
-1.833517
 30
0.0
 11
-0.431714
 21
-2.483517
 31
0.0
  0
LINE
  5
7D978
330
7DAEB
100
AcDbEntity
  8
Level 8
 62
   133
370
     0
100
AcDbLine
 10
-0.131714
 20
-2.383517
 30
0.0
 11
-0.359125
 21
-2.383517
 31
0.0
  0
LINE
  5
7D979
330
7DAEB
100
AcDbEntity
  8
Level 8
 62
   133
370
     0
100
AcDbLine
 10
-0.131714
 20
-2.383517
 30
0.0
 11
-0.359125
 21
-2.383517
 31
0.0
  0
SPLINE
  5
7D97A
330
7DAEB
100
AcDbEntity
  8
Level 8
 62
   133
370
     0
100
AcDbSpline
210
0.0
220
0.0
230
1.0
 70
     8
 71
     3
 72
    17
 73
    13
 74
     0
 42
0.0000000001
 43
0.00000001
 40
0.0
 40
0.0
 40
0.0
 40
0.0
 40
0.1188920175173181
 40
0.1188920175173181
 40
0.1188920175173181
 40
0.4370642450454728
 40
0.4370642450454728
 40
0.4370642450454728
 40
0.7708126268407274
 40
0.7708126268407274
 40
0.7708126268407274
 40
1.0
 40
1.0
 40
1.0
 40
1.0
 10
-0.4317136962460353
 20
-2.483517035676389
 30
0.0
 10
-0.4317136962460353
 20
-2.483517035676389
 30
0.0
 10
-0.4312857853703775
 20
-2.482970961108954
 30
0.0
 10
-0.4304413967249374
 20
-2.481890266834164
 30
0.0
 10
-0.4281893687172271
 20
-2.479007999541985
 30
0.0
 10
-0.4228496497948342
 20
-2.472181370284073
 30
0.0
 10
-0.4152805637156831
 20
-2.462245290317629
 30
0.0
 10
-0.4073288034245621
 20
-2.451806866801178
 30
0.0
 10
-0.3967863239604625
 20
-2.437764099143895
 30
0.0
 10
-0.3850241073261032
 20
-2.421270187946131
 30
0.0
 10
-0.3768999155639108
 20
-2.409877803190351
 30
0.0
 10
-0.3681165556180162
 20
-2.39720582936004
 30
0.0
 10
-0.3591253483963541
 20
-2.383517035681365
 30
0.0
  0
SPLINE
  5
7D97D
330
7DAEB
100
AcDbEntity
  8
Level 8
 62
   133
370
     0
100
AcDbSpline
210
0.0
220
0.0
230
1.0
 70
     8
 71
     3
 72
    14
 73
    10
 74
     0
 42
0.0000000001
 43
0.00000001
 40
0.0
 40
0.0
 40
0.0
 40
0.0
 40
0.4155111778321488
 40
0.4155111778321488
 40
0.4155111778321488
 40
0.7657511632294429
 40
0.7657511632294429
 40
0.7657511632294429
 40
1.0
 40
1.0
 40
1.0
 40
1.0
 10
-0.3591253483958568
 20
-2.383517035676373
 30
0.0
 10
-0.3753273199526817
 20
-2.408183961970714
 30
0.0
 10
-0.3909352251375111
 20
-2.42972384287685
 30
0.0
 10
-0.4032945372283692
 20
-2.446330563598313
 30
0.0
 10
-0.4137190532494017
 20
-2.460337575068305
 30
0.0
 10
-0.4220439846594033
 20
-2.471094914404414
 30
0.0
 10
-0.426831232121323
 20
-2.477256738635806
 30
0.0
 10
-0.4300308856968087
 20
-2.481375118370782
 30
0.0
 10
-0.4317136962460353
 20
-2.483517035676389
 30
0.0
 10
-0.4317136962460353
 20
-2.483517035676389
 30
0.0
  0
LINE
  5
7D980
330
7DAEB
100
AcDbEntity
  8
Level 8
 62
   133
370
     0
100
AcDbLine
 10
-0.431714
 20
-1.833517
 30
0.0
 11
-0.431714
 21
-2.483517
 31
0.0
  0
SPLINE
  5
7D981
330
7DAEB
100
AcDbEntity
  8
Level 8
 62
   133
370
     0
100
AcDbSpline
210
0.0
220
0.0
230
1.0
 70
     8
 71
     3
 72
    17
 73
    13
 74
     0
 42
0.0000000001
 43
0.00000001
 40
0.0
 40
0.0
 40
0.0
 40
0.0
 40
0.1188920175167992
 40
0.1188920175167992
 40
0.1188920175167992
 40
0.4370642450447248
 40
0.4370642450447248
 40
0.4370642450447248
 40
0.7708126268396294
 40
0.7708126268396294
 40
0.7708126268396294
 40
1.0
 40
1.0
 40
1.0
 40
1.0
 10
-0.4317136962460353
 20
-1.833517035676241
 30
0.0
 10
-0.4317136962460353
 20
-1.833517035676241
 30
0.0
 10
-0.4312857853703775
 20
-1.83406311024368
 30
0.0
 10
-0.4304413967249587
 20
-1.83514380451847
 30
0.0
 10
-0.4281893687172627
 20
-1.838026071810628
 30
0.0
 10
-0.4228496497948768
 20
-1.844852701068522
 30
0.0
 10
-0.41528056371574
 20
-1.854788781034966
 30
0.0
 10
-0.4073288034246332
 20
-1.865227204551417
 30
0.0
 10
-0.3967863239605478
 20
-1.8792699722087
 30
0.0
 10
-0.3850241073262168
 20
-1.895763883406445
 30
0.0
 10
-0.3768999155639818
 20
-1.907156268162282
 30
0.0
 10
-0.3681165556180446
 20
-1.919828241992668
 30
0.0
 10
-0.3591253483963257
 20
-1.933517035671436
 30
0.0
  0
LINE
  5
7D984
330
7DAEB
100
AcDbEntity
  8
Level 8
 62
   133
370
     0
100
AcDbLine
 10
-0.131714
 20
-1.933517
 30
0.0
 11
-0.359125
 21
-1.933517
 31
0.0
  0
LINE
  5
7D985
330
7DAEB
100
AcDbEntity
  8
Level 8
 62
   133
370
     0
100
AcDbLine
 10
-0.131714
 20
-1.933517
 30
0.0
 11
-0.359125
 21
-1.933517
 31
0.0
  0
SPLINE
  5
7D986
330
7DAEB
100
AcDbEntity
  8
Level 8
 62
   133
370
     0
100
AcDbSpline
210
0.0
220
0.0
230
1.0
 70
     8
 71
     3
 72
    14
 73
    10
 74
     0
 42
0.0000000001
 43
0.00000001
 40
0.0
 40
0.0
 40
0.0
 40
0.0
 40
0.4155111778320348
 40
0.4155111778320348
 40
0.4155111778320348
 40
0.7657511632291136
 40
0.7657511632291136
 40
0.7657511632291136
 40
1.0
 40
1.0
 40
1.0
 40
1.0
 10
-0.3591253483956649
 20
-1.93351703567641
 30
0.0
 10
-0.3753273199525111
 20
-1.908850109382065
 30
0.0
 10
-0.3909352251373761
 20
-1.887310228475872
 30
0.0
 10
-0.4032945372282555
 20
-1.870703507754392
 30
0.0
 10
-0.4137190532493094
 20
-1.856696496284382
 30
0.0
 10
-0.4220439846593393
 20
-1.845939156948273
 30
0.0
 10
-0.4268312321212733
 20
-1.839777332716864
 30
0.0
 10
-0.4300308856967803
 20
-1.835658952981866
 30
0.0
 10
-0.4317136962460353
 20
-1.833517035676241
 30
0.0
 10
-0.4317136962460353
 20
-1.833517035676241
 30
0.0
  0
LINE
  5
7D989
330
7DAEB
100
AcDbEntity
  8
Level 8
 62
   133
370
     0
100
AcDbLine
 10
-0.131714
 20
-2.158517
 30
0.0
 11
-0.431714
 21
-2.158517
 31
0.0
  0
LINE
  5
7D98A
330
7DAEB
100
AcDbEntity
  8
Level 8
 62
   133
370
     0
100
AcDbLine
 10
-0.131714
 20
-2.158517
 30
0.0
 11
-0.431714
 21
-2.158517
 31
0.0
  0
ENDBLK
  5
7DAED
330
7DAEB
100
AcDbEntity
  8
0
100
AcDbBlockEnd
  0
BLOCK
  5
7DAEF
330
7DAEE
100
AcDbEntity
  8
0
100
AcDbBlockBegin
  2
Feature Solid_5
 70
     0
 71
     0
 10
0.0
 20
0.0
 30
0.0
  3
Feature Solid_5
  1

  0
INSERT
  5
7D98C
330
7DAEE
100
AcDbEntity
  8
Level 26
 62
   133
370
     0
100
AcDbBlockReference
  2
DDPROJ_2
 10
0.0
 20
0.0
 30
0.0
  0
ENDBLK
  5
7DAF0
330
7DAEE
100
AcDbEntity
  8
0
100
AcDbBlockEnd
  0
BLOCK
  5
7DAF2
330
7DAF1
100
AcDbEntity
  8
0
100
AcDbBlockBegin
  2
DDPROJ_2
 70
     0
 71
     0
 10
0.0
 20
0.0
 30
0.0
  3
DDPROJ_2
  1

  0
LINE
  5
7D98D
330
7DAF1
100
AcDbEntity
  8
Level 26
 62
   133
370
     0
100
AcDbLine
 10
-0.011714
 20
-1.833517
 30
0.0
 11
-0.131714
 21
-1.833517
 31
0.0
  0
LINE
  5
7D98E
330
7DAF1
100
AcDbEntity
  8
Level 26
 62
   133
370
     0
100
AcDbLine
 10
-0.131714
 20
-1.833517
 30
0.0
 11
-0.011714
 21
-1.833517
 31
0.0
  0
LINE
  5
7D98F
330
7DAF1
100
AcDbEntity
  8
Level 26
 62
   133
370
     0
100
AcDbLine
 10
-0.011714
 20
-2.483517
 30
0.0
 11
-0.131714
 21
-2.483517
 31
0.0
  0
LINE
  5
7D990
330
7DAF1
100
AcDbEntity
  8
Level 26
 62
   133
370
     0
100
AcDbLine
 10
-0.131714
 20
-2.483517
 30
0.0
 11
-0.011714
 21
-2.483517
 31
0.0
  0
LINE
  5
7D991
330
7DAF1
100
AcDbEntity
  8
Level 26
 62
   133
370
     0
100
AcDbLine
 10
-0.131714
 20
-1.933517
 30
0.0
 11
-0.131714
 21
-2.383517
 31
0.0
  0
LINE
  5
7D992
330
7DAF1
100
AcDbEntity
  8
Level 26
 62
   133
370
     0
100
AcDbLine
 10
-0.131714
 20
-1.933517
 30
0.0
 11
-0.131714
 21
-2.383517
 31
0.0
  0
LINE
  5
7D993
330
7DAF1
100
AcDbEntity
  8
Level 26
 62
   133
370
     0
100
AcDbLine
 10
-0.011714
 20
-1.833517
 30
0.0
 11
-0.011714
 21
-2.483517
 31
0.0
  0
POINT
  5
7D994
330
7DAF1
100
AcDbEntity
  8
Level 26
 62
   133
370
     0
100
AcDbPoint
 10
-0.131714
 20
-2.483517
 30
0.0
  0
LINE
  5
7D995
330
7DAF1
100
AcDbEntity
  8
Level 26
 62
   133
370
     0
100
AcDbLine
 10
-0.011714
 20
-1.833517
 30
0.0
 11
-0.011714
 21
-2.483517
 31
0.0
  0
LINE
  5
7D996
330
7DAF1
100
AcDbEntity
  8
Level 26
 62
   133
370
     0
100
AcDbLine
 10
-0.131714
 20
-1.833517
 30
0.0
 11
-0.131714
 21
-2.483517
 31
0.0
  0
POINT
  5
7D997
330
7DAF1
100
AcDbEntity
  8
Level 26
 62
   133
370
     0
100
AcDbPoint
 10
-0.131714
 20
-1.833517
 30
0.0
  0
POINT
  5
7D998
330
7DAF1
100
AcDbEntity
  8
Level 26
 62
   133
370
     0
100
AcDbPoint
 10
-0.131714
 20
-2.483517
 30
0.0
  0
LINE
  5
7D999
330
7DAF1
100
AcDbEntity
  8
Level 26
 62
   133
370
     0
100
AcDbLine
 10
-0.131714
 20
-1.833517
 30
0.0
 11
-0.131714
 21
-2.483517
 31
0.0
  0
POINT
  5
7D99A
330
7DAF1
100
AcDbEntity
  8
Level 26
 62
   133
370
     0
100
AcDbPoint
 10
-0.131714
 20
-1.833517
 30
0.0
  0
POINT
  5
7D99B
330
7DAF1
100
AcDbEntity
  8
Level 26
 62
   133
370
     0
100
AcDbPoint
 10
-0.131714
 20
-2.383517
 30
0.0
  0
POINT
  5
7D99C
330
7DAF1
100
AcDbEntity
  8
Level 26
 62
   133
370
     0
100
AcDbPoint
 10
-0.131714
 20
-2.383517
 30
0.0
  0
LINE
  5
7D99D
330
7DAF1
100
AcDbEntity
  8
Level 26
 62
   133
370
     0
100
AcDbLine
 10
-0.131714
 20
-2.483517
 30
0.0
 11
-0.131714
 21
-2.383517
 31
0.0
  0
LINE
  5
7D99E
330
7DAF1
100
AcDbEntity
  8
Level 26
 62
   133
370
     0
100
AcDbLine
 10
-0.131714
 20
-2.483517
 30
0.0
 11
-0.131714
 21
-2.383517
 31
0.0
  0
POINT
  5
7D99F
330
7DAF1
100
AcDbEntity
  8
Level 26
 62
   133
370
     0
100
AcDbPoint
 10
-0.131714
 20
-1.933517
 30
0.0
  0
LINE
  5
7D9A0
330
7DAF1
100
AcDbEntity
  8
Level 26
 62
   133
370
     0
100
AcDbLine
 10
-0.131714
 20
-1.933517
 30
0.0
 11
-0.131714
 21
-1.833517
 31
0.0
  0
POINT
  5
7D9A1
330
7DAF1
100
AcDbEntity
  8
Level 26
 62
   133
370
     0
100
AcDbPoint
 10
-0.131714
 20
-1.933517
 30
0.0
  0
LINE
  5
7D9A2
330
7DAF1
100
AcDbEntity
  8
Level 26
 62
   133
370
     0
100
AcDbLine
 10
-0.131714
 20
-1.933517
 30
0.0
 11
-0.131714
 21
-1.833517
 31
0.0
  0
LINE
  5
7D9A3
330
7DAF1
100
AcDbEntity
  8
Level 26
 62
   133
370
     0
100
AcDbLine
 10
-0.131714
 20
-2.158517
 30
0.0
 11
-0.011714
 21
-2.158517
 31
0.0
  0
LINE
  5
7D9A4
330
7DAF1
100
AcDbEntity
  8
Level 26
 62
   133
370
     0
100
AcDbLine
 10
-0.131714
 20
-2.483517
 30
0.0
 11
-0.011714
 21
-2.483517
 31
0.0
  0
LINE
  5
7D9A5
330
7DAF1
100
AcDbEntity
  8
Level 26
 62
   133
370
     0
100
AcDbLine
 10
-0.131714
 20
-2.158517
 30
0.0
 11
-0.011714
 21
-2.158517
 31
0.0
  0
LINE
  5
7D9A6
330
7DAF1
100
AcDbEntity
  8
Level 26
 62
   133
370
     0
100
AcDbLine
 10
-0.131714
 20
-1.833517
 30
0.0
 11
-0.011714
 21
-1.833517
 31
0.0
  0
ENDBLK
  5
7DAF3
330
7DAF1
100
AcDbEntity
  8
0
100
AcDbBlockEnd
  0
BLOCK
  5
7DAF5
330
7DAF4
100
AcDbEntity
  8
0
100
AcDbBlockBegin
  2
From Solid
 70
     0
 71
     0
 10
0.0
 20
0.0
 30
0.0
  3
From Solid
  1

  0
LINE
  5
7D9A8
330
7DAF4
100
AcDbEntity
  8
Level 27
  6
Continuous
 62
    40
370
     0
100
AcDbLine
 10
3445.025751
 20
1828.707727
 30
0.0
 11
3445.025751
 21
1794.707727
 31
0.0
  0
LINE
  5
7D9A9
330
7DAF4
100
AcDbEntity
  8
Level 27
  6
Continuous
 62
    40
370
     0
100
AcDbLine
 10
4645.025751
 20
1828.707727
 30
0.0
 11
4645.025751
 21
1794.707727
 31
0.0
  0
LINE
  5
7D9AA
330
7DAF4
100
AcDbEntity
  8
Level 27
  6
Continuous
 62
    40
370
     0
100
AcDbLine
 10
3445.025751
 20
1828.707727
 30
0.0
 11
4645.025751
 21
1828.707727
 31
0.0
  0
LINE
  5
7D9AB
330
7DAF4
100
AcDbEntity
  8
Level 27
  6
Continuous
 62
    40
370
     0
100
AcDbLine
 10
3445.025751
 20
1811.707727
 30
0.0
 11
4645.025751
 21
1811.707727
 31
0.0
  0
LINE
  5
7D9AC
330
7DAF4
100
AcDbEntity
  8
Level 27
  6
Continuous
 62
    40
370
     0
100
AcDbLine
 10
3445.025751
 20
1794.707727
 30
0.0
 11
4645.025751
 21
1794.707727
 31
0.0
  0
LINE
  5
7D9AD
330
7DAF4
100
AcDbEntity
  8
Level 27
  6
Continuous
 62
    40
370
     0
100
AcDbLine
 10
3445.025751
 20
1811.707727
 30
0.0
 11
4645.025751
 21
1811.707727
 31
0.0
  0
ENDBLK
  5
7DAF6
330
7DAF4
100
AcDbEntity
  8
0
100
AcDbBlockEnd
  0
BLOCK
  5
7DAF8
330
7DAF7
100
AcDbEntity
  8
0
100
AcDbBlockBegin
  2
Feature Solid_6
 70
     0
 71
     0
 10
0.0
 20
0.0
 30
0.0
  3
Feature Solid_6
  1

  0
INSERT
  5
7D9AF
330
7DAF7
100
AcDbEntity
  8
Level 26
 62
   133
370
     0
100
AcDbBlockReference
  2
UNITE_2
 10
-22.17087
 20
215.851704
 30
0.0
 41
100.0
 42
100.0
 43
100.0
  0
ENDBLK
  5
7DAF9
330
7DAF7
100
AcDbEntity
  8
0
100
AcDbBlockEnd
  0
BLOCK
  5
7DAFB
330
7DAFA
100
AcDbEntity
  8
0
100
AcDbBlockBegin
  2
UNITE_2
 70
     0
 71
     0
 10
0.0
 20
0.0
 30
0.0
  3
UNITE_2
  1

  0
INSERT
  5
7D9B0
330
7DAFA
100
AcDbEntity
  8
Level 26
 62
   133
370
     0
100
AcDbBlockReference
  2
Feature Solid_7
 10
0.0
 20
0.0
 30
0.0
  0
INSERT
  5
7D9B7
330
7DAFA
100
AcDbEntity
  8
Level 26
 62
   133
370
     0
100
AcDbBlockReference
  2
Feature Solid_8
 10
0.0
 20
-0.55
 30
0.0
  0
INSERT
  5
7D9BE
330
7DAFA
100
AcDbEntity
  8
Level 8
 62
   133
370
     0
100
AcDbBlockReference
  2
Feature Solid_9
 10
0.0
 20
0.0
 30
0.0
  0
ENDBLK
  5
7DAFC
330
7DAFA
100
AcDbEntity
  8
0
100
AcDbBlockEnd
  0
BLOCK
  5
7DAFE
330
7DAFD
100
AcDbEntity
  8
0
100
AcDbBlockBegin
  2
Feature Solid_7
 70
     0
 71
     0
 10
0.0
 20
0.0
 30
0.0
  3
Feature Solid_7
  1

  0
INSERT
  5
7D9B1
330
7DAFD
100
AcDbEntity
  8
Level 26
 62
   133
370
     0
100
AcDbBlockReference
  2
DDPROJ_3
 10
0.0
 20
0.0
 30
0.0
  0
ENDBLK
  5
7DAFF
330
7DAFD
100
AcDbEntity
  8
0
100
AcDbBlockEnd
  0
BLOCK
  5
7DB01
330
7DB00
100
AcDbEntity
  8
0
100
AcDbBlockBegin
  2
DDPROJ_3
 70
     0
 71
     0
 10
0.0
 20
0.0
 30
0.0
  3
DDPROJ_3
  1

  0
POINT
  5
7D9B2
330
7DB00
100
AcDbEntity
  8
Level 26
 62
   133
370
     0
100
AcDbPoint
 10
0.011714
 20
-1.833517
 30
0.0
  0
LINE
  5
7D9B3
330
7DB00
100
AcDbEntity
  8
Level 26
 62
   133
370
     0
100
AcDbLine
 10
0.131714
 20
-1.933517
 30
0.0
 11
0.359125
 21
-1.933517
 31
0.0
  0
LINE
  5
7D9B4
330
7DB00
100
AcDbEntity
  8
Level 26
 62
   133
370
     0
100
AcDbLine
 10
0.131714
 20
-1.833517
 30
0.0
 11
0.431714
 21
-1.833517
 31
0.0
  0
LINE
  5
7D9B5
330
7DB00
100
AcDbEntity
  8
Level 26
 62
   133
370
     0
100
AcDbLine
 10
0.131714
 20
-1.833517
 30
0.0
 11
0.431714
 21
-1.833517
 31
0.0
  0
LINE
  5
7D9B6
330
7DB00
100
AcDbEntity
  8
Level 26
 62
   133
370
     0
100
AcDbLine
 10
0.131714
 20
-1.933517
 30
0.0
 11
0.359125
 21
-1.933517
 31
0.0
  0
ENDBLK
  5
7DB02
330
7DB00
100
AcDbEntity
  8
0
100
AcDbBlockEnd
  0
BLOCK
  5
7DB04
330
7DB03
100
AcDbEntity
  8
0
100
AcDbBlockBegin
  2
Feature Solid_8
 70
     0
 71
     0
 10
0.0
 20
0.0
 30
0.0
  3
Feature Solid_8
  1

  0
INSERT
  5
7D9B8
330
7DB03
100
AcDbEntity
  8
Level 26
 62
   133
370
     0
100
AcDbBlockReference
  2
DDPROJ_4
 10
0.0
 20
0.0
 30
0.0
  0
ENDBLK
  5
7DB05
330
7DB03
100
AcDbEntity
  8
0
100
AcDbBlockEnd
  0
BLOCK
  5
7DB07
330
7DB06
100
AcDbEntity
  8
0
100
AcDbBlockBegin
  2
DDPROJ_4
 70
     0
 71
     0
 10
0.0
 20
0.0
 30
0.0
  3
DDPROJ_4
  1

  0
POINT
  5
7D9B9
330
7DB06
100
AcDbEntity
  8
Level 26
 62
   133
370
     0
100
AcDbPoint
 10
0.011714
 20
-1.933517
 30
0.0
  0
LINE
  5
7D9BA
330
7DB06
100
AcDbEntity
  8
Level 26
 62
   133
370
     0
100
AcDbLine
 10
0.131714
 20
-1.933517
 30
0.0
 11
0.431714
 21
-1.933517
 31
0.0
  0
LINE
  5
7D9BB
330
7DB06
100
AcDbEntity
  8
Level 26
 62
   133
370
     0
100
AcDbLine
 10
0.131714
 20
-1.833517
 30
0.0
 11
0.359125
 21
-1.833517
 31
0.0
  0
LINE
  5
7D9BC
330
7DB06
100
AcDbEntity
  8
Level 26
 62
   133
370
     0
100
AcDbLine
 10
0.131714
 20
-1.833517
 30
0.0
 11
0.359125
 21
-1.833517
 31
0.0
  0
LINE
  5
7D9BD
330
7DB06
100
AcDbEntity
  8
Level 26
 62
   133
370
     0
100
AcDbLine
 10
0.131714
 20
-1.933517
 30
0.0
 11
0.431714
 21
-1.933517
 31
0.0
  0
ENDBLK
  5
7DB08
330
7DB06
100
AcDbEntity
  8
0
100
AcDbBlockEnd
  0
BLOCK
  5
7DB0A
330
7DB09
100
AcDbEntity
  8
0
100
AcDbBlockBegin
  2
Feature Solid_9
 70
     0
 71
     0
 10
0.0
 20
0.0
 30
0.0
  3
Feature Solid_9
  1

  0
INSERT
  5
7D9BF
330
7DB09
100
AcDbEntity
  8
Level 8
 62
   133
370
     0
100
AcDbBlockReference
  2
UNITE_3
 10
0.0
 20
0.0
 30
0.0
  0
ENDBLK
  5
7DB0B
330
7DB09
100
AcDbEntity
  8
0
100
AcDbBlockEnd
  0
BLOCK
  5
7DB0D
330
7DB0C
100
AcDbEntity
  8
0
100
AcDbBlockBegin
  2
UNITE_3
 70
     0
 71
     0
 10
0.0
 20
0.0
 30
0.0
  3
UNITE_3
  1

  0
INSERT
  5
7D9C0
330
7DB0C
100
AcDbEntity
  8
Level 8
 62
   133
370
     0
100
AcDbBlockReference
  2
Feature Solid_10
 10
0.0
 20
0.0
 30
0.0
  0
INSERT
  5
7D9D6
330
7DB0C
100
AcDbEntity
  8
Level 26
 62
   133
370
     0
100
AcDbBlockReference
  2
Feature Solid_11
 10
0.0
 20
0.0
 30
0.0
  0
ENDBLK
  5
7DB0E
330
7DB0C
100
AcDbEntity
  8
0
100
AcDbBlockEnd
  0
BLOCK
  5
7DB10
330
7DB0F
100
AcDbEntity
  8
0
100
AcDbBlockBegin
  2
Feature Solid_10
 70
     0
 71
     0
 10
0.0
 20
0.0
 30
0.0
  3
Feature Solid_10
  1

  0
INSERT
  5
7D9C1
330
7DB0F
100
AcDbEntity
  8
Level 8
 62
   133
370
     0
100
AcDbBlockReference
  2
CONE_1
 10
0.0
 20
0.0
 30
0.0
  0
ENDBLK
  5
7DB11
330
7DB0F
100
AcDbEntity
  8
0
100
AcDbBlockEnd
  0
BLOCK
  5
7DB13
330
7DB12
100
AcDbEntity
  8
0
100
AcDbBlockBegin
  2
CONE_1
 70
     0
 71
     0
 10
0.0
 20
0.0
 30
0.0
  3
CONE_1
  1

  0
LINE
  5
7D9C2
330
7DB12
100
AcDbEntity
  8
Level 8
 62
   133
370
     0
100
AcDbLine
 10
0.431714
 20
-1.833517
 30
0.0
 11
0.431714
 21
-2.483517
 31
0.0
  0
LINE
  5
7D9C3
330
7DB12
100
AcDbEntity
  8
Level 8
 62
   133
370
     0
100
AcDbLine
 10
0.131714
 20
-2.383517
 30
0.0
 11
0.359125
 21
-2.383517
 31
0.0
  0
LINE
  5
7D9C4
330
7DB12
100
AcDbEntity
  8
Level 8
 62
   133
370
     0
100
AcDbLine
 10
0.131714
 20
-2.383517
 30
0.0
 11
0.359125
 21
-2.383517
 31
0.0
  0
SPLINE
  5
7D9C5
330
7DB12
100
AcDbEntity
  8
Level 8
 62
   133
370
     0
100
AcDbSpline
210
0.0
220
0.0
230
1.0
 70
     8
 71
     3
 72
    17
 73
    13
 74
     0
 42
0.0000000001
 43
0.00000001
 40
0.0
 40
0.0
 40
0.0
 40
0.0
 40
0.1188920175173181
 40
0.1188920175173181
 40
0.1188920175173181
 40
0.4370642450454728
 40
0.4370642450454728
 40
0.4370642450454728
 40
0.7708126268407274
 40
0.7708126268407274
 40
0.7708126268407274
 40
1.0
 40
1.0
 40
1.0
 40
1.0
 10
0.4317136962460353
 20
-2.483517035676389
 30
0.0
 10
0.4317136962460353
 20
-2.483517035676389
 30
0.0
 10
0.4312857853703775
 20
-2.482970961108954
 30
0.0
 10
0.4304413967249374
 20
-2.481890266834164
 30
0.0
 10
0.42818936871722
 20
-2.479007999541985
 30
0.0
 10
0.4228496497948271
 20
-2.472181370284073
 30
0.0
 10
0.415280563715676
 20
-2.462245290317629
 30
0.0
 10
0.407328803424555
 20
-2.451806866801178
 30
0.0
 10
0.3967863239604625
 20
-2.437764099143895
 30
0.0
 10
0.3850241073261032
 20
-2.421270187946131
 30
0.0
 10
0.3768999155639108
 20
-2.409877803190351
 30
0.0
 10
0.368116555618009
 20
-2.39720582936004
 30
0.0
 10
0.359125348396347
 20
-2.383517035681365
 30
0.0
  0
SPLINE
  5
7D9C8
330
7DB12
100
AcDbEntity
  8
Level 8
 62
   133
370
     0
100
AcDbSpline
210
0.0
220
0.0
230
1.0
 70
     8
 71
     3
 72
    14
 73
    10
 74
     0
 42
0.0000000001
 43
0.00000001
 40
0.0
 40
0.0
 40
0.0
 40
0.0
 40
0.4155111778321488
 40
0.4155111778321488
 40
0.4155111778321488
 40
0.7657511632294429
 40
0.7657511632294429
 40
0.7657511632294429
 40
1.0
 40
1.0
 40
1.0
 40
1.0
 10
0.3591253483958568
 20
-2.383517035676373
 30
0.0
 10
0.3753273199526745
 20
-2.408183961970714
 30
0.0
 10
0.3909352251375111
 20
-2.42972384287685
 30
0.0
 10
0.4032945372283621
 20
-2.446330563598313
 30
0.0
 10
0.4137190532493946
 20
-2.460337575068305
 30
0.0
 10
0.4220439846593962
 20
-2.471094914404414
 30
0.0
 10
0.4268312321213159
 20
-2.477256738635806
 30
0.0
 10
0.4300308856968016
 20
-2.481375118370782
 30
0.0
 10
0.4317136962460353
 20
-2.483517035676389
 30
0.0
 10
0.4317136962460353
 20
-2.483517035676389
 30
0.0
  0
LINE
  5
7D9CB
330
7DB12
100
AcDbEntity
  8
Level 8
 62
   133
370
     0
100
AcDbLine
 10
0.431714
 20
-1.833517
 30
0.0
 11
0.431714
 21
-2.483517
 31
0.0
  0
SPLINE
  5
7D9CC
330
7DB12
100
AcDbEntity
  8
Level 8
 62
   133
370
     0
100
AcDbSpline
210
0.0
220
0.0
230
1.0
 70
     8
 71
     3
 72
    17
 73
    13
 74
     0
 42
0.0000000001
 43
0.00000001
 40
0.0
 40
0.0
 40
0.0
 40
0.0
 40
0.1188920175167992
 40
0.1188920175167992
 40
0.1188920175167992
 40
0.4370642450447248
 40
0.4370642450447248
 40
0.4370642450447248
 40
0.7708126268396294
 40
0.7708126268396294
 40
0.7708126268396294
 40
1.0
 40
1.0
 40
1.0
 40
1.0
 10
0.4317136962460353
 20
-1.833517035676241
 30
0.0
 10
0.4317136962460353
 20
-1.833517035676241
 30
0.0
 10
0.4312857853703775
 20
-1.83406311024368
 30
0.0
 10
0.4304413967249516
 20
-1.83514380451847
 30
0.0
 10
0.4281893687172627
 20
-1.838026071810628
 30
0.0
 10
0.4228496497948768
 20
-1.844852701068522
 30
0.0
 10
0.4152805637157329
 20
-1.854788781034966
 30
0.0
 10
0.4073288034246332
 20
-1.865227204551417
 30
0.0
 10
0.3967863239605407
 20
-1.8792699722087
 30
0.0
 10
0.3850241073262097
 20
-1.895763883406445
 30
0.0
 10
0.3768999155639747
 20
-1.907156268162282
 30
0.0
 10
0.3681165556180375
 20
-1.919828241992668
 30
0.0
 10
0.3591253483963186
 20
-1.933517035671436
 30
0.0
  0
LINE
  5
7D9CF
330
7DB12
100
AcDbEntity
  8
Level 8
 62
   133
370
     0
100
AcDbLine
 10
0.131714
 20
-1.933517
 30
0.0
 11
0.359125
 21
-1.933517
 31
0.0
  0
LINE
  5
7D9D0
330
7DB12
100
AcDbEntity
  8
Level 8
 62
   133
370
     0
100
AcDbLine
 10
0.131714
 20
-1.933517
 30
0.0
 11
0.359125
 21
-1.933517
 31
0.0
  0
SPLINE
  5
7D9D1
330
7DB12
100
AcDbEntity
  8
Level 8
 62
   133
370
     0
100
AcDbSpline
210
0.0
220
0.0
230
1.0
 70
     8
 71
     3
 72
    14
 73
    10
 74
     0
 42
0.0000000001
 43
0.00000001
 40
0.0
 40
0.0
 40
0.0
 40
0.0
 40
0.4155111778320348
 40
0.4155111778320348
 40
0.4155111778320348
 40
0.7657511632291136
 40
0.7657511632291136
 40
0.7657511632291136
 40
1.0
 40
1.0
 40
1.0
 40
1.0
 10
0.3591253483956578
 20
-1.93351703567641
 30
0.0
 10
0.3753273199525111
 20
-1.908850109382065
 30
0.0
 10
0.390935225137369
 20
-1.887310228475872
 30
0.0
 10
0.4032945372282555
 20
-1.870703507754392
 30
0.0
 10
0.4137190532493023
 20
-1.856696496284382
 30
0.0
 10
0.4220439846593322
 20
-1.845939156948273
 30
0.0
 10
0.4268312321212662
 20
-1.839777332716864
 30
0.0
 10
0.4300308856967732
 20
-1.835658952981866
 30
0.0
 10
0.4317136962460353
 20
-1.833517035676241
 30
0.0
 10
0.4317136962460353
 20
-1.833517035676241
 30
0.0
  0
LINE
  5
7D9D4
330
7DB12
100
AcDbEntity
  8
Level 8
 62
   133
370
     0
100
AcDbLine
 10
0.131714
 20
-2.158517
 30
0.0
 11
0.431714
 21
-2.158517
 31
0.0
  0
LINE
  5
7D9D5
330
7DB12
100
AcDbEntity
  8
Level 8
 62
   133
370
     0
100
AcDbLine
 10
0.131714
 20
-2.158517
 30
0.0
 11
0.431714
 21
-2.158517
 31
0.0
  0
ENDBLK
  5
7DB14
330
7DB12
100
AcDbEntity
  8
0
100
AcDbBlockEnd
  0
BLOCK
  5
7DB16
330
7DB15
100
AcDbEntity
  8
0
100
AcDbBlockBegin
  2
Feature Solid_11
 70
     0
 71
     0
 10
0.0
 20
0.0
 30
0.0
  3
Feature Solid_11
  1

  0
INSERT
  5
7D9D7
330
7DB15
100
AcDbEntity
  8
Level 26
 62
   133
370
     0
100
AcDbBlockReference
  2
DDPROJ_5
 10
0.0
 20
0.0
 30
0.0
  0
ENDBLK
  5
7DB17
330
7DB15
100
AcDbEntity
  8
0
100
AcDbBlockEnd
  0
BLOCK
  5
7DB19
330
7DB18
100
AcDbEntity
  8
0
100
AcDbBlockBegin
  2
DDPROJ_5
 70
     0
 71
     0
 10
0.0
 20
0.0
 30
0.0
  3
DDPROJ_5
  1

  0
LINE
  5
7D9D8
330
7DB18
100
AcDbEntity
  8
Level 26
 62
   133
370
     0
100
AcDbLine
 10
0.011714
 20
-1.833517
 30
0.0
 11
0.131714
 21
-1.833517
 31
0.0
  0
LINE
  5
7D9D9
330
7DB18
100
AcDbEntity
  8
Level 26
 62
   133
370
     0
100
AcDbLine
 10
0.131714
 20
-1.833517
 30
0.0
 11
0.011714
 21
-1.833517
 31
0.0
  0
LINE
  5
7D9DA
330
7DB18
100
AcDbEntity
  8
Level 26
 62
   133
370
     0
100
AcDbLine
 10
0.011714
 20
-2.483517
 30
0.0
 11
0.131714
 21
-2.483517
 31
0.0
  0
LINE
  5
7D9DB
330
7DB18
100
AcDbEntity
  8
Level 26
 62
   133
370
     0
100
AcDbLine
 10
0.131714
 20
-2.483517
 30
0.0
 11
0.011714
 21
-2.483517
 31
0.0
  0
LINE
  5
7D9DC
330
7DB18
100
AcDbEntity
  8
Level 26
 62
   133
370
     0
100
AcDbLine
 10
0.131714
 20
-1.933517
 30
0.0
 11
0.131714
 21
-2.383517
 31
0.0
  0
LINE
  5
7D9DD
330
7DB18
100
AcDbEntity
  8
Level 26
 62
   133
370
     0
100
AcDbLine
 10
0.131714
 20
-1.933517
 30
0.0
 11
0.131714
 21
-2.383517
 31
0.0
  0
LINE
  5
7D9DE
330
7DB18
100
AcDbEntity
  8
Level 26
 62
   133
370
     0
100
AcDbLine
 10
0.011714
 20
-1.833517
 30
0.0
 11
0.011714
 21
-2.483517
 31
0.0
  0
POINT
  5
7D9DF
330
7DB18
100
AcDbEntity
  8
Level 26
 62
   133
370
     0
100
AcDbPoint
 10
0.131714
 20
-2.483517
 30
0.0
  0
LINE
  5
7D9E0
330
7DB18
100
AcDbEntity
  8
Level 26
 62
   133
370
     0
100
AcDbLine
 10
0.011714
 20
-1.833517
 30
0.0
 11
0.011714
 21
-2.483517
 31
0.0
  0
LINE
  5
7D9E1
330
7DB18
100
AcDbEntity
  8
Level 26
 62
   133
370
     0
100
AcDbLine
 10
0.131714
 20
-1.833517
 30
0.0
 11
0.131714
 21
-2.483517
 31
0.0
  0
POINT
  5
7D9E2
330
7DB18
100
AcDbEntity
  8
Level 26
 62
   133
370
     0
100
AcDbPoint
 10
0.131714
 20
-1.833517
 30
0.0
  0
POINT
  5
7D9E3
330
7DB18
100
AcDbEntity
  8
Level 26
 62
   133
370
     0
100
AcDbPoint
 10
0.131714
 20
-2.483517
 30
0.0
  0
LINE
  5
7D9E4
330
7DB18
100
AcDbEntity
  8
Level 26
 62
   133
370
     0
100
AcDbLine
 10
0.131714
 20
-1.833517
 30
0.0
 11
0.131714
 21
-2.483517
 31
0.0
  0
POINT
  5
7D9E5
330
7DB18
100
AcDbEntity
  8
Level 26
 62
   133
370
     0
100
AcDbPoint
 10
0.131714
 20
-1.833517
 30
0.0
  0
POINT
  5
7D9E6
330
7DB18
100
AcDbEntity
  8
Level 26
 62
   133
370
     0
100
AcDbPoint
 10
0.131714
 20
-2.383517
 30
0.0
  0
POINT
  5
7D9E7
330
7DB18
100
AcDbEntity
  8
Level 26
 62
   133
370
     0
100
AcDbPoint
 10
0.131714
 20
-2.383517
 30
0.0
  0
LINE
  5
7D9E8
330
7DB18
100
AcDbEntity
  8
Level 26
 62
   133
370
     0
100
AcDbLine
 10
0.131714
 20
-2.483517
 30
0.0
 11
0.131714
 21
-2.383517
 31
0.0
  0
LINE
  5
7D9E9
330
7DB18
100
AcDbEntity
  8
Level 26
 62
   133
370
     0
100
AcDbLine
 10
0.131714
 20
-2.483517
 30
0.0
 11
0.131714
 21
-2.383517
 31
0.0
  0
POINT
  5
7D9EA
330
7DB18
100
AcDbEntity
  8
Level 26
 62
   133
370
     0
100
AcDbPoint
 10
0.131714
 20
-1.933517
 30
0.0
  0
LINE
  5
7D9EB
330
7DB18
100
AcDbEntity
  8
Level 26
 62
   133
370
     0
100
AcDbLine
 10
0.131714
 20
-1.933517
 30
0.0
 11
0.131714
 21
-1.833517
 31
0.0
  0
POINT
  5
7D9EC
330
7DB18
100
AcDbEntity
  8
Level 26
 62
   133
370
     0
100
AcDbPoint
 10
0.131714
 20
-1.933517
 30
0.0
  0
LINE
  5
7D9ED
330
7DB18
100
AcDbEntity
  8
Level 26
 62
   133
370
     0
100
AcDbLine
 10
0.131714
 20
-1.933517
 30
0.0
 11
0.131714
 21
-1.833517
 31
0.0
  0
LINE
  5
7D9EE
330
7DB18
100
AcDbEntity
  8
Level 26
 62
   133
370
     0
100
AcDbLine
 10
0.131714
 20
-2.158517
 30
0.0
 11
0.011714
 21
-2.158517
 31
0.0
  0
LINE
  5
7D9EF
330
7DB18
100
AcDbEntity
  8
Level 26
 62
   133
370
     0
100
AcDbLine
 10
0.131714
 20
-2.483517
 30
0.0
 11
0.011714
 21
-2.483517
 31
0.0
  0
LINE
  5
7D9F0
330
7DB18
100
AcDbEntity
  8
Level 26
 62
   133
370
     0
100
AcDbLine
 10
0.131714
 20
-2.158517
 30
0.0
 11
0.011714
 21
-2.158517
 31
0.0
  0
LINE
  5
7D9F1
330
7DB18
100
AcDbEntity
  8
Level 26
 62
   133
370
     0
100
AcDbLine
 10
0.131714
 20
-1.833517
 30
0.0
 11
0.011714
 21
-1.833517
 31
0.0
  0
ENDBLK
  5
7DB1A
330
7DB18
100
AcDbEntity
  8
0
100
AcDbBlockEnd
  0
BLOCK
  5
7DB1C
330
7DB1B
100
AcDbEntity
  8
0
100
AcDbBlockBegin
  2
Feature Solid_12
 70
     0
 71
     0
 10
0.0
 20
0.0
 30
0.0
  3
Feature Solid_12
  1

  0
INSERT
  5
7DA00
330
7DB1B
100
AcDbEntity
  8
Level 26
 62
   133
370
     0
100
AcDbBlockReference
  2
UNITE_4
 10
22.17087
 20
215.851704
 30
0.0
 41
100.0
 42
100.0
 43
100.0
  0
ENDBLK
  5
7DB1D
330
7DB1B
100
AcDbEntity
  8
0
100
AcDbBlockEnd
  0
BLOCK
  5
7DB1F
330
7DB1E
100
AcDbEntity
  8
0
100
AcDbBlockBegin
  2
UNITE_4
 70
     0
 71
     0
 10
0.0
 20
0.0
 30
0.0
  3
UNITE_4
  1

  0
INSERT
  5
7DA01
330
7DB1E
100
AcDbEntity
  8
Level 26
 62
   133
370
     0
100
AcDbBlockReference
  2
Feature Solid_13
 10
0.0
 20
0.0
 30
0.0
  0
INSERT
  5
7DA08
330
7DB1E
100
AcDbEntity
  8
Level 26
 62
   133
370
     0
100
AcDbBlockReference
  2
Feature Solid_14
 10
0.0
 20
-0.55
 30
0.0
  0
INSERT
  5
7DA0F
330
7DB1E
100
AcDbEntity
  8
Level 8
 62
   133
370
     0
100
AcDbBlockReference
  2
Feature Solid_15
 10
0.0
 20
0.0
 30
0.0
  0
ENDBLK
  5
7DB20
330
7DB1E
100
AcDbEntity
  8
0
100
AcDbBlockEnd
  0
BLOCK
  5
7DB22
330
7DB21
100
AcDbEntity
  8
0
100
AcDbBlockBegin
  2
Feature Solid_13
 70
     0
 71
     0
 10
0.0
 20
0.0
 30
0.0
  3
Feature Solid_13
  1

  0
INSERT
  5
7DA02
330
7DB21
100
AcDbEntity
  8
Level 26
 62
   133
370
     0
100
AcDbBlockReference
  2
DDPROJ_6
 10
0.0
 20
0.0
 30
0.0
  0
ENDBLK
  5
7DB23
330
7DB21
100
AcDbEntity
  8
0
100
AcDbBlockEnd
  0
BLOCK
  5
7DB25
330
7DB24
100
AcDbEntity
  8
0
100
AcDbBlockBegin
  2
DDPROJ_6
 70
     0
 71
     0
 10
0.0
 20
0.0
 30
0.0
  3
DDPROJ_6
  1

  0
POINT
  5
7DA03
330
7DB24
100
AcDbEntity
  8
Level 26
 62
   133
370
     0
100
AcDbPoint
 10
-0.011714
 20
-1.833517
 30
0.0
  0
LINE
  5
7DA04
330
7DB24
100
AcDbEntity
  8
Level 26
 62
   133
370
     0
100
AcDbLine
 10
-0.131714
 20
-1.933517
 30
0.0
 11
-0.359125
 21
-1.933517
 31
0.0
  0
LINE
  5
7DA05
330
7DB24
100
AcDbEntity
  8
Level 26
 62
   133
370
     0
100
AcDbLine
 10
-0.131714
 20
-1.833517
 30
0.0
 11
-0.431714
 21
-1.833517
 31
0.0
  0
LINE
  5
7DA06
330
7DB24
100
AcDbEntity
  8
Level 26
 62
   133
370
     0
100
AcDbLine
 10
-0.131714
 20
-1.833517
 30
0.0
 11
-0.431714
 21
-1.833517
 31
0.0
  0
LINE
  5
7DA07
330
7DB24
100
AcDbEntity
  8
Level 26
 62
   133
370
     0
100
AcDbLine
 10
-0.131714
 20
-1.933517
 30
0.0
 11
-0.359125
 21
-1.933517
 31
0.0
  0
ENDBLK
  5
7DB26
330
7DB24
100
AcDbEntity
  8
0
100
AcDbBlockEnd
  0
BLOCK
  5
7DB28
330
7DB27
100
AcDbEntity
  8
0
100
AcDbBlockBegin
  2
Feature Solid_14
 70
     0
 71
     0
 10
0.0
 20
0.0
 30
0.0
  3
Feature Solid_14
  1

  0
INSERT
  5
7DA09
330
7DB27
100
AcDbEntity
  8
Level 26
 62
   133
370
     0
100
AcDbBlockReference
  2
DDPROJ_7
 10
0.0
 20
0.0
 30
0.0
  0
ENDBLK
  5
7DB29
330
7DB27
100
AcDbEntity
  8
0
100
AcDbBlockEnd
  0
BLOCK
  5
7DB2B
330
7DB2A
100
AcDbEntity
  8
0
100
AcDbBlockBegin
  2
DDPROJ_7
 70
     0
 71
     0
 10
0.0
 20
0.0
 30
0.0
  3
DDPROJ_7
  1

  0
POINT
  5
7DA0A
330
7DB2A
100
AcDbEntity
  8
Level 26
 62
   133
370
     0
100
AcDbPoint
 10
-0.011714
 20
-1.933517
 30
0.0
  0
LINE
  5
7DA0B
330
7DB2A
100
AcDbEntity
  8
Level 26
 62
   133
370
     0
100
AcDbLine
 10
-0.131714
 20
-1.933517
 30
0.0
 11
-0.431714
 21
-1.933517
 31
0.0
  0
LINE
  5
7DA0C
330
7DB2A
100
AcDbEntity
  8
Level 26
 62
   133
370
     0
100
AcDbLine
 10
-0.131714
 20
-1.833517
 30
0.0
 11
-0.359125
 21
-1.833517
 31
0.0
  0
LINE
  5
7DA0D
330
7DB2A
100
AcDbEntity
  8
Level 26
 62
   133
370
     0
100
AcDbLine
 10
-0.131714
 20
-1.833517
 30
0.0
 11
-0.359125
 21
-1.833517
 31
0.0
  0
LINE
  5
7DA0E
330
7DB2A
100
AcDbEntity
  8
Level 26
 62
   133
370
     0
100
AcDbLine
 10
-0.131714
 20
-1.933517
 30
0.0
 11
-0.431714
 21
-1.933517
 31
0.0
  0
ENDBLK
  5
7DB2C
330
7DB2A
100
AcDbEntity
  8
0
100
AcDbBlockEnd
  0
BLOCK
  5
7DB2E
330
7DB2D
100
AcDbEntity
  8
0
100
AcDbBlockBegin
  2
Feature Solid_15
 70
     0
 71
     0
 10
0.0
 20
0.0
 30
0.0
  3
Feature Solid_15
  1

  0
INSERT
  5
7DA10
330
7DB2D
100
AcDbEntity
  8
Level 8
 62
   133
370
     0
100
AcDbBlockReference
  2
UNITE_5
 10
0.0
 20
0.0
 30
0.0
  0
ENDBLK
  5
7DB2F
330
7DB2D
100
AcDbEntity
  8
0
100
AcDbBlockEnd
  0
BLOCK
  5
7DB31
330
7DB30
100
AcDbEntity
  8
0
100
AcDbBlockBegin
  2
UNITE_5
 70
     0
 71
     0
 10
0.0
 20
0.0
 30
0.0
  3
UNITE_5
  1

  0
INSERT
  5
7DA11
330
7DB30
100
AcDbEntity
  8
Level 8
 62
   133
370
     0
100
AcDbBlockReference
  2
Feature Solid_16
 10
0.0
 20
0.0
 30
0.0
  0
INSERT
  5
7DA27
330
7DB30
100
AcDbEntity
  8
Level 26
 62
   133
370
     0
100
AcDbBlockReference
  2
Feature Solid_17
 10
0.0
 20
0.0
 30
0.0
  0
ENDBLK
  5
7DB32
330
7DB30
100
AcDbEntity
  8
0
100
AcDbBlockEnd
  0
BLOCK
  5
7DB34
330
7DB33
100
AcDbEntity
  8
0
100
AcDbBlockBegin
  2
Feature Solid_16
 70
     0
 71
     0
 10
0.0
 20
0.0
 30
0.0
  3
Feature Solid_16
  1

  0
INSERT
  5
7DA12
330
7DB33
100
AcDbEntity
  8
Level 8
 62
   133
370
     0
100
AcDbBlockReference
  2
CONE_2
 10
0.0
 20
0.0
 30
0.0
  0
ENDBLK
  5
7DB35
330
7DB33
100
AcDbEntity
  8
0
100
AcDbBlockEnd
  0
BLOCK
  5
7DB37
330
7DB36
100
AcDbEntity
  8
0
100
AcDbBlockBegin
  2
CONE_2
 70
     0
 71
     0
 10
0.0
 20
0.0
 30
0.0
  3
CONE_2
  1

  0
LINE
  5
7DA13
330
7DB36
100
AcDbEntity
  8
Level 8
 62
   133
370
     0
100
AcDbLine
 10
-0.431714
 20
-1.833517
 30
0.0
 11
-0.431714
 21
-2.483517
 31
0.0
  0
LINE
  5
7DA14
330
7DB36
100
AcDbEntity
  8
Level 8
 62
   133
370
     0
100
AcDbLine
 10
-0.131714
 20
-2.383517
 30
0.0
 11
-0.359125
 21
-2.383517
 31
0.0
  0
LINE
  5
7DA15
330
7DB36
100
AcDbEntity
  8
Level 8
 62
   133
370
     0
100
AcDbLine
 10
-0.131714
 20
-2.383517
 30
0.0
 11
-0.359125
 21
-2.383517
 31
0.0
  0
SPLINE
  5
7DA16
330
7DB36
100
AcDbEntity
  8
Level 8
 62
   133
370
     0
100
AcDbSpline
210
0.0
220
0.0
230
1.0
 70
     8
 71
     3
 72
    17
 73
    13
 74
     0
 42
0.0000000001
 43
0.00000001
 40
0.0
 40
0.0
 40
0.0
 40
0.0
 40
0.1188920175173181
 40
0.1188920175173181
 40
0.1188920175173181
 40
0.4370642450454728
 40
0.4370642450454728
 40
0.4370642450454728
 40
0.7708126268407274
 40
0.7708126268407274
 40
0.7708126268407274
 40
1.0
 40
1.0
 40
1.0
 40
1.0
 10
-0.4317136962460353
 20
-2.483517035676389
 30
0.0
 10
-0.4317136962460353
 20
-2.483517035676389
 30
0.0
 10
-0.4312857853703775
 20
-2.482970961108954
 30
0.0
 10
-0.4304413967249374
 20
-2.481890266834164
 30
0.0
 10
-0.4281893687172271
 20
-2.479007999541985
 30
0.0
 10
-0.4228496497948342
 20
-2.472181370284073
 30
0.0
 10
-0.4152805637156831
 20
-2.462245290317629
 30
0.0
 10
-0.4073288034245621
 20
-2.451806866801178
 30
0.0
 10
-0.3967863239604625
 20
-2.437764099143895
 30
0.0
 10
-0.3850241073261032
 20
-2.421270187946131
 30
0.0
 10
-0.3768999155639108
 20
-2.409877803190351
 30
0.0
 10
-0.3681165556180162
 20
-2.39720582936004
 30
0.0
 10
-0.3591253483963541
 20
-2.383517035681365
 30
0.0
  0
SPLINE
  5
7DA19
330
7DB36
100
AcDbEntity
  8
Level 8
 62
   133
370
     0
100
AcDbSpline
210
0.0
220
0.0
230
1.0
 70
     8
 71
     3
 72
    14
 73
    10
 74
     0
 42
0.0000000001
 43
0.00000001
 40
0.0
 40
0.0
 40
0.0
 40
0.0
 40
0.4155111778321488
 40
0.4155111778321488
 40
0.4155111778321488
 40
0.7657511632294429
 40
0.7657511632294429
 40
0.7657511632294429
 40
1.0
 40
1.0
 40
1.0
 40
1.0
 10
-0.3591253483958568
 20
-2.383517035676373
 30
0.0
 10
-0.3753273199526817
 20
-2.408183961970714
 30
0.0
 10
-0.3909352251375111
 20
-2.42972384287685
 30
0.0
 10
-0.4032945372283692
 20
-2.446330563598313
 30
0.0
 10
-0.4137190532494017
 20
-2.460337575068305
 30
0.0
 10
-0.4220439846594033
 20
-2.471094914404414
 30
0.0
 10
-0.426831232121323
 20
-2.477256738635806
 30
0.0
 10
-0.4300308856968087
 20
-2.481375118370782
 30
0.0
 10
-0.4317136962460353
 20
-2.483517035676389
 30
0.0
 10
-0.4317136962460353
 20
-2.483517035676389
 30
0.0
  0
LINE
  5
7DA1C
330
7DB36
100
AcDbEntity
  8
Level 8
 62
   133
370
     0
100
AcDbLine
 10
-0.431714
 20
-1.833517
 30
0.0
 11
-0.431714
 21
-2.483517
 31
0.0
  0
SPLINE
  5
7DA1D
330
7DB36
100
AcDbEntity
  8
Level 8
 62
   133
370
     0
100
AcDbSpline
210
0.0
220
0.0
230
1.0
 70
     8
 71
     3
 72
    17
 73
    13
 74
     0
 42
0.0000000001
 43
0.00000001
 40
0.0
 40
0.0
 40
0.0
 40
0.0
 40
0.1188920175167992
 40
0.1188920175167992
 40
0.1188920175167992
 40
0.4370642450447248
 40
0.4370642450447248
 40
0.4370642450447248
 40
0.7708126268396294
 40
0.7708126268396294
 40
0.7708126268396294
 40
1.0
 40
1.0
 40
1.0
 40
1.0
 10
-0.4317136962460353
 20
-1.833517035676241
 30
0.0
 10
-0.4317136962460353
 20
-1.833517035676241
 30
0.0
 10
-0.4312857853703775
 20
-1.83406311024368
 30
0.0
 10
-0.4304413967249587
 20
-1.83514380451847
 30
0.0
 10
-0.4281893687172627
 20
-1.838026071810628
 30
0.0
 10
-0.4228496497948768
 20
-1.844852701068522
 30
0.0
 10
-0.41528056371574
 20
-1.854788781034966
 30
0.0
 10
-0.4073288034246332
 20
-1.865227204551417
 30
0.0
 10
-0.3967863239605478
 20
-1.8792699722087
 30
0.0
 10
-0.3850241073262168
 20
-1.895763883406445
 30
0.0
 10
-0.3768999155639818
 20
-1.907156268162282
 30
0.0
 10
-0.3681165556180446
 20
-1.919828241992668
 30
0.0
 10
-0.3591253483963257
 20
-1.933517035671436
 30
0.0
  0
LINE
  5
7DA20
330
7DB36
100
AcDbEntity
  8
Level 8
 62
   133
370
     0
100
AcDbLine
 10
-0.131714
 20
-1.933517
 30
0.0
 11
-0.359125
 21
-1.933517
 31
0.0
  0
LINE
  5
7DA21
330
7DB36
100
AcDbEntity
  8
Level 8
 62
   133
370
     0
100
AcDbLine
 10
-0.131714
 20
-1.933517
 30
0.0
 11
-0.359125
 21
-1.933517
 31
0.0
  0
SPLINE
  5
7DA22
330
7DB36
100
AcDbEntity
  8
Level 8
 62
   133
370
     0
100
AcDbSpline
210
0.0
220
0.0
230
1.0
 70
     8
 71
     3
 72
    14
 73
    10
 74
     0
 42
0.0000000001
 43
0.00000001
 40
0.0
 40
0.0
 40
0.0
 40
0.0
 40
0.4155111778320348
 40
0.4155111778320348
 40
0.4155111778320348
 40
0.7657511632291136
 40
0.7657511632291136
 40
0.7657511632291136
 40
1.0
 40
1.0
 40
1.0
 40
1.0
 10
-0.3591253483956649
 20
-1.93351703567641
 30
0.0
 10
-0.3753273199525111
 20
-1.908850109382065
 30
0.0
 10
-0.3909352251373761
 20
-1.887310228475872
 30
0.0
 10
-0.4032945372282555
 20
-1.870703507754392
 30
0.0
 10
-0.4137190532493094
 20
-1.856696496284382
 30
0.0
 10
-0.4220439846593393
 20
-1.845939156948273
 30
0.0
 10
-0.4268312321212733
 20
-1.839777332716864
 30
0.0
 10
-0.4300308856967803
 20
-1.835658952981866
 30
0.0
 10
-0.4317136962460353
 20
-1.833517035676241
 30
0.0
 10
-0.4317136962460353
 20
-1.833517035676241
 30
0.0
  0
LINE
  5
7DA25
330
7DB36
100
AcDbEntity
  8
Level 8
 62
   133
370
     0
100
AcDbLine
 10
-0.131714
 20
-2.158517
 30
0.0
 11
-0.431714
 21
-2.158517
 31
0.0
  0
LINE
  5
7DA26
330
7DB36
100
AcDbEntity
  8
Level 8
 62
   133
370
     0
100
AcDbLine
 10
-0.131714
 20
-2.158517
 30
0.0
 11
-0.431714
 21
-2.158517
 31
0.0
  0
ENDBLK
  5
7DB38
330
7DB36
100
AcDbEntity
  8
0
100
AcDbBlockEnd
  0
BLOCK
  5
7DB3A
330
7DB39
100
AcDbEntity
  8
0
100
AcDbBlockBegin
  2
Feature Solid_17
 70
     0
 71
     0
 10
0.0
 20
0.0
 30
0.0
  3
Feature Solid_17
  1

  0
INSERT
  5
7DA28
330
7DB39
100
AcDbEntity
  8
Level 26
 62
   133
370
     0
100
AcDbBlockReference
  2
DDPROJ_8
 10
0.0
 20
0.0
 30
0.0
  0
ENDBLK
  5
7DB3B
330
7DB39
100
AcDbEntity
  8
0
100
AcDbBlockEnd
  0
BLOCK
  5
7DB3D
330
7DB3C
100
AcDbEntity
  8
0
100
AcDbBlockBegin
  2
DDPROJ_8
 70
     0
 71
     0
 10
0.0
 20
0.0
 30
0.0
  3
DDPROJ_8
  1

  0
LINE
  5
7DA29
330
7DB3C
100
AcDbEntity
  8
Level 26
 62
   133
370
     0
100
AcDbLine
 10
-0.011714
 20
-1.833517
 30
0.0
 11
-0.131714
 21
-1.833517
 31
0.0
  0
LINE
  5
7DA2A
330
7DB3C
100
AcDbEntity
  8
Level 26
 62
   133
370
     0
100
AcDbLine
 10
-0.131714
 20
-1.833517
 30
0.0
 11
-0.011714
 21
-1.833517
 31
0.0
  0
LINE
  5
7DA2B
330
7DB3C
100
AcDbEntity
  8
Level 26
 62
   133
370
     0
100
AcDbLine
 10
-0.011714
 20
-2.483517
 30
0.0
 11
-0.131714
 21
-2.483517
 31
0.0
  0
LINE
  5
7DA2C
330
7DB3C
100
AcDbEntity
  8
Level 26
 62
   133
370
     0
100
AcDbLine
 10
-0.131714
 20
-2.483517
 30
0.0
 11
-0.011714
 21
-2.483517
 31
0.0
  0
LINE
  5
7DA2D
330
7DB3C
100
AcDbEntity
  8
Level 26
 62
   133
370
     0
100
AcDbLine
 10
-0.131714
 20
-1.933517
 30
0.0
 11
-0.131714
 21
-2.383517
 31
0.0
  0
LINE
  5
7DA2E
330
7DB3C
100
AcDbEntity
  8
Level 26
 62
   133
370
     0
100
AcDbLine
 10
-0.131714
 20
-1.933517
 30
0.0
 11
-0.131714
 21
-2.383517
 31
0.0
  0
LINE
  5
7DA2F
330
7DB3C
100
AcDbEntity
  8
Level 26
 62
   133
370
     0
100
AcDbLine
 10
-0.011714
 20
-1.833517
 30
0.0
 11
-0.011714
 21
-2.483517
 31
0.0
  0
POINT
  5
7DA30
330
7DB3C
100
AcDbEntity
  8
Level 26
 62
   133
370
     0
100
AcDbPoint
 10
-0.131714
 20
-2.483517
 30
0.0
  0
LINE
  5
7DA31
330
7DB3C
100
AcDbEntity
  8
Level 26
 62
   133
370
     0
100
AcDbLine
 10
-0.011714
 20
-1.833517
 30
0.0
 11
-0.011714
 21
-2.483517
 31
0.0
  0
LINE
  5
7DA32
330
7DB3C
100
AcDbEntity
  8
Level 26
 62
   133
370
     0
100
AcDbLine
 10
-0.131714
 20
-1.833517
 30
0.0
 11
-0.131714
 21
-2.483517
 31
0.0
  0
POINT
  5
7DA33
330
7DB3C
100
AcDbEntity
  8
Level 26
 62
   133
370
     0
100
AcDbPoint
 10
-0.131714
 20
-1.833517
 30
0.0
  0
POINT
  5
7DA34
330
7DB3C
100
AcDbEntity
  8
Level 26
 62
   133
370
     0
100
AcDbPoint
 10
-0.131714
 20
-2.483517
 30
0.0
  0
LINE
  5
7DA35
330
7DB3C
100
AcDbEntity
  8
Level 26
 62
   133
370
     0
100
AcDbLine
 10
-0.131714
 20
-1.833517
 30
0.0
 11
-0.131714
 21
-2.483517
 31
0.0
  0
POINT
  5
7DA36
330
7DB3C
100
AcDbEntity
  8
Level 26
 62
   133
370
     0
100
AcDbPoint
 10
-0.131714
 20
-1.833517
 30
0.0
  0
POINT
  5
7DA37
330
7DB3C
100
AcDbEntity
  8
Level 26
 62
   133
370
     0
100
AcDbPoint
 10
-0.131714
 20
-2.383517
 30
0.0
  0
POINT
  5
7DA38
330
7DB3C
100
AcDbEntity
  8
Level 26
 62
   133
370
     0
100
AcDbPoint
 10
-0.131714
 20
-2.383517
 30
0.0
  0
LINE
  5
7DA39
330
7DB3C
100
AcDbEntity
  8
Level 26
 62
   133
370
     0
100
AcDbLine
 10
-0.131714
 20
-2.483517
 30
0.0
 11
-0.131714
 21
-2.383517
 31
0.0
  0
LINE
  5
7DA3A
330
7DB3C
100
AcDbEntity
  8
Level 26
 62
   133
370
     0
100
AcDbLine
 10
-0.131714
 20
-2.483517
 30
0.0
 11
-0.131714
 21
-2.383517
 31
0.0
  0
POINT
  5
7DA3B
330
7DB3C
100
AcDbEntity
  8
Level 26
 62
   133
370
     0
100
AcDbPoint
 10
-0.131714
 20
-1.933517
 30
0.0
  0
LINE
  5
7DA3C
330
7DB3C
100
AcDbEntity
  8
Level 26
 62
   133
370
     0
100
AcDbLine
 10
-0.131714
 20
-1.933517
 30
0.0
 11
-0.131714
 21
-1.833517
 31
0.0
  0
POINT
  5
7DA3D
330
7DB3C
100
AcDbEntity
  8
Level 26
 62
   133
370
     0
100
AcDbPoint
 10
-0.131714
 20
-1.933517
 30
0.0
  0
LINE
  5
7DA3E
330
7DB3C
100
AcDbEntity
  8
Level 26
 62
   133
370
     0
100
AcDbLine
 10
-0.131714
 20
-1.933517
 30
0.0
 11
-0.131714
 21
-1.833517
 31
0.0
  0
LINE
  5
7DA3F
330
7DB3C
100
AcDbEntity
  8
Level 26
 62
   133
370
     0
100
AcDbLine
 10
-0.131714
 20
-2.158517
 30
0.0
 11
-0.011714
 21
-2.158517
 31
0.0
  0
LINE
  5
7DA40
330
7DB3C
100
AcDbEntity
  8
Level 26
 62
   133
370
     0
100
AcDbLine
 10
-0.131714
 20
-2.483517
 30
0.0
 11
-0.011714
 21
-2.483517
 31
0.0
  0
LINE
  5
7DA41
330
7DB3C
100
AcDbEntity
  8
Level 26
 62
   133
370
     0
100
AcDbLine
 10
-0.131714
 20
-2.158517
 30
0.0
 11
-0.011714
 21
-2.158517
 31
0.0
  0
LINE
  5
7DA42
330
7DB3C
100
AcDbEntity
  8
Level 26
 62
   133
370
     0
100
AcDbLine
 10
-0.131714
 20
-1.833517
 30
0.0
 11
-0.011714
 21
-1.833517
 31
0.0
  0
ENDBLK
  5
7DB3E
330
7DB3C
100
AcDbEntity
  8
0
100
AcDbBlockEnd
  0
BLOCK
  5
7DB40
330
7DB3F
100
AcDbEntity
  8
0
100
AcDbBlockBegin
  2
From Solid_1
 70
     0
 71
     0
 10
0.0
 20
0.0
 30
0.0
  3
From Solid_1
  1

  0
LINE
  5
7DA44
330
7DB3F
100
AcDbEntity
  8
Level 27
  6
Continuous
 62
    40
370
     0
100
AcDbLine
 10
3445.025751
 20
1828.707727
 30
0.0
 11
3445.025751
 21
1794.707727
 31
0.0
  0
LINE
  5
7DA45
330
7DB3F
100
AcDbEntity
  8
Level 27
  6
Continuous
 62
    40
370
     0
100
AcDbLine
 10
4645.025751
 20
1828.707727
 30
0.0
 11
4645.025751
 21
1794.707727
 31
0.0
  0
LINE
  5
7DA46
330
7DB3F
100
AcDbEntity
  8
Level 27
  6
Continuous
 62
    40
370
     0
100
AcDbLine
 10
3445.025751
 20
1828.707727
 30
0.0
 11
4645.025751
 21
1828.707727
 31
0.0
  0
LINE
  5
7DA47
330
7DB3F
100
AcDbEntity
  8
Level 27
  6
Continuous
 62
    40
370
     0
100
AcDbLine
 10
3445.025751
 20
1811.707727
 30
0.0
 11
4645.025751
 21
1811.707727
 31
0.0
  0
LINE
  5
7DA48
330
7DB3F
100
AcDbEntity
  8
Level 27
  6
Continuous
 62
    40
370
     0
100
AcDbLine
 10
3445.025751
 20
1794.707727
 30
0.0
 11
4645.025751
 21
1794.707727
 31
0.0
  0
LINE
  5
7DA49
330
7DB3F
100
AcDbEntity
  8
Level 27
  6
Continuous
 62
    40
370
     0
100
AcDbLine
 10
3445.025751
 20
1811.707727
 30
0.0
 11
4645.025751
 21
1811.707727
 31
0.0
  0
ENDBLK
  5
7DB41
330
7DB3F
100
AcDbEntity
  8
0
100
AcDbBlockEnd
  0
BLOCK
  5
7DB43
330
7DB42
100
AcDbEntity
  8
0
100
AcDbBlockBegin
  2
Feature Solid_18
 70
     0
 71
     0
 10
0.0
 20
0.0
 30
0.0
  3
Feature Solid_18
  1

  0
INSERT
  5
7DA4B
330
7DB42
100
AcDbEntity
  8
Level 26
 62
   133
370
     0
100
AcDbBlockReference
  2
UNITE_6
 10
-22.17087
 20
215.851704
 30
0.0
 41
100.0
 42
100.0
 43
100.0
  0
ENDBLK
  5
7DB44
330
7DB42
100
AcDbEntity
  8
0
100
AcDbBlockEnd
  0
BLOCK
  5
7DB46
330
7DB45
100
AcDbEntity
  8
0
100
AcDbBlockBegin
  2
UNITE_6
 70
     0
 71
     0
 10
0.0
 20
0.0
 30
0.0
  3
UNITE_6
  1

  0
INSERT
  5
7DA4C
330
7DB45
100
AcDbEntity
  8
Level 26
 62
   133
370
     0
100
AcDbBlockReference
  2
Feature Solid_19
 10
0.0
 20
0.0
 30
0.0
  0
INSERT
  5
7DA53
330
7DB45
100
AcDbEntity
  8
Level 26
 62
   133
370
     0
100
AcDbBlockReference
  2
Feature Solid_20
 10
0.0
 20
-0.55
 30
0.0
  0
INSERT
  5
7DA5A
330
7DB45
100
AcDbEntity
  8
Level 8
 62
   133
370
     0
100
AcDbBlockReference
  2
Feature Solid_21
 10
0.0
 20
0.0
 30
0.0
  0
ENDBLK
  5
7DB47
330
7DB45
100
AcDbEntity
  8
0
100
AcDbBlockEnd
  0
BLOCK
  5
7DB49
330
7DB48
100
AcDbEntity
  8
0
100
AcDbBlockBegin
  2
Feature Solid_19
 70
     0
 71
     0
 10
0.0
 20
0.0
 30
0.0
  3
Feature Solid_19
  1

  0
INSERT
  5
7DA4D
330
7DB48
100
AcDbEntity
  8
Level 26
 62
   133
370
     0
100
AcDbBlockReference
  2
DDPROJ_9
 10
0.0
 20
0.0
 30
0.0
  0
ENDBLK
  5
7DB4A
330
7DB48
100
AcDbEntity
  8
0
100
AcDbBlockEnd
  0
BLOCK
  5
7DB4C
330
7DB4B
100
AcDbEntity
  8
0
100
AcDbBlockBegin
  2
DDPROJ_9
 70
     0
 71
     0
 10
0.0
 20
0.0
 30
0.0
  3
DDPROJ_9
  1

  0
POINT
  5
7DA4E
330
7DB4B
100
AcDbEntity
  8
Level 26
 62
   133
370
     0
100
AcDbPoint
 10
0.011714
 20
-1.833517
 30
0.0
  0
LINE
  5
7DA4F
330
7DB4B
100
AcDbEntity
  8
Level 26
 62
   133
370
     0
100
AcDbLine
 10
0.131714
 20
-1.933517
 30
0.0
 11
0.359125
 21
-1.933517
 31
0.0
  0
LINE
  5
7DA50
330
7DB4B
100
AcDbEntity
  8
Level 26
 62
   133
370
     0
100
AcDbLine
 10
0.131714
 20
-1.833517
 30
0.0
 11
0.431714
 21
-1.833517
 31
0.0
  0
LINE
  5
7DA51
330
7DB4B
100
AcDbEntity
  8
Level 26
 62
   133
370
     0
100
AcDbLine
 10
0.131714
 20
-1.833517
 30
0.0
 11
0.431714
 21
-1.833517
 31
0.0
  0
LINE
  5
7DA52
330
7DB4B
100
AcDbEntity
  8
Level 26
 62
   133
370
     0
100
AcDbLine
 10
0.131714
 20
-1.933517
 30
0.0
 11
0.359125
 21
-1.933517
 31
0.0
  0
ENDBLK
  5
7DB4D
330
7DB4B
100
AcDbEntity
  8
0
100
AcDbBlockEnd
  0
BLOCK
  5
7DB4F
330
7DB4E
100
AcDbEntity
  8
0
100
AcDbBlockBegin
  2
Feature Solid_20
 70
     0
 71
     0
 10
0.0
 20
0.0
 30
0.0
  3
Feature Solid_20
  1

  0
INSERT
  5
7DA54
330
7DB4E
100
AcDbEntity
  8
Level 26
 62
   133
370
     0
100
AcDbBlockReference
  2
DDPROJ_10
 10
0.0
 20
0.0
 30
0.0
  0
ENDBLK
  5
7DB50
330
7DB4E
100
AcDbEntity
  8
0
100
AcDbBlockEnd
  0
BLOCK
  5
7DB52
330
7DB51
100
AcDbEntity
  8
0
100
AcDbBlockBegin
  2
DDPROJ_10
 70
     0
 71
     0
 10
0.0
 20
0.0
 30
0.0
  3
DDPROJ_10
  1

  0
POINT
  5
7DA55
330
7DB51
100
AcDbEntity
  8
Level 26
 62
   133
370
     0
100
AcDbPoint
 10
0.011714
 20
-1.933517
 30
0.0
  0
LINE
  5
7DA56
330
7DB51
100
AcDbEntity
  8
Level 26
 62
   133
370
     0
100
AcDbLine
 10
0.131714
 20
-1.933517
 30
0.0
 11
0.431714
 21
-1.933517
 31
0.0
  0
LINE
  5
7DA57
330
7DB51
100
AcDbEntity
  8
Level 26
 62
   133
370
     0
100
AcDbLine
 10
0.131714
 20
-1.833517
 30
0.0
 11
0.359125
 21
-1.833517
 31
0.0
  0
LINE
  5
7DA58
330
7DB51
100
AcDbEntity
  8
Level 26
 62
   133
370
     0
100
AcDbLine
 10
0.131714
 20
-1.833517
 30
0.0
 11
0.359125
 21
-1.833517
 31
0.0
  0
LINE
  5
7DA59
330
7DB51
100
AcDbEntity
  8
Level 26
 62
   133
370
     0
100
AcDbLine
 10
0.131714
 20
-1.933517
 30
0.0
 11
0.431714
 21
-1.933517
 31
0.0
  0
ENDBLK
  5
7DB53
330
7DB51
100
AcDbEntity
  8
0
100
AcDbBlockEnd
  0
BLOCK
  5
7DB55
330
7DB54
100
AcDbEntity
  8
0
100
AcDbBlockBegin
  2
Feature Solid_21
 70
     0
 71
     0
 10
0.0
 20
0.0
 30
0.0
  3
Feature Solid_21
  1

  0
INSERT
  5
7DA5B
330
7DB54
100
AcDbEntity
  8
Level 8
 62
   133
370
     0
100
AcDbBlockReference
  2
UNITE_7
 10
0.0
 20
0.0
 30
0.0
  0
ENDBLK
  5
7DB56
330
7DB54
100
AcDbEntity
  8
0
100
AcDbBlockEnd
  0
BLOCK
  5
7DB58
330
7DB57
100
AcDbEntity
  8
0
100
AcDbBlockBegin
  2
UNITE_7
 70
     0
 71
     0
 10
0.0
 20
0.0
 30
0.0
  3
UNITE_7
  1

  0
INSERT
  5
7DA5C
330
7DB57
100
AcDbEntity
  8
Level 8
 62
   133
370
     0
100
AcDbBlockReference
  2
Feature Solid_22
 10
0.0
 20
0.0
 30
0.0
  0
INSERT
  5
7DA72
330
7DB57
100
AcDbEntity
  8
Level 26
 62
   133
370
     0
100
AcDbBlockReference
  2
Feature Solid_23
 10
0.0
 20
0.0
 30
0.0
  0
ENDBLK
  5
7DB59
330
7DB57
100
AcDbEntity
  8
0
100
AcDbBlockEnd
  0
BLOCK
  5
7DB5B
330
7DB5A
100
AcDbEntity
  8
0
100
AcDbBlockBegin
  2
Feature Solid_22
 70
     0
 71
     0
 10
0.0
 20
0.0
 30
0.0
  3
Feature Solid_22
  1

  0
INSERT
  5
7DA5D
330
7DB5A
100
AcDbEntity
  8
Level 8
 62
   133
370
     0
100
AcDbBlockReference
  2
CONE_3
 10
0.0
 20
0.0
 30
0.0
  0
ENDBLK
  5
7DB5C
330
7DB5A
100
AcDbEntity
  8
0
100
AcDbBlockEnd
  0
BLOCK
  5
7DB5E
330
7DB5D
100
AcDbEntity
  8
0
100
AcDbBlockBegin
  2
CONE_3
 70
     0
 71
     0
 10
0.0
 20
0.0
 30
0.0
  3
CONE_3
  1

  0
LINE
  5
7DA5E
330
7DB5D
100
AcDbEntity
  8
Level 8
 62
   133
370
     0
100
AcDbLine
 10
0.431714
 20
-1.833517
 30
0.0
 11
0.431714
 21
-2.483517
 31
0.0
  0
LINE
  5
7DA5F
330
7DB5D
100
AcDbEntity
  8
Level 8
 62
   133
370
     0
100
AcDbLine
 10
0.131714
 20
-2.383517
 30
0.0
 11
0.359125
 21
-2.383517
 31
0.0
  0
LINE
  5
7DA60
330
7DB5D
100
AcDbEntity
  8
Level 8
 62
   133
370
     0
100
AcDbLine
 10
0.131714
 20
-2.383517
 30
0.0
 11
0.359125
 21
-2.383517
 31
0.0
  0
SPLINE
  5
7DA61
330
7DB5D
100
AcDbEntity
  8
Level 8
 62
   133
370
     0
100
AcDbSpline
210
0.0
220
0.0
230
1.0
 70
     8
 71
     3
 72
    17
 73
    13
 74
     0
 42
0.0000000001
 43
0.00000001
 40
0.0
 40
0.0
 40
0.0
 40
0.0
 40
0.1188920175173181
 40
0.1188920175173181
 40
0.1188920175173181
 40
0.4370642450454728
 40
0.4370642450454728
 40
0.4370642450454728
 40
0.7708126268407274
 40
0.7708126268407274
 40
0.7708126268407274
 40
1.0
 40
1.0
 40
1.0
 40
1.0
 10
0.4317136962460353
 20
-2.483517035676389
 30
0.0
 10
0.4317136962460353
 20
-2.483517035676389
 30
0.0
 10
0.4312857853703775
 20
-2.482970961108954
 30
0.0
 10
0.4304413967249374
 20
-2.481890266834164
 30
0.0
 10
0.42818936871722
 20
-2.479007999541985
 30
0.0
 10
0.4228496497948271
 20
-2.472181370284073
 30
0.0
 10
0.415280563715676
 20
-2.462245290317629
 30
0.0
 10
0.407328803424555
 20
-2.451806866801178
 30
0.0
 10
0.3967863239604625
 20
-2.437764099143895
 30
0.0
 10
0.3850241073261032
 20
-2.421270187946131
 30
0.0
 10
0.3768999155639108
 20
-2.409877803190351
 30
0.0
 10
0.368116555618009
 20
-2.39720582936004
 30
0.0
 10
0.359125348396347
 20
-2.383517035681365
 30
0.0
  0
SPLINE
  5
7DA64
330
7DB5D
100
AcDbEntity
  8
Level 8
 62
   133
370
     0
100
AcDbSpline
210
0.0
220
0.0
230
1.0
 70
     8
 71
     3
 72
    14
 73
    10
 74
     0
 42
0.0000000001
 43
0.00000001
 40
0.0
 40
0.0
 40
0.0
 40
0.0
 40
0.4155111778321488
 40
0.4155111778321488
 40
0.4155111778321488
 40
0.7657511632294429
 40
0.7657511632294429
 40
0.7657511632294429
 40
1.0
 40
1.0
 40
1.0
 40
1.0
 10
0.3591253483958568
 20
-2.383517035676373
 30
0.0
 10
0.3753273199526745
 20
-2.408183961970714
 30
0.0
 10
0.3909352251375111
 20
-2.42972384287685
 30
0.0
 10
0.4032945372283621
 20
-2.446330563598313
 30
0.0
 10
0.4137190532493946
 20
-2.460337575068305
 30
0.0
 10
0.4220439846593962
 20
-2.471094914404414
 30
0.0
 10
0.4268312321213159
 20
-2.477256738635806
 30
0.0
 10
0.4300308856968016
 20
-2.481375118370782
 30
0.0
 10
0.4317136962460353
 20
-2.483517035676389
 30
0.0
 10
0.4317136962460353
 20
-2.483517035676389
 30
0.0
  0
LINE
  5
7DA67
330
7DB5D
100
AcDbEntity
  8
Level 8
 62
   133
370
     0
100
AcDbLine
 10
0.431714
 20
-1.833517
 30
0.0
 11
0.431714
 21
-2.483517
 31
0.0
  0
SPLINE
  5
7DA68
330
7DB5D
100
AcDbEntity
  8
Level 8
 62
   133
370
     0
100
AcDbSpline
210
0.0
220
0.0
230
1.0
 70
     8
 71
     3
 72
    17
 73
    13
 74
     0
 42
0.0000000001
 43
0.00000001
 40
0.0
 40
0.0
 40
0.0
 40
0.0
 40
0.1188920175167992
 40
0.1188920175167992
 40
0.1188920175167992
 40
0.4370642450447248
 40
0.4370642450447248
 40
0.4370642450447248
 40
0.7708126268396294
 40
0.7708126268396294
 40
0.7708126268396294
 40
1.0
 40
1.0
 40
1.0
 40
1.0
 10
0.4317136962460353
 20
-1.833517035676241
 30
0.0
 10
0.4317136962460353
 20
-1.833517035676241
 30
0.0
 10
0.4312857853703775
 20
-1.83406311024368
 30
0.0
 10
0.4304413967249516
 20
-1.83514380451847
 30
0.0
 10
0.4281893687172627
 20
-1.838026071810628
 30
0.0
 10
0.4228496497948768
 20
-1.844852701068522
 30
0.0
 10
0.4152805637157329
 20
-1.854788781034966
 30
0.0
 10
0.4073288034246332
 20
-1.865227204551417
 30
0.0
 10
0.3967863239605407
 20
-1.8792699722087
 30
0.0
 10
0.3850241073262097
 20
-1.895763883406445
 30
0.0
 10
0.3768999155639747
 20
-1.907156268162282
 30
0.0
 10
0.3681165556180375
 20
-1.919828241992668
 30
0.0
 10
0.3591253483963186
 20
-1.933517035671436
 30
0.0
  0
LINE
  5
7DA6B
330
7DB5D
100
AcDbEntity
  8
Level 8
 62
   133
370
     0
100
AcDbLine
 10
0.131714
 20
-1.933517
 30
0.0
 11
0.359125
 21
-1.933517
 31
0.0
  0
LINE
  5
7DA6C
330
7DB5D
100
AcDbEntity
  8
Level 8
 62
   133
370
     0
100
AcDbLine
 10
0.131714
 20
-1.933517
 30
0.0
 11
0.359125
 21
-1.933517
 31
0.0
  0
SPLINE
  5
7DA6D
330
7DB5D
100
AcDbEntity
  8
Level 8
 62
   133
370
     0
100
AcDbSpline
210
0.0
220
0.0
230
1.0
 70
     8
 71
     3
 72
    14
 73
    10
 74
     0
 42
0.0000000001
 43
0.00000001
 40
0.0
 40
0.0
 40
0.0
 40
0.0
 40
0.4155111778320348
 40
0.4155111778320348
 40
0.4155111778320348
 40
0.7657511632291136
 40
0.7657511632291136
 40
0.7657511632291136
 40
1.0
 40
1.0
 40
1.0
 40
1.0
 10
0.3591253483956578
 20
-1.93351703567641
 30
0.0
 10
0.3753273199525111
 20
-1.908850109382065
 30
0.0
 10
0.390935225137369
 20
-1.887310228475872
 30
0.0
 10
0.4032945372282555
 20
-1.870703507754392
 30
0.0
 10
0.4137190532493023
 20
-1.856696496284382
 30
0.0
 10
0.4220439846593322
 20
-1.845939156948273
 30
0.0
 10
0.4268312321212662
 20
-1.839777332716864
 30
0.0
 10
0.4300308856967732
 20
-1.835658952981866
 30
0.0
 10
0.4317136962460353
 20
-1.833517035676241
 30
0.0
 10
0.4317136962460353
 20
-1.833517035676241
 30
0.0
  0
LINE
  5
7DA70
330
7DB5D
100
AcDbEntity
  8
Level 8
 62
   133
370
     0
100
AcDbLine
 10
0.131714
 20
-2.158517
 30
0.0
 11
0.431714
 21
-2.158517
 31
0.0
  0
LINE
  5
7DA71
330
7DB5D
100
AcDbEntity
  8
Level 8
 62
   133
370
     0
100
AcDbLine
 10
0.131714
 20
-2.158517
 30
0.0
 11
0.431714
 21
-2.158517
 31
0.0
  0
ENDBLK
  5
7DB5F
330
7DB5D
100
AcDbEntity
  8
0
100
AcDbBlockEnd
  0
BLOCK
  5
7DB61
330
7DB60
100
AcDbEntity
  8
0
100
AcDbBlockBegin
  2
Feature Solid_23
 70
     0
 71
     0
 10
0.0
 20
0.0
 30
0.0
  3
Feature Solid_23
  1

  0
INSERT
  5
7DA73
330
7DB60
100
AcDbEntity
  8
Level 26
 62
   133
370
     0
100
AcDbBlockReference
  2
DDPROJ_11
 10
0.0
 20
0.0
 30
0.0
  0
ENDBLK
  5
7DB62
330
7DB60
100
AcDbEntity
  8
0
100
AcDbBlockEnd
  0
BLOCK
  5
7DB64
330
7DB63
100
AcDbEntity
  8
0
100
AcDbBlockBegin
  2
DDPROJ_11
 70
     0
 71
     0
 10
0.0
 20
0.0
 30
0.0
  3
DDPROJ_11
  1

  0
LINE
  5
7DA74
330
7DB63
100
AcDbEntity
  8
Level 26
 62
   133
370
     0
100
AcDbLine
 10
0.011714
 20
-1.833517
 30
0.0
 11
0.131714
 21
-1.833517
 31
0.0
  0
LINE
  5
7DA75
330
7DB63
100
AcDbEntity
  8
Level 26
 62
   133
370
     0
100
AcDbLine
 10
0.131714
 20
-1.833517
 30
0.0
 11
0.011714
 21
-1.833517
 31
0.0
  0
LINE
  5
7DA76
330
7DB63
100
AcDbEntity
  8
Level 26
 62
   133
370
     0
100
AcDbLine
 10
0.011714
 20
-2.483517
 30
0.0
 11
0.131714
 21
-2.483517
 31
0.0
  0
LINE
  5
7DA77
330
7DB63
100
AcDbEntity
  8
Level 26
 62
   133
370
     0
100
AcDbLine
 10
0.131714
 20
-2.483517
 30
0.0
 11
0.011714
 21
-2.483517
 31
0.0
  0
LINE
  5
7DA78
330
7DB63
100
AcDbEntity
  8
Level 26
 62
   133
370
     0
100
AcDbLine
 10
0.131714
 20
-1.933517
 30
0.0
 11
0.131714
 21
-2.383517
 31
0.0
  0
LINE
  5
7DA79
330
7DB63
100
AcDbEntity
  8
Level 26
 62
   133
370
     0
100
AcDbLine
 10
0.131714
 20
-1.933517
 30
0.0
 11
0.131714
 21
-2.383517
 31
0.0
  0
LINE
  5
7DA7A
330
7DB63
100
AcDbEntity
  8
Level 26
 62
   133
370
     0
100
AcDbLine
 10
0.011714
 20
-1.833517
 30
0.0
 11
0.011714
 21
-2.483517
 31
0.0
  0
POINT
  5
7DA7B
330
7DB63
100
AcDbEntity
  8
Level 26
 62
   133
370
     0
100
AcDbPoint
 10
0.131714
 20
-2.483517
 30
0.0
  0
LINE
  5
7DA7C
330
7DB63
100
AcDbEntity
  8
Level 26
 62
   133
370
     0
100
AcDbLine
 10
0.011714
 20
-1.833517
 30
0.0
 11
0.011714
 21
-2.483517
 31
0.0
  0
LINE
  5
7DA7D
330
7DB63
100
AcDbEntity
  8
Level 26
 62
   133
370
     0
100
AcDbLine
 10
0.131714
 20
-1.833517
 30
0.0
 11
0.131714
 21
-2.483517
 31
0.0
  0
POINT
  5
7DA7E
330
7DB63
100
AcDbEntity
  8
Level 26
 62
   133
370
     0
100
AcDbPoint
 10
0.131714
 20
-1.833517
 30
0.0
  0
POINT
  5
7DA7F
330
7DB63
100
AcDbEntity
  8
Level 26
 62
   133
370
     0
100
AcDbPoint
 10
0.131714
 20
-2.483517
 30
0.0
  0
LINE
  5
7DA80
330
7DB63
100
AcDbEntity
  8
Level 26
 62
   133
370
     0
100
AcDbLine
 10
0.131714
 20
-1.833517
 30
0.0
 11
0.131714
 21
-2.483517
 31
0.0
  0
POINT
  5
7DA81
330
7DB63
100
AcDbEntity
  8
Level 26
 62
   133
370
     0
100
AcDbPoint
 10
0.131714
 20
-1.833517
 30
0.0
  0
POINT
  5
7DA82
330
7DB63
100
AcDbEntity
  8
Level 26
 62
   133
370
     0
100
AcDbPoint
 10
0.131714
 20
-2.383517
 30
0.0
  0
POINT
  5
7DA83
330
7DB63
100
AcDbEntity
  8
Level 26
 62
   133
370
     0
100
AcDbPoint
 10
0.131714
 20
-2.383517
 30
0.0
  0
LINE
  5
7DA84
330
7DB63
100
AcDbEntity
  8
Level 26
 62
   133
370
     0
100
AcDbLine
 10
0.131714
 20
-2.483517
 30
0.0
 11
0.131714
 21
-2.383517
 31
0.0
  0
LINE
  5
7DA85
330
7DB63
100
AcDbEntity
  8
Level 26
 62
   133
370
     0
100
AcDbLine
 10
0.131714
 20
-2.483517
 30
0.0
 11
0.131714
 21
-2.383517
 31
0.0
  0
POINT
  5
7DA86
330
7DB63
100
AcDbEntity
  8
Level 26
 62
   133
370
     0
100
AcDbPoint
 10
0.131714
 20
-1.933517
 30
0.0
  0
LINE
  5
7DA87
330
7DB63
100
AcDbEntity
  8
Level 26
 62
   133
370
     0
100
AcDbLine
 10
0.131714
 20
-1.933517
 30
0.0
 11
0.131714
 21
-1.833517
 31
0.0
  0
POINT
  5
7DA88
330
7DB63
100
AcDbEntity
  8
Level 26
 62
   133
370
     0
100
AcDbPoint
 10
0.131714
 20
-1.933517
 30
0.0
  0
LINE
  5
7DA89
330
7DB63
100
AcDbEntity
  8
Level 26
 62
   133
370
     0
100
AcDbLine
 10
0.131714
 20
-1.933517
 30
0.0
 11
0.131714
 21
-1.833517
 31
0.0
  0
LINE
  5
7DA8A
330
7DB63
100
AcDbEntity
  8
Level 26
 62
   133
370
     0
100
AcDbLine
 10
0.131714
 20
-2.158517
 30
0.0
 11
0.011714
 21
-2.158517
 31
0.0
  0
LINE
  5
7DA8B
330
7DB63
100
AcDbEntity
  8
Level 26
 62
   133
370
     0
100
AcDbLine
 10
0.131714
 20
-2.483517
 30
0.0
 11
0.011714
 21
-2.483517
 31
0.0
  0
LINE
  5
7DA8C
330
7DB63
100
AcDbEntity
  8
Level 26
 62
   133
370
     0
100
AcDbLine
 10
0.131714
 20
-2.158517
 30
0.0
 11
0.011714
 21
-2.158517
 31
0.0
  0
LINE
  5
7DA8D
330
7DB63
100
AcDbEntity
  8
Level 26
 62
   133
370
     0
100
AcDbLine
 10
0.131714
 20
-1.833517
 30
0.0
 11
0.011714
 21
-1.833517
 31
0.0
  0
ENDBLK
  5
7DB65
330
7DB63
100
AcDbEntity
  8
0
100
AcDbBlockEnd
  0
ENDSEC
  0
SECTION
  2
ENTITIES
  0
INSERT
  5
7D955
330
7DAA6
100
AcDbEntity
  8
Level 25
  6
Continuous
 62
   174
370
    13
100
AcDbBlockReference
  2
FS38
 10
4045.025751
 20
1811.707727
 30
0.0
  0
ENDSEC
  0
SECTION
  2
OBJECTS
  0
DICTIONARY
  5
7DAB9
330
0
100
AcDbDictionary
281
     1
  3
ACAD_GROUP
350
7DAB7
  3
ACAD_LAYOUT
350
7DABA
  3
ACAD_MLINESTYLE
350
7DAB8
  3
ACAD_PLOTSETTINGS
350
7DABB
  3
ACAD_PLOTSTYLENAME
350
7DABC
  3
ACAD_TABLESTYLE
350
7DB6B
  3
AcadDim
350
7DACC
  3
DWGPROPS
350
7DBB2
  0
DICTIONARY
  5
7DABF
330
7DAAE
100
AcDbDictionary
280
     1
281
     1
  3
ACAD_LAYERFILTERS
360
7DAC0
  0
DICTIONARY
  5
7DAB7
102
{ACAD_REACTORS
330
7DAB9
102
}
330
7DAB9
100
AcDbDictionary
281
     1
  0
DICTIONARY
  5
7DABA
102
{ACAD_REACTORS
330
7DAB9
102
}
330
7DAB9
100
AcDbDictionary
281
     1
  3
Layout1
350
7DAAD
  3
Model
350
7DAA9
  0
DICTIONARY
  5
7DAB8
102
{ACAD_REACTORS
330
7DAB9
102
}
330
7DAB9
100
AcDbDictionary
281
     1
  3
Standard
350
7DAA4
  0
DICTIONARY
  5
7DABB
102
{ACAD_REACTORS
330
7DAB9
102
}
330
7DAB9
100
AcDbDictionary
281
     1
  0
ACDBDICTIONARYWDFLT
  5
7DABC
102
{ACAD_REACTORS
330
7DAB9
102
}
330
7DAB9
100
AcDbDictionary
281
     1
  3
Normal
350
7DA9F
100
AcDbDictionaryWithDefault
340
7DA9F
  0
DICTIONARY
  5
7DB6B
102
{ACAD_REACTORS
330
7DAB9
102
}
330
7DAB9
100
AcDbDictionary
281
     1
  0
XRECORD
  5
7DACC
102
{ACAD_REACTORS
330
7DAB9
102
}
330
7DAB9
100
AcDbXrecord
280
     1
 90
   990106
  3
 
 60
     0
 61
     0
 62
     1
 63
     1
 64
     0
 65
     0
 66
     0
 67
     3
 68
     1
 69
     1
 70
     0
 71
     0
 72
     0
 40
0.0
170
     0
  0
XRECORD
  5
7DBB2
102
{ACAD_REACTORS
330
7DAB9
102
}
330
7DAB9
100
AcDbXrecord
280
     1
  1
DWGPROPS COOKIE
  2

  3

  4
WAEngineering1
  6

  7

  8

  9

300
=
301
=
302
=
303
=
304
=
305
=
306
=
307
=
308
=
309
=
 40
0.0
 41
2451789.537469
 42
2451789.537561
  1

 90
        0
  0
DICTIONARY
  5
7DAC0
102
{ACAD_REACTORS
330
7DABF
102
}
330
7DABF
100
AcDbDictionary
281
     1
  0
LAYOUT
  5
7DAAD
102
{ACAD_REACTORS
330
7DABA
330
7DABA
102
}
330
7DABA
100
AcDbPlotSettings
  1

  2

  4

  6

 40
0.0
 41
0.0
 42
0.0
 43
0.0
 44
0.0
 45
0.0
 46
0.0
 47
0.0
 48
0.0
 49
0.0
140
0.0
141
0.0
142
1.0
143
1.0
 70
   688
 72
     0
 73
     0
 74
     5
  7

 75
    16
147
1.0
148
0.0
149
0.0
100
AcDbLayout
  1
Layout1
 70
     1
 71
     1
 10
0.0
 20
0.0
 11
12.0
 21
9.0
 12
0.0
 22
0.0
 32
0.0
 14
1.000000E+20
 24
1.000000E+20
 34
1.000000E+20
 15
-1.000000E+20
 25
-1.000000E+20
 35
-1.000000E+20
146
0.0
 13
0.0
 23
0.0
 33
0.0
 16
1.0
 26
0.0
 36
0.0
 17
0.0
 27
1.0
 37
0.0
 76
     0
330
7DAAA
  0
LAYOUT
  5
7DAA9
102
{ACAD_REACTORS
330
7DABA
330
7DABA
102
}
330
7DABA
100
AcDbPlotSettings
  1

  2

  4

  6

 40
0.0
 41
0.0
 42
0.0
 43
0.0
 44
0.0
 45
0.0
 46
0.0
 47
0.0
 48
0.0
 49
0.0
140
0.0
141
0.0
142
1.0
143
1.0
 70
  1712
 72
     0
 73
     0
 74
     0
  7

 75
     0
147
1.0
148
0.0
149
0.0
100
AcDbLayout
  1
Model
 70
     1
 71
     0
 10
0.0
 20
0.0
 11
12.0
 21
9.0
 12
0.0
 22
0.0
 32
0.0
 14
0.0
 24
0.0
 34
0.0
 15
0.0
 25
0.0
 35
0.0
146
0.0
 13
0.0
 23
0.0
 33
0.0
 16
1.0
 26
0.0
 36
0.0
 17
0.0
 27
1.0
 37
0.0
 76
     0
330
7DAA6
  0
MLINESTYLE
  5
7DAA4
102
{ACAD_REACTORS
330
7DAB8
102
}
330
7DAB8
100
AcDbMlineStyle
  2
STANDARD
 70
     0
  3

 62
   256
 51
90.0
 52
90.0
 71
     2
 49
0.5
 62
   256
  6
BYLAYER
 49
-0.5
 62
   256
  6
BYLAYER
  0
ACDBPLACEHOLDER
  5
7DA9F
102
{ACAD_REACTORS
330
7DABC
102
}
330
7DABC
  0
ENDSEC
  0
SECTION
  2
THUMBNAILIMAGE
 90
    16004
310
28000000B40000005300000001000800000000005C3A000000040000000400000001000050000000FFFFFF0000089000E0080800500000001800980000080000D8782800A800980000C800008800900000C8F8001808E0006000D0000008F0001800B00080000000009800001800A8000008E8000000C0000000A800000008
310
000000500000003000002000002800280050001800A808100000002800000018005800500008900000002828000008080080080800980078007000180000008000180078007800000078080000986800009000180068001800E808F000C00808008800000098080800C008100060001800D000A80098000000906890008000
310
600000081000000818000008500018002800000860000008380030081000B808100058001800C800900000086800B0A09800C0B89000B8B89800A8000000D000000088081800080808000800500010005000080000004800000028000000300000001000000018000000FFFFFF00FFFFFF00FFFFFF00FFFFFF00FFFFFF00FF
310
FFFF00FFFFFF00FFFFFF00FFFFFF00FFFFFF00FFFFFF00FFFFFF00FFFFFF00FFFFFF00FFFFFF00FFFFFF00FFFFFF00FFFFFF00FFFFFF00FFFFFF00FFFFFF00FFFFFF00FFFFFF00FFFFFF00FFFFFF00FFFFFF00FFFFFF00FFFFFF00FFFFFF00FFFFFF00FFFFFF00FFFFFF00FFFFFF00FFFFFF00FFFFFF00FFFFFF00FFFFFF00
310
FFFFFF00FFFFFF00FFFFFF00FFFFFF00FFFFFF00FFFFFF00FFFFFF00FFFFFF00FFFFFF00FFFFFF00FFFFFF00FFFFFF00FFFFFF00FFFFFF00FFFFFF00FFFFFF00FFFFFF00FFFFFF00FFFFFF00FFFFFF00FFFFFF00FFFFFF00FFFFFF00FFFFFF00FFFFFF00FFFFFF00FFFFFF00FFFFFF00FFFFFF00FFFFFF00FFFFFF00FFFFFF
310
00FFFFFF00FFFFFF00FFFFFF00FFFFFF00FFFFFF00FFFFFF00FFFFFF00FFFFFF00FFFFFF00FFFFFF00FFFFFF00FFFFFF00FFFFFF00FFFFFF00FFFFFF00FFFFFF00FFFFFF00FFFFFF00FFFFFF00FFFFFF00FFFFFF00FFFFFF00FFFFFF00FFFFFF00FFFFFF00FFFFFF00FFFFFF00FFFFFF00FFFFFF00FFFFFF00FFFFFF00FFFF
310
FF00FFFFFF00FFFFFF00FFFFFF00FFFFFF00FFFFFF00FFFFFF00FFFFFF00FFFFFF00FFFFFF00FFFFFF00FFFFFF00FFFFFF00FFFFFF00FFFFFF00FFFFFF00FFFFFF00FFFFFF00FFFFFF00FFFFFF00FFFFFF00FFFFFF00FFFFFF00FFFFFF00FFFFFF00FFFFFF00FFFFFF00FFFFFF00FFFFFF00FFFFFF00FFFFFF00FFFFFF00FF
310
FFFF00FFFFFF00FFFFFF00FFFFFF00FFFFFF00FFFFFF00FFFFFF00FFFFFF00FFFFFF00FFFFFF00FFFFFF00FFFFFF00FFFFFF00FFFFFF00FFFFFF00FFFFFF00FFFFFF00FFFFFF00FFFFFF00FFFFFF00FFFFFF00FFFFFF00FFFFFF00FFFFFF00FFFFFF00FFFFFF00FFFFFF00FFFFFF00FFFFFF00FFFFFF00FFFFFF00FFFFFF00
310
FFFFFF00FFFFFF00FFFFFF00FFFFFF00FFFFFF00FFFFFF00FFFFFF00FFFFFF00FFFFFF00FFFFFF00FFFFFF00FFFFFF0034343434343434343434343434343434343434343434343434343434343434343434343434343434343434343434343434343434343434343434343434343434343434343434343434343434343434
310
34343434343434343434343434343434343434343434343434343434343434343434343434343434343434343434343434343434343434343434343434343434343434343434343434343434343434343434343434343434343434343434343434343434343434343434343434343434343434343434343434343434343434
310
34343434343434343434343434343434343434343434343434343434343434343434343434343434343434343434343434343434343434343434343434343434343434343434343434343434343434343434343434343434343434343434343434343434343434343434343434343434343434343434343434343434343434
310
34343434343434343434343434343434343434343434343434343434343434343434343434343434343434343434343434343434343434343434343434343434343434343434343434343434343434343434343434343434343434343434343434343434343434343434343434343434343434343434343434343434343434
310
34343434343434343434343434343434343434343434343434343434343434343434343434343434343434343434343434343434343434343434343434343434343434343434343434343434343434343434343434343434343434343434343434343434343434343434343434343434343434343434343434343434343434
310
34343434343434343434343434343434343434343434343434343434343434343434343434343434343434343434343434343434343434343434343434343434343434343434343434343434343434343434343434343434343434343434343434343434343434343434343434343434343434343434343434343434343434
310
34343434343434343434343434343434343434343434343434343434343434343434343434343434343434343434343434343434343434343434343434343434343434343434343434343434343434343434343434343434343434343434343434343434343434343434343434343434343434343434343434343434343434
310
34343434343434343434343434343434343434343434343434343434343434343434343434343434343434343434343434343434343434343434343434343434343434343434343434343434343434343434343434343434343434343434343434343434343434343434343434343434343434343434343434343434343434
310
34343434343434343434343434343434343434343434343434343434343434343434343434343434343434343434343434343434343434343434343434343434343434343434343434343434343434343434343434343434343434343434343434343434343434343434343434343434343434343434343434343434343434
310
34343434343434343434343434343434343434343434343434343434343434343434343434343434343434343434343434343434343434343434343434343434343434343434343434343434343434343434343434343434343434343434343434343434343434343434343434343434343434343434343434343434343434
310
34343434343434343434343434343434343434343434343434343434343434343434343434343434343434343434343434343434343434343434343434343434343434343434343434343434343434343434343434343434343434343434343434343434343434343434343434343434343434343434343434343434343434
310
34343434343434343434343434343434343434343434343434343434343434343434343434343434343434343434343434343434343434343434343434343434343434343434343434343434343434343434343434343434343434343434343434343434343434343434343434343434343434343434343434343434343434
310
34343434343434343434343434343434343434343434343434343434343434343434343434343434343434343434343434343434343434343434343434343434343434343434343434343434343434343434343434343434343434343434343434343434343434343434343434343434343434343434343434343434343434
310
34343434343434343434343434343434343434343434343434343434343434343434343434343434343434343434343434343434343434343434343434343434343434343434343434343434343434343434343434343434343434343434343434343434343434343434343434343434343434343434343434343434343434
310
34343434343434343434343434343434343434343434343434343434343434343434343434343434343434343434343434343434343434343434343434343434343434343434343434343434343434343434343434343434343434343434343434343434343434343434343434343434343434343434343434343434343434
310
34343434343434343434343434343434343434343434343434343434343434343434343434343434343434343434343434343434343434343434343434343434343434343434343434343434343434343434343434343434343434343434343434343434343434343434343434343434343434343434343434343434343434
310
34343434343434343434343434343434343434343434343434343434343434343434343434343434343434343434343434343434343434343434343434343434343434343434343434343434343434343434343434343434343434343434343434343434343434343434343434343434343434343434343434343434343434
310
34343434343434343434343434343434343434343434343434343434343434343434343434343434343434343434343434343434343434343434343434343434343434343434343434343434343434343434343434343434343434343434343434343434343434343434343434343434343434343434343434343434343434
310
34343434343434343434343434343434343434343434343434343434343434343434343434343434343434343434343434343434343434343434343434343434343434343434343434343434343434343434343434343434343434343434343434343434343434343434343434343434343434343434343434343434343434
310
34343434343434343434343434343434343434343434343434343434343434343434343434343434343434343434343434343434343434343434343434343434343434343434343434343434343434343434343434343434343434343434343434343434343434343434343434343434343434343434343434343434343434
310
34343434343434343434343434343434343434343434343434343434343434343434343434343434343434343434343434343434343434343434343434343434343434343434343434343434343434343434343434343434343434343434343434343434343434343434343434343434343434343434343434343434343434
310
34343434343434343434343434343434343434343434343434343434343434343434343434343434343434343434343434343434343434343434343434343434343434343434343434343434343434343434343434343434343434343434343434343434343434343434343434343434343434343434343434343434343434
310
34343434343434343434343434343434343434343434343434343434343434343434343434343434343434343434343434343434343434343434343434343434343434343434343434343434343434343434343434343434343434343434343434343434343434343434343434343434343434343434343434343434343434
310
34343434343434343434343434343434343434343434343434343434343434343434343434343434343434343434343434343434343434343434343434343434343434343434343434343434343434343434343434343434343434343434343434343434343434343434343434343434343434343434343434343434343434
310
34343434343434343434343434343434343434343434343434343434343434343434343434343434343434343434343434343434343434343434343434343434343434343434343434343434343434343434343434343434343434343434343434343434343434343434343434343434343434343434343434343434343434
310
34343434343434343434343434343434343434343434343434343434343434343434343434343434343434343434343434343434343434343434343434343434343434343434343434343434343434343434343434343434343434343434343434343434343434343434343434343434343434343434343434343434343434
310
34343434343434343434343434343434343434343434343434343434343434343434343434343434343434343434343434343434343434343434343434343434343434343434343434343434343434343434343434343434343434343434343434343434343434343434343434343434343434343434343434343434343434
310
34343434343434343434343434343434343434343434343434343434343434343434343434343434343434343434343434343434343434343434343434343434343434343434343434343434343434343434343434343434343434343434343434343434343434343434343434343434343434343434343434343434343434
310
34343434343434343434343434343434343434343434343434343434343434343434343434343434343434343434343434343434343434343434343434343434343434343434343434343434343434343434343434343434343434343434343434343434343434343434343434343434343434343434343434343434343434
310
34343434343434343434343434343434343434343434343434343434343434343434343434343434343434343434343434343434343434343434343434343434343434343434343434343434343434343434343434343434343434343434343434343434343434343434343434343434343434343434343434343434343434
310
34343434343434343434343434343434343434343434343434343434343434343434343434343434343434343434343434343434343434343434343434343434343434343434343434343434343434343434343434343434343434343434343434343434343434343434343434343434343434343434343434343434343434
310
34343434343434343434343434343434343434343434343434343434343434343434343434343434343434343434343434343434343434343434343434343434343434343434343434343434343434343434343434343434343434343434343434343434343434343434343434343434343434343434343434343434343434
310
34343434343434343434343434343434343434343434343434343434343434343434343434343434343434343434343434343434343434343434343434343434343434343434343434343434343434343434343434343434343434343434343434343434343434343434343434343434343434343434343434343434343434
310
34343434343434343434343434343434343434343434343434343434343434343434343434343434343434343434343434343434343434343434343434343434343434343434343434343434343434343434343434343434343434343434343434343434343434343434343434343434343434343434343434343434343434
310
34343434343434343434343434343434343434343434343434343434343434343434343434343434343434343434343434343434343434343434343434343434343434343434343434343434343434343434343434343434343434343434343434343434343434343434343434343434343434343434343434343434343434
310
34343434343434343434343434343434343434343434343434343434343434343434343434343434343434343434343434343434343434343434343434343434343434343434343434343434343434343434343434343434343434343434343434343434343434343434343434343434343434343434343434343434343434
310
34343434343434343434343434343434343434343434343434343434343434343434343434343434343434343434343434343434343434343434343434343434343434343434343434343434343434343434343434343434343434343434343434343434343434343434343434343434343434343434343434343434343434
310
34343434343434343434343434343434343434343434343434343434343434343434343434343434343434343434343434343434343434343434343434343434343434343434343434343434343434343434343434343434343434343434343434343434343434343434343434343434343434343434343434343434343434
310
34343434343434343434343434343434343434343434343434343434343434343434343434343434343434343434343434343434343434343434343434343434343434343434343434343434343434343434343434343434343434343434343434343434343434343434343434343434343434343434343434343434343434
310
34343434343434343434343434343434343434343434343434343434343434343434343434343434343434343434343434343434343434343434343434343434343434343434343434343434343434343434343434343434343434343434343434343434343434343434343434343434343434343434343434343434343434
310
34343434343434343434343434343434343434343434343434343434343434343434343434343434343434343434343434343434343434343434343434343434343434343434343434343434343434343434343434343434343434343434343434343434343434343434343434343434343434343434343434343434343434
310
34343434343434343434343434343434343434343434343434343434343434343434343434343434343434343434343434343434343434343434343434343434343434343434343434343434343434343434343434343434343434343434343434343434343434343434343434343434343434343434343434343434343434
310
34343434343434343434343434343434343434343434343434343434343434343434343434343434343434343434343434343434343434343434343434343434343434343434343434343434343434343434343434343434343434343434343434343434343434343434343434343434343434343434343434343434343434
310
34343434343434343434343434343434343434343434343434343434343434343434343434343434343434343434343434343434343434343434343434343434343434343434343434343434343434343434343434343434343434343434343434343434343434343434343434343434343434343434343434343434343434
310
34343434343434343434343434343434343434343434343434343434343434343434343434343434343434343434343434343434343434343434343434343434343434343434343434343434343434343434343434343434343434343434343434343434343434343434343434343434343434343434343434343434343434
310
34343434343434343434343434343434343434343434343434343434343434343434343434343434343434343434343434343434343434343434343434343434343434343434343434343434343434343434343434343434343434343434343434343434343434343434343434343434343434343434343434343434343434
310
34343434343434343434343434343434343434343434343434343434343434343434343434343434343434343434343434343434343434343434343434343434343434343434343434343434343434343434343434343434343434343434343434343434343434343434343434343434343434343434343434343434343434
310
34343434343434343434343434343434343434343434343434343434343434343434343434343434343434343434343434343434343434343434343434343434343434343434343434343434343434343434343434343434343434343434343434343434343434343434343434343434343434343434343434343434343434
310
34343434343434343434343434343434343434343434343434343434343434343434343434343434343434343434343434343434343434343434343434343434343434343434343434343434343434343434343434343434343434343434343434343434343434343434343434343434343434343434343434343434343434
310
34343434343434343434343434343434343434343434343434343434343434343434343434343434343434343434343434343434343434343434343434343434343434343434343434343434343434343434343434343434343434343434343434343434343434343434343434343434343434343434343434343434343434
310
343434343434343434343434343434343434343434343434343434343434343434343434343434343434343434343434343434343434343434343434343434343434343434343434343434343434343434344141414343430A0A0A0A0A0A0A0A0A0A0A0A0A0A0A0A0A0A0A0A0A0A0A0A0A0A0A0A0A0A0A0A0A0A0A0A0A4141
310
34343434343434343434343434343434343434343434343434343434343434343434343434343434343434343434343434343434343434343434343434343434343434343434343434343434343434343434343434343434343434343434343434343434343434343434343434343434343434343434343434343434343434
310
34343434343434344141414343430A0A0A0A0A0A0A0A0A0A0A0A0A0A0A0A0A0A0A0A0A0A0A0A0A0A0A0A0A0A0A0A0A0A0A0A0A41413434343434343434343434343434343434343434343434343434343434343434343434343434343434343434343434343434343434343434343434343434343434343434343434343434
310
34343434343434343434343434343434343434343434343434343434343434343434343434343434343434343434343434343434343434343434343434414141434343343434343434343434343434343434343434343434343434343434343434343434344343434141343434343434343434343434343434343434343434
310
34343434343434343434343434343434343434343434343434343434343434343434343434343434343434343434343434343434343434343434343434343434343434343434343434343434343434343434343434343434343434343434343434343434343434343434343434343434343434414141413434343434343434
310
34343434343434343434343434343434343434343434343434343434344141413434343434343434343434343434343434343434343434343434343434343434343434343434343434343434343434343434343434343434343434343434343434343434343434343434343434343434343434343434343434343434343434
310
34343434343434343434343434343434343434343434343434343434343434343434343434343434343434343434343434343434343434343434343434343434343434343434343434343434343434343434343434343434343434343434343434343434343434343434343434343434343434343434343434343434343434
310
34343434343434343434343434343434343434343434343434343434343434343434343434343434343434343434343434343434343434343434343434343434343434343434343434343434343434343434343434343434343434343434343434343434343434343434343434343434343434343434343434343434343434
310
34343434343434343434343434343434343434343434343434343434343434343434343434343434343434343434343434343434343434343434343434343434343434343434343434343434343434343434343434343434343434343434343434343434343434343434343434343434343434343434343434343434343434
310
34343434343434343434343434343434343434343434343434343434343434343434343434343434343434343434343434343434343434343434343434343434343434343434343434343434343434343434343434343434343434343434343434343434343434343434343434343434343434343434343434343434343434
310
34343434343434343434343434343434343434343434343434343434343434343434343434343434343434343434343434343434343434343434343434343434343434343434343434343434343434343434343434343434343434343434343434343434343434343434343434343434343434343434343434343434343434
310
34343434343434343434343434343434343434343434343434343434343434343434343434343434343434343434343434343434343434343434343434343434343434343434343434343434343434343434343434343434343434343434343434343434343434343434343434343434343434343434343434343434343434
310
34343434343434343434343434343434343434343434343434343434343434343434343434343434343434343434343434343434343434343434343434343434343434343434343434343434343434343434343434343434343434343434343434343434343434343434343434343434343434343434343434343434343434
310
34343434343434343434343434343434343434343434343434343434343434343434343434343434343434343434343434343434343434343434343434343434343434343434343434343434343434343434343434343434343434343434343434343434343434343434343434343434343434343434343434343434343434
310
34343434343434343434343434343434343434343434343434343434343434343434343434343434343434343434343434343434343434343434343434343434343434343434343434343434343434343434343434343434343434343434343434343434343434343434343434343434343434343434343434343434343434
310
34343434343434343434343434343434343434343434343434343434343434343434343434343434343434343434343434343434343434343434343434343434343434343434343434343434343434343434343434343434343434343434343434343434343434343434343434343434343434343434343434343434343434
310
34343434343434343434343434343434343434343434343434343434343434343434343434343434343434343434343434343434343434343434343434343434343434343434343434343434343434343434343434343434343434343434343434343434343434343434343434343434343434343434343434343434343434
310
34343434343434343434343434343434343434343434343434343434343434343434343434343434343434343434343434343434343434343434343434343434343434343434343434343434343434343434343434343434343434343434343434343434343434343434343434343434343434343434343434343434343434
310
34343434343434343434343434343434343434343434343434343434343434343434343434343434343434343434343434343434343434343434343434343434343434343434343434343434343434343434343434343434343434343434343434343434343434343434343434343434343434343434343434343434343434
310
34343434343434343434343434343434343434343434343434343434343434343434343434343434343434343434343434343434343434343434343434343434343434343434343434343434343434343434343434343434343434343434343434343434343434343434343434343434343434343434343434343434343434
310
34343434343434343434343434343434343434343434343434343434343434343434343434343434343434343434343434343434343434343434343434343434343434343434343434343434343434343434343434343434343434343434343434343434343434343434343434343434343434343434343434343434343434
310
34343434343434343434343434343434343434343434343434343434343434343434343434343434343434343434343434343434343434343434343434343434343434343434343434343434343434343434343434343434343434343434343434343434343434343434343434343434343434343434343434343434343434
310
34343434343434343434343434343434343434343434343434343434343434343434343434343434343434343434343434343434343434343434343434343434343434343434343434343434343434343434343434343434343434343434343434343434343434343434343434343434343434343434343434343434343434
310
34343434343434343434343434343434343434343434343434343434343434343434343434343434343434343434343434343434343434343434343434343434343434343434343434343434343434343434343434343434343434343434343434343434343434343434343434343434343434343434343434343434343434
310
34343434343434343434343434343434343434343434343434343434343434343434343434343434343434343434343434343434343434343434343434343434343434343434343434343434343434343434343434343434343434343434343434343434343434343434343434343434343434343434343434343434343434
310
34343434343434343434343434343434343434343434343434343434343434343434343434343434343434343434343434343434343434343434343434343434343434343434343434343434343434343434343434343434343434343434343434343434343434343434343434343434343434343434343434343434343434
310
34343434343434343434343434343434343434343434343434343434343434343434343434343434343434343434343434343434343434343434343434343434343434343434343434343434343434343434343434343434343434343434343434343434343434343434343434343434343434343434343434343434343434
310
34343434343434343434343434343434343434343434343434343434343434343434343434343434343434343434343434343434343434343434343434343434343434343434343434343434343434343434343434343434343434343434343434343434343434343434343434343434343434343434343434343434343434
310
34343434343434343434343434343434343434343434343434343434343434343434343434343434343434343434343434343434343434343434343434343434343434343434343434343434343434343434343434343434343434343434343434343434343434343434343434343434343434343434343434343434343434
310
34343434343434343434343434343434343434343434343434343434343434343434343434343434343434343434343434343434343434343434343434343434343434343434343434343434343434343434343434343434343434343434343434343434343434343434343434343434343434343434343434343434343434
310
34343434343434343434343434343434343434343434343434343434343434343434343434343434343434343434343434343434343434343434343434343434343434343434343434343434343434343434343434343434343434343434343434343434343434343434343434343434343434343434343434343434343434
310
34343434343434343434343434343434343434343434343434343434343434343434343434343434343434343434343434343434343434343434343434343434343434343434343434343434343434343434343434343434343434343434343434343434343434343434343434343434343434343434343434343434343434
310
34343434343434343434343434343434343434343434343434343434343434343434343434343434343434343434343434343434343434343434343434343434343434343434343434343434343434343434343434343434343434343434343434343434343434343434343434343434343434343434343434343434343434
310
34343434343434343434343434343434343434343434343434343434343434343434343434343434343434343434343434343434343434343434343434343434343434343434343434343434343434343434343434343434343434343434343434343434343434343434343434343434343434343434343434343434343434
310
34343434343434343434343434343434343434343434343434343434343434343434343434343434343434343434343434343434343434343434343434343434343434343434343434343434343434343434343434343434343434343434343434343434343434343434343434343434343434343434343434343434343434
310
34343434343434343434343434343434343434343434343434343434343434343434343434343434343434343434343434343434343434343434343434343434343434343434343434343434343434343434343434343434343434343434343434343434343434343434343434343434343434343434343434343434343434
310
34343434343434343434343434343434343434343434343434343434343434343434343434343434343434343434343434343434343434343434343434343434343434343434343434343434343434343434343434343434343434343434343434343434343434343434343434343434343434343434343434343434343434
310
34343434343434343434343434343434343434343434343434343434343434343434343434343434343434343434343434343434343434343434343434343434343434343434343434343434343434343434343434343434343434343434343434343434343434343434343434343434343434343434343434343434343434
310
34343434343434343434343434343434343434343434343434343434343434343434343434343434343434343434343434343434343434343434343434343434343434343434343434343434343434343434343434343434343434343434343434343434343434343434343434343434343434343434343434343434343434
310
34343434343434343434343434343434343434343434343434343434343434343434343434343434343434343434343434343434343434343434343434343434343434343434343434343434343434343434343434343434343434343434343434343434343434343434343434343434343434343434343434343434343434
310
34343434343434343434343434343434343434343434343434343434343434343434343434343434343434343434343434343434343434343434343434343434343434343434343434343434343434343434343434343434343434343434343434343434343434343434343434343434343434343434343434343434343434
310
34343434343434343434343434343434343434343434343434343434343434343434343434343434343434343434343434343434343434343434343434343434343434343434343434343434343434343434343434343434343434343434343434343434343434343434343434343434343434343434343434343434343434
310
34343434343434343434343434343434343434343434343434343434343434343434343434343434343434343434343434343434343434343434343434343434343434343434343434343434343434343434343434343434343434343434343434343434343434343434343434343434343434343434343434343434343434
310
34343434343434343434343434343434343434343434343434343434343434343434343434343434343434343434343434343434343434343434343434343434343434343434343434343434343434343434343434343434343434343434343434343434343434343434343434343434343434343434343434343434343434
310
34343434343434343434343434343434343434343434343434343434343434343434343434343434343434343434343434343434343434343434343434343434343434343434343434343434343434343434343434343434343434343434343434343434343434343434343434343434343434343434343434343434343434
310
34343434343434343434343434343434343434343434343434343434343434343434343434343434343434343434343434343434343434343434343434343434343434343434343434343434343434343434343434343434343434343434343434343434343434343434343434343434343434343434343434343434343434
310
34343434343434343434343434343434343434343434343434343434343434343434343434343434343434343434343434343434343434343434343434343434343434343434343434343434343434343434343434343434343434343434343434343434343434343434343434343434343434343434343434343434343434
310
34343434343434343434343434343434343434343434343434343434343434343434343434343434343434343434343434343434343434343434343434343434343434343434343434343434343434343434343434343434343434343434343434343434343434343434343434343434343434343434343434343434343434
310
34343434343434343434343434343434343434343434343434343434343434343434343434343434343434343434343434343434343434343434343434343434343434343434343434343434343434343434343434343434343434343434343434343434343434343434343434343434343434343434343434343434343434
310
34343434343434343434343434343434343434343434343434343434343434343434343434343434343434343434343434343434343434343434343434343434343434343434343434343434343434343434343434343434343434343434343434343434343434343434343434343434343434343434343434343434343434
310
34343434343434343434343434343434343434343434343434343434343434343434343434343434343434343434343434343434343434343434343434343434343434343434343434343434343434343434343434343434343434343434343434343434343434343434343434343434343434343434343434343434343434
310
34343434343434343434343434343434343434343434343434343434343434343434343434343434343434343434343434343434343434343434343434343434343434343434343434343434343434343434343434343434343434343434343434343434343434343434343434343434343434343434343434343434343434
310
34343434343434343434343434343434343434343434343434343434343434343434343434343434343434343434343434343434343434343434343434343434343434343434343434343434343434343434343434343434343434343434343434343434343434343434343434343434343434343434343434343434343434
310
34343434343434343434343434343434343434343434343434343434343434343434343434343434343434343434343434343434343434343434343434343434343434343434343434343434343434343434343434343434343434343434343434343434343434343434343434343434343434343434343434343434343434
310
34343434343434343434343434343434343434343434343434343434343434343434343434343434343434343434343434343434343434343434343434343434343434343434343434343434343434343434343434343434343434343434343434343434343434343434343434343434343434343434343434343434343434
310
34343434343434343434343434343434343434343434343434343434343434343434343434343434343434343434343434343434343434343434343434343434343434343434343434343434343434343434343434343434343434343434343434343434343434343434343434343434343434343434343434343434343434
310
34343434343434343434343434343434343434343434343434343434343434343434343434343434343434343434343434343434343434343434343434343434343434343434343434343434343434343434343434343434343434343434343434343434343434343434343434343434343434343434343434343434343434
310
34343434343434343434343434343434343434343434343434343434343434343434343434343434343434343434343434343434343434343434343434343434343434343434343434343434343434343434343434343434343434343434343434343434343434343434343434343434343434343434343434343434343434
310
34343434343434343434343434343434343434343434343434343434343434343434343434343434343434343434343434343434343434343434343434343434343434343434343434343434343434343434343434343434343434343434343434343434343434343434343434343434343434343434343434343434343434
310
34343434343434343434343434343434343434343434343434343434343434343434343434343434343434343434343434343434343434343434343434343434343434343434343434343434343434343434343434343434343434343434343434343434343434343434343434343434343434343434343434343434343434
310
34343434343434343434343434343434343434343434343434343434343434343434343434343434343434343434343434343434343434343434343434343434343434343434343434343434343434343434343434343434343434343434343434343434343434343434343434343434343434343434343434343434343434
310
34343434343434343434343434343434343434343434343434343434343434343434343434343434343434343434343434343434343434343434343434343434343434343434343434343434343434343434343434343434343434343434343434343434343434343434343434343434343434343434343434343434343434
310
34343434343434343434343434343434343434343434343434343434343434343434343434343434343434343434343434343434343434343434343434343434343434343434343434343434343434343434343434343434343434343434343434343434343434343434343434343434343434343434343434343434343434
310
34343434343434343434343434343434343434343434343434343434343434343434343434343434343434343434343434343434343434343434343434343434343434343434343434343434343434343434343434343434343434343434343434343434343434343434343434343434343434343434343434343434343434
310
34343434343434343434343434343434343434343434343434343434343434343434343434343434343434343434343434343434343434343434343434343434343434343434343434343434343434343434343434343434343434343434343434343434343434343434343434343434343434343434343434343434343434
310
34343434343434343434343434343434343434343434343434343434343434343434343434343434343434343434343434343434343434343434343434343434343434343434343434343434343434343434343434343434343434343434343434343434343434343434343434343434343434343434343434343434343434
310
3434343434343434343434343434343434343434343434343434343434343434343434343434343434343434343434343434343434343434343434343434343434343434343434343434343400101F4229081820093F1E00002A2F2D0203211D1503210104052848004A4F160027240F254703211D0003254026002349004A
310
4D4800332B0F14220336171503144004000749004E4D4800442B44131B033617150313400E003249004E4D1600452B4414300336170003144011000C49004E4D16004E4D16002E240F353003211700033617000321170003123B0B002C49004D1A4D0D3C030D150003173839001949004F4A16004C314E1746033715000337
310
0306
  0
ENDSEC
  0
EOF
