  0
SECTION
  2
HEADER
  9
$ACADVER
  1
AC1015
  9
$ACADMAINTVER
 70
     6
  9
$DWGCODEPAGE
  3
ANSI_1252
  9
$INSBASE
 10
0.0
 20
0.0
 30
0.0
  9
$EXTMIN
 10
2688.749
 20
167.276
 30
0.0
  9
$EXTMAX
 10
3708.75
 20
3078.277
 30
0.0
  9
$LIMMIN
 10
-2970.311648
 20
-4546.284648
  9
$LIMMAX
 10
9367.810648
 20
7791.837648
  9
$ORTHOMODE
 70
     0
  9
$REGENMODE
 70
     1
  9
$FILLMODE
 70
     1
  9
$QTEXTMODE
 70
     0
  9
$MIRRTEXT
 70
     1
  9
$LTSCALE
 40
1.0
  9
$ATTMODE
 70
     1
  9
$TEXTSIZE
 40
100.0
  9
$TRACEWID
 40
0.05
  9
$TEXTSTYLE
  7
Standard
  9
$CLAYER
  8
Level 8
  9
$CELTYPE
  6
Continuous
  9
$CECOLOR
 62
    98
  9
$CELTSCALE
 40
1.0
  9
$DISPSILH
 70
     0
  9
$DIMSCALE
 40
1.0
  9
$DIMASZ
 40
100.0
  9
$DIMEXO
 40
50.0
  9
$DIMDLI
 40
0.0
  9
$DIMRND
 40
0.0
  9
$DIMDLE
 40
0.0
  9
$DIMEXE
 40
50.0
  9
$DIMTP
 40
0.0
  9
$DIMTM
 40
0.0
  9
$DIMTXT
 40
100.0
  9
$DIMCEN
 40
0.09
  9
$DIMTSZ
 40
0.0
  9
$DIMTOL
 70
     0
  9
$DIMLIM
 70
     0
  9
$DIMTIH
 70
     0
  9
$DIMTOH
 70
     0
  9
$DIMSE1
 70
     0
  9
$DIMSE2
 70
     0
  9
$DIMTAD
 70
     1
  9
$DIMZIN
 70
    11
  9
$DIMBLK
  1
TerminatorOpen_0.5
  9
$DIMASO
 70
     1
  9
$DIMSHO
 70
     1
  9
$DIMPOST
  1

  9
$DIMAPOST
  1

  9
$DIMALT
 70
     0
  9
$DIMALTD
 70
     4
  9
$DIMALTF
 40
25.4
  9
$DIMLFAC
 40
1.0
  9
$DIMTOFL
 70
     0
  9
$DIMTVP
 40
0.0
  9
$DIMTIX
 70
     0
  9
$DIMSOXD
 70
     0
  9
$DIMSAH
 70
     0
  9
$DIMBLK1
  1

  9
$DIMBLK2
  1

  9
$DIMSTYLE
  2
Standard
  9
$DIMCLRD
 70
     0
  9
$DIMCLRE
 70
     0
  9
$DIMCLRT
 70
     0
  9
$DIMTFAC
 40
1.0
  9
$DIMGAP
 40
50.0
  9
$DIMJUST
 70
     0
  9
$DIMSD1
 70
     0
  9
$DIMSD2
 70
     0
  9
$DIMTOLJ
 70
     0
  9
$DIMTZIN
 70
    11
  9
$DIMALTZ
 70
    15
  9
$DIMALTTZ
 70
    15
  9
$DIMUPT
 70
     0
  9
$DIMDEC
 70
     0
  9
$DIMTDEC
 70
     0
  9
$DIMALTU
 70
     2
  9
$DIMALTTD
 70
     4
  9
$DIMTXSTY
  7
Style-ENGINEERING
  9
$DIMAUNIT
 70
     0
  9
$DIMADEC
 70
     0
  9
$DIMALTRND
 40
0.0
  9
$DIMAZIN
 70
     3
  9
$DIMDSEP
 70
    46
  9
$DIMATFIT
 70
     3
  9
$DIMFRAC
 70
     2
  9
$DIMLDRBLK
  1
TerminatorOpen_0.5
  9
$DIMLUNIT
 70
     2
  9
$DIMLWD
 70
    -2
  9
$DIMLWE
 70
    -2
  9
$DIMTMOVE
 70
     0
  9
$LUNITS
 70
     2
  9
$LUPREC
 70
     0
  9
$SKETCHINC
 40
0.1
  9
$FILLETRAD
 40
0.5
  9
$AUNITS
 70
     0
  9
$AUPREC
 70
     0
  9
$MENU
  1
.
  9
$ELEVATION
 40
0.0
  9
$PELEVATION
 40
0.0
  9
$THICKNESS
 40
0.0
  9
$LIMCHECK
 70
     0
  9
$CHAMFERA
 40
0.5
  9
$CHAMFERB
 40
0.5
  9
$CHAMFERC
 40
1.0
  9
$CHAMFERD
 40
0.0
  9
$SKPOLY
 70
     0
  9
$TDCREATE
 40
2451789.870802037
  9
$TDUCREATE
 40
2451789.537468704
  9
$TDUPDATE
 40
2451789.87089463
  9
$TDUUPDATE
 40
2451789.537561297
  9
$TDINDWG
 40
0.0000927662
  9
$TDUSRTIMER
 40
0.0000925926
  9
$USRTIMER
 70
     1
  9
$ANGBASE
 50
0.0
  9
$ANGDIR
 70
     0
  9
$PDMODE
 70
     0
  9
$PDSIZE
 40
0.0
  9
$PLINEWID
 40
0.0
  9
$SPLFRAME
 70
     0
  9
$SPLINETYPE
 70
     6
  9
$SPLINESEGS
 70
     8
  9
$HANDSEED
  5
7B621
  9
$SURFTAB1
 70
     6
  9
$SURFTAB2
 70
     6
  9
$SURFTYPE
 70
     6
  9
$SURFU
 70
     6
  9
$SURFV
 70
     6
  9
$UCSBASE
  2

  9
$UCSNAME
  2

  9
$UCSORG
 10
0.0
 20
0.0
 30
0.0
  9
$UCSXDIR
 10
1.0
 20
0.0
 30
0.0
  9
$UCSYDIR
 10
0.0
 20
1.0
 30
0.0
  9
$UCSORTHOREF
  2

  9
$UCSORTHOVIEW
 70
     0
  9
$UCSORGTOP
 10
0.0
 20
0.0
 30
0.0
  9
$UCSORGBOTTOM
 10
0.0
 20
0.0
 30
0.0
  9
$UCSORGLEFT
 10
0.0
 20
0.0
 30
0.0
  9
$UCSORGRIGHT
 10
0.0
 20
0.0
 30
0.0
  9
$UCSORGFRONT
 10
0.0
 20
0.0
 30
0.0
  9
$UCSORGBACK
 10
0.0
 20
0.0
 30
0.0
  9
$PUCSBASE
  2

  9
$PUCSNAME
  2

  9
$PUCSORG
 10
0.0
 20
0.0
 30
0.0
  9
$PUCSXDIR
 10
1.0
 20
0.0
 30
0.0
  9
$PUCSYDIR
 10
0.0
 20
1.0
 30
0.0
  9
$PUCSORTHOREF
  2

  9
$PUCSORTHOVIEW
 70
     0
  9
$PUCSORGTOP
 10
0.0
 20
0.0
 30
0.0
  9
$PUCSORGBOTTOM
 10
0.0
 20
0.0
 30
0.0
  9
$PUCSORGLEFT
 10
0.0
 20
0.0
 30
0.0
  9
$PUCSORGRIGHT
 10
0.0
 20
0.0
 30
0.0
  9
$PUCSORGFRONT
 10
0.0
 20
0.0
 30
0.0
  9
$PUCSORGBACK
 10
0.0
 20
0.0
 30
0.0
  9
$USERI1
 70
     0
  9
$USERI2
 70
     0
  9
$USERI3
 70
     0
  9
$USERI4
 70
     0
  9
$USERI5
 70
     0
  9
$USERR1
 40
0.0
  9
$USERR2
 40
0.0
  9
$USERR3
 40
0.0
  9
$USERR4
 40
0.0
  9
$USERR5
 40
0.0
  9
$WORLDVIEW
 70
     1
  9
$SHADEDGE
 70
     3
  9
$SHADEDIF
 70
    70
  9
$TILEMODE
 70
     1
  9
$MAXACTVP
 70
    64
  9
$PINSBASE
 10
0.0
 20
0.0
 30
0.0
  9
$PLIMCHECK
 70
     0
  9
$PEXTMIN
 10
1.000000E+20
 20
1.000000E+20
 30
1.000000E+20
  9
$PEXTMAX
 10
-1.000000E+20
 20
-1.000000E+20
 30
-1.000000E+20
  9
$PLIMMIN
 10
0.0
 20
0.0
  9
$PLIMMAX
 10
12.0
 20
9.0
  9
$UNITMODE
 70
     0
  9
$VISRETAIN
 70
     1
  9
$PLINEGEN
 70
     0
  9
$PSLTSCALE
 70
     0
  9
$TREEDEPTH
 70
  3020
  9
$CMLSTYLE
  2
Standard
  9
$CMLJUST
 70
     0
  9
$CMLSCALE
 40
1.0
  9
$PROXYGRAPHICS
 70
     1
  9
$MEASUREMENT
 70
     0
  9
$CELWEIGHT
370
     0
  9
$ENDCAPS
280
     0
  9
$JOINSTYLE
280
     0
  9
$LWDISPLAY
290
     1
  9
$INSUNITS
 70
     4
  9
$HYPERLINKBASE
  1

  9
$STYLESHEET
  1

  9
$XEDIT
290
     1
  9
$CEPSNTYPE
380
     0
  9
$PSTYLEMODE
290
     1
  9
$FINGERPRINTGUID
  2
{FDEAD576-A652-11D2-9A35-0060089B3A3F}
  9
$VERSIONGUID
  2
{A257D680-BC79-11D2-9A46-0060089B3A3F}
  9
$EXTNAMES
290
     1
  9
$PSVPSCALE
 40
0.0
  9
$OLESTARTUP
290
     0
  0
ENDSEC
  0
SECTION
  2
CLASSES
  0
CLASS
  1
ACDBDICTIONARYWDFLT
  2
AcDbDictionaryWithDefault
  3
ObjectDBX Classes
 90
        0
280
     0
281
     0
  0
CLASS
  1
ACDBPLACEHOLDER
  2
AcDbPlaceHolder
  3
ObjectDBX Classes
 90
        0
280
     0
281
     0
  0
CLASS
  1
LAYOUT
  2
AcDbLayout
  3
ObjectDBX Classes
 90
        0
280
     0
281
     0
  0
ENDSEC
  0
SECTION
  2
TABLES
  0
TABLE
  2
VPORT
  5
7B4CE
330
0
100
AcDbSymbolTable
 70
     3
  0
VPORT
  5
4B
330
7B4CE
100
AcDbSymbolTableRecord
100
AcDbViewportTableRecord
  2
*ACTIVE
 70
     0
 10
0.0
 20
0.0
 11
1.0
 21
1.0
 12
3198.7495
 22
1622.7765
 13
0.0
 23
0.0
 14
1.0
 24
1.0
 15
1.0
 25
1.0
 16
0.0
 26
0.0
 36
1.0
 17
0.0
 27
0.0
 37
0.0
 40
3027.44104
 41
2.15721
 42
50.0
 43
0.0
 44
0.0
 50
0.0
 51
0.0
 71
     0
 72
   100
 73
     1
 74
     2
 75
     0
 76
     0
 77
     0
 78
     1
281
     0
 65
     1
110
0.0
120
0.0
130
0.0
111
1.0
121
0.0
131
0.0
112
0.0
122
1.0
132
0.0
 79
     0
146
0.0
  0
ENDTAB
  0
TABLE
  2
LTYPE
  5
7B4CA
330
0
100
AcDbSymbolTable
 70
     2
  0
LTYPE
  5
7B4CB
330
7B4CA
100
AcDbSymbolTableRecord
100
AcDbLinetypeTableRecord
  2
ByBlock
 70
     0
  3

 72
    65
 73
     0
 40
0.0
  0
LTYPE
  5
7B4BC
330
7B4CA
100
AcDbSymbolTableRecord
100
AcDbLinetypeTableRecord
  2
ByLayer
 70
     0
  3

 72
    65
 73
     0
 40
0.0
  0
LTYPE
  5
7B4BA
330
7B4CA
100
AcDbSymbolTableRecord
100
AcDbLinetypeTableRecord
  2
Continuous
 70
     0
  3
Solid line
 72
    65
 73
     0
 40
0.0
  0
LTYPE
  5
4E1B6
330
7B4CA
100
AcDbSymbolTableRecord
100
AcDbLinetypeTableRecord
  2
Continuous_1
 70
     0
  3

 72
    65
 73
     0
 40
0.0
  0
ENDTAB
  0
TABLE
  2
LAYER
  5
7B4C8
102
{ACAD_XDICTIONARY
360
7B4D9
102
}
330
0
100
AcDbSymbolTable
 70
    65
  0
LAYER
  5
7B4B8
330
7B4C8
100
AcDbSymbolTableRecord
100
AcDbLayerTableRecord
  2
0
 70
     0
 62
     7
  6
Continuous
370
    -3
390
7B4B9
  0
LAYER
  5
7
330
7B4C8
100
AcDbSymbolTableRecord
100
AcDbLayerTableRecord
  2
Level 1
 70
     0
 62
     7
  6
Continuous
370
     0
390
7B4B9
  0
LAYER
  5
8
330
7B4C8
100
AcDbSymbolTableRecord
100
AcDbLayerTableRecord
  2
Level 2
 70
     0
 62
     7
  6
Continuous
370
     0
390
7B4B9
  0
LAYER
  5
9
330
7B4C8
100
AcDbSymbolTableRecord
100
AcDbLayerTableRecord
  2
Level 3
 70
     0
 62
     7
  6
Continuous
370
     0
390
7B4B9
  0
LAYER
  5
A
330
7B4C8
100
AcDbSymbolTableRecord
100
AcDbLayerTableRecord
  2
Level 4
 70
     0
 62
     7
  6
Continuous
370
     0
390
7B4B9
  0
LAYER
  5
B
330
7B4C8
100
AcDbSymbolTableRecord
100
AcDbLayerTableRecord
  2
Level 5
 70
     0
 62
     7
  6
Continuous
370
     0
390
7B4B9
  0
LAYER
  5
C
330
7B4C8
100
AcDbSymbolTableRecord
100
AcDbLayerTableRecord
  2
Level 6
 70
     0
 62
     7
  6
Continuous
370
     0
390
7B4B9
  0
LAYER
  5
D
330
7B4C8
100
AcDbSymbolTableRecord
100
AcDbLayerTableRecord
  2
Level 7
 70
     0
 62
     7
  6
Continuous
370
     0
390
7B4B9
  0
LAYER
  5
E
330
7B4C8
100
AcDbSymbolTableRecord
100
AcDbLayerTableRecord
  2
Level 8
 70
     0
 62
     7
  6
Continuous
370
     0
390
7B4B9
  0
LAYER
  5
F
330
7B4C8
100
AcDbSymbolTableRecord
100
AcDbLayerTableRecord
  2
Level 9
 70
     0
 62
     7
  6
Continuous
370
     0
390
7B4B9
  0
LAYER
  5
10
330
7B4C8
100
AcDbSymbolTableRecord
100
AcDbLayerTableRecord
  2
Level 10
 70
     0
 62
     7
  6
Continuous
370
     0
390
7B4B9
  0
LAYER
  5
11
330
7B4C8
100
AcDbSymbolTableRecord
100
AcDbLayerTableRecord
  2
Level 11
 70
     0
 62
     7
  6
Continuous
370
     0
390
7B4B9
  0
LAYER
  5
12
330
7B4C8
100
AcDbSymbolTableRecord
100
AcDbLayerTableRecord
  2
Level 12
 70
     0
 62
     7
  6
Continuous
370
     0
390
7B4B9
  0
LAYER
  5
13
330
7B4C8
100
AcDbSymbolTableRecord
100
AcDbLayerTableRecord
  2
Level 13
 70
     0
 62
     7
  6
Continuous
370
     0
390
7B4B9
  0
LAYER
  5
14
330
7B4C8
100
AcDbSymbolTableRecord
100
AcDbLayerTableRecord
  2
Level 14
 70
     0
 62
     7
  6
Continuous
370
     0
390
7B4B9
  0
LAYER
  5
15
330
7B4C8
100
AcDbSymbolTableRecord
100
AcDbLayerTableRecord
  2
Level 15
 70
     0
 62
     7
  6
Continuous
370
     0
390
7B4B9
  0
LAYER
  5
16
330
7B4C8
100
AcDbSymbolTableRecord
100
AcDbLayerTableRecord
  2
Level 16
 70
     0
 62
     7
  6
Continuous
370
     0
390
7B4B9
  0
LAYER
  5
17
330
7B4C8
100
AcDbSymbolTableRecord
100
AcDbLayerTableRecord
  2
Level 17
 70
     0
 62
     7
  6
Continuous
370
     0
390
7B4B9
  0
LAYER
  5
18
330
7B4C8
100
AcDbSymbolTableRecord
100
AcDbLayerTableRecord
  2
Level 18
 70
     0
 62
     7
  6
Continuous
370
     0
390
7B4B9
  0
LAYER
  5
19
330
7B4C8
100
AcDbSymbolTableRecord
100
AcDbLayerTableRecord
  2
Level 19
 70
     0
 62
     7
  6
Continuous
370
     0
390
7B4B9
  0
LAYER
  5
1A
330
7B4C8
100
AcDbSymbolTableRecord
100
AcDbLayerTableRecord
  2
Level 20
 70
     0
 62
     7
  6
Continuous
370
     0
390
7B4B9
  0
LAYER
  5
1B
330
7B4C8
100
AcDbSymbolTableRecord
100
AcDbLayerTableRecord
  2
Level 21
 70
     0
 62
     7
  6
Continuous
370
     0
390
7B4B9
  0
LAYER
  5
1C
330
7B4C8
100
AcDbSymbolTableRecord
100
AcDbLayerTableRecord
  2
Level 22
 70
     0
 62
     7
  6
Continuous
370
     0
390
7B4B9
  0
LAYER
  5
1D
330
7B4C8
100
AcDbSymbolTableRecord
100
AcDbLayerTableRecord
  2
Level 23
 70
     0
 62
     7
  6
Continuous
370
     0
390
7B4B9
  0
LAYER
  5
1E
330
7B4C8
100
AcDbSymbolTableRecord
100
AcDbLayerTableRecord
  2
Level 24
 70
     0
 62
     7
  6
Continuous
370
     0
390
7B4B9
  0
LAYER
  5
1F
330
7B4C8
100
AcDbSymbolTableRecord
100
AcDbLayerTableRecord
  2
Level 25
 70
     0
 62
     7
  6
Continuous
370
     0
390
7B4B9
  0
LAYER
  5
20
330
7B4C8
100
AcDbSymbolTableRecord
100
AcDbLayerTableRecord
  2
Level 26
 70
     0
 62
     7
  6
Continuous
370
     0
390
7B4B9
  0
LAYER
  5
21
330
7B4C8
100
AcDbSymbolTableRecord
100
AcDbLayerTableRecord
  2
Level 27
 70
     0
 62
     7
  6
Continuous
370
     0
390
7B4B9
  0
LAYER
  5
22
330
7B4C8
100
AcDbSymbolTableRecord
100
AcDbLayerTableRecord
  2
Level 28
 70
     0
 62
     7
  6
Continuous
370
     0
390
7B4B9
  0
LAYER
  5
23
330
7B4C8
100
AcDbSymbolTableRecord
100
AcDbLayerTableRecord
  2
Level 29
 70
     0
 62
     7
  6
Continuous
370
     0
390
7B4B9
  0
LAYER
  5
24
330
7B4C8
100
AcDbSymbolTableRecord
100
AcDbLayerTableRecord
  2
Level 30
 70
     0
 62
     7
  6
Continuous
370
     0
390
7B4B9
  0
LAYER
  5
25
330
7B4C8
100
AcDbSymbolTableRecord
100
AcDbLayerTableRecord
  2
Level 31
 70
     0
 62
     7
  6
Continuous
370
     0
390
7B4B9
  0
LAYER
  5
26
330
7B4C8
100
AcDbSymbolTableRecord
100
AcDbLayerTableRecord
  2
Level 32
 70
     0
 62
     7
  6
Continuous
370
     0
390
7B4B9
  0
LAYER
  5
27
330
7B4C8
100
AcDbSymbolTableRecord
100
AcDbLayerTableRecord
  2
Level 33
 70
     0
 62
     7
  6
Continuous
370
     0
390
7B4B9
  0
LAYER
  5
28
330
7B4C8
100
AcDbSymbolTableRecord
100
AcDbLayerTableRecord
  2
Level 34
 70
     0
 62
     7
  6
Continuous
370
     0
390
7B4B9
  0
LAYER
  5
29
330
7B4C8
100
AcDbSymbolTableRecord
100
AcDbLayerTableRecord
  2
Level 35
 70
     0
 62
     7
  6
Continuous
370
     0
390
7B4B9
  0
LAYER
  5
2A
330
7B4C8
100
AcDbSymbolTableRecord
100
AcDbLayerTableRecord
  2
Level 36
 70
     0
 62
     7
  6
Continuous
370
     0
390
7B4B9
  0
LAYER
  5
2B
330
7B4C8
100
AcDbSymbolTableRecord
100
AcDbLayerTableRecord
  2
Level 37
 70
     0
 62
     7
  6
Continuous
370
     0
390
7B4B9
  0
LAYER
  5
2C
330
7B4C8
100
AcDbSymbolTableRecord
100
AcDbLayerTableRecord
  2
Level 38
 70
     0
 62
     7
  6
Continuous
370
     0
390
7B4B9
  0
LAYER
  5
2D
330
7B4C8
100
AcDbSymbolTableRecord
100
AcDbLayerTableRecord
  2
Level 39
 70
     0
 62
     7
  6
Continuous
370
     0
390
7B4B9
  0
LAYER
  5
2E
330
7B4C8
100
AcDbSymbolTableRecord
100
AcDbLayerTableRecord
  2
Level 40
 70
     0
 62
     7
  6
Continuous
370
     0
390
7B4B9
  0
LAYER
  5
2F
330
7B4C8
100
AcDbSymbolTableRecord
100
AcDbLayerTableRecord
  2
Level 41
 70
     0
 62
     7
  6
Continuous
370
     0
390
7B4B9
  0
LAYER
  5
30
330
7B4C8
100
AcDbSymbolTableRecord
100
AcDbLayerTableRecord
  2
Level 42
 70
     0
 62
     7
  6
Continuous
370
     0
390
7B4B9
  0
LAYER
  5
31
330
7B4C8
100
AcDbSymbolTableRecord
100
AcDbLayerTableRecord
  2
Level 43
 70
     0
 62
     7
  6
Continuous
370
     0
390
7B4B9
  0
LAYER
  5
32
330
7B4C8
100
AcDbSymbolTableRecord
100
AcDbLayerTableRecord
  2
Level 44
 70
     0
 62
     7
  6
Continuous
370
     0
390
7B4B9
  0
LAYER
  5
33
330
7B4C8
100
AcDbSymbolTableRecord
100
AcDbLayerTableRecord
  2
Level 45
 70
     0
 62
     7
  6
Continuous
370
     0
390
7B4B9
  0
LAYER
  5
34
330
7B4C8
100
AcDbSymbolTableRecord
100
AcDbLayerTableRecord
  2
Level 46
 70
     0
 62
     7
  6
Continuous
370
     0
390
7B4B9
  0
LAYER
  5
35
330
7B4C8
100
AcDbSymbolTableRecord
100
AcDbLayerTableRecord
  2
Level 47
 70
     0
 62
     7
  6
Continuous
370
     0
390
7B4B9
  0
LAYER
  5
36
330
7B4C8
100
AcDbSymbolTableRecord
100
AcDbLayerTableRecord
  2
Level 48
 70
     0
 62
     7
  6
Continuous
370
     0
390
7B4B9
  0
LAYER
  5
37
330
7B4C8
100
AcDbSymbolTableRecord
100
AcDbLayerTableRecord
  2
Level 49
 70
     0
 62
     7
  6
Continuous
370
     0
390
7B4B9
  0
LAYER
  5
38
330
7B4C8
100
AcDbSymbolTableRecord
100
AcDbLayerTableRecord
  2
Level 50
 70
     0
 62
     7
  6
Continuous
370
     0
390
7B4B9
  0
LAYER
  5
39
330
7B4C8
100
AcDbSymbolTableRecord
100
AcDbLayerTableRecord
  2
Level 51
 70
     0
 62
     7
  6
Continuous
370
     0
390
7B4B9
  0
LAYER
  5
3A
330
7B4C8
100
AcDbSymbolTableRecord
100
AcDbLayerTableRecord
  2
Level 52
 70
     0
 62
     7
  6
Continuous
370
     0
390
7B4B9
  0
LAYER
  5
3B
330
7B4C8
100
AcDbSymbolTableRecord
100
AcDbLayerTableRecord
  2
Level 53
 70
     0
 62
     7
  6
Continuous
370
     0
390
7B4B9
  0
LAYER
  5
3C
330
7B4C8
100
AcDbSymbolTableRecord
100
AcDbLayerTableRecord
  2
Level 54
 70
     0
 62
     7
  6
Continuous
370
     0
390
7B4B9
  0
LAYER
  5
3D
330
7B4C8
100
AcDbSymbolTableRecord
100
AcDbLayerTableRecord
  2
Level 55
 70
     0
 62
     7
  6
Continuous
370
     0
390
7B4B9
  0
LAYER
  5
3E
330
7B4C8
100
AcDbSymbolTableRecord
100
AcDbLayerTableRecord
  2
Level 56
 70
     0
 62
     7
  6
Continuous
370
     0
390
7B4B9
  0
LAYER
  5
3F
330
7B4C8
100
AcDbSymbolTableRecord
100
AcDbLayerTableRecord
  2
Level 57
 70
     0
 62
     7
  6
Continuous
370
     0
390
7B4B9
  0
LAYER
  5
40
330
7B4C8
100
AcDbSymbolTableRecord
100
AcDbLayerTableRecord
  2
Level 58
 70
     0
 62
     7
  6
Continuous
370
     0
390
7B4B9
  0
LAYER
  5
41
330
7B4C8
100
AcDbSymbolTableRecord
100
AcDbLayerTableRecord
  2
Level 59
 70
     0
 62
     7
  6
Continuous
370
     0
390
7B4B9
  0
LAYER
  5
42
330
7B4C8
100
AcDbSymbolTableRecord
100
AcDbLayerTableRecord
  2
Level 60
 70
     0
 62
     7
  6
Continuous
370
     0
390
7B4B9
  0
LAYER
  5
43
330
7B4C8
100
AcDbSymbolTableRecord
100
AcDbLayerTableRecord
  2
Level 61
 70
     0
 62
     7
  6
Continuous
370
     0
390
7B4B9
  0
LAYER
  5
44
330
7B4C8
100
AcDbSymbolTableRecord
100
AcDbLayerTableRecord
  2
Level 62
 70
     0
 62
     7
  6
Continuous
370
     0
390
7B4B9
  0
LAYER
  5
45
330
7B4C8
100
AcDbSymbolTableRecord
100
AcDbLayerTableRecord
  2
Level 63
 70
     0
 62
     7
  6
Continuous
370
     0
390
7B4B9
  0
LAYER
  5
50CA0
330
7B4C8
100
AcDbSymbolTableRecord
100
AcDbLayerTableRecord
  2
25
 70
     0
 62
     7
  6
Continuous
370
     0
390
7B4B9
  0
ENDTAB
  0
TABLE
  2
STYLE
  5
7B4C9
330
0
100
AcDbSymbolTable
 70
     2
  0
STYLE
  5
7B4BB
330
7B4C9
100
AcDbSymbolTableRecord
100
AcDbTextStyleTableRecord
  2
Standard
 70
     0
 40
0.0
 41
1.0
 50
0.0
 71
     0
 42
100.0
  3
txt
  4

  0
STYLE
  5
7B4DF
330
7B4C9
100
AcDbSymbolTableRecord
100
AcDbTextStyleTableRecord
  2
Style-ENGINEERING
 70
     0
 40
0.0
 41
1.0
 50
0.0
 71
     0
 42
0.2
  3
ENGINEERING.shx
  4

  0
ENDTAB
  0
TABLE
  2
VIEW
  5
7B4CC
330
0
100
AcDbSymbolTable
 70
     0
  0
ENDTAB
  0
TABLE
  2
UCS
  5
7B4CD
330
0
100
AcDbSymbolTable
 70
     0
  0
ENDTAB
  0
TABLE
  2
APPID
  5
7B4CF
330
0
100
AcDbSymbolTable
 70
     1
  0
APPID
  5
7B4D7
330
7B4CF
100
AcDbSymbolTableRecord
100
AcDbRegAppTableRecord
  2
ACAD
 70
     0
  0
ENDTAB
  0
TABLE
  2
DIMSTYLE
  5
7B4D0
330
0
100
AcDbSymbolTable
 70
     1
100
AcDbDimStyleTable
  0
DIMSTYLE
105
7B4BD
330
7B4D0
100
AcDbSymbolTableRecord
100
AcDbDimStyleTableRecord
  2
Standard
 70
     0
340
7B4BB
  0
ENDTAB
  0
TABLE
  2
BLOCK_RECORD
  5
7B4BF
330
0
100
AcDbSymbolTable
 70
    82
  0
BLOCK_RECORD
  5
7B4C0
330
7B4BF
100
AcDbSymbolTableRecord
100
AcDbBlockTableRecord
  2
*Model_Space
340
7B4C3
  0
BLOCK_RECORD
  5
7B4C4
330
7B4BF
100
AcDbSymbolTableRecord
100
AcDbBlockTableRecord
  2
*Paper_Space
340
7B4C7
  0
BLOCK_RECORD
  5
7B48C
330
7B4BF
100
AcDbSymbolTableRecord
100
AcDbBlockTableRecord
  2
*U0
340
0
  0
BLOCK_RECORD
  5
7B492
330
7B4BF
100
AcDbSymbolTableRecord
100
AcDbBlockTableRecord
  2
*U1
340
0
  0
BLOCK_RECORD
  5
7B4E0
330
7B4BF
100
AcDbSymbolTableRecord
100
AcDbBlockTableRecord
  2
TerminatorOpen_0.5
340
0
  0
BLOCK_RECORD
  5
7B4E7
330
7B4BF
100
AcDbSymbolTableRecord
100
AcDbBlockTableRecord
  2
FT23
340
0
102
{BLKREFS
331
7B1E4
102
}
  0
BLOCK_RECORD
  5
7B4EA
330
7B4BF
100
AcDbSymbolTableRecord
100
AcDbBlockTableRecord
  2
From Solid
340
0
102
{BLKREFS
331
7B498
102
}
  0
BLOCK_RECORD
  5
7B4ED
330
7B4BF
100
AcDbSymbolTableRecord
100
AcDbBlockTableRecord
  2
From Solid_1
340
0
102
{BLKREFS
331
7B499
102
}
  0
BLOCK_RECORD
  5
7B4F0
330
7B4BF
100
AcDbSymbolTableRecord
100
AcDbBlockTableRecord
  2
From Solid_2
340
0
102
{BLKREFS
331
7B49A
102
}
  0
BLOCK_RECORD
  5
7B4F3
330
7B4BF
100
AcDbSymbolTableRecord
100
AcDbBlockTableRecord
  2
From Solid_3
340
0
102
{BLKREFS
331
7B49B
102
}
  0
BLOCK_RECORD
  5
7B4F6
330
7B4BF
100
AcDbSymbolTableRecord
100
AcDbBlockTableRecord
  2
From Solid_4
340
0
102
{BLKREFS
331
7B49C
102
}
  0
BLOCK_RECORD
  5
7B4F9
330
7B4BF
100
AcDbSymbolTableRecord
100
AcDbBlockTableRecord
  2
From Solid_5
340
0
102
{BLKREFS
331
7B49D
102
}
  0
BLOCK_RECORD
  5
7B4FC
330
7B4BF
100
AcDbSymbolTableRecord
100
AcDbBlockTableRecord
  2
From Solid_6
340
0
102
{BLKREFS
331
7B49E
102
}
  0
BLOCK_RECORD
  5
7B4FF
330
7B4BF
100
AcDbSymbolTableRecord
100
AcDbBlockTableRecord
  2
From Solid_7
340
0
102
{BLKREFS
331
7B49F
102
}
  0
BLOCK_RECORD
  5
7B502
330
7B4BF
100
AcDbSymbolTableRecord
100
AcDbBlockTableRecord
  2
From Solid_8
340
0
102
{BLKREFS
331
7B4A0
102
}
  0
BLOCK_RECORD
  5
7B505
330
7B4BF
100
AcDbSymbolTableRecord
100
AcDbBlockTableRecord
  2
From Solid_9
340
0
102
{BLKREFS
331
7B4A1
102
}
  0
BLOCK_RECORD
  5
7B508
330
7B4BF
100
AcDbSymbolTableRecord
100
AcDbBlockTableRecord
  2
From Solid_10
340
0
102
{BLKREFS
331
7B4A2
102
}
  0
BLOCK_RECORD
  5
7B50B
330
7B4BF
100
AcDbSymbolTableRecord
100
AcDbBlockTableRecord
  2
From Solid_11
340
0
102
{BLKREFS
331
7B4A3
102
}
  0
BLOCK_RECORD
  5
7B50E
330
7B4BF
100
AcDbSymbolTableRecord
100
AcDbBlockTableRecord
  2
From Solid_12
340
0
102
{BLKREFS
331
7B4A4
102
}
  0
BLOCK_RECORD
  5
7B511
330
7B4BF
100
AcDbSymbolTableRecord
100
AcDbBlockTableRecord
  2
From Solid_13
340
0
102
{BLKREFS
331
7B4A5
102
}
  0
BLOCK_RECORD
  5
7B514
330
7B4BF
100
AcDbSymbolTableRecord
100
AcDbBlockTableRecord
  2
From Solid_14
340
0
102
{BLKREFS
331
7B4A6
102
}
  0
BLOCK_RECORD
  5
7B517
330
7B4BF
100
AcDbSymbolTableRecord
100
AcDbBlockTableRecord
  2
From Solid_15
340
0
102
{BLKREFS
331
7B4A7
102
}
  0
BLOCK_RECORD
  5
7B51A
330
7B4BF
100
AcDbSymbolTableRecord
100
AcDbBlockTableRecord
  2
From Solid_16
340
0
102
{BLKREFS
331
7B4A8
102
}
  0
BLOCK_RECORD
  5
7B51D
330
7B4BF
100
AcDbSymbolTableRecord
100
AcDbBlockTableRecord
  2
From Solid_17
340
0
102
{BLKREFS
331
7B4A9
102
}
  0
BLOCK_RECORD
  5
7B520
330
7B4BF
100
AcDbSymbolTableRecord
100
AcDbBlockTableRecord
  2
From Solid_18
340
0
102
{BLKREFS
331
7B4AA
102
}
  0
BLOCK_RECORD
  5
7B523
330
7B4BF
100
AcDbSymbolTableRecord
100
AcDbBlockTableRecord
  2
From Solid_19
340
0
102
{BLKREFS
331
7B4AB
102
}
  0
BLOCK_RECORD
  5
7B526
330
7B4BF
100
AcDbSymbolTableRecord
100
AcDbBlockTableRecord
  2
From Solid_20
340
0
102
{BLKREFS
331
7B4AC
102
}
  0
BLOCK_RECORD
  5
7B529
330
7B4BF
100
AcDbSymbolTableRecord
100
AcDbBlockTableRecord
  2
From Solid_21
340
0
102
{BLKREFS
331
7B4AD
102
}
  0
BLOCK_RECORD
  5
7B52C
330
7B4BF
100
AcDbSymbolTableRecord
100
AcDbBlockTableRecord
  2
From Solid_22
340
0
102
{BLKREFS
331
7B4AE
102
}
  0
BLOCK_RECORD
  5
7B52F
330
7B4BF
100
AcDbSymbolTableRecord
100
AcDbBlockTableRecord
  2
From Solid_23
340
0
102
{BLKREFS
331
7B4AF
102
}
  0
BLOCK_RECORD
  5
7B532
330
7B4BF
100
AcDbSymbolTableRecord
100
AcDbBlockTableRecord
  2
From Solid_24
340
0
102
{BLKREFS
331
7B4B0
102
}
  0
BLOCK_RECORD
  5
7B535
330
7B4BF
100
AcDbSymbolTableRecord
100
AcDbBlockTableRecord
  2
From Solid_25
340
0
102
{BLKREFS
331
7B4B1
102
}
  0
BLOCK_RECORD
  5
7B538
330
7B4BF
100
AcDbSymbolTableRecord
100
AcDbBlockTableRecord
  2
From Solid_26
340
0
102
{BLKREFS
331
7B4B2
102
}
  0
BLOCK_RECORD
  5
7B53B
330
7B4BF
100
AcDbSymbolTableRecord
100
AcDbBlockTableRecord
  2
From Solid_27
340
0
102
{BLKREFS
331
7B4B3
102
}
  0
BLOCK_RECORD
  5
7B53E
330
7B4BF
100
AcDbSymbolTableRecord
100
AcDbBlockTableRecord
  2
From Solid_28
340
0
102
{BLKREFS
331
7B4B4
102
}
  0
BLOCK_RECORD
  5
7B541
330
7B4BF
100
AcDbSymbolTableRecord
100
AcDbBlockTableRecord
  2
From Solid_29
340
0
102
{BLKREFS
331
7B4B5
102
}
  0
BLOCK_RECORD
  5
7B544
330
7B4BF
100
AcDbSymbolTableRecord
100
AcDbBlockTableRecord
  2
Feature Solid
340
0
102
{BLKREFS
331
7B37B
102
}
  0
BLOCK_RECORD
  5
7B547
330
7B4BF
100
AcDbSymbolTableRecord
100
AcDbBlockTableRecord
  2
UNITE
340
0
102
{BLKREFS
331
7B37C
102
}
  0
BLOCK_RECORD
  5
7B54A
330
7B4BF
100
AcDbSymbolTableRecord
100
AcDbBlockTableRecord
  2
Feature Solid_1
340
0
102
{BLKREFS
331
7B37D
102
}
  0
BLOCK_RECORD
  5
7B54D
330
7B4BF
100
AcDbSymbolTableRecord
100
AcDbBlockTableRecord
  2
DDPROJ
340
0
102
{BLKREFS
331
7B37E
102
}
  0
BLOCK_RECORD
  5
7B550
330
7B4BF
100
AcDbSymbolTableRecord
100
AcDbBlockTableRecord
  2
Feature Solid_2
340
0
102
{BLKREFS
331
7B384
102
}
  0
BLOCK_RECORD
  5
7B553
330
7B4BF
100
AcDbSymbolTableRecord
100
AcDbBlockTableRecord
  2
DDPROJ_1
340
0
102
{BLKREFS
331
7B385
102
}
  0
BLOCK_RECORD
  5
7B556
330
7B4BF
100
AcDbSymbolTableRecord
100
AcDbBlockTableRecord
  2
Feature Solid_3
340
0
102
{BLKREFS
331
7B38B
102
}
  0
BLOCK_RECORD
  5
7B559
330
7B4BF
100
AcDbSymbolTableRecord
100
AcDbBlockTableRecord
  2
UNITE_1
340
0
102
{BLKREFS
331
7B38C
102
}
  0
BLOCK_RECORD
  5
7B55C
330
7B4BF
100
AcDbSymbolTableRecord
100
AcDbBlockTableRecord
  2
Feature Solid_4
340
0
102
{BLKREFS
331
7B38D
102
}
  0
BLOCK_RECORD
  5
7B55F
330
7B4BF
100
AcDbSymbolTableRecord
100
AcDbBlockTableRecord
  2
CONE
340
0
102
{BLKREFS
331
7B38E
102
}
  0
BLOCK_RECORD
  5
7B562
330
7B4BF
100
AcDbSymbolTableRecord
100
AcDbBlockTableRecord
  2
Feature Solid_5
340
0
102
{BLKREFS
331
7B3A3
102
}
  0
BLOCK_RECORD
  5
7B565
330
7B4BF
100
AcDbSymbolTableRecord
100
AcDbBlockTableRecord
  2
DDPROJ_2
340
0
102
{BLKREFS
331
7B3A4
102
}
  0
BLOCK_RECORD
  5
7B568
330
7B4BF
100
AcDbSymbolTableRecord
100
AcDbBlockTableRecord
  2
Feature Solid_6
340
0
102
{BLKREFS
331
7B3BF
102
}
  0
BLOCK_RECORD
  5
7B56B
330
7B4BF
100
AcDbSymbolTableRecord
100
AcDbBlockTableRecord
  2
UNITE_2
340
0
102
{BLKREFS
331
7B3C0
102
}
  0
BLOCK_RECORD
  5
7B56E
330
7B4BF
100
AcDbSymbolTableRecord
100
AcDbBlockTableRecord
  2
Feature Solid_7
340
0
102
{BLKREFS
331
7B3C1
102
}
  0
BLOCK_RECORD
  5
7B571
330
7B4BF
100
AcDbSymbolTableRecord
100
AcDbBlockTableRecord
  2
DDPROJ_3
340
0
102
{BLKREFS
331
7B3C2
102
}
  0
BLOCK_RECORD
  5
7B574
330
7B4BF
100
AcDbSymbolTableRecord
100
AcDbBlockTableRecord
  2
Feature Solid_8
340
0
102
{BLKREFS
331
7B3C8
102
}
  0
BLOCK_RECORD
  5
7B577
330
7B4BF
100
AcDbSymbolTableRecord
100
AcDbBlockTableRecord
  2
DDPROJ_4
340
0
102
{BLKREFS
331
7B3C9
102
}
  0
BLOCK_RECORD
  5
7B57A
330
7B4BF
100
AcDbSymbolTableRecord
100
AcDbBlockTableRecord
  2
Feature Solid_9
340
0
102
{BLKREFS
331
7B3CF
102
}
  0
BLOCK_RECORD
  5
7B57D
330
7B4BF
100
AcDbSymbolTableRecord
100
AcDbBlockTableRecord
  2
UNITE_3
340
0
102
{BLKREFS
331
7B3D0
102
}
  0
BLOCK_RECORD
  5
7B580
330
7B4BF
100
AcDbSymbolTableRecord
100
AcDbBlockTableRecord
  2
Feature Solid_10
340
0
102
{BLKREFS
331
7B3D1
102
}
  0
BLOCK_RECORD
  5
7B583
330
7B4BF
100
AcDbSymbolTableRecord
100
AcDbBlockTableRecord
  2
CONE_1
340
0
102
{BLKREFS
331
7B3D2
102
}
  0
BLOCK_RECORD
  5
7B586
330
7B4BF
100
AcDbSymbolTableRecord
100
AcDbBlockTableRecord
  2
Feature Solid_11
340
0
102
{BLKREFS
331
7B3E7
102
}
  0
BLOCK_RECORD
  5
7B589
330
7B4BF
100
AcDbSymbolTableRecord
100
AcDbBlockTableRecord
  2
DDPROJ_5
340
0
102
{BLKREFS
331
7B3E8
102
}
  0
BLOCK_RECORD
  5
7B58C
330
7B4BF
100
AcDbSymbolTableRecord
100
AcDbBlockTableRecord
  2
Feature Solid_12
340
0
102
{BLKREFS
331
7B403
102
}
  0
BLOCK_RECORD
  5
7B58F
330
7B4BF
100
AcDbSymbolTableRecord
100
AcDbBlockTableRecord
  2
UNITE_4
340
0
102
{BLKREFS
331
7B404
102
}
  0
BLOCK_RECORD
  5
7B592
330
7B4BF
100
AcDbSymbolTableRecord
100
AcDbBlockTableRecord
  2
Feature Solid_13
340
0
102
{BLKREFS
331
7B405
102
}
  0
BLOCK_RECORD
  5
7B595
330
7B4BF
100
AcDbSymbolTableRecord
100
AcDbBlockTableRecord
  2
DDPROJ_6
340
0
102
{BLKREFS
331
7B406
102
}
  0
BLOCK_RECORD
  5
7B598
330
7B4BF
100
AcDbSymbolTableRecord
100
AcDbBlockTableRecord
  2
Feature Solid_14
340
0
102
{BLKREFS
331
7B40C
102
}
  0
BLOCK_RECORD
  5
7B59B
330
7B4BF
100
AcDbSymbolTableRecord
100
AcDbBlockTableRecord
  2
DDPROJ_7
340
0
102
{BLKREFS
331
7B40D
102
}
  0
BLOCK_RECORD
  5
7B59E
330
7B4BF
100
AcDbSymbolTableRecord
100
AcDbBlockTableRecord
  2
Feature Solid_15
340
0
102
{BLKREFS
331
7B413
102
}
  0
BLOCK_RECORD
  5
7B5A1
330
7B4BF
100
AcDbSymbolTableRecord
100
AcDbBlockTableRecord
  2
UNITE_5
340
0
102
{BLKREFS
331
7B414
102
}
  0
BLOCK_RECORD
  5
7B5A4
330
7B4BF
100
AcDbSymbolTableRecord
100
AcDbBlockTableRecord
  2
Feature Solid_16
340
0
102
{BLKREFS
331
7B415
102
}
  0
BLOCK_RECORD
  5
7B5A7
330
7B4BF
100
AcDbSymbolTableRecord
100
AcDbBlockTableRecord
  2
CONE_2
340
0
102
{BLKREFS
331
7B416
102
}
  0
BLOCK_RECORD
  5
7B5AA
330
7B4BF
100
AcDbSymbolTableRecord
100
AcDbBlockTableRecord
  2
Feature Solid_17
340
0
102
{BLKREFS
331
7B42B
102
}
  0
BLOCK_RECORD
  5
7B5AD
330
7B4BF
100
AcDbSymbolTableRecord
100
AcDbBlockTableRecord
  2
DDPROJ_8
340
0
102
{BLKREFS
331
7B42C
102
}
  0
BLOCK_RECORD
  5
7B5B0
330
7B4BF
100
AcDbSymbolTableRecord
100
AcDbBlockTableRecord
  2
Feature Solid_18
340
0
102
{BLKREFS
331
7B447
102
}
  0
BLOCK_RECORD
  5
7B5B3
330
7B4BF
100
AcDbSymbolTableRecord
100
AcDbBlockTableRecord
  2
UNITE_6
340
0
102
{BLKREFS
331
7B448
102
}
  0
BLOCK_RECORD
  5
7B5B6
330
7B4BF
100
AcDbSymbolTableRecord
100
AcDbBlockTableRecord
  2
Feature Solid_19
340
0
102
{BLKREFS
331
7B449
102
}
  0
BLOCK_RECORD
  5
7B5B9
330
7B4BF
100
AcDbSymbolTableRecord
100
AcDbBlockTableRecord
  2
DDPROJ_9
340
0
102
{BLKREFS
331
7B44A
102
}
  0
BLOCK_RECORD
  5
7B5BC
330
7B4BF
100
AcDbSymbolTableRecord
100
AcDbBlockTableRecord
  2
Feature Solid_20
340
0
102
{BLKREFS
331
7B450
102
}
  0
BLOCK_RECORD
  5
7B5BF
330
7B4BF
100
AcDbSymbolTableRecord
100
AcDbBlockTableRecord
  2
DDPROJ_10
340
0
102
{BLKREFS
331
7B451
102
}
  0
BLOCK_RECORD
  5
7B5C2
330
7B4BF
100
AcDbSymbolTableRecord
100
AcDbBlockTableRecord
  2
Feature Solid_21
340
0
102
{BLKREFS
331
7B457
102
}
  0
BLOCK_RECORD
  5
7B5C5
330
7B4BF
100
AcDbSymbolTableRecord
100
AcDbBlockTableRecord
  2
UNITE_7
340
0
102
{BLKREFS
331
7B458
102
}
  0
BLOCK_RECORD
  5
7B5C8
330
7B4BF
100
AcDbSymbolTableRecord
100
AcDbBlockTableRecord
  2
Feature Solid_22
340
0
102
{BLKREFS
331
7B459
102
}
  0
BLOCK_RECORD
  5
7B5CB
330
7B4BF
100
AcDbSymbolTableRecord
100
AcDbBlockTableRecord
  2
CONE_3
340
0
102
{BLKREFS
331
7B45A
102
}
  0
BLOCK_RECORD
  5
7B5CE
330
7B4BF
100
AcDbSymbolTableRecord
100
AcDbBlockTableRecord
  2
Feature Solid_23
340
0
102
{BLKREFS
331
7B46F
102
}
  0
BLOCK_RECORD
  5
7B5D1
330
7B4BF
100
AcDbSymbolTableRecord
100
AcDbBlockTableRecord
  2
DDPROJ_11
340
0
102
{BLKREFS
331
7B470
102
}
  0
ENDTAB
  0
ENDSEC
  0
SECTION
  2
BLOCKS
  0
BLOCK
  5
7B4C1
330
7B4C0
100
AcDbEntity
  8
0
100
AcDbBlockBegin
  2
*Model_Space
 70
     0
 71
     0
 10
0.0
 20
0.0
 30
0.0
  3
*Model_Space
  1

  0
ENDBLK
  5
7B4C2
330
7B4C0
100
AcDbEntity
  8
0
100
AcDbBlockEnd
  0
BLOCK
  5
7B4C5
330
7B4C4
100
AcDbEntity
 67
     1
  8
0
100
AcDbBlockBegin
  2
*Paper_Space
 70
     0
 71
     0
 10
0.0
 20
0.0
 30
0.0
  3
*Paper_Space
  1

  0
ENDBLK
  5
7B4C6
330
7B4C4
100
AcDbEntity
 67
     1
  8
0
100
AcDbBlockEnd
  0
BLOCK
  5
7B4DB
330
7B48C
100
AcDbEntity
  8
0
100
AcDbBlockBegin
  2
*U0
 70
     1
 71
     0
 10
0.0
 20
0.0
 30
0.0
  3
*U0
  1

  0
LWPOLYLINE
  5
7B48D
330
7B48C
100
AcDbEntity
  8
0
100
AcDbPolyline
 90
        4
 70
   129
 43
0.0
 10
0.82
 20
0.0
 42
0.853659
 10
0.0
 20
0.0
 10
0.0
 20
-0.07
 10
0.82
 20
-0.07
  0
ENDBLK
  5
7B4DC
330
7B48C
100
AcDbEntity
  8
0
100
AcDbBlockEnd
  0
BLOCK
  5
7B4DD
330
7B492
100
AcDbEntity
  8
0
100
AcDbBlockBegin
  2
*U1
 70
     1
 71
     0
 10
0.0
 20
0.0
 30
0.0
  3
*U1
  1

  0
LWPOLYLINE
  5
7B493
330
7B492
100
AcDbEntity
  8
0
100
AcDbPolyline
 90
        4
 70
   129
 43
0.0
 10
0.325
 20
0.325
 42
1.0
 10
0.325
 20
-0.325
 10
1.145
 20
-0.325
 42
1.0
 10
1.145
 20
0.325
  0
ENDBLK
  5
7B4DE
330
7B492
100
AcDbEntity
  8
0
100
AcDbBlockEnd
  0
BLOCK
  5
7B4E4
330
7B4E0
100
AcDbEntity
  8
0
100
AcDbBlockBegin
  2
TerminatorOpen_0.5
 70
     0
 71
     0
 10
0.0
 20
0.0
 30
0.0
  3
TerminatorOpen_0.5
  1

  0
LINE
  5
7B4E1
330
7B4E0
100
AcDbEntity
  8
0
  6
ByBlock
 62
     0
370
    -2
100
AcDbLine
 10
0.0
 20
0.0
 30
0.0
 11
-1.0
 21
0.0
 31
0.0
  0
LINE
  5
7B4E2
330
7B4E0
100
AcDbEntity
  8
0
  6
ByBlock
 62
     0
370
    -2
100
AcDbLine
 10
0.0
 20
0.0
 30
0.0
 11
-1.0
 21
0.25
 31
0.0
  0
LINE
  5
7B4E3
330
7B4E0
100
AcDbEntity
  8
0
  6
ByBlock
 62
     0
370
    -2
100
AcDbLine
 10
0.0
 20
0.0
 30
0.0
 11
-1.0
 21
-0.25
 31
0.0
  0
ENDBLK
  5
7B4E5
330
7B4E0
100
AcDbEntity
  8
0
100
AcDbBlockEnd
  0
BLOCK
  5
7B4E8
330
7B4E7
100
AcDbEntity
  8
0
100
AcDbBlockBegin
  2
FT23
 70
     0
 71
     0
 10
0.0
 20
0.0
 30
0.0
  3
FT23
  1

  0
LWPOLYLINE
  5
7B1E5
330
7B4E7
100
AcDbEntity
  8
Level 25
  6
Continuous
 62
   174
370
    13
100
AcDbPolyline
 90
        4
 70
   129
 43
0.0
 10
-429.0
 20
-38.0
 10
-429.0
 20
0.0
 10
429.0
 20
0.0
 10
429.0
 20
-38.0
  0
LWPOLYLINE
  5
7B1E6
330
7B4E7
100
AcDbEntity
  8
Level 25
  6
Continuous
 62
   174
370
    13
100
AcDbPolyline
 90
        4
 70
   129
 43
0.0
 10
-429.0
 20
-38.0
 10
-429.0
 20
-38.0
 10
429.0
 20
-38.0
 10
429.0
 20
-38.0
  0
LWPOLYLINE
  5
7B1E7
330
7B4E7
100
AcDbEntity
  8
Level 25
  6
Continuous
 62
   174
370
    13
100
AcDbPolyline
 90
        4
 70
   129
 43
0.0
 10
-429.0
 20
0.0
 10
-429.0
 20
-38.0
 10
429.0
 20
-38.0
 10
429.0
 20
0.0
  0
LWPOLYLINE
  5
7B1E8
330
7B4E7
100
AcDbEntity
  8
Level 25
  6
Continuous
 62
   174
370
    13
100
AcDbPolyline
 90
        4
 70
   129
 43
0.0
 10
-429.0
 20
0.0
 10
-429.0
 20
0.0
 10
429.0
 20
0.0
 10
429.0
 20
0.0
  0
INSERT
  5
7B498
330
7B4E7
100
AcDbEntity
  8
Level 25
  6
Continuous
 62
   174
370
    13
100
AcDbBlockReference
  2
From Solid
 10
-3198.749439
 20
-205.276387
 30
0.0
  0
INSERT
  5
7B499
330
7B4E7
100
AcDbEntity
  8
Level 25
  6
Continuous
 62
   174
370
    13
100
AcDbBlockReference
  2
From Solid_1
 10
-3198.749439
 20
-205.276387
 30
0.0
  0
INSERT
  5
7B49A
330
7B4E7
100
AcDbEntity
  8
Level 27
  6
Continuous
 62
    12
370
    13
100
AcDbBlockReference
  2
From Solid_2
 10
-3198.749439
 20
-205.276387
 30
0.0
  0
INSERT
  5
7B49B
330
7B4E7
100
AcDbEntity
  8
Level 27
  6
Continuous
 62
    12
370
    13
100
AcDbBlockReference
  2
From Solid_3
 10
-3198.749439
 20
-205.276387
 30
0.0
  0
INSERT
  5
7B49C
330
7B4E7
100
AcDbEntity
  8
Level 26
  6
Continuous
 62
    40
370
    13
100
AcDbBlockReference
  2
From Solid_4
 10
-3198.749439
 20
-205.276387
 30
0.0
  0
INSERT
  5
7B49D
330
7B4E7
100
AcDbEntity
  8
Level 26
  6
Continuous
 62
    40
370
    13
100
AcDbBlockReference
  2
From Solid_5
 10
-3198.749439
 20
-205.276387
 30
0.0
  0
LWPOLYLINE
  5
7B24F
330
7B4E7
100
AcDbEntity
  8
Level 26
  6
Continuous
 62
   254
370
    13
100
AcDbPolyline
 90
        4
 70
   129
 43
0.0
 10
-375.0
 20
3.0
 10
375.0
 20
3.0
 10
375.0
 20
3.0
 10
-375.0
 20
3.0
  0
LWPOLYLINE
  5
7B254
330
7B4E7
100
AcDbEntity
  8
Level 26
  6
Continuous
 62
   254
370
    13
100
AcDbPolyline
 90
        4
 70
   129
 43
0.0
 10
-375.0
 20
-5.0
 10
-375.0
 20
3.0
 10
375.0
 20
3.0
 10
375.0
 20
-5.0
  0
INSERT
  5
7B49E
330
7B4E7
100
AcDbEntity
  8
Level 26
  6
Continuous
 62
   254
370
    13
100
AcDbBlockReference
  2
From Solid_6
 10
-3198.749439
 20
-205.276387
 30
0.0
  0
INSERT
  5
7B49F
330
7B4E7
100
AcDbEntity
  8
Level 26
  6
Continuous
 62
   254
370
    13
100
AcDbBlockReference
  2
From Solid_7
 10
-3198.749439
 20
-205.276387
 30
0.0
  0
INSERT
  5
7B4A0
330
7B4E7
100
AcDbEntity
  8
Level 26
  6
Continuous
 62
   254
370
    13
100
AcDbBlockReference
  2
From Solid_8
 10
-3198.749439
 20
-205.276387
 30
0.0
  0
LWPOLYLINE
  5
7B26C
330
7B4E7
100
AcDbEntity
  8
Level 26
  6
Continuous
 62
   254
370
    13
100
AcDbPolyline
 90
        4
 70
   129
 43
0.0
 10
375.0
 20
2832.0
 10
-375.0
 20
2832.0
 10
-375.0
 20
2832.0
 10
375.0
 20
2832.0
  0
LWPOLYLINE
  5
7B271
330
7B4E7
100
AcDbEntity
  8
Level 26
  6
Continuous
 62
   254
370
    13
100
AcDbPolyline
 90
        4
 70
   129
 43
0.0
 10
375.0
 20
2840.0
 10
375.0
 20
2832.0
 10
-375.0
 20
2832.0
 10
-375.0
 20
2840.0
  0
INSERT
  5
7B4A1
330
7B4E7
100
AcDbEntity
  8
Level 26
  6
Continuous
 62
   254
370
    13
100
AcDbBlockReference
  2
From Solid_9
 10
-3198.749439
 20
-205.276387
 30
0.0
  0
INSERT
  5
7B4A2
330
7B4E7
100
AcDbEntity
  8
Level 26
  6
Continuous
 62
   254
370
    13
100
AcDbBlockReference
  2
From Solid_10
 10
-3198.749439
 20
-205.276387
 30
0.0
  0
INSERT
  5
7B4A3
330
7B4E7
100
AcDbEntity
  8
Level 26
  6
Continuous
 62
   254
370
    13
100
AcDbBlockReference
  2
From Solid_11
 10
-3198.749439
 20
-205.276387
 30
0.0
  0
INSERT
  5
7B4A4
330
7B4E7
100
AcDbEntity
  8
Level 26
  6
Continuous
 62
    40
370
    13
100
AcDbBlockReference
  2
From Solid_12
 10
-3198.749439
 20
-205.276387
 30
0.0
  0
INSERT
  5
7B4A5
330
7B4E7
100
AcDbEntity
  8
Level 26
  6
Continuous
 62
    40
370
    13
100
AcDbBlockReference
  2
From Solid_13
 10
-3198.749439
 20
-205.276387
 30
0.0
  0
INSERT
  5
7B4A6
330
7B4E7
100
AcDbEntity
  8
Level 26
  6
Continuous
 62
    40
370
    13
100
AcDbBlockReference
  2
From Solid_14
 10
-3198.749439
 20
-205.276387
 30
0.0
  0
INSERT
  5
7B4A7
330
7B4E7
100
AcDbEntity
  8
Level 26
  6
Continuous
 62
    40
370
    13
100
AcDbBlockReference
  2
From Solid_15
 10
-3198.749439
 20
-205.276387
 30
0.0
  0
INSERT
  5
7B4A8
330
7B4E7
100
AcDbEntity
  8
Level 26
  6
Continuous
 62
    40
370
    13
100
AcDbBlockReference
  2
From Solid_16
 10
-3198.749439
 20
-205.276387
 30
0.0
  0
INSERT
  5
7B4A9
330
7B4E7
100
AcDbEntity
  8
Level 26
  6
Continuous
 62
    40
370
    13
100
AcDbBlockReference
  2
From Solid_17
 10
-3198.749439
 20
-205.276387
 30
0.0
  0
INSERT
  5
7B4AA
330
7B4E7
100
AcDbEntity
  8
Level 26
  6
Continuous
 62
    40
370
    13
100
AcDbBlockReference
  2
From Solid_18
 10
-3198.749439
 20
-205.276387
 30
0.0
  0
INSERT
  5
7B4AB
330
7B4E7
100
AcDbEntity
  8
Level 26
  6
Continuous
 62
    40
370
    13
100
AcDbBlockReference
  2
From Solid_19
 10
-3198.749439
 20
-205.276387
 30
0.0
  0
INSERT
  5
7B4AC
330
7B4E7
100
AcDbEntity
  8
Level 26
  6
Continuous
 62
    40
370
    13
100
AcDbBlockReference
  2
From Solid_20
 10
-3198.749439
 20
-205.276387
 30
0.0
  0
INSERT
  5
7B4AD
330
7B4E7
100
AcDbEntity
  8
Level 26
  6
Continuous
 62
    40
370
    13
100
AcDbBlockReference
  2
From Solid_21
 10
-3198.749439
 20
-205.276387
 30
0.0
  0
INSERT
  5
7B4AE
330
7B4E7
100
AcDbEntity
  8
Level 26
  6
Continuous
 62
    40
370
    13
100
AcDbBlockReference
  2
From Solid_22
 10
-3198.749439
 20
-205.276387
 30
0.0
  0
INSERT
  5
7B4AF
330
7B4E7
100
AcDbEntity
  8
Level 26
  6
Continuous
 62
    40
370
    13
100
AcDbBlockReference
  2
From Solid_23
 10
-3198.749439
 20
-205.276387
 30
0.0
  0
INSERT
  5
7B4B0
330
7B4E7
100
AcDbEntity
  8
Level 26
  6
Continuous
 62
    40
370
    13
100
AcDbBlockReference
  2
From Solid_24
 10
-3198.749439
 20
-205.276387
 30
0.0
  0
INSERT
  5
7B4B1
330
7B4E7
100
AcDbEntity
  8
Level 26
  6
Continuous
 62
    40
370
    13
100
AcDbBlockReference
  2
From Solid_25
 10
-3198.749439
 20
-205.276387
 30
0.0
  0
INSERT
  5
7B4B2
330
7B4E7
100
AcDbEntity
  8
Level 26
  6
Continuous
 62
    40
370
    13
100
AcDbBlockReference
  2
From Solid_26
 10
-3198.749439
 20
-205.276387
 30
0.0
  0
INSERT
  5
7B4B3
330
7B4E7
100
AcDbEntity
  8
Level 26
  6
Continuous
 62
    40
370
    13
100
AcDbBlockReference
  2
From Solid_27
 10
-3198.749439
 20
-205.276387
 30
0.0
  0
LWPOLYLINE
  5
7B2F9
330
7B4E7
100
AcDbEntity
  8
Level 25
  6
Continuous
 62
   174
370
    13
100
AcDbPolyline
 90
        4
 70
   129
 43
0.0
 10
429.0
 20
2873.0
 10
429.0
 20
2835.0
 10
-429.0
 20
2835.0
 10
-429.0
 20
2873.0
  0
LWPOLYLINE
  5
7B2FA
330
7B4E7
100
AcDbEntity
  8
Level 25
  6
Continuous
 62
   174
370
    13
100
AcDbPolyline
 90
        4
 70
   129
 43
0.0
 10
429.0
 20
2873.0
 10
429.0
 20
2873.0
 10
-429.0
 20
2873.0
 10
-429.0
 20
2873.0
  0
LWPOLYLINE
  5
7B2FB
330
7B4E7
100
AcDbEntity
  8
Level 25
  6
Continuous
 62
   174
370
    13
100
AcDbPolyline
 90
        4
 70
   129
 43
0.0
 10
429.0
 20
2835.0
 10
429.0
 20
2873.0
 10
-429.0
 20
2873.0
 10
-429.0
 20
2835.0
  0
LWPOLYLINE
  5
7B2FC
330
7B4E7
100
AcDbEntity
  8
Level 25
  6
Continuous
 62
   174
370
    13
100
AcDbPolyline
 90
        4
 70
   129
 43
0.0
 10
429.0
 20
2835.0
 10
429.0
 20
2835.0
 10
-429.0
 20
2835.0
 10
-429.0
 20
2835.0
  0
INSERT
  5
7B4B4
330
7B4E7
100
AcDbEntity
  8
Level 25
  6
Continuous
 62
   174
370
    13
100
AcDbBlockReference
  2
From Solid_28
 10
-3198.749439
 20
-205.276387
 30
0.0
  0
INSERT
  5
7B4B5
330
7B4E7
100
AcDbEntity
  8
Level 25
  6
Continuous
 62
   174
370
    13
100
AcDbBlockReference
  2
From Solid_29
 10
-3198.749439
 20
-205.276387
 30
0.0
  0
LWPOLYLINE
  5
7B347
330
7B4E7
100
AcDbEntity
  8
Level 25
  6
Continuous
 62
   174
370
    13
100
AcDbPolyline
 90
        4
 70
   129
 43
0.0
 10
-435.0
 20
-37.5
 10
-435.0
 20
37.5
 10
-435.0
 20
37.5
 10
-435.0
 20
-37.5
  0
LWPOLYLINE
  5
7B348
330
7B4E7
100
AcDbEntity
  8
Level 25
  6
Continuous
 62
   174
370
    13
100
AcDbPolyline
 90
        4
 70
   129
 43
0.0
 10
-435.0
 20
37.5
 10
-510.0
 20
37.5
 10
-510.0
 20
37.5
 10
-435.0
 20
37.5
  0
LWPOLYLINE
  5
7B349
330
7B4E7
100
AcDbEntity
  8
Level 25
  6
Continuous
 62
   174
370
    13
100
AcDbPolyline
 90
        4
 70
   129
 43
0.0
 10
-510.0
 20
-37.5
 10
-435.0
 20
-37.5
 10
-435.0
 20
-37.5
 10
-510.0
 20
-37.5
  0
LWPOLYLINE
  5
7B34A
330
7B4E7
100
AcDbEntity
  8
Level 25
  6
Continuous
 62
   174
370
    13
100
AcDbPolyline
 90
        4
 70
   129
 43
0.0
 10
-510.0
 20
37.5
 10
-510.0
 20
-37.5
 10
-510.0
 20
-37.5
 10
-510.0
 20
37.5
  0
LWPOLYLINE
  5
7B34B
330
7B4E7
100
AcDbEntity
  8
Level 26
  6
Continuous
 62
   163
370
    13
100
AcDbPolyline
 90
        4
 70
   129
 43
0.0
 10
-510.0
 20
-37.5
 10
-435.0
 20
-37.5
 10
-435.0
 20
-37.5
 10
-510.0
 20
-37.5
  0
LWPOLYLINE
  5
7B34C
330
7B4E7
100
AcDbEntity
  8
Level 26
  6
Continuous
 62
   163
370
    13
100
AcDbPolyline
 90
        4
 70
   129
 43
0.0
 10
-510.0
 20
37.5
 10
-510.0
 20
-37.5
 10
-510.0
 20
-37.5
 10
-510.0
 20
37.5
  0
LWPOLYLINE
  5
7B34D
330
7B4E7
100
AcDbEntity
  8
Level 26
  6
Continuous
 62
   163
370
    13
100
AcDbPolyline
 90
        4
 70
   129
 43
0.0
 10
-435.0
 20
37.5
 10
-510.0
 20
37.5
 10
-510.0
 20
37.5
 10
-435.0
 20
37.5
  0
LWPOLYLINE
  5
7B34E
330
7B4E7
100
AcDbEntity
  8
Level 26
  6
Continuous
 62
   163
370
    13
100
AcDbPolyline
 90
        4
 70
   129
 43
0.0
 10
-435.0
 20
-37.5
 10
-435.0
 20
37.5
 10
-435.0
 20
37.5
 10
-435.0
 20
-37.5
  0
LWPOLYLINE
  5
7B34F
330
7B4E7
100
AcDbEntity
  8
Level 26
  6
Continuous
 62
   163
370
    13
100
AcDbPolyline
 90
        4
 70
   129
 43
0.0
 10
-510.0
 20
-37.5
 10
-435.0
 20
-37.5
 10
-435.0
 20
37.5
 10
-510.0
 20
37.5
  0
LWPOLYLINE
  5
7B354
330
7B4E7
100
AcDbEntity
  8
Level 25
  6
Continuous
 62
   174
370
    13
100
AcDbPolyline
 90
        4
 70
   129
 43
0.0
 10
510.0
 20
-37.5
 10
510.0
 20
37.5
 10
510.0
 20
37.5
 10
510.0
 20
-37.5
  0
LWPOLYLINE
  5
7B355
330
7B4E7
100
AcDbEntity
  8
Level 25
  6
Continuous
 62
   174
370
    13
100
AcDbPolyline
 90
        4
 70
   129
 43
0.0
 10
510.0
 20
37.5
 10
435.0
 20
37.5
 10
435.0
 20
37.5
 10
510.0
 20
37.5
  0
LWPOLYLINE
  5
7B356
330
7B4E7
100
AcDbEntity
  8
Level 25
  6
Continuous
 62
   174
370
    13
100
AcDbPolyline
 90
        4
 70
   129
 43
0.0
 10
435.0
 20
-37.5
 10
510.0
 20
-37.5
 10
510.0
 20
-37.5
 10
435.0
 20
-37.5
  0
LWPOLYLINE
  5
7B357
330
7B4E7
100
AcDbEntity
  8
Level 25
  6
Continuous
 62
   174
370
    13
100
AcDbPolyline
 90
        4
 70
   129
 43
0.0
 10
435.0
 20
37.5
 10
435.0
 20
-37.5
 10
435.0
 20
-37.5
 10
435.0
 20
37.5
  0
LWPOLYLINE
  5
7B358
330
7B4E7
100
AcDbEntity
  8
Level 26
  6
Continuous
 62
   163
370
    13
100
AcDbPolyline
 90
        4
 70
   129
 43
0.0
 10
435.0
 20
-37.5
 10
510.0
 20
-37.5
 10
510.0
 20
-37.5
 10
435.0
 20
-37.5
  0
LWPOLYLINE
  5
7B359
330
7B4E7
100
AcDbEntity
  8
Level 26
  6
Continuous
 62
   163
370
    13
100
AcDbPolyline
 90
        4
 70
   129
 43
0.0
 10
435.0
 20
37.5
 10
435.0
 20
-37.5
 10
435.0
 20
-37.5
 10
435.0
 20
37.5
  0
LWPOLYLINE
  5
7B35A
330
7B4E7
100
AcDbEntity
  8
Level 26
  6
Continuous
 62
   163
370
    13
100
AcDbPolyline
 90
        4
 70
   129
 43
0.0
 10
510.0
 20
37.5
 10
435.0
 20
37.5
 10
435.0
 20
37.5
 10
510.0
 20
37.5
  0
LWPOLYLINE
  5
7B35B
330
7B4E7
100
AcDbEntity
  8
Level 26
  6
Continuous
 62
   163
370
    13
100
AcDbPolyline
 90
        4
 70
   129
 43
0.0
 10
510.0
 20
-37.5
 10
510.0
 20
37.5
 10
510.0
 20
37.5
 10
510.0
 20
-37.5
  0
LWPOLYLINE
  5
7B35C
330
7B4E7
100
AcDbEntity
  8
Level 26
  6
Continuous
 62
   163
370
    13
100
AcDbPolyline
 90
        4
 70
   129
 43
0.0
 10
435.0
 20
-37.5
 10
510.0
 20
-37.5
 10
510.0
 20
37.5
 10
435.0
 20
37.5
  0
LWPOLYLINE
  5
7B361
330
7B4E7
100
AcDbEntity
  8
Level 25
  6
Continuous
 62
   174
370
    13
100
AcDbPolyline
 90
        4
 70
   129
 43
0.0
 10
510.0
 20
2797.5
 10
510.0
 20
2872.5
 10
510.0
 20
2872.5
 10
510.0
 20
2797.5
  0
LWPOLYLINE
  5
7B362
330
7B4E7
100
AcDbEntity
  8
Level 25
  6
Continuous
 62
   174
370
    13
100
AcDbPolyline
 90
        4
 70
   129
 43
0.0
 10
510.0
 20
2872.5
 10
435.0
 20
2872.5
 10
435.0
 20
2872.5
 10
510.0
 20
2872.5
  0
LWPOLYLINE
  5
7B363
330
7B4E7
100
AcDbEntity
  8
Level 25
  6
Continuous
 62
   174
370
    13
100
AcDbPolyline
 90
        4
 70
   129
 43
0.0
 10
435.0
 20
2797.5
 10
510.0
 20
2797.5
 10
510.0
 20
2797.5
 10
435.0
 20
2797.5
  0
LWPOLYLINE
  5
7B364
330
7B4E7
100
AcDbEntity
  8
Level 25
  6
Continuous
 62
   174
370
    13
100
AcDbPolyline
 90
        4
 70
   129
 43
0.0
 10
435.0
 20
2872.5
 10
435.0
 20
2797.5
 10
435.0
 20
2797.5
 10
435.0
 20
2872.5
  0
LWPOLYLINE
  5
7B365
330
7B4E7
100
AcDbEntity
  8
Level 26
  6
Continuous
 62
   163
370
    13
100
AcDbPolyline
 90
        4
 70
   129
 43
0.0
 10
435.0
 20
2797.5
 10
510.0
 20
2797.5
 10
510.0
 20
2797.5
 10
435.0
 20
2797.5
  0
LWPOLYLINE
  5
7B366
330
7B4E7
100
AcDbEntity
  8
Level 26
  6
Continuous
 62
   163
370
    13
100
AcDbPolyline
 90
        4
 70
   129
 43
0.0
 10
435.0
 20
2872.5
 10
435.0
 20
2797.5
 10
435.0
 20
2797.5
 10
435.0
 20
2872.5
  0
LWPOLYLINE
  5
7B367
330
7B4E7
100
AcDbEntity
  8
Level 26
  6
Continuous
 62
   163
370
    13
100
AcDbPolyline
 90
        4
 70
   129
 43
0.0
 10
510.0
 20
2872.5
 10
435.0
 20
2872.5
 10
435.0
 20
2872.5
 10
510.0
 20
2872.5
  0
LWPOLYLINE
  5
7B368
330
7B4E7
100
AcDbEntity
  8
Level 26
  6
Continuous
 62
   163
370
    13
100
AcDbPolyline
 90
        4
 70
   129
 43
0.0
 10
510.0
 20
2797.5
 10
510.0
 20
2872.5
 10
510.0
 20
2872.5
 10
510.0
 20
2797.5
  0
LWPOLYLINE
  5
7B369
330
7B4E7
100
AcDbEntity
  8
Level 26
  6
Continuous
 62
   163
370
    13
100
AcDbPolyline
 90
        4
 70
   129
 43
0.0
 10
435.0
 20
2797.5
 10
510.0
 20
2797.5
 10
510.0
 20
2872.5
 10
435.0
 20
2872.5
  0
LWPOLYLINE
  5
7B36E
330
7B4E7
100
AcDbEntity
  8
Level 25
  6
Continuous
 62
   174
370
    13
100
AcDbPolyline
 90
        4
 70
   129
 43
0.0
 10
-435.0
 20
2797.5
 10
-435.0
 20
2872.5
 10
-435.0
 20
2872.5
 10
-435.0
 20
2797.5
  0
LWPOLYLINE
  5
7B36F
330
7B4E7
100
AcDbEntity
  8
Level 25
  6
Continuous
 62
   174
370
    13
100
AcDbPolyline
 90
        4
 70
   129
 43
0.0
 10
-435.0
 20
2872.5
 10
-510.0
 20
2872.5
 10
-510.0
 20
2872.5
 10
-435.0
 20
2872.5
  0
LWPOLYLINE
  5
7B370
330
7B4E7
100
AcDbEntity
  8
Level 25
  6
Continuous
 62
   174
370
    13
100
AcDbPolyline
 90
        4
 70
   129
 43
0.0
 10
-510.0
 20
2797.5
 10
-435.0
 20
2797.5
 10
-435.0
 20
2797.5
 10
-510.0
 20
2797.5
  0
LWPOLYLINE
  5
7B371
330
7B4E7
100
AcDbEntity
  8
Level 25
  6
Continuous
 62
   174
370
    13
100
AcDbPolyline
 90
        4
 70
   129
 43
0.0
 10
-510.0
 20
2872.5
 10
-510.0
 20
2797.5
 10
-510.0
 20
2797.5
 10
-510.0
 20
2872.5
  0
LWPOLYLINE
  5
7B372
330
7B4E7
100
AcDbEntity
  8
Level 26
  6
Continuous
 62
   163
370
    13
100
AcDbPolyline
 90
        4
 70
   129
 43
0.0
 10
-510.0
 20
2797.5
 10
-435.0
 20
2797.5
 10
-435.0
 20
2797.5
 10
-510.0
 20
2797.5
  0
LWPOLYLINE
  5
7B373
330
7B4E7
100
AcDbEntity
  8
Level 26
  6
Continuous
 62
   163
370
    13
100
AcDbPolyline
 90
        4
 70
   129
 43
0.0
 10
-510.0
 20
2872.5
 10
-510.0
 20
2797.5
 10
-510.0
 20
2797.5
 10
-510.0
 20
2872.5
  0
LWPOLYLINE
  5
7B374
330
7B4E7
100
AcDbEntity
  8
Level 26
  6
Continuous
 62
   163
370
    13
100
AcDbPolyline
 90
        4
 70
   129
 43
0.0
 10
-435.0
 20
2872.5
 10
-510.0
 20
2872.5
 10
-510.0
 20
2872.5
 10
-435.0
 20
2872.5
  0
LWPOLYLINE
  5
7B375
330
7B4E7
100
AcDbEntity
  8
Level 26
  6
Continuous
 62
   163
370
    13
100
AcDbPolyline
 90
        4
 70
   129
 43
0.0
 10
-435.0
 20
2797.5
 10
-435.0
 20
2872.5
 10
-435.0
 20
2872.5
 10
-435.0
 20
2797.5
  0
LWPOLYLINE
  5
7B376
330
7B4E7
100
AcDbEntity
  8
Level 26
  6
Continuous
 62
   163
370
    13
100
AcDbPolyline
 90
        4
 70
   129
 43
0.0
 10
-510.0
 20
2797.5
 10
-435.0
 20
2797.5
 10
-435.0
 20
2872.5
 10
-510.0
 20
2872.5
  0
INSERT
  5
7B37B
330
7B4E7
100
AcDbEntity
  8
Level 26
 62
   133
370
     0
100
AcDbBlockReference
  2
Feature Solid
 10
472.5
 20
58.4995
 30
0.0
  0
INSERT
  5
7B3BF
330
7B4E7
100
AcDbEntity
  8
Level 26
 62
   133
370
     0
100
AcDbBlockReference
  2
Feature Solid_6
 10
-472.5
 20
58.4995
 30
0.0
  0
INSERT
  5
7B403
330
7B4E7
100
AcDbEntity
  8
Level 26
 62
   133
370
     0
100
AcDbBlockReference
  2
Feature Solid_12
 10
-472.5
 20
2776.5005
 30
0.0
  0
INSERT
  5
7B447
330
7B4E7
100
AcDbEntity
  8
Level 26
 62
   133
370
     0
100
AcDbBlockReference
  2
Feature Solid_18
 10
472.5
 20
2776.5005
 30
0.0
  0
ENDBLK
  5
7B4E9
330
7B4E7
100
AcDbEntity
  8
0
100
AcDbBlockEnd
  0
BLOCK
  5
7B4EB
330
7B4EA
100
AcDbEntity
  8
0
100
AcDbBlockBegin
  2
From Solid
 70
     0
 71
     0
 10
0.0
 20
0.0
 30
0.0
  3
From Solid
  1

  0
POINT
  5
7B1EA
330
7B4EA
100
AcDbEntity
  8
Level 25
  6
Continuous
 62
   174
370
    13
100
AcDbPoint
 10
2769.749439
 20
202.276387
 30
0.0
  0
LINE
  5
7B1EB
330
7B4EA
100
AcDbEntity
  8
Level 25
  6
Continuous
 62
   174
370
    13
100
AcDbLine
 10
2769.749439
 20
202.276387
 30
0.0
 11
2769.749439
 21
197.276387
 31
0.0
  0
LINE
  5
7B1EC
330
7B4EA
100
AcDbEntity
  8
Level 25
  6
Continuous
 62
   174
370
    13
100
AcDbLine
 10
2769.749439
 20
197.276387
 30
0.0
 11
2769.749439
 21
175.276387
 31
0.0
  0
LINE
  5
7B1ED
330
7B4EA
100
AcDbEntity
  8
Level 25
  6
Continuous
 62
   174
370
    13
100
AcDbLine
 10
2769.749439
 20
175.276387
 30
0.0
 11
2769.749439
 21
170.276387
 31
0.0
  0
POINT
  5
7B1EE
330
7B4EA
100
AcDbEntity
  8
Level 25
  6
Continuous
 62
   174
370
    13
100
AcDbPoint
 10
2769.749439
 20
170.276387
 30
0.0
  0
LINE
  5
7B1EF
330
7B4EA
100
AcDbEntity
  8
Level 25
  6
Continuous
 62
   174
370
    13
100
AcDbLine
 10
2769.749439
 20
170.276387
 30
0.0
 11
2769.749439
 21
175.276387
 31
0.0
  0
LINE
  5
7B1F0
330
7B4EA
100
AcDbEntity
  8
Level 25
  6
Continuous
 62
   174
370
    13
100
AcDbLine
 10
2769.749439
 20
175.276387
 30
0.0
 11
2769.749439
 21
197.276387
 31
0.0
  0
LINE
  5
7B1F1
330
7B4EA
100
AcDbEntity
  8
Level 25
  6
Continuous
 62
   174
370
    13
100
AcDbLine
 10
2769.749439
 20
197.276387
 30
0.0
 11
2769.749439
 21
202.276387
 31
0.0
  0
LINE
  5
7B1F2
330
7B4EA
100
AcDbEntity
  8
Level 25
  6
Continuous
 62
   174
370
    13
100
AcDbLine
 10
2769.749439
 20
179.776387
 30
0.0
 11
2769.749439
 21
192.776387
 31
0.0
  0
LINE
  5
7B1F3
330
7B4EA
100
AcDbEntity
  8
Level 25
  6
Continuous
 62
   174
370
    13
100
AcDbLine
 10
2769.749439
 20
192.776387
 30
0.0
 11
2769.749439
 21
179.776387
 31
0.0
  0
POINT
  5
7B1F4
330
7B4EA
100
AcDbEntity
  8
Level 25
  6
Continuous
 62
   174
370
    13
100
AcDbPoint
 10
2763.749439
 20
202.276387
 30
0.0
  0
LINE
  5
7B1F5
330
7B4EA
100
AcDbEntity
  8
Level 25
  6
Continuous
 62
   174
370
    13
100
AcDbLine
 10
2763.749439
 20
202.276387
 30
0.0
 11
2763.749439
 21
197.276387
 31
0.0
  0
LINE
  5
7B1F6
330
7B4EA
100
AcDbEntity
  8
Level 25
  6
Continuous
 62
   174
370
    13
100
AcDbLine
 10
2763.749439
 20
197.276387
 30
0.0
 11
2763.749439
 21
175.276387
 31
0.0
  0
LINE
  5
7B1F7
330
7B4EA
100
AcDbEntity
  8
Level 25
  6
Continuous
 62
   174
370
    13
100
AcDbLine
 10
2763.749439
 20
175.276387
 30
0.0
 11
2763.749439
 21
170.276387
 31
0.0
  0
POINT
  5
7B1F8
330
7B4EA
100
AcDbEntity
  8
Level 25
  6
Continuous
 62
   174
370
    13
100
AcDbPoint
 10
2763.749439
 20
170.276387
 30
0.0
  0
LINE
  5
7B1F9
330
7B4EA
100
AcDbEntity
  8
Level 25
  6
Continuous
 62
   174
370
    13
100
AcDbLine
 10
2763.749439
 20
170.276387
 30
0.0
 11
2763.749439
 21
175.276387
 31
0.0
  0
LINE
  5
7B1FA
330
7B4EA
100
AcDbEntity
  8
Level 25
  6
Continuous
 62
   174
370
    13
100
AcDbLine
 10
2763.749439
 20
175.276387
 30
0.0
 11
2763.749439
 21
197.276387
 31
0.0
  0
LINE
  5
7B1FB
330
7B4EA
100
AcDbEntity
  8
Level 25
  6
Continuous
 62
   174
370
    13
100
AcDbLine
 10
2763.749439
 20
197.276387
 30
0.0
 11
2763.749439
 21
202.276387
 31
0.0
  0
LINE
  5
7B1FC
330
7B4EA
100
AcDbEntity
  8
Level 25
  6
Continuous
 62
   174
370
    13
100
AcDbLine
 10
2763.749439
 20
179.776387
 30
0.0
 11
2763.749439
 21
192.776387
 31
0.0
  0
LINE
  5
7B1FD
330
7B4EA
100
AcDbEntity
  8
Level 25
  6
Continuous
 62
   174
370
    13
100
AcDbLine
 10
2763.749439
 20
192.776387
 30
0.0
 11
2763.749439
 21
179.776387
 31
0.0
  0
LINE
  5
7B1FE
330
7B4EA
100
AcDbEntity
  8
Level 25
  6
Continuous
 62
   174
370
    13
100
AcDbLine
 10
2769.749439
 20
202.276387
 30
0.0
 11
2763.749439
 21
202.276387
 31
0.0
  0
LINE
  5
7B1FF
330
7B4EA
100
AcDbEntity
  8
Level 25
  6
Continuous
 62
   174
370
    13
100
AcDbLine
 10
2769.749439
 20
202.276387
 30
0.0
 11
2763.749439
 21
202.276387
 31
0.0
  0
LINE
  5
7B200
330
7B4EA
100
AcDbEntity
  8
Level 25
  6
Continuous
 62
   174
370
    13
100
AcDbLine
 10
2769.749439
 20
197.276387
 30
0.0
 11
2763.749439
 21
197.276387
 31
0.0
  0
LINE
  5
7B201
330
7B4EA
100
AcDbEntity
  8
Level 25
  6
Continuous
 62
   174
370
    13
100
AcDbLine
 10
2769.749439
 20
175.276387
 30
0.0
 11
2763.749439
 21
175.276387
 31
0.0
  0
LINE
  5
7B202
330
7B4EA
100
AcDbEntity
  8
Level 25
  6
Continuous
 62
   174
370
    13
100
AcDbLine
 10
2769.749439
 20
170.276387
 30
0.0
 11
2763.749439
 21
170.276387
 31
0.0
  0
LINE
  5
7B203
330
7B4EA
100
AcDbEntity
  8
Level 25
  6
Continuous
 62
   174
370
    13
100
AcDbLine
 10
2769.749439
 20
170.276387
 30
0.0
 11
2763.749439
 21
170.276387
 31
0.0
  0
LINE
  5
7B204
330
7B4EA
100
AcDbEntity
  8
Level 25
  6
Continuous
 62
   174
370
    13
100
AcDbLine
 10
2769.749439
 20
175.276387
 30
0.0
 11
2763.749439
 21
175.276387
 31
0.0
  0
LINE
  5
7B205
330
7B4EA
100
AcDbEntity
  8
Level 25
  6
Continuous
 62
   174
370
    13
100
AcDbLine
 10
2769.749439
 20
197.276387
 30
0.0
 11
2763.749439
 21
197.276387
 31
0.0
  0
LINE
  5
7B206
330
7B4EA
100
AcDbEntity
  8
Level 25
  6
Continuous
 62
   174
370
    13
100
AcDbLine
 10
2769.749439
 20
186.276387
 30
0.0
 11
2763.749439
 21
186.276387
 31
0.0
  0
LINE
  5
7B207
330
7B4EA
100
AcDbEntity
  8
Level 25
  6
Continuous
 62
   174
370
    13
100
AcDbLine
 10
2769.749439
 20
179.776387
 30
0.0
 11
2763.749439
 21
179.776387
 31
0.0
  0
LINE
  5
7B208
330
7B4EA
100
AcDbEntity
  8
Level 25
  6
Continuous
 62
   174
370
    13
100
AcDbLine
 10
2769.749439
 20
186.276387
 30
0.0
 11
2763.749439
 21
186.276387
 31
0.0
  0
LINE
  5
7B209
330
7B4EA
100
AcDbEntity
  8
Level 25
  6
Continuous
 62
   174
370
    13
100
AcDbLine
 10
2769.749439
 20
192.776387
 30
0.0
 11
2763.749439
 21
192.776387
 31
0.0
  0
LINE
  5
7B20A
330
7B4EA
100
AcDbEntity
  8
Level 25
  6
Continuous
 62
   174
370
    13
100
AcDbLine
 10
2769.749439
 20
186.276387
 30
0.0
 11
2763.749439
 21
186.276387
 31
0.0
  0
LINE
  5
7B20B
330
7B4EA
100
AcDbEntity
  8
Level 25
  6
Continuous
 62
   174
370
    13
100
AcDbLine
 10
2769.749439
 20
192.776387
 30
0.0
 11
2763.749439
 21
192.776387
 31
0.0
  0
LINE
  5
7B20C
330
7B4EA
100
AcDbEntity
  8
Level 25
  6
Continuous
 62
   174
370
    13
100
AcDbLine
 10
2769.749439
 20
186.276387
 30
0.0
 11
2763.749439
 21
186.276387
 31
0.0
  0
LINE
  5
7B20D
330
7B4EA
100
AcDbEntity
  8
Level 25
  6
Continuous
 62
   174
370
    13
100
AcDbLine
 10
2769.749439
 20
179.776387
 30
0.0
 11
2763.749439
 21
179.776387
 31
0.0
  0
ENDBLK
  5
7B4EC
330
7B4EA
100
AcDbEntity
  8
0
100
AcDbBlockEnd
  0
BLOCK
  5
7B4EE
330
7B4ED
100
AcDbEntity
  8
0
100
AcDbBlockBegin
  2
From Solid_1
 70
     0
 71
     0
 10
0.0
 20
0.0
 30
0.0
  3
From Solid_1
  1

  0
POINT
  5
7B20F
330
7B4ED
100
AcDbEntity
  8
Level 25
  6
Continuous
 62
   174
370
    13
100
AcDbPoint
 10
3633.749439
 20
202.276387
 30
0.0
  0
LINE
  5
7B210
330
7B4ED
100
AcDbEntity
  8
Level 25
  6
Continuous
 62
   174
370
    13
100
AcDbLine
 10
3633.749439
 20
202.276387
 30
0.0
 11
3633.749439
 21
197.276387
 31
0.0
  0
LINE
  5
7B211
330
7B4ED
100
AcDbEntity
  8
Level 25
  6
Continuous
 62
   174
370
    13
100
AcDbLine
 10
3633.749439
 20
197.276387
 30
0.0
 11
3633.749439
 21
175.276387
 31
0.0
  0
LINE
  5
7B212
330
7B4ED
100
AcDbEntity
  8
Level 25
  6
Continuous
 62
   174
370
    13
100
AcDbLine
 10
3633.749439
 20
175.276387
 30
0.0
 11
3633.749439
 21
170.276387
 31
0.0
  0
POINT
  5
7B213
330
7B4ED
100
AcDbEntity
  8
Level 25
  6
Continuous
 62
   174
370
    13
100
AcDbPoint
 10
3633.749439
 20
170.276387
 30
0.0
  0
LINE
  5
7B214
330
7B4ED
100
AcDbEntity
  8
Level 25
  6
Continuous
 62
   174
370
    13
100
AcDbLine
 10
3633.749439
 20
170.276387
 30
0.0
 11
3633.749439
 21
175.276387
 31
0.0
  0
LINE
  5
7B215
330
7B4ED
100
AcDbEntity
  8
Level 25
  6
Continuous
 62
   174
370
    13
100
AcDbLine
 10
3633.749439
 20
175.276387
 30
0.0
 11
3633.749439
 21
197.276387
 31
0.0
  0
LINE
  5
7B216
330
7B4ED
100
AcDbEntity
  8
Level 25
  6
Continuous
 62
   174
370
    13
100
AcDbLine
 10
3633.749439
 20
197.276387
 30
0.0
 11
3633.749439
 21
202.276387
 31
0.0
  0
LINE
  5
7B217
330
7B4ED
100
AcDbEntity
  8
Level 25
  6
Continuous
 62
   174
370
    13
100
AcDbLine
 10
3633.749439
 20
179.776387
 30
0.0
 11
3633.749439
 21
192.776387
 31
0.0
  0
LINE
  5
7B218
330
7B4ED
100
AcDbEntity
  8
Level 25
  6
Continuous
 62
   174
370
    13
100
AcDbLine
 10
3633.749439
 20
192.776387
 30
0.0
 11
3633.749439
 21
179.776387
 31
0.0
  0
POINT
  5
7B219
330
7B4ED
100
AcDbEntity
  8
Level 25
  6
Continuous
 62
   174
370
    13
100
AcDbPoint
 10
3627.749439
 20
202.276387
 30
0.0
  0
LINE
  5
7B21A
330
7B4ED
100
AcDbEntity
  8
Level 25
  6
Continuous
 62
   174
370
    13
100
AcDbLine
 10
3627.749439
 20
202.276387
 30
0.0
 11
3627.749439
 21
197.276387
 31
0.0
  0
LINE
  5
7B21B
330
7B4ED
100
AcDbEntity
  8
Level 25
  6
Continuous
 62
   174
370
    13
100
AcDbLine
 10
3627.749439
 20
197.276387
 30
0.0
 11
3627.749439
 21
175.276387
 31
0.0
  0
LINE
  5
7B21C
330
7B4ED
100
AcDbEntity
  8
Level 25
  6
Continuous
 62
   174
370
    13
100
AcDbLine
 10
3627.749439
 20
175.276387
 30
0.0
 11
3627.749439
 21
170.276387
 31
0.0
  0
POINT
  5
7B21D
330
7B4ED
100
AcDbEntity
  8
Level 25
  6
Continuous
 62
   174
370
    13
100
AcDbPoint
 10
3627.749439
 20
170.276387
 30
0.0
  0
LINE
  5
7B21E
330
7B4ED
100
AcDbEntity
  8
Level 25
  6
Continuous
 62
   174
370
    13
100
AcDbLine
 10
3627.749439
 20
170.276387
 30
0.0
 11
3627.749439
 21
175.276387
 31
0.0
  0
LINE
  5
7B21F
330
7B4ED
100
AcDbEntity
  8
Level 25
  6
Continuous
 62
   174
370
    13
100
AcDbLine
 10
3627.749439
 20
175.276387
 30
0.0
 11
3627.749439
 21
197.276387
 31
0.0
  0
LINE
  5
7B220
330
7B4ED
100
AcDbEntity
  8
Level 25
  6
Continuous
 62
   174
370
    13
100
AcDbLine
 10
3627.749439
 20
197.276387
 30
0.0
 11
3627.749439
 21
202.276387
 31
0.0
  0
LINE
  5
7B221
330
7B4ED
100
AcDbEntity
  8
Level 25
  6
Continuous
 62
   174
370
    13
100
AcDbLine
 10
3627.749439
 20
179.776387
 30
0.0
 11
3627.749439
 21
192.776387
 31
0.0
  0
LINE
  5
7B222
330
7B4ED
100
AcDbEntity
  8
Level 25
  6
Continuous
 62
   174
370
    13
100
AcDbLine
 10
3627.749439
 20
192.776387
 30
0.0
 11
3627.749439
 21
179.776387
 31
0.0
  0
LINE
  5
7B223
330
7B4ED
100
AcDbEntity
  8
Level 25
  6
Continuous
 62
   174
370
    13
100
AcDbLine
 10
3633.749439
 20
202.276387
 30
0.0
 11
3627.749439
 21
202.276387
 31
0.0
  0
LINE
  5
7B224
330
7B4ED
100
AcDbEntity
  8
Level 25
  6
Continuous
 62
   174
370
    13
100
AcDbLine
 10
3633.749439
 20
202.276387
 30
0.0
 11
3627.749439
 21
202.276387
 31
0.0
  0
LINE
  5
7B225
330
7B4ED
100
AcDbEntity
  8
Level 25
  6
Continuous
 62
   174
370
    13
100
AcDbLine
 10
3633.749439
 20
197.276387
 30
0.0
 11
3627.749439
 21
197.276387
 31
0.0
  0
LINE
  5
7B226
330
7B4ED
100
AcDbEntity
  8
Level 25
  6
Continuous
 62
   174
370
    13
100
AcDbLine
 10
3633.749439
 20
175.276387
 30
0.0
 11
3627.749439
 21
175.276387
 31
0.0
  0
LINE
  5
7B227
330
7B4ED
100
AcDbEntity
  8
Level 25
  6
Continuous
 62
   174
370
    13
100
AcDbLine
 10
3633.749439
 20
170.276387
 30
0.0
 11
3627.749439
 21
170.276387
 31
0.0
  0
LINE
  5
7B228
330
7B4ED
100
AcDbEntity
  8
Level 25
  6
Continuous
 62
   174
370
    13
100
AcDbLine
 10
3633.749439
 20
170.276387
 30
0.0
 11
3627.749439
 21
170.276387
 31
0.0
  0
LINE
  5
7B229
330
7B4ED
100
AcDbEntity
  8
Level 25
  6
Continuous
 62
   174
370
    13
100
AcDbLine
 10
3633.749439
 20
175.276387
 30
0.0
 11
3627.749439
 21
175.276387
 31
0.0
  0
LINE
  5
7B22A
330
7B4ED
100
AcDbEntity
  8
Level 25
  6
Continuous
 62
   174
370
    13
100
AcDbLine
 10
3633.749439
 20
197.276387
 30
0.0
 11
3627.749439
 21
197.276387
 31
0.0
  0
LINE
  5
7B22B
330
7B4ED
100
AcDbEntity
  8
Level 25
  6
Continuous
 62
   174
370
    13
100
AcDbLine
 10
3633.749439
 20
186.276387
 30
0.0
 11
3627.749439
 21
186.276387
 31
0.0
  0
LINE
  5
7B22C
330
7B4ED
100
AcDbEntity
  8
Level 25
  6
Continuous
 62
   174
370
    13
100
AcDbLine
 10
3633.749439
 20
179.776387
 30
0.0
 11
3627.749439
 21
179.776387
 31
0.0
  0
LINE
  5
7B22D
330
7B4ED
100
AcDbEntity
  8
Level 25
  6
Continuous
 62
   174
370
    13
100
AcDbLine
 10
3633.749439
 20
186.276387
 30
0.0
 11
3627.749439
 21
186.276387
 31
0.0
  0
LINE
  5
7B22E
330
7B4ED
100
AcDbEntity
  8
Level 25
  6
Continuous
 62
   174
370
    13
100
AcDbLine
 10
3633.749439
 20
192.776387
 30
0.0
 11
3627.749439
 21
192.776387
 31
0.0
  0
LINE
  5
7B22F
330
7B4ED
100
AcDbEntity
  8
Level 25
  6
Continuous
 62
   174
370
    13
100
AcDbLine
 10
3633.749439
 20
186.276387
 30
0.0
 11
3627.749439
 21
186.276387
 31
0.0
  0
LINE
  5
7B230
330
7B4ED
100
AcDbEntity
  8
Level 25
  6
Continuous
 62
   174
370
    13
100
AcDbLine
 10
3633.749439
 20
192.776387
 30
0.0
 11
3627.749439
 21
192.776387
 31
0.0
  0
LINE
  5
7B231
330
7B4ED
100
AcDbEntity
  8
Level 25
  6
Continuous
 62
   174
370
    13
100
AcDbLine
 10
3633.749439
 20
186.276387
 30
0.0
 11
3627.749439
 21
186.276387
 31
0.0
  0
LINE
  5
7B232
330
7B4ED
100
AcDbEntity
  8
Level 25
  6
Continuous
 62
   174
370
    13
100
AcDbLine
 10
3633.749439
 20
179.776387
 30
0.0
 11
3627.749439
 21
179.776387
 31
0.0
  0
ENDBLK
  5
7B4EF
330
7B4ED
100
AcDbEntity
  8
0
100
AcDbBlockEnd
  0
BLOCK
  5
7B4F1
330
7B4F0
100
AcDbEntity
  8
0
100
AcDbBlockBegin
  2
From Solid_2
 70
     0
 71
     0
 10
0.0
 20
0.0
 30
0.0
  3
From Solid_2
  1

  0
LINE
  5
7B234
330
7B4F0
100
AcDbEntity
  8
Level 27
  6
Continuous
 62
    12
370
    13
100
AcDbLine
 10
2702.099439
 20
242.776387
 30
0.0
 11
2750.399439
 21
242.776387
 31
0.0
  0
LINE
  5
7B235
330
7B4F0
100
AcDbEntity
  8
Level 27
  6
Continuous
 62
    12
370
    13
100
AcDbLine
 10
2702.099439
 20
3002.776387
 30
0.0
 11
2750.399439
 21
3002.776387
 31
0.0
  0
LINE
  5
7B236
330
7B4F0
100
AcDbEntity
  8
Level 27
  6
Continuous
 62
    12
370
    13
100
AcDbLine
 10
2726.249439
 20
242.776387
 30
0.0
 11
2726.249439
 21
3002.776387
 31
0.0
  0
LINE
  5
7B237
330
7B4F0
100
AcDbEntity
  8
Level 27
  6
Continuous
 62
    12
370
    13
100
AcDbLine
 10
2702.099439
 20
242.776387
 30
0.0
 11
2702.099439
 21
3002.776387
 31
0.0
  0
LINE
  5
7B238
330
7B4F0
100
AcDbEntity
  8
Level 27
  6
Continuous
 62
    12
370
    13
100
AcDbLine
 10
2726.249439
 20
242.776387
 30
0.0
 11
2726.249439
 21
3002.776387
 31
0.0
  0
LINE
  5
7B239
330
7B4F0
100
AcDbEntity
  8
Level 27
  6
Continuous
 62
    12
370
    13
100
AcDbLine
 10
2750.399439
 20
242.776387
 30
0.0
 11
2750.399439
 21
3002.776387
 31
0.0
  0
ENDBLK
  5
7B4F2
330
7B4F0
100
AcDbEntity
  8
0
100
AcDbBlockEnd
  0
BLOCK
  5
7B4F4
330
7B4F3
100
AcDbEntity
  8
0
100
AcDbBlockBegin
  2
From Solid_3
 70
     0
 71
     0
 10
0.0
 20
0.0
 30
0.0
  3
From Solid_3
  1

  0
LINE
  5
7B23B
330
7B4F3
100
AcDbEntity
  8
Level 27
  6
Continuous
 62
    12
370
    13
100
AcDbLine
 10
3647.099439
 20
242.776387
 30
0.0
 11
3695.399439
 21
242.776387
 31
0.0
  0
LINE
  5
7B23C
330
7B4F3
100
AcDbEntity
  8
Level 27
  6
Continuous
 62
    12
370
    13
100
AcDbLine
 10
3647.099439
 20
3002.776387
 30
0.0
 11
3695.399439
 21
3002.776387
 31
0.0
  0
LINE
  5
7B23D
330
7B4F3
100
AcDbEntity
  8
Level 27
  6
Continuous
 62
    12
370
    13
100
AcDbLine
 10
3671.249439
 20
242.776387
 30
0.0
 11
3671.249439
 21
3002.776387
 31
0.0
  0
LINE
  5
7B23E
330
7B4F3
100
AcDbEntity
  8
Level 27
  6
Continuous
 62
    12
370
    13
100
AcDbLine
 10
3647.099439
 20
242.776387
 30
0.0
 11
3647.099439
 21
3002.776387
 31
0.0
  0
LINE
  5
7B23F
330
7B4F3
100
AcDbEntity
  8
Level 27
  6
Continuous
 62
    12
370
    13
100
AcDbLine
 10
3671.249439
 20
242.776387
 30
0.0
 11
3671.249439
 21
3002.776387
 31
0.0
  0
LINE
  5
7B240
330
7B4F3
100
AcDbEntity
  8
Level 27
  6
Continuous
 62
    12
370
    13
100
AcDbLine
 10
3695.399439
 20
242.776387
 30
0.0
 11
3695.399439
 21
3002.776387
 31
0.0
  0
ENDBLK
  5
7B4F5
330
7B4F3
100
AcDbEntity
  8
0
100
AcDbBlockEnd
  0
BLOCK
  5
7B4F7
330
7B4F6
100
AcDbEntity
  8
0
100
AcDbBlockBegin
  2
From Solid_4
 70
     0
 71
     0
 10
0.0
 20
0.0
 30
0.0
  3
From Solid_4
  1

  0
ELLIPSE
  5
7B242
330
7B4F6
100
AcDbEntity
  8
Level 26
  6
Continuous
 62
    40
370
    13
100
AcDbEllipse
 10
3198.749439
 20
1327.316387
 30
0.0
 11
0.0
 21
-11.52
 31
0.0
210
0.0
220
0.0
230
1.0
 40
0.353261
 41
0.0
 42
6.283185307179586
  0
ELLIPSE
  5
7B243
330
7B4F6
100
AcDbEntity
  8
Level 26
  6
Continuous
 62
    40
370
    13
100
AcDbEllipse
 10
3671.249439
 20
1327.316387
 30
0.0
 11
0.0
 21
-11.52
 31
0.0
210
0.0
220
0.0
230
1.0
 40
0.868052
 41
0.0
 42
6.283185307179586
  0
LINE
  5
7B244
330
7B4F6
100
AcDbEntity
  8
Level 26
  6
Continuous
 62
    40
370
    13
100
AcDbLine
 10
3198.749439
 20
1315.796387
 30
0.0
 11
3671.252523
 21
1315.796387
 31
0.0
  0
LINE
  5
7B245
330
7B4F6
100
AcDbEntity
  8
Level 26
  6
Continuous
 62
    40
370
    13
100
AcDbLine
 10
3202.81901
 20
1327.316387
 30
0.0
 11
3681.252524
 21
1327.316387
 31
0.0
  0
LINE
  5
7B246
330
7B4F6
100
AcDbEntity
  8
Level 26
  6
Continuous
 62
    40
370
    13
100
AcDbLine
 10
3198.749439
 20
1338.836387
 30
0.0
 11
3671.252523
 21
1338.836387
 31
0.0
  0
LINE
  5
7B247
330
7B4F6
100
AcDbEntity
  8
Level 26
  6
Continuous
 62
    40
370
    13
100
AcDbLine
 10
3194.679868
 20
1327.316387
 30
0.0
 11
3661.252523
 21
1327.316387
 31
0.0
  0
ENDBLK
  5
7B4F8
330
7B4F6
100
AcDbEntity
  8
0
100
AcDbBlockEnd
  0
BLOCK
  5
7B4FA
330
7B4F9
100
AcDbEntity
  8
0
100
AcDbBlockBegin
  2
From Solid_5
 70
     0
 71
     0
 10
0.0
 20
0.0
 30
0.0
  3
From Solid_5
  1

  0
ELLIPSE
  5
7B249
330
7B4F9
100
AcDbEntity
  8
Level 26
  6
Continuous
 62
    40
370
    13
100
AcDbEllipse
 10
3198.749439
 20
1327.316387
 30
0.0
 11
0.0
 21
11.52
 31
0.0
210
0.0
220
0.0
230
1.0
 40
0.353261
 41
0.0
 42
6.283185307179586
  0
ELLIPSE
  5
7B24A
330
7B4F9
100
AcDbEntity
  8
Level 26
  6
Continuous
 62
    40
370
    13
100
AcDbEllipse
 10
2726.249439
 20
1327.316387
 30
0.0
 11
0.0
 21
11.52
 31
0.0
210
0.0
220
0.0
230
1.0
 40
0.868052
 41
0.0
 42
6.283185307179586
  0
LINE
  5
7B24B
330
7B4F9
100
AcDbEntity
  8
Level 26
  6
Continuous
 62
    40
370
    13
100
AcDbLine
 10
3198.749439
 20
1338.836387
 30
0.0
 11
2726.246355
 21
1338.836387
 31
0.0
  0
LINE
  5
7B24C
330
7B4F9
100
AcDbEntity
  8
Level 26
  6
Continuous
 62
    40
370
    13
100
AcDbLine
 10
3194.679868
 20
1327.316387
 30
0.0
 11
2716.246355
 21
1327.316387
 31
0.0
  0
LINE
  5
7B24D
330
7B4F9
100
AcDbEntity
  8
Level 26
  6
Continuous
 62
    40
370
    13
100
AcDbLine
 10
3198.749439
 20
1315.796387
 30
0.0
 11
2726.246355
 21
1315.796387
 31
0.0
  0
LINE
  5
7B24E
330
7B4F9
100
AcDbEntity
  8
Level 26
  6
Continuous
 62
    40
370
    13
100
AcDbLine
 10
3202.81901
 20
1327.316387
 30
0.0
 11
2736.246355
 21
1327.316387
 31
0.0
  0
ENDBLK
  5
7B4FB
330
7B4F9
100
AcDbEntity
  8
0
100
AcDbBlockEnd
  0
BLOCK
  5
7B4FD
330
7B4FC
100
AcDbEntity
  8
0
100
AcDbBlockBegin
  2
From Solid_6
 70
     0
 71
     0
 10
0.0
 20
0.0
 30
0.0
  3
From Solid_6
  1

  0
LINE
  5
7B25A
330
7B4FC
100
AcDbEntity
  8
Level 26
  6
Continuous
 62
   254
370
    13
100
AcDbLine
 10
3218.249439
 20
209.276387
 30
0.0
 11
3210.249439
 21
209.276387
 31
0.0
  0
LINE
  5
7B25B
330
7B4FC
100
AcDbEntity
  8
Level 26
  6
Continuous
 62
   254
370
    13
100
AcDbLine
 10
3218.249439
 20
269.276387
 30
0.0
 11
3210.249439
 21
269.276387
 31
0.0
  0
LINE
  5
7B25C
330
7B4FC
100
AcDbEntity
  8
Level 26
  6
Continuous
 62
   254
370
    13
100
AcDbLine
 10
3214.249439
 20
209.276387
 30
0.0
 11
3214.249439
 21
269.276387
 31
0.0
  0
LINE
  5
7B25D
330
7B4FC
100
AcDbEntity
  8
Level 26
  6
Continuous
 62
   254
370
    13
100
AcDbLine
 10
3218.249439
 20
209.276387
 30
0.0
 11
3218.249439
 21
269.276387
 31
0.0
  0
LINE
  5
7B25E
330
7B4FC
100
AcDbEntity
  8
Level 26
  6
Continuous
 62
   254
370
    13
100
AcDbLine
 10
3214.249439
 20
209.276387
 30
0.0
 11
3214.249439
 21
269.276387
 31
0.0
  0
LINE
  5
7B25F
330
7B4FC
100
AcDbEntity
  8
Level 26
  6
Continuous
 62
   254
370
    13
100
AcDbLine
 10
3210.249439
 20
209.276387
 30
0.0
 11
3210.249439
 21
269.276387
 31
0.0
  0
ENDBLK
  5
7B4FE
330
7B4FC
100
AcDbEntity
  8
0
100
AcDbBlockEnd
  0
BLOCK
  5
7B500
330
7B4FF
100
AcDbEntity
  8
0
100
AcDbBlockBegin
  2
From Solid_7
 70
     0
 71
     0
 10
0.0
 20
0.0
 30
0.0
  3
From Solid_7
  1

  0
LINE
  5
7B261
330
7B4FF
100
AcDbEntity
  8
Level 26
  6
Continuous
 62
   254
370
    13
100
AcDbLine
 10
3187.249439
 20
209.276387
 30
0.0
 11
3179.249439
 21
209.276387
 31
0.0
  0
LINE
  5
7B262
330
7B4FF
100
AcDbEntity
  8
Level 26
  6
Continuous
 62
   254
370
    13
100
AcDbLine
 10
3187.249439
 20
269.276387
 30
0.0
 11
3179.249439
 21
269.276387
 31
0.0
  0
LINE
  5
7B263
330
7B4FF
100
AcDbEntity
  8
Level 26
  6
Continuous
 62
   254
370
    13
100
AcDbLine
 10
3183.249439
 20
209.276387
 30
0.0
 11
3183.249439
 21
269.276387
 31
0.0
  0
LINE
  5
7B264
330
7B4FF
100
AcDbEntity
  8
Level 26
  6
Continuous
 62
   254
370
    13
100
AcDbLine
 10
3187.249439
 20
209.276387
 30
0.0
 11
3187.249439
 21
269.276387
 31
0.0
  0
LINE
  5
7B265
330
7B4FF
100
AcDbEntity
  8
Level 26
  6
Continuous
 62
   254
370
    13
100
AcDbLine
 10
3183.249439
 20
209.276387
 30
0.0
 11
3183.249439
 21
269.276387
 31
0.0
  0
LINE
  5
7B266
330
7B4FF
100
AcDbEntity
  8
Level 26
  6
Continuous
 62
   254
370
    13
100
AcDbLine
 10
3179.249439
 20
209.276387
 30
0.0
 11
3179.249439
 21
269.276387
 31
0.0
  0
ENDBLK
  5
7B501
330
7B4FF
100
AcDbEntity
  8
0
100
AcDbBlockEnd
  0
BLOCK
  5
7B503
330
7B502
100
AcDbEntity
  8
0
100
AcDbBlockBegin
  2
From Solid_8
 70
     0
 71
     0
 10
0.0
 20
0.0
 30
0.0
  3
From Solid_8
  1

  0
LINE
  5
7B268
330
7B502
100
AcDbEntity
  8
Level 26
  6
Continuous
 62
   254
370
    13
100
AcDbLine
 10
3179.249439
 20
269.276387
 30
0.0
 11
3187.249439
 21
269.276387
 31
0.0
  0
LINE
  5
7B269
330
7B502
100
AcDbEntity
  8
Level 26
  6
Continuous
 62
   254
370
    13
100
AcDbLine
 10
3179.249439
 20
269.276387
 30
0.0
 11
3187.249439
 21
269.276387
 31
0.0
  0
LINE
  5
7B26A
330
7B502
100
AcDbEntity
  8
Level 26
  6
Continuous
 62
   254
370
    13
100
AcDbLine
 10
3183.249439
 20
269.276387
 30
0.0
 11
3183.249439
 21
273.276387
 31
0.0
  0
LINE
  5
7B26B
330
7B502
100
AcDbEntity
  8
Level 26
  6
Continuous
 62
   254
370
    13
100
AcDbLine
 10
3183.249439
 20
269.276387
 30
0.0
 11
3183.249439
 21
265.276387
 31
0.0
  0
ENDBLK
  5
7B504
330
7B502
100
AcDbEntity
  8
0
100
AcDbBlockEnd
  0
BLOCK
  5
7B506
330
7B505
100
AcDbEntity
  8
0
100
AcDbBlockBegin
  2
From Solid_9
 70
     0
 71
     0
 10
0.0
 20
0.0
 30
0.0
  3
From Solid_9
  1

  0
LINE
  5
7B277
330
7B505
100
AcDbEntity
  8
Level 26
  6
Continuous
 62
   254
370
    13
100
AcDbLine
 10
3179.249439
 20
3036.276387
 30
0.0
 11
3187.249439
 21
3036.276387
 31
0.0
  0
LINE
  5
7B278
330
7B505
100
AcDbEntity
  8
Level 26
  6
Continuous
 62
   254
370
    13
100
AcDbLine
 10
3179.249439
 20
2976.276387
 30
0.0
 11
3187.249439
 21
2976.276387
 31
0.0
  0
LINE
  5
7B279
330
7B505
100
AcDbEntity
  8
Level 26
  6
Continuous
 62
   254
370
    13
100
AcDbLine
 10
3183.249439
 20
3036.276387
 30
0.0
 11
3183.249439
 21
2976.276387
 31
0.0
  0
LINE
  5
7B27A
330
7B505
100
AcDbEntity
  8
Level 26
  6
Continuous
 62
   254
370
    13
100
AcDbLine
 10
3179.249439
 20
3036.276387
 30
0.0
 11
3179.249439
 21
2976.276387
 31
0.0
  0
LINE
  5
7B27B
330
7B505
100
AcDbEntity
  8
Level 26
  6
Continuous
 62
   254
370
    13
100
AcDbLine
 10
3183.249439
 20
3036.276387
 30
0.0
 11
3183.249439
 21
2976.276387
 31
0.0
  0
LINE
  5
7B27C
330
7B505
100
AcDbEntity
  8
Level 26
  6
Continuous
 62
   254
370
    13
100
AcDbLine
 10
3187.249439
 20
3036.276387
 30
0.0
 11
3187.249439
 21
2976.276387
 31
0.0
  0
ENDBLK
  5
7B507
330
7B505
100
AcDbEntity
  8
0
100
AcDbBlockEnd
  0
BLOCK
  5
7B509
330
7B508
100
AcDbEntity
  8
0
100
AcDbBlockBegin
  2
From Solid_10
 70
     0
 71
     0
 10
0.0
 20
0.0
 30
0.0
  3
From Solid_10
  1

  0
LINE
  5
7B27E
330
7B508
100
AcDbEntity
  8
Level 26
  6
Continuous
 62
   254
370
    13
100
AcDbLine
 10
3210.249439
 20
3036.276387
 30
0.0
 11
3218.249439
 21
3036.276387
 31
0.0
  0
LINE
  5
7B27F
330
7B508
100
AcDbEntity
  8
Level 26
  6
Continuous
 62
   254
370
    13
100
AcDbLine
 10
3210.249439
 20
2976.276387
 30
0.0
 11
3218.249439
 21
2976.276387
 31
0.0
  0
LINE
  5
7B280
330
7B508
100
AcDbEntity
  8
Level 26
  6
Continuous
 62
   254
370
    13
100
AcDbLine
 10
3214.249439
 20
3036.276387
 30
0.0
 11
3214.249439
 21
2976.276387
 31
0.0
  0
LINE
  5
7B281
330
7B508
100
AcDbEntity
  8
Level 26
  6
Continuous
 62
   254
370
    13
100
AcDbLine
 10
3210.249439
 20
3036.276387
 30
0.0
 11
3210.249439
 21
2976.276387
 31
0.0
  0
LINE
  5
7B282
330
7B508
100
AcDbEntity
  8
Level 26
  6
Continuous
 62
   254
370
    13
100
AcDbLine
 10
3214.249439
 20
3036.276387
 30
0.0
 11
3214.249439
 21
2976.276387
 31
0.0
  0
LINE
  5
7B283
330
7B508
100
AcDbEntity
  8
Level 26
  6
Continuous
 62
   254
370
    13
100
AcDbLine
 10
3218.249439
 20
3036.276387
 30
0.0
 11
3218.249439
 21
2976.276387
 31
0.0
  0
ENDBLK
  5
7B50A
330
7B508
100
AcDbEntity
  8
0
100
AcDbBlockEnd
  0
BLOCK
  5
7B50C
330
7B50B
100
AcDbEntity
  8
0
100
AcDbBlockBegin
  2
From Solid_11
 70
     0
 71
     0
 10
0.0
 20
0.0
 30
0.0
  3
From Solid_11
  1

  0
LINE
  5
7B285
330
7B50B
100
AcDbEntity
  8
Level 26
  6
Continuous
 62
   254
370
    13
100
AcDbLine
 10
3218.249439
 20
2976.276387
 30
0.0
 11
3210.249439
 21
2976.276387
 31
0.0
  0
LINE
  5
7B286
330
7B50B
100
AcDbEntity
  8
Level 26
  6
Continuous
 62
   254
370
    13
100
AcDbLine
 10
3218.249439
 20
2976.276387
 30
0.0
 11
3210.249439
 21
2976.276387
 31
0.0
  0
LINE
  5
7B287
330
7B50B
100
AcDbEntity
  8
Level 26
  6
Continuous
 62
   254
370
    13
100
AcDbLine
 10
3214.249439
 20
2976.276387
 30
0.0
 11
3214.249439
 21
2980.276387
 31
0.0
  0
LINE
  5
7B288
330
7B50B
100
AcDbEntity
  8
Level 26
  6
Continuous
 62
   254
370
    13
100
AcDbLine
 10
3214.249439
 20
2976.276387
 30
0.0
 11
3214.249439
 21
2972.276387
 31
0.0
  0
ENDBLK
  5
7B50D
330
7B50B
100
AcDbEntity
  8
0
100
AcDbBlockEnd
  0
BLOCK
  5
7B50F
330
7B50E
100
AcDbEntity
  8
0
100
AcDbBlockBegin
  2
From Solid_12
 70
     0
 71
     0
 10
0.0
 20
0.0
 30
0.0
  3
From Solid_12
  1

  0
ELLIPSE
  5
7B28A
330
7B50E
100
AcDbEntity
  8
Level 26
  6
Continuous
 62
    40
370
    13
100
AcDbEllipse
 10
3198.749439
 20
2431.316387
 30
0.0
 11
0.0
 21
-11.52
 31
0.0
210
0.0
220
0.0
230
1.0
 40
0.353261
 41
0.0
 42
6.283185307179586
  0
ELLIPSE
  5
7B28B
330
7B50E
100
AcDbEntity
  8
Level 26
  6
Continuous
 62
    40
370
    13
100
AcDbEllipse
 10
3671.249439
 20
2431.316387
 30
0.0
 11
0.0
 21
-11.52
 31
0.0
210
0.0
220
0.0
230
1.0
 40
0.868052
 41
0.0
 42
6.283185307179586
  0
LINE
  5
7B28C
330
7B50E
100
AcDbEntity
  8
Level 26
  6
Continuous
 62
    40
370
    13
100
AcDbLine
 10
3198.749439
 20
2419.796387
 30
0.0
 11
3671.252523
 21
2419.796387
 31
0.0
  0
LINE
  5
7B28D
330
7B50E
100
AcDbEntity
  8
Level 26
  6
Continuous
 62
    40
370
    13
100
AcDbLine
 10
3202.81901
 20
2431.316387
 30
0.0
 11
3681.252524
 21
2431.316387
 31
0.0
  0
LINE
  5
7B28E
330
7B50E
100
AcDbEntity
  8
Level 26
  6
Continuous
 62
    40
370
    13
100
AcDbLine
 10
3198.749439
 20
2442.836387
 30
0.0
 11
3671.252523
 21
2442.836387
 31
0.0
  0
LINE
  5
7B28F
330
7B50E
100
AcDbEntity
  8
Level 26
  6
Continuous
 62
    40
370
    13
100
AcDbLine
 10
3194.679868
 20
2431.316387
 30
0.0
 11
3661.252523
 21
2431.316387
 31
0.0
  0
ENDBLK
  5
7B510
330
7B50E
100
AcDbEntity
  8
0
100
AcDbBlockEnd
  0
BLOCK
  5
7B512
330
7B511
100
AcDbEntity
  8
0
100
AcDbBlockBegin
  2
From Solid_13
 70
     0
 71
     0
 10
0.0
 20
0.0
 30
0.0
  3
From Solid_13
  1

  0
ELLIPSE
  5
7B291
330
7B511
100
AcDbEntity
  8
Level 26
  6
Continuous
 62
    40
370
    13
100
AcDbEllipse
 10
3198.749439
 20
2431.316387
 30
0.0
 11
0.0
 21
11.52
 31
0.0
210
0.0
220
0.0
230
1.0
 40
0.353261
 41
0.0
 42
6.283185307179586
  0
ELLIPSE
  5
7B292
330
7B511
100
AcDbEntity
  8
Level 26
  6
Continuous
 62
    40
370
    13
100
AcDbEllipse
 10
2726.249439
 20
2431.316387
 30
0.0
 11
0.0
 21
11.52
 31
0.0
210
0.0
220
0.0
230
1.0
 40
0.868052
 41
0.0
 42
6.283185307179586
  0
LINE
  5
7B293
330
7B511
100
AcDbEntity
  8
Level 26
  6
Continuous
 62
    40
370
    13
100
AcDbLine
 10
3198.749439
 20
2442.836387
 30
0.0
 11
2726.246355
 21
2442.836387
 31
0.0
  0
LINE
  5
7B294
330
7B511
100
AcDbEntity
  8
Level 26
  6
Continuous
 62
    40
370
    13
100
AcDbLine
 10
3194.679868
 20
2431.316387
 30
0.0
 11
2716.246355
 21
2431.316387
 31
0.0
  0
LINE
  5
7B295
330
7B511
100
AcDbEntity
  8
Level 26
  6
Continuous
 62
    40
370
    13
100
AcDbLine
 10
3198.749439
 20
2419.796387
 30
0.0
 11
2726.246355
 21
2419.796387
 31
0.0
  0
LINE
  5
7B296
330
7B511
100
AcDbEntity
  8
Level 26
  6
Continuous
 62
    40
370
    13
100
AcDbLine
 10
3202.81901
 20
2431.316387
 30
0.0
 11
2736.246355
 21
2431.316387
 31
0.0
  0
ENDBLK
  5
7B513
330
7B511
100
AcDbEntity
  8
0
100
AcDbBlockEnd
  0
BLOCK
  5
7B515
330
7B514
100
AcDbEntity
  8
0
100
AcDbBlockBegin
  2
From Solid_14
 70
     0
 71
     0
 10
0.0
 20
0.0
 30
0.0
  3
From Solid_14
  1

  0
ELLIPSE
  5
7B298
330
7B514
100
AcDbEntity
  8
Level 26
  6
Continuous
 62
    40
370
    13
100
AcDbEllipse
 10
3198.749439
 20
1879.316387
 30
0.0
 11
0.0
 21
-11.52
 31
0.0
210
0.0
220
0.0
230
1.0
 40
0.353261
 41
0.0
 42
6.283185307179586
  0
ELLIPSE
  5
7B299
330
7B514
100
AcDbEntity
  8
Level 26
  6
Continuous
 62
    40
370
    13
100
AcDbEllipse
 10
3671.249439
 20
1879.316387
 30
0.0
 11
0.0
 21
-11.52
 31
0.0
210
0.0
220
0.0
230
1.0
 40
0.868052
 41
0.0
 42
6.283185307179586
  0
LINE
  5
7B29A
330
7B514
100
AcDbEntity
  8
Level 26
  6
Continuous
 62
    40
370
    13
100
AcDbLine
 10
3198.749439
 20
1867.796387
 30
0.0
 11
3671.252523
 21
1867.796387
 31
0.0
  0
LINE
  5
7B29B
330
7B514
100
AcDbEntity
  8
Level 26
  6
Continuous
 62
    40
370
    13
100
AcDbLine
 10
3202.81901
 20
1879.316387
 30
0.0
 11
3681.252524
 21
1879.316387
 31
0.0
  0
LINE
  5
7B29C
330
7B514
100
AcDbEntity
  8
Level 26
  6
Continuous
 62
    40
370
    13
100
AcDbLine
 10
3198.749439
 20
1890.836387
 30
0.0
 11
3671.252523
 21
1890.836387
 31
0.0
  0
LINE
  5
7B29D
330
7B514
100
AcDbEntity
  8
Level 26
  6
Continuous
 62
    40
370
    13
100
AcDbLine
 10
3194.679868
 20
1879.316387
 30
0.0
 11
3661.252523
 21
1879.316387
 31
0.0
  0
ENDBLK
  5
7B516
330
7B514
100
AcDbEntity
  8
0
100
AcDbBlockEnd
  0
BLOCK
  5
7B518
330
7B517
100
AcDbEntity
  8
0
100
AcDbBlockBegin
  2
From Solid_15
 70
     0
 71
     0
 10
0.0
 20
0.0
 30
0.0
  3
From Solid_15
  1

  0
ELLIPSE
  5
7B29F
330
7B517
100
AcDbEntity
  8
Level 26
  6
Continuous
 62
    40
370
    13
100
AcDbEllipse
 10
3198.749439
 20
1879.316387
 30
0.0
 11
0.0
 21
11.52
 31
0.0
210
0.0
220
0.0
230
1.0
 40
0.353261
 41
0.0
 42
6.283185307179586
  0
ELLIPSE
  5
7B2A0
330
7B517
100
AcDbEntity
  8
Level 26
  6
Continuous
 62
    40
370
    13
100
AcDbEllipse
 10
2726.249439
 20
1879.316387
 30
0.0
 11
0.0
 21
11.52
 31
0.0
210
0.0
220
0.0
230
1.0
 40
0.868052
 41
0.0
 42
6.283185307179586
  0
LINE
  5
7B2A1
330
7B517
100
AcDbEntity
  8
Level 26
  6
Continuous
 62
    40
370
    13
100
AcDbLine
 10
3198.749439
 20
1890.836387
 30
0.0
 11
2726.246355
 21
1890.836387
 31
0.0
  0
LINE
  5
7B2A2
330
7B517
100
AcDbEntity
  8
Level 26
  6
Continuous
 62
    40
370
    13
100
AcDbLine
 10
3194.679868
 20
1879.316387
 30
0.0
 11
2716.246355
 21
1879.316387
 31
0.0
  0
LINE
  5
7B2A3
330
7B517
100
AcDbEntity
  8
Level 26
  6
Continuous
 62
    40
370
    13
100
AcDbLine
 10
3198.749439
 20
1867.796387
 30
0.0
 11
2726.246355
 21
1867.796387
 31
0.0
  0
LINE
  5
7B2A4
330
7B517
100
AcDbEntity
  8
Level 26
  6
Continuous
 62
    40
370
    13
100
AcDbLine
 10
3202.81901
 20
1879.316387
 30
0.0
 11
2736.246355
 21
1879.316387
 31
0.0
  0
ENDBLK
  5
7B519
330
7B517
100
AcDbEntity
  8
0
100
AcDbBlockEnd
  0
BLOCK
  5
7B51B
330
7B51A
100
AcDbEntity
  8
0
100
AcDbBlockBegin
  2
From Solid_16
 70
     0
 71
     0
 10
0.0
 20
0.0
 30
0.0
  3
From Solid_16
  1

  0
ELLIPSE
  5
7B2A6
330
7B51A
100
AcDbEntity
  8
Level 26
  6
Continuous
 62
    40
370
    13
100
AcDbEllipse
 10
3198.749439
 20
775.316387
 30
0.0
 11
0.0
 21
-11.52
 31
0.0
210
0.0
220
0.0
230
1.0
 40
0.353261
 41
0.0
 42
6.283185307179586
  0
ELLIPSE
  5
7B2A7
330
7B51A
100
AcDbEntity
  8
Level 26
  6
Continuous
 62
    40
370
    13
100
AcDbEllipse
 10
3671.249439
 20
775.316387
 30
0.0
 11
0.0
 21
-11.52
 31
0.0
210
0.0
220
0.0
230
1.0
 40
0.868052
 41
0.0
 42
6.283185307179586
  0
LINE
  5
7B2A8
330
7B51A
100
AcDbEntity
  8
Level 26
  6
Continuous
 62
    40
370
    13
100
AcDbLine
 10
3198.749439
 20
763.796387
 30
0.0
 11
3671.252523
 21
763.796387
 31
0.0
  0
LINE
  5
7B2A9
330
7B51A
100
AcDbEntity
  8
Level 26
  6
Continuous
 62
    40
370
    13
100
AcDbLine
 10
3202.81901
 20
775.316387
 30
0.0
 11
3681.252524
 21
775.316387
 31
0.0
  0
LINE
  5
7B2AA
330
7B51A
100
AcDbEntity
  8
Level 26
  6
Continuous
 62
    40
370
    13
100
AcDbLine
 10
3198.749439
 20
786.836387
 30
0.0
 11
3671.252523
 21
786.836387
 31
0.0
  0
LINE
  5
7B2AB
330
7B51A
100
AcDbEntity
  8
Level 26
  6
Continuous
 62
    40
370
    13
100
AcDbLine
 10
3194.679868
 20
775.316387
 30
0.0
 11
3661.252523
 21
775.316387
 31
0.0
  0
ENDBLK
  5
7B51C
330
7B51A
100
AcDbEntity
  8
0
100
AcDbBlockEnd
  0
BLOCK
  5
7B51E
330
7B51D
100
AcDbEntity
  8
0
100
AcDbBlockBegin
  2
From Solid_17
 70
     0
 71
     0
 10
0.0
 20
0.0
 30
0.0
  3
From Solid_17
  1

  0
ELLIPSE
  5
7B2AD
330
7B51D
100
AcDbEntity
  8
Level 26
  6
Continuous
 62
    40
370
    13
100
AcDbEllipse
 10
3198.749439
 20
775.316387
 30
0.0
 11
0.0
 21
11.52
 31
0.0
210
0.0
220
0.0
230
1.0
 40
0.353261
 41
0.0
 42
6.283185307179586
  0
ELLIPSE
  5
7B2AE
330
7B51D
100
AcDbEntity
  8
Level 26
  6
Continuous
 62
    40
370
    13
100
AcDbEllipse
 10
2726.249439
 20
775.316387
 30
0.0
 11
0.0
 21
11.52
 31
0.0
210
0.0
220
0.0
230
1.0
 40
0.868052
 41
0.0
 42
6.283185307179586
  0
LINE
  5
7B2AF
330
7B51D
100
AcDbEntity
  8
Level 26
  6
Continuous
 62
    40
370
    13
100
AcDbLine
 10
3198.749439
 20
786.836387
 30
0.0
 11
2726.246355
 21
786.836387
 31
0.0
  0
LINE
  5
7B2B0
330
7B51D
100
AcDbEntity
  8
Level 26
  6
Continuous
 62
    40
370
    13
100
AcDbLine
 10
3194.679868
 20
775.316387
 30
0.0
 11
2716.246355
 21
775.316387
 31
0.0
  0
LINE
  5
7B2B1
330
7B51D
100
AcDbEntity
  8
Level 26
  6
Continuous
 62
    40
370
    13
100
AcDbLine
 10
3198.749439
 20
763.796387
 30
0.0
 11
2726.246355
 21
763.796387
 31
0.0
  0
LINE
  5
7B2B2
330
7B51D
100
AcDbEntity
  8
Level 26
  6
Continuous
 62
    40
370
    13
100
AcDbLine
 10
3202.81901
 20
775.316387
 30
0.0
 11
2736.246355
 21
775.316387
 31
0.0
  0
ENDBLK
  5
7B51F
330
7B51D
100
AcDbEntity
  8
0
100
AcDbBlockEnd
  0
BLOCK
  5
7B521
330
7B520
100
AcDbEntity
  8
0
100
AcDbBlockBegin
  2
From Solid_18
 70
     0
 71
     0
 10
0.0
 20
0.0
 30
0.0
  3
From Solid_18
  1

  0
ELLIPSE
  5
7B2B4
330
7B520
100
AcDbEntity
  8
Level 26
  6
Continuous
 62
    40
370
    13
100
AcDbEllipse
 10
3198.749439
 20
1851.526366
 30
0.0
 11
-10.0
 21
0.0
 31
0.0
210
0.0
220
0.0
230
1.0
 40
0.455672
 41
0.0
 42
6.283185307179586
  0
ELLIPSE
  5
7B2B5
330
7B520
100
AcDbEntity
  8
Level 26
  6
Continuous
 62
    40
370
    13
100
AcDbEllipse
 10
3198.749439
 20
1385.776378
 30
0.0
 11
-10.00000000000001
 21
0.0
 31
0.0
210
0.0
220
0.0
230
1.0
 40
0.455672
 41
0.0
 42
6.283185307179586
  0
LINE
  5
7B2B6
330
7B520
100
AcDbEntity
  8
Level 26
  6
Continuous
 62
    40
370
    13
100
AcDbLine
 10
3188.749439
 20
1385.776378
 30
0.0
 11
3188.749439
 21
1851.526366
 31
0.0
  0
LINE
  5
7B2B7
330
7B520
100
AcDbEntity
  8
Level 26
  6
Continuous
 62
    40
370
    13
100
AcDbLine
 10
3198.749439
 20
1381.219659
 30
0.0
 11
3198.749439
 21
1856.083087
 31
0.0
  0
LINE
  5
7B2B8
330
7B520
100
AcDbEntity
  8
Level 26
  6
Continuous
 62
    40
370
    13
100
AcDbLine
 10
3208.749439
 20
1385.776378
 30
0.0
 11
3208.749439
 21
1851.526366
 31
0.0
  0
LINE
  5
7B2B9
330
7B520
100
AcDbEntity
  8
Level 26
  6
Continuous
 62
    40
370
    13
100
AcDbLine
 10
3198.749439
 20
1390.333098
 30
0.0
 11
3198.749439
 21
1846.969645
 31
0.0
  0
ENDBLK
  5
7B522
330
7B520
100
AcDbEntity
  8
0
100
AcDbBlockEnd
  0
BLOCK
  5
7B524
330
7B523
100
AcDbEntity
  8
0
100
AcDbBlockBegin
  2
From Solid_19
 70
     0
 71
     0
 10
0.0
 20
0.0
 30
0.0
  3
From Solid_19
  1

  0
ELLIPSE
  5
7B2BB
330
7B523
100
AcDbEntity
  8
Level 26
  6
Continuous
 62
    40
370
    13
100
AcDbEllipse
 10
3198.749439
 20
1302.526381
 30
0.0
 11
-10.0
 21
0.0
 31
0.0
210
0.0
220
0.0
230
1.0
 40
0.41625
 41
0.0
 42
6.283185307179586
  0
ELLIPSE
  5
7B2BC
330
7B523
100
AcDbEntity
  8
Level 26
  6
Continuous
 62
    40
370
    13
100
AcDbEllipse
 10
3198.749439
 20
1385.776379
 30
0.0
 11
-10.00000000000001
 21
0.0
 31
0.0
210
0.0
220
0.0
230
1.0
 40
0.41625
 41
0.0
 42
6.283185307179586
  0
LINE
  5
7B2BD
330
7B523
100
AcDbEntity
  8
Level 26
  6
Continuous
 62
    40
370
    13
100
AcDbLine
 10
3188.749439
 20
1385.776379
 30
0.0
 11
3188.749439
 21
1302.526381
 31
0.0
  0
LINE
  5
7B2BE
330
7B523
100
AcDbEntity
  8
Level 26
  6
Continuous
 62
    40
370
    13
100
AcDbLine
 10
3198.749439
 20
1389.938879
 30
0.0
 11
3198.749439
 21
1298.363881
 31
0.0
  0
LINE
  5
7B2BF
330
7B523
100
AcDbEntity
  8
Level 26
  6
Continuous
 62
    40
370
    13
100
AcDbLine
 10
3208.749439
 20
1385.776379
 30
0.0
 11
3208.749439
 21
1302.526381
 31
0.0
  0
LINE
  5
7B2C0
330
7B523
100
AcDbEntity
  8
Level 26
  6
Continuous
 62
    40
370
    13
100
AcDbLine
 10
3198.749439
 20
1381.613879
 30
0.0
 11
3198.749439
 21
1306.688881
 31
0.0
  0
ENDBLK
  5
7B525
330
7B523
100
AcDbEntity
  8
0
100
AcDbBlockEnd
  0
BLOCK
  5
7B527
330
7B526
100
AcDbEntity
  8
0
100
AcDbBlockBegin
  2
From Solid_20
 70
     0
 71
     0
 10
0.0
 20
0.0
 30
0.0
  3
From Solid_20
  1

  0
ELLIPSE
  5
7B2C2
330
7B526
100
AcDbEntity
  8
Level 26
  6
Continuous
 62
    40
370
    13
100
AcDbEllipse
 10
3198.749439
 20
1302.526381
 30
0.0
 11
-10.0
 21
0.0
 31
0.0
210
0.0
220
0.0
230
1.0
 40
0.455672
 41
0.0
 42
6.283185307179586
  0
ELLIPSE
  5
7B2C3
330
7B526
100
AcDbEntity
  8
Level 26
  6
Continuous
 62
    40
370
    13
100
AcDbEllipse
 10
3198.749439
 20
836.776393
 30
0.0
 11
-10.0
 21
0.0
 31
0.0
210
0.0
220
0.0
230
1.0
 40
0.455672
 41
0.0
 42
6.283185307179586
  0
LINE
  5
7B2C4
330
7B526
100
AcDbEntity
  8
Level 26
  6
Continuous
 62
    40
370
    13
100
AcDbLine
 10
3188.749439
 20
836.776393
 30
0.0
 11
3188.749439
 21
1302.526381
 31
0.0
  0
LINE
  5
7B2C5
330
7B526
100
AcDbEntity
  8
Level 26
  6
Continuous
 62
    40
370
    13
100
AcDbLine
 10
3198.749439
 20
832.219672
 30
0.0
 11
3198.749439
 21
1307.083101
 31
0.0
  0
LINE
  5
7B2C6
330
7B526
100
AcDbEntity
  8
Level 26
  6
Continuous
 62
    40
370
    13
100
AcDbLine
 10
3208.749439
 20
836.776393
 30
0.0
 11
3208.749439
 21
1302.526381
 31
0.0
  0
LINE
  5
7B2C7
330
7B526
100
AcDbEntity
  8
Level 26
  6
Continuous
 62
    40
370
    13
100
AcDbLine
 10
3198.749439
 20
841.333113
 30
0.0
 11
3198.749439
 21
1297.969661
 31
0.0
  0
ENDBLK
  5
7B528
330
7B526
100
AcDbEntity
  8
0
100
AcDbBlockEnd
  0
BLOCK
  5
7B52A
330
7B529
100
AcDbEntity
  8
0
100
AcDbBlockBegin
  2
From Solid_21
 70
     0
 71
     0
 10
0.0
 20
0.0
 30
0.0
  3
From Solid_21
  1

  0
ELLIPSE
  5
7B2C9
330
7B529
100
AcDbEntity
  8
Level 26
  6
Continuous
 62
    40
370
    13
100
AcDbEllipse
 10
3198.749439
 20
753.526395
 30
0.0
 11
-10.00000000000001
 21
0.0
 31
0.0
210
0.0
220
0.0
230
1.0
 40
0.41625
 41
0.0
 42
6.283185307179586
  0
ELLIPSE
  5
7B2CA
330
7B529
100
AcDbEntity
  8
Level 26
  6
Continuous
 62
    40
370
    13
100
AcDbEllipse
 10
3198.749439
 20
836.776393
 30
0.0
 11
-10.00000000000001
 21
0.0
 31
0.0
210
0.0
220
0.0
230
1.0
 40
0.41625
 41
0.0
 42
6.283185307179586
  0
LINE
  5
7B2CB
330
7B529
100
AcDbEntity
  8
Level 26
  6
Continuous
 62
    40
370
    13
100
AcDbLine
 10
3188.749439
 20
836.776393
 30
0.0
 11
3188.749439
 21
753.526395
 31
0.0
  0
LINE
  5
7B2CC
330
7B529
100
AcDbEntity
  8
Level 26
  6
Continuous
 62
    40
370
    13
100
AcDbLine
 10
3198.749439
 20
840.938893
 30
0.0
 11
3198.749439
 21
749.363896
 31
0.0
  0
LINE
  5
7B2CD
330
7B529
100
AcDbEntity
  8
Level 26
  6
Continuous
 62
    40
370
    13
100
AcDbLine
 10
3208.749439
 20
836.776393
 30
0.0
 11
3208.749439
 21
753.526395
 31
0.0
  0
LINE
  5
7B2CE
330
7B529
100
AcDbEntity
  8
Level 26
  6
Continuous
 62
    40
370
    13
100
AcDbLine
 10
3198.749439
 20
832.613892
 30
0.0
 11
3198.749439
 21
757.688894
 31
0.0
  0
ENDBLK
  5
7B52B
330
7B529
100
AcDbEntity
  8
0
100
AcDbBlockEnd
  0
BLOCK
  5
7B52D
330
7B52C
100
AcDbEntity
  8
0
100
AcDbBlockBegin
  2
From Solid_22
 70
     0
 71
     0
 10
0.0
 20
0.0
 30
0.0
  3
From Solid_22
  1

  0
ELLIPSE
  5
7B2D0
330
7B52C
100
AcDbEntity
  8
Level 26
  6
Continuous
 62
    40
370
    13
100
AcDbEllipse
 10
3198.749439
 20
753.526395
 30
0.0
 11
-10.00000000000001
 21
0.0
 31
0.0
210
0.0
220
0.0
230
1.0
 40
0.455672
 41
0.0
 42
6.283185307179586
  0
ELLIPSE
  5
7B2D1
330
7B52C
100
AcDbEntity
  8
Level 26
  6
Continuous
 62
    40
370
    13
100
AcDbEllipse
 10
3198.749439
 20
287.776408
 30
0.0
 11
-10.0
 21
0.0
 31
0.0
210
0.0
220
0.0
230
1.0
 40
0.455672
 41
0.0
 42
6.283185307179586
  0
LINE
  5
7B2D2
330
7B52C
100
AcDbEntity
  8
Level 26
  6
Continuous
 62
    40
370
    13
100
AcDbLine
 10
3188.749439
 20
287.776408
 30
0.0
 11
3188.749439
 21
753.526395
 31
0.0
  0
LINE
  5
7B2D3
330
7B52C
100
AcDbEntity
  8
Level 26
  6
Continuous
 62
    40
370
    13
100
AcDbLine
 10
3198.749439
 20
283.219688
 30
0.0
 11
3198.749439
 21
758.083116
 31
0.0
  0
LINE
  5
7B2D4
330
7B52C
100
AcDbEntity
  8
Level 26
  6
Continuous
 62
    40
370
    13
100
AcDbLine
 10
3208.749439
 20
287.776408
 30
0.0
 11
3208.749439
 21
753.526395
 31
0.0
  0
LINE
  5
7B2D5
330
7B52C
100
AcDbEntity
  8
Level 26
  6
Continuous
 62
    40
370
    13
100
AcDbLine
 10
3198.749439
 20
292.333128
 30
0.0
 11
3198.749439
 21
748.969674
 31
0.0
  0
ENDBLK
  5
7B52E
330
7B52C
100
AcDbEntity
  8
0
100
AcDbBlockEnd
  0
BLOCK
  5
7B530
330
7B52F
100
AcDbEntity
  8
0
100
AcDbBlockBegin
  2
From Solid_23
 70
     0
 71
     0
 10
0.0
 20
0.0
 30
0.0
  3
From Solid_23
  1

  0
ELLIPSE
  5
7B2D7
330
7B52F
100
AcDbEntity
  8
Level 26
  6
Continuous
 62
    40
370
    13
100
AcDbEllipse
 10
3198.749439
 20
2955.526366
 30
0.0
 11
-10.00000000000001
 21
0.0
 31
0.0
210
0.0
220
0.0
230
1.0
 40
0.455672
 41
0.0
 42
6.283185307179586
  0
ELLIPSE
  5
7B2D8
330
7B52F
100
AcDbEntity
  8
Level 26
  6
Continuous
 62
    40
370
    13
100
AcDbEllipse
 10
3198.749439
 20
2489.776378
 30
0.0
 11
-10.0
 21
0.0
 31
0.0
210
0.0
220
0.0
230
1.0
 40
0.455672
 41
0.0
 42
6.283185307179586
  0
LINE
  5
7B2D9
330
7B52F
100
AcDbEntity
  8
Level 26
  6
Continuous
 62
    40
370
    13
100
AcDbLine
 10
3188.749439
 20
2489.776378
 30
0.0
 11
3188.749439
 21
2955.526366
 31
0.0
  0
LINE
  5
7B2DA
330
7B52F
100
AcDbEntity
  8
Level 26
  6
Continuous
 62
    40
370
    13
100
AcDbLine
 10
3198.749439
 20
2485.219659
 30
0.0
 11
3198.749439
 21
2960.083087
 31
0.0
  0
LINE
  5
7B2DB
330
7B52F
100
AcDbEntity
  8
Level 26
  6
Continuous
 62
    40
370
    13
100
AcDbLine
 10
3208.749439
 20
2489.776378
 30
0.0
 11
3208.749439
 21
2955.526366
 31
0.0
  0
LINE
  5
7B2DC
330
7B52F
100
AcDbEntity
  8
Level 26
  6
Continuous
 62
    40
370
    13
100
AcDbLine
 10
3198.749439
 20
2494.333098
 30
0.0
 11
3198.749439
 21
2950.969645
 31
0.0
  0
ENDBLK
  5
7B531
330
7B52F
100
AcDbEntity
  8
0
100
AcDbBlockEnd
  0
BLOCK
  5
7B533
330
7B532
100
AcDbEntity
  8
0
100
AcDbBlockBegin
  2
From Solid_24
 70
     0
 71
     0
 10
0.0
 20
0.0
 30
0.0
  3
From Solid_24
  1

  0
ELLIPSE
  5
7B2DE
330
7B532
100
AcDbEntity
  8
Level 26
  6
Continuous
 62
    40
370
    13
100
AcDbEllipse
 10
3198.749439
 20
2406.526381
 30
0.0
 11
-10.0
 21
0.0
 31
0.0
210
0.0
220
0.0
230
1.0
 40
0.41625
 41
0.0
 42
6.283185307179586
  0
ELLIPSE
  5
7B2DF
330
7B532
100
AcDbEntity
  8
Level 26
  6
Continuous
 62
    40
370
    13
100
AcDbEllipse
 10
3198.749439
 20
2489.776379
 30
0.0
 11
-10.0
 21
0.0
 31
0.0
210
0.0
220
0.0
230
1.0
 40
0.41625
 41
0.0
 42
6.283185307179586
  0
LINE
  5
7B2E0
330
7B532
100
AcDbEntity
  8
Level 26
  6
Continuous
 62
    40
370
    13
100
AcDbLine
 10
3188.749439
 20
2489.776379
 30
0.0
 11
3188.749439
 21
2406.526381
 31
0.0
  0
LINE
  5
7B2E1
330
7B532
100
AcDbEntity
  8
Level 26
  6
Continuous
 62
    40
370
    13
100
AcDbLine
 10
3198.749439
 20
2493.938879
 30
0.0
 11
3198.749439
 21
2402.363881
 31
0.0
  0
LINE
  5
7B2E2
330
7B532
100
AcDbEntity
  8
Level 26
  6
Continuous
 62
    40
370
    13
100
AcDbLine
 10
3208.749439
 20
2489.776379
 30
0.0
 11
3208.749439
 21
2406.526381
 31
0.0
  0
LINE
  5
7B2E3
330
7B532
100
AcDbEntity
  8
Level 26
  6
Continuous
 62
    40
370
    13
100
AcDbLine
 10
3198.749439
 20
2485.613879
 30
0.0
 11
3198.749439
 21
2410.688881
 31
0.0
  0
ENDBLK
  5
7B534
330
7B532
100
AcDbEntity
  8
0
100
AcDbBlockEnd
  0
BLOCK
  5
7B536
330
7B535
100
AcDbEntity
  8
0
100
AcDbBlockBegin
  2
From Solid_25
 70
     0
 71
     0
 10
0.0
 20
0.0
 30
0.0
  3
From Solid_25
  1

  0
ELLIPSE
  5
7B2E5
330
7B535
100
AcDbEntity
  8
Level 26
  6
Continuous
 62
    40
370
    13
100
AcDbEllipse
 10
3198.749439
 20
2406.526381
 30
0.0
 11
-10.0
 21
0.0
 31
0.0
210
0.0
220
0.0
230
1.0
 40
0.455672
 41
0.0
 42
6.283185307179586
  0
ELLIPSE
  5
7B2E6
330
7B535
100
AcDbEntity
  8
Level 26
  6
Continuous
 62
    40
370
    13
100
AcDbEllipse
 10
3198.749439
 20
1940.776393
 30
0.0
 11
-10.0
 21
0.0
 31
0.0
210
0.0
220
0.0
230
1.0
 40
0.455672
 41
0.0
 42
6.283185307179586
  0
LINE
  5
7B2E7
330
7B535
100
AcDbEntity
  8
Level 26
  6
Continuous
 62
    40
370
    13
100
AcDbLine
 10
3188.749439
 20
1940.776393
 30
0.0
 11
3188.749439
 21
2406.526381
 31
0.0
  0
LINE
  5
7B2E8
330
7B535
100
AcDbEntity
  8
Level 26
  6
Continuous
 62
    40
370
    13
100
AcDbLine
 10
3198.749439
 20
1936.219672
 30
0.0
 11
3198.749439
 21
2411.083101
 31
0.0
  0
LINE
  5
7B2E9
330
7B535
100
AcDbEntity
  8
Level 26
  6
Continuous
 62
    40
370
    13
100
AcDbLine
 10
3208.749439
 20
1940.776393
 30
0.0
 11
3208.749439
 21
2406.526381
 31
0.0
  0
LINE
  5
7B2EA
330
7B535
100
AcDbEntity
  8
Level 26
  6
Continuous
 62
    40
370
    13
100
AcDbLine
 10
3198.749439
 20
1945.333113
 30
0.0
 11
3198.749439
 21
2401.969661
 31
0.0
  0
ENDBLK
  5
7B537
330
7B535
100
AcDbEntity
  8
0
100
AcDbBlockEnd
  0
BLOCK
  5
7B539
330
7B538
100
AcDbEntity
  8
0
100
AcDbBlockBegin
  2
From Solid_26
 70
     0
 71
     0
 10
0.0
 20
0.0
 30
0.0
  3
From Solid_26
  1

  0
ELLIPSE
  5
7B2EC
330
7B538
100
AcDbEntity
  8
Level 26
  6
Continuous
 62
    40
370
    13
100
AcDbEllipse
 10
3198.749439
 20
1857.526395
 30
0.0
 11
-10.00000000000001
 21
0.0
 31
0.0
210
0.0
220
0.0
230
1.0
 40
0.41625
 41
0.0
 42
6.283185307179586
  0
ELLIPSE
  5
7B2ED
330
7B538
100
AcDbEntity
  8
Level 26
  6
Continuous
 62
    40
370
    13
100
AcDbEllipse
 10
3198.749439
 20
1940.776393
 30
0.0
 11
-10.00000000000001
 21
0.0
 31
0.0
210
0.0
220
0.0
230
1.0
 40
0.41625
 41
0.0
 42
6.283185307179586
  0
LINE
  5
7B2EE
330
7B538
100
AcDbEntity
  8
Level 26
  6
Continuous
 62
    40
370
    13
100
AcDbLine
 10
3188.749439
 20
1940.776393
 30
0.0
 11
3188.749439
 21
1857.526395
 31
0.0
  0
LINE
  5
7B2EF
330
7B538
100
AcDbEntity
  8
Level 26
  6
Continuous
 62
    40
370
    13
100
AcDbLine
 10
3198.749439
 20
1944.938893
 30
0.0
 11
3198.749439
 21
1853.363896
 31
0.0
  0
LINE
  5
7B2F0
330
7B538
100
AcDbEntity
  8
Level 26
  6
Continuous
 62
    40
370
    13
100
AcDbLine
 10
3208.749439
 20
1940.776393
 30
0.0
 11
3208.749439
 21
1857.526395
 31
0.0
  0
LINE
  5
7B2F1
330
7B538
100
AcDbEntity
  8
Level 26
  6
Continuous
 62
    40
370
    13
100
AcDbLine
 10
3198.749439
 20
1936.613892
 30
0.0
 11
3198.749439
 21
1861.688894
 31
0.0
  0
ENDBLK
  5
7B53A
330
7B538
100
AcDbEntity
  8
0
100
AcDbBlockEnd
  0
BLOCK
  5
7B53C
330
7B53B
100
AcDbEntity
  8
0
100
AcDbBlockBegin
  2
From Solid_27
 70
     0
 71
     0
 10
0.0
 20
0.0
 30
0.0
  3
From Solid_27
  1

  0
ELLIPSE
  5
7B2F3
330
7B53B
100
AcDbEntity
  8
Level 26
  6
Continuous
 62
    40
370
    13
100
AcDbEllipse
 10
3198.749439
 20
1857.526395
 30
0.0
 11
-10.00000000000001
 21
0.0
 31
0.0
210
0.0
220
0.0
230
1.0
 40
0.455672
 41
0.0
 42
6.283185307179586
  0
ELLIPSE
  5
7B2F4
330
7B53B
100
AcDbEntity
  8
Level 26
  6
Continuous
 62
    40
370
    13
100
AcDbEllipse
 10
3198.749439
 20
1391.776408
 30
0.0
 11
-10.0
 21
0.0
 31
0.0
210
0.0
220
0.0
230
1.0
 40
0.455672
 41
0.0
 42
6.283185307179586
  0
LINE
  5
7B2F5
330
7B53B
100
AcDbEntity
  8
Level 26
  6
Continuous
 62
    40
370
    13
100
AcDbLine
 10
3188.749439
 20
1391.776408
 30
0.0
 11
3188.749439
 21
1857.526395
 31
0.0
  0
LINE
  5
7B2F6
330
7B53B
100
AcDbEntity
  8
Level 26
  6
Continuous
 62
    40
370
    13
100
AcDbLine
 10
3198.749439
 20
1387.219688
 30
0.0
 11
3198.749439
 21
1862.083116
 31
0.0
  0
LINE
  5
7B2F7
330
7B53B
100
AcDbEntity
  8
Level 26
  6
Continuous
 62
    40
370
    13
100
AcDbLine
 10
3208.749439
 20
1391.776408
 30
0.0
 11
3208.749439
 21
1857.526395
 31
0.0
  0
LINE
  5
7B2F8
330
7B53B
100
AcDbEntity
  8
Level 26
  6
Continuous
 62
    40
370
    13
100
AcDbLine
 10
3198.749439
 20
1396.333128
 30
0.0
 11
3198.749439
 21
1852.969674
 31
0.0
  0
ENDBLK
  5
7B53D
330
7B53B
100
AcDbEntity
  8
0
100
AcDbBlockEnd
  0
BLOCK
  5
7B53F
330
7B53E
100
AcDbEntity
  8
0
100
AcDbBlockBegin
  2
From Solid_28
 70
     0
 71
     0
 10
0.0
 20
0.0
 30
0.0
  3
From Solid_28
  1

  0
POINT
  5
7B2FE
330
7B53E
100
AcDbEntity
  8
Level 25
  6
Continuous
 62
   174
370
    13
100
AcDbPoint
 10
3627.749439
 20
3043.276387
 30
0.0
  0
LINE
  5
7B2FF
330
7B53E
100
AcDbEntity
  8
Level 25
  6
Continuous
 62
   174
370
    13
100
AcDbLine
 10
3627.749439
 20
3043.276387
 30
0.0
 11
3627.749439
 21
3048.276387
 31
0.0
  0
LINE
  5
7B300
330
7B53E
100
AcDbEntity
  8
Level 25
  6
Continuous
 62
   174
370
    13
100
AcDbLine
 10
3627.749439
 20
3048.276387
 30
0.0
 11
3627.749439
 21
3070.276387
 31
0.0
  0
LINE
  5
7B301
330
7B53E
100
AcDbEntity
  8
Level 25
  6
Continuous
 62
   174
370
    13
100
AcDbLine
 10
3627.749439
 20
3070.276387
 30
0.0
 11
3627.749439
 21
3075.276387
 31
0.0
  0
POINT
  5
7B302
330
7B53E
100
AcDbEntity
  8
Level 25
  6
Continuous
 62
   174
370
    13
100
AcDbPoint
 10
3627.749439
 20
3075.276387
 30
0.0
  0
LINE
  5
7B303
330
7B53E
100
AcDbEntity
  8
Level 25
  6
Continuous
 62
   174
370
    13
100
AcDbLine
 10
3627.749439
 20
3075.276387
 30
0.0
 11
3627.749439
 21
3070.276387
 31
0.0
  0
LINE
  5
7B304
330
7B53E
100
AcDbEntity
  8
Level 25
  6
Continuous
 62
   174
370
    13
100
AcDbLine
 10
3627.749439
 20
3070.276387
 30
0.0
 11
3627.749439
 21
3048.276387
 31
0.0
  0
LINE
  5
7B305
330
7B53E
100
AcDbEntity
  8
Level 25
  6
Continuous
 62
   174
370
    13
100
AcDbLine
 10
3627.749439
 20
3048.276387
 30
0.0
 11
3627.749439
 21
3043.276387
 31
0.0
  0
LINE
  5
7B306
330
7B53E
100
AcDbEntity
  8
Level 25
  6
Continuous
 62
   174
370
    13
100
AcDbLine
 10
3627.749439
 20
3065.776387
 30
0.0
 11
3627.749439
 21
3052.776387
 31
0.0
  0
LINE
  5
7B307
330
7B53E
100
AcDbEntity
  8
Level 25
  6
Continuous
 62
   174
370
    13
100
AcDbLine
 10
3627.749439
 20
3052.776387
 30
0.0
 11
3627.749439
 21
3065.776387
 31
0.0
  0
POINT
  5
7B308
330
7B53E
100
AcDbEntity
  8
Level 25
  6
Continuous
 62
   174
370
    13
100
AcDbPoint
 10
3633.749439
 20
3043.276387
 30
0.0
  0
LINE
  5
7B309
330
7B53E
100
AcDbEntity
  8
Level 25
  6
Continuous
 62
   174
370
    13
100
AcDbLine
 10
3633.749439
 20
3043.276387
 30
0.0
 11
3633.749439
 21
3048.276387
 31
0.0
  0
LINE
  5
7B30A
330
7B53E
100
AcDbEntity
  8
Level 25
  6
Continuous
 62
   174
370
    13
100
AcDbLine
 10
3633.749439
 20
3048.276387
 30
0.0
 11
3633.749439
 21
3070.276387
 31
0.0
  0
LINE
  5
7B30B
330
7B53E
100
AcDbEntity
  8
Level 25
  6
Continuous
 62
   174
370
    13
100
AcDbLine
 10
3633.749439
 20
3070.276387
 30
0.0
 11
3633.749439
 21
3075.276387
 31
0.0
  0
POINT
  5
7B30C
330
7B53E
100
AcDbEntity
  8
Level 25
  6
Continuous
 62
   174
370
    13
100
AcDbPoint
 10
3633.749439
 20
3075.276387
 30
0.0
  0
LINE
  5
7B30D
330
7B53E
100
AcDbEntity
  8
Level 25
  6
Continuous
 62
   174
370
    13
100
AcDbLine
 10
3633.749439
 20
3075.276387
 30
0.0
 11
3633.749439
 21
3070.276387
 31
0.0
  0
LINE
  5
7B30E
330
7B53E
100
AcDbEntity
  8
Level 25
  6
Continuous
 62
   174
370
    13
100
AcDbLine
 10
3633.749439
 20
3070.276387
 30
0.0
 11
3633.749439
 21
3048.276387
 31
0.0
  0
LINE
  5
7B30F
330
7B53E
100
AcDbEntity
  8
Level 25
  6
Continuous
 62
   174
370
    13
100
AcDbLine
 10
3633.749439
 20
3048.276387
 30
0.0
 11
3633.749439
 21
3043.276387
 31
0.0
  0
LINE
  5
7B310
330
7B53E
100
AcDbEntity
  8
Level 25
  6
Continuous
 62
   174
370
    13
100
AcDbLine
 10
3633.749439
 20
3065.776387
 30
0.0
 11
3633.749439
 21
3052.776387
 31
0.0
  0
LINE
  5
7B311
330
7B53E
100
AcDbEntity
  8
Level 25
  6
Continuous
 62
   174
370
    13
100
AcDbLine
 10
3633.749439
 20
3052.776387
 30
0.0
 11
3633.749439
 21
3065.776387
 31
0.0
  0
LINE
  5
7B312
330
7B53E
100
AcDbEntity
  8
Level 25
  6
Continuous
 62
   174
370
    13
100
AcDbLine
 10
3627.749439
 20
3043.276387
 30
0.0
 11
3633.749439
 21
3043.276387
 31
0.0
  0
LINE
  5
7B313
330
7B53E
100
AcDbEntity
  8
Level 25
  6
Continuous
 62
   174
370
    13
100
AcDbLine
 10
3627.749439
 20
3043.276387
 30
0.0
 11
3633.749439
 21
3043.276387
 31
0.0
  0
LINE
  5
7B314
330
7B53E
100
AcDbEntity
  8
Level 25
  6
Continuous
 62
   174
370
    13
100
AcDbLine
 10
3627.749439
 20
3048.276387
 30
0.0
 11
3633.749439
 21
3048.276387
 31
0.0
  0
LINE
  5
7B315
330
7B53E
100
AcDbEntity
  8
Level 25
  6
Continuous
 62
   174
370
    13
100
AcDbLine
 10
3627.749439
 20
3070.276387
 30
0.0
 11
3633.749439
 21
3070.276387
 31
0.0
  0
LINE
  5
7B316
330
7B53E
100
AcDbEntity
  8
Level 25
  6
Continuous
 62
   174
370
    13
100
AcDbLine
 10
3627.749439
 20
3075.276387
 30
0.0
 11
3633.749439
 21
3075.276387
 31
0.0
  0
LINE
  5
7B317
330
7B53E
100
AcDbEntity
  8
Level 25
  6
Continuous
 62
   174
370
    13
100
AcDbLine
 10
3627.749439
 20
3075.276387
 30
0.0
 11
3633.749439
 21
3075.276387
 31
0.0
  0
LINE
  5
7B318
330
7B53E
100
AcDbEntity
  8
Level 25
  6
Continuous
 62
   174
370
    13
100
AcDbLine
 10
3627.749439
 20
3070.276387
 30
0.0
 11
3633.749439
 21
3070.276387
 31
0.0
  0
LINE
  5
7B319
330
7B53E
100
AcDbEntity
  8
Level 25
  6
Continuous
 62
   174
370
    13
100
AcDbLine
 10
3627.749439
 20
3048.276387
 30
0.0
 11
3633.749439
 21
3048.276387
 31
0.0
  0
LINE
  5
7B31A
330
7B53E
100
AcDbEntity
  8
Level 25
  6
Continuous
 62
   174
370
    13
100
AcDbLine
 10
3627.749439
 20
3059.276387
 30
0.0
 11
3633.749439
 21
3059.276387
 31
0.0
  0
LINE
  5
7B31B
330
7B53E
100
AcDbEntity
  8
Level 25
  6
Continuous
 62
   174
370
    13
100
AcDbLine
 10
3627.749439
 20
3065.776387
 30
0.0
 11
3633.749439
 21
3065.776387
 31
0.0
  0
LINE
  5
7B31C
330
7B53E
100
AcDbEntity
  8
Level 25
  6
Continuous
 62
   174
370
    13
100
AcDbLine
 10
3627.749439
 20
3059.276387
 30
0.0
 11
3633.749439
 21
3059.276387
 31
0.0
  0
LINE
  5
7B31D
330
7B53E
100
AcDbEntity
  8
Level 25
  6
Continuous
 62
   174
370
    13
100
AcDbLine
 10
3627.749439
 20
3052.776387
 30
0.0
 11
3633.749439
 21
3052.776387
 31
0.0
  0
LINE
  5
7B31E
330
7B53E
100
AcDbEntity
  8
Level 25
  6
Continuous
 62
   174
370
    13
100
AcDbLine
 10
3627.749439
 20
3059.276387
 30
0.0
 11
3633.749439
 21
3059.276387
 31
0.0
  0
LINE
  5
7B31F
330
7B53E
100
AcDbEntity
  8
Level 25
  6
Continuous
 62
   174
370
    13
100
AcDbLine
 10
3627.749439
 20
3052.776387
 30
0.0
 11
3633.749439
 21
3052.776387
 31
0.0
  0
LINE
  5
7B320
330
7B53E
100
AcDbEntity
  8
Level 25
  6
Continuous
 62
   174
370
    13
100
AcDbLine
 10
3627.749439
 20
3059.276387
 30
0.0
 11
3633.749439
 21
3059.276387
 31
0.0
  0
LINE
  5
7B321
330
7B53E
100
AcDbEntity
  8
Level 25
  6
Continuous
 62
   174
370
    13
100
AcDbLine
 10
3627.749439
 20
3065.776387
 30
0.0
 11
3633.749439
 21
3065.776387
 31
0.0
  0
ENDBLK
  5
7B540
330
7B53E
100
AcDbEntity
  8
0
100
AcDbBlockEnd
  0
BLOCK
  5
7B542
330
7B541
100
AcDbEntity
  8
0
100
AcDbBlockBegin
  2
From Solid_29
 70
     0
 71
     0
 10
0.0
 20
0.0
 30
0.0
  3
From Solid_29
  1

  0
POINT
  5
7B323
330
7B541
100
AcDbEntity
  8
Level 25
  6
Continuous
 62
   174
370
    13
100
AcDbPoint
 10
2763.749439
 20
3043.276387
 30
0.0
  0
LINE
  5
7B324
330
7B541
100
AcDbEntity
  8
Level 25
  6
Continuous
 62
   174
370
    13
100
AcDbLine
 10
2763.749439
 20
3043.276387
 30
0.0
 11
2763.749439
 21
3048.276387
 31
0.0
  0
LINE
  5
7B325
330
7B541
100
AcDbEntity
  8
Level 25
  6
Continuous
 62
   174
370
    13
100
AcDbLine
 10
2763.749439
 20
3048.276387
 30
0.0
 11
2763.749439
 21
3070.276387
 31
0.0
  0
LINE
  5
7B326
330
7B541
100
AcDbEntity
  8
Level 25
  6
Continuous
 62
   174
370
    13
100
AcDbLine
 10
2763.749439
 20
3070.276387
 30
0.0
 11
2763.749439
 21
3075.276387
 31
0.0
  0
POINT
  5
7B327
330
7B541
100
AcDbEntity
  8
Level 25
  6
Continuous
 62
   174
370
    13
100
AcDbPoint
 10
2763.749439
 20
3075.276387
 30
0.0
  0
LINE
  5
7B328
330
7B541
100
AcDbEntity
  8
Level 25
  6
Continuous
 62
   174
370
    13
100
AcDbLine
 10
2763.749439
 20
3075.276387
 30
0.0
 11
2763.749439
 21
3070.276387
 31
0.0
  0
LINE
  5
7B329
330
7B541
100
AcDbEntity
  8
Level 25
  6
Continuous
 62
   174
370
    13
100
AcDbLine
 10
2763.749439
 20
3070.276387
 30
0.0
 11
2763.749439
 21
3048.276387
 31
0.0
  0
LINE
  5
7B32A
330
7B541
100
AcDbEntity
  8
Level 25
  6
Continuous
 62
   174
370
    13
100
AcDbLine
 10
2763.749439
 20
3048.276387
 30
0.0
 11
2763.749439
 21
3043.276387
 31
0.0
  0
LINE
  5
7B32B
330
7B541
100
AcDbEntity
  8
Level 25
  6
Continuous
 62
   174
370
    13
100
AcDbLine
 10
2763.749439
 20
3065.776387
 30
0.0
 11
2763.749439
 21
3052.776387
 31
0.0
  0
LINE
  5
7B32C
330
7B541
100
AcDbEntity
  8
Level 25
  6
Continuous
 62
   174
370
    13
100
AcDbLine
 10
2763.749439
 20
3052.776387
 30
0.0
 11
2763.749439
 21
3065.776387
 31
0.0
  0
POINT
  5
7B32D
330
7B541
100
AcDbEntity
  8
Level 25
  6
Continuous
 62
   174
370
    13
100
AcDbPoint
 10
2769.749439
 20
3043.276387
 30
0.0
  0
LINE
  5
7B32E
330
7B541
100
AcDbEntity
  8
Level 25
  6
Continuous
 62
   174
370
    13
100
AcDbLine
 10
2769.749439
 20
3043.276387
 30
0.0
 11
2769.749439
 21
3048.276387
 31
0.0
  0
LINE
  5
7B32F
330
7B541
100
AcDbEntity
  8
Level 25
  6
Continuous
 62
   174
370
    13
100
AcDbLine
 10
2769.749439
 20
3048.276387
 30
0.0
 11
2769.749439
 21
3070.276387
 31
0.0
  0
LINE
  5
7B330
330
7B541
100
AcDbEntity
  8
Level 25
  6
Continuous
 62
   174
370
    13
100
AcDbLine
 10
2769.749439
 20
3070.276387
 30
0.0
 11
2769.749439
 21
3075.276387
 31
0.0
  0
POINT
  5
7B331
330
7B541
100
AcDbEntity
  8
Level 25
  6
Continuous
 62
   174
370
    13
100
AcDbPoint
 10
2769.749439
 20
3075.276387
 30
0.0
  0
LINE
  5
7B332
330
7B541
100
AcDbEntity
  8
Level 25
  6
Continuous
 62
   174
370
    13
100
AcDbLine
 10
2769.749439
 20
3075.276387
 30
0.0
 11
2769.749439
 21
3070.276387
 31
0.0
  0
LINE
  5
7B333
330
7B541
100
AcDbEntity
  8
Level 25
  6
Continuous
 62
   174
370
    13
100
AcDbLine
 10
2769.749439
 20
3070.276387
 30
0.0
 11
2769.749439
 21
3048.276387
 31
0.0
  0
LINE
  5
7B334
330
7B541
100
AcDbEntity
  8
Level 25
  6
Continuous
 62
   174
370
    13
100
AcDbLine
 10
2769.749439
 20
3048.276387
 30
0.0
 11
2769.749439
 21
3043.276387
 31
0.0
  0
LINE
  5
7B335
330
7B541
100
AcDbEntity
  8
Level 25
  6
Continuous
 62
   174
370
    13
100
AcDbLine
 10
2769.749439
 20
3065.776387
 30
0.0
 11
2769.749439
 21
3052.776387
 31
0.0
  0
LINE
  5
7B336
330
7B541
100
AcDbEntity
  8
Level 25
  6
Continuous
 62
   174
370
    13
100
AcDbLine
 10
2769.749439
 20
3052.776387
 30
0.0
 11
2769.749439
 21
3065.776387
 31
0.0
  0
LINE
  5
7B337
330
7B541
100
AcDbEntity
  8
Level 25
  6
Continuous
 62
   174
370
    13
100
AcDbLine
 10
2763.749439
 20
3043.276387
 30
0.0
 11
2769.749439
 21
3043.276387
 31
0.0
  0
LINE
  5
7B338
330
7B541
100
AcDbEntity
  8
Level 25
  6
Continuous
 62
   174
370
    13
100
AcDbLine
 10
2763.749439
 20
3043.276387
 30
0.0
 11
2769.749439
 21
3043.276387
 31
0.0
  0
LINE
  5
7B339
330
7B541
100
AcDbEntity
  8
Level 25
  6
Continuous
 62
   174
370
    13
100
AcDbLine
 10
2763.749439
 20
3048.276387
 30
0.0
 11
2769.749439
 21
3048.276387
 31
0.0
  0
LINE
  5
7B33A
330
7B541
100
AcDbEntity
  8
Level 25
  6
Continuous
 62
   174
370
    13
100
AcDbLine
 10
2763.749439
 20
3070.276387
 30
0.0
 11
2769.749439
 21
3070.276387
 31
0.0
  0
LINE
  5
7B33B
330
7B541
100
AcDbEntity
  8
Level 25
  6
Continuous
 62
   174
370
    13
100
AcDbLine
 10
2763.749439
 20
3075.276387
 30
0.0
 11
2769.749439
 21
3075.276387
 31
0.0
  0
LINE
  5
7B33C
330
7B541
100
AcDbEntity
  8
Level 25
  6
Continuous
 62
   174
370
    13
100
AcDbLine
 10
2763.749439
 20
3075.276387
 30
0.0
 11
2769.749439
 21
3075.276387
 31
0.0
  0
LINE
  5
7B33D
330
7B541
100
AcDbEntity
  8
Level 25
  6
Continuous
 62
   174
370
    13
100
AcDbLine
 10
2763.749439
 20
3070.276387
 30
0.0
 11
2769.749439
 21
3070.276387
 31
0.0
  0
LINE
  5
7B33E
330
7B541
100
AcDbEntity
  8
Level 25
  6
Continuous
 62
   174
370
    13
100
AcDbLine
 10
2763.749439
 20
3048.276387
 30
0.0
 11
2769.749439
 21
3048.276387
 31
0.0
  0
LINE
  5
7B33F
330
7B541
100
AcDbEntity
  8
Level 25
  6
Continuous
 62
   174
370
    13
100
AcDbLine
 10
2763.749439
 20
3059.276387
 30
0.0
 11
2769.749439
 21
3059.276387
 31
0.0
  0
LINE
  5
7B340
330
7B541
100
AcDbEntity
  8
Level 25
  6
Continuous
 62
   174
370
    13
100
AcDbLine
 10
2763.749439
 20
3065.776387
 30
0.0
 11
2769.749439
 21
3065.776387
 31
0.0
  0
LINE
  5
7B341
330
7B541
100
AcDbEntity
  8
Level 25
  6
Continuous
 62
   174
370
    13
100
AcDbLine
 10
2763.749439
 20
3059.276387
 30
0.0
 11
2769.749439
 21
3059.276387
 31
0.0
  0
LINE
  5
7B342
330
7B541
100
AcDbEntity
  8
Level 25
  6
Continuous
 62
   174
370
    13
100
AcDbLine
 10
2763.749439
 20
3052.776387
 30
0.0
 11
2769.749439
 21
3052.776387
 31
0.0
  0
LINE
  5
7B343
330
7B541
100
AcDbEntity
  8
Level 25
  6
Continuous
 62
   174
370
    13
100
AcDbLine
 10
2763.749439
 20
3059.276387
 30
0.0
 11
2769.749439
 21
3059.276387
 31
0.0
  0
LINE
  5
7B344
330
7B541
100
AcDbEntity
  8
Level 25
  6
Continuous
 62
   174
370
    13
100
AcDbLine
 10
2763.749439
 20
3052.776387
 30
0.0
 11
2769.749439
 21
3052.776387
 31
0.0
  0
LINE
  5
7B345
330
7B541
100
AcDbEntity
  8
Level 25
  6
Continuous
 62
   174
370
    13
100
AcDbLine
 10
2763.749439
 20
3059.276387
 30
0.0
 11
2769.749439
 21
3059.276387
 31
0.0
  0
LINE
  5
7B346
330
7B541
100
AcDbEntity
  8
Level 25
  6
Continuous
 62
   174
370
    13
100
AcDbLine
 10
2763.749439
 20
3065.776387
 30
0.0
 11
2769.749439
 21
3065.776387
 31
0.0
  0
ENDBLK
  5
7B543
330
7B541
100
AcDbEntity
  8
0
100
AcDbBlockEnd
  0
BLOCK
  5
7B545
330
7B544
100
AcDbEntity
  8
0
100
AcDbBlockBegin
  2
Feature Solid
 70
     0
 71
     0
 10
0.0
 20
0.0
 30
0.0
  3
Feature Solid
  1

  0
INSERT
  5
7B37C
330
7B544
100
AcDbEntity
  8
Level 26
 62
   133
370
     0
100
AcDbBlockReference
  2
UNITE
 10
215.851704
 20
-22.17087
 30
0.0
 41
100.0
 42
100.0
 43
100.0
  0
ENDBLK
  5
7B546
330
7B544
100
AcDbEntity
  8
0
100
AcDbBlockEnd
  0
BLOCK
  5
7B548
330
7B547
100
AcDbEntity
  8
0
100
AcDbBlockBegin
  2
UNITE
 70
     0
 71
     0
 10
0.0
 20
0.0
 30
0.0
  3
UNITE
  1

  0
INSERT
  5
7B37D
330
7B547
100
AcDbEntity
  8
Level 26
 62
   133
370
     0
100
AcDbBlockReference
  2
Feature Solid_1
 10
0.0
 20
0.0
 30
0.0
  0
INSERT
  5
7B384
330
7B547
100
AcDbEntity
  8
Level 26
 62
   133
370
     0
100
AcDbBlockReference
  2
Feature Solid_2
 10
-0.55
 20
0.0
 30
0.0
  0
INSERT
  5
7B38B
330
7B547
100
AcDbEntity
  8
Level 8
 62
   133
370
     0
100
AcDbBlockReference
  2
Feature Solid_3
 10
0.0
 20
0.0
 30
0.0
  0
ENDBLK
  5
7B549
330
7B547
100
AcDbEntity
  8
0
100
AcDbBlockEnd
  0
BLOCK
  5
7B54B
330
7B54A
100
AcDbEntity
  8
0
100
AcDbBlockBegin
  2
Feature Solid_1
 70
     0
 71
     0
 10
0.0
 20
0.0
 30
0.0
  3
Feature Solid_1
  1

  0
INSERT
  5
7B37E
330
7B54A
100
AcDbEntity
  8
Level 26
 62
   133
370
     0
100
AcDbBlockReference
  2
DDPROJ
 10
0.0
 20
0.0
 30
0.0
  0
ENDBLK
  5
7B54C
330
7B54A
100
AcDbEntity
  8
0
100
AcDbBlockEnd
  0
BLOCK
  5
7B54E
330
7B54D
100
AcDbEntity
  8
0
100
AcDbBlockBegin
  2
DDPROJ
 70
     0
 71
     0
 10
0.0
 20
0.0
 30
0.0
  3
DDPROJ
  1

  0
POINT
  5
7B37F
330
7B54D
100
AcDbEntity
  8
Level 26
 62
   133
370
     0
100
AcDbPoint
 10
-1.833517
 20
0.011714
 30
0.0
  0
LINE
  5
7B380
330
7B54D
100
AcDbEntity
  8
Level 26
 62
   133
370
     0
100
AcDbLine
 10
-1.933517
 20
0.131714
 30
0.0
 11
-1.933517
 21
0.359125
 31
0.0
  0
LINE
  5
7B381
330
7B54D
100
AcDbEntity
  8
Level 26
 62
   133
370
     0
100
AcDbLine
 10
-1.833517
 20
0.131714
 30
0.0
 11
-1.833517
 21
0.431714
 31
0.0
  0
LINE
  5
7B382
330
7B54D
100
AcDbEntity
  8
Level 26
 62
   133
370
     0
100
AcDbLine
 10
-1.833517
 20
0.131714
 30
0.0
 11
-1.833517
 21
0.431714
 31
0.0
  0
LINE
  5
7B383
330
7B54D
100
AcDbEntity
  8
Level 26
 62
   133
370
     0
100
AcDbLine
 10
-1.933517
 20
0.131714
 30
0.0
 11
-1.933517
 21
0.359125
 31
0.0
  0
ENDBLK
  5
7B54F
330
7B54D
100
AcDbEntity
  8
0
100
AcDbBlockEnd
  0
BLOCK
  5
7B551
330
7B550
100
AcDbEntity
  8
0
100
AcDbBlockBegin
  2
Feature Solid_2
 70
     0
 71
     0
 10
0.0
 20
0.0
 30
0.0
  3
Feature Solid_2
  1

  0
INSERT
  5
7B385
330
7B550
100
AcDbEntity
  8
Level 26
 62
   133
370
     0
100
AcDbBlockReference
  2
DDPROJ_1
 10
0.0
 20
0.0
 30
0.0
  0
ENDBLK
  5
7B552
330
7B550
100
AcDbEntity
  8
0
100
AcDbBlockEnd
  0
BLOCK
  5
7B554
330
7B553
100
AcDbEntity
  8
0
100
AcDbBlockBegin
  2
DDPROJ_1
 70
     0
 71
     0
 10
0.0
 20
0.0
 30
0.0
  3
DDPROJ_1
  1

  0
POINT
  5
7B386
330
7B553
100
AcDbEntity
  8
Level 26
 62
   133
370
     0
100
AcDbPoint
 10
-1.933517
 20
0.011714
 30
0.0
  0
LINE
  5
7B387
330
7B553
100
AcDbEntity
  8
Level 26
 62
   133
370
     0
100
AcDbLine
 10
-1.933517
 20
0.131714
 30
0.0
 11
-1.933517
 21
0.431714
 31
0.0
  0
LINE
  5
7B388
330
7B553
100
AcDbEntity
  8
Level 26
 62
   133
370
     0
100
AcDbLine
 10
-1.833517
 20
0.131714
 30
0.0
 11
-1.833517
 21
0.359125
 31
0.0
  0
LINE
  5
7B389
330
7B553
100
AcDbEntity
  8
Level 26
 62
   133
370
     0
100
AcDbLine
 10
-1.833517
 20
0.131714
 30
0.0
 11
-1.833517
 21
0.359125
 31
0.0
  0
LINE
  5
7B38A
330
7B553
100
AcDbEntity
  8
Level 26
 62
   133
370
     0
100
AcDbLine
 10
-1.933517
 20
0.131714
 30
0.0
 11
-1.933517
 21
0.431714
 31
0.0
  0
ENDBLK
  5
7B555
330
7B553
100
AcDbEntity
  8
0
100
AcDbBlockEnd
  0
BLOCK
  5
7B557
330
7B556
100
AcDbEntity
  8
0
100
AcDbBlockBegin
  2
Feature Solid_3
 70
     0
 71
     0
 10
0.0
 20
0.0
 30
0.0
  3
Feature Solid_3
  1

  0
INSERT
  5
7B38C
330
7B556
100
AcDbEntity
  8
Level 8
 62
   133
370
     0
100
AcDbBlockReference
  2
UNITE_1
 10
0.0
 20
0.0
 30
0.0
  0
ENDBLK
  5
7B558
330
7B556
100
AcDbEntity
  8
0
100
AcDbBlockEnd
  0
BLOCK
  5
7B55A
330
7B559
100
AcDbEntity
  8
0
100
AcDbBlockBegin
  2
UNITE_1
 70
     0
 71
     0
 10
0.0
 20
0.0
 30
0.0
  3
UNITE_1
  1

  0
INSERT
  5
7B38D
330
7B559
100
AcDbEntity
  8
Level 8
 62
   133
370
     0
100
AcDbBlockReference
  2
Feature Solid_4
 10
0.0
 20
0.0
 30
0.0
  0
INSERT
  5
7B3A3
330
7B559
100
AcDbEntity
  8
Level 26
 62
   133
370
     0
100
AcDbBlockReference
  2
Feature Solid_5
 10
0.0
 20
0.0
 30
0.0
  0
ENDBLK
  5
7B55B
330
7B559
100
AcDbEntity
  8
0
100
AcDbBlockEnd
  0
BLOCK
  5
7B55D
330
7B55C
100
AcDbEntity
  8
0
100
AcDbBlockBegin
  2
Feature Solid_4
 70
     0
 71
     0
 10
0.0
 20
0.0
 30
0.0
  3
Feature Solid_4
  1

  0
INSERT
  5
7B38E
330
7B55C
100
AcDbEntity
  8
Level 8
 62
   133
370
     0
100
AcDbBlockReference
  2
CONE
 10
0.0
 20
0.0
 30
0.0
  0
ENDBLK
  5
7B55E
330
7B55C
100
AcDbEntity
  8
0
100
AcDbBlockEnd
  0
BLOCK
  5
7B560
330
7B55F
100
AcDbEntity
  8
0
100
AcDbBlockBegin
  2
CONE
 70
     0
 71
     0
 10
0.0
 20
0.0
 30
0.0
  3
CONE
  1

  0
LINE
  5
7B38F
330
7B55F
100
AcDbEntity
  8
Level 8
 62
   133
370
     0
100
AcDbLine
 10
-1.833517
 20
0.431714
 30
0.0
 11
-2.483517
 21
0.431714
 31
0.0
  0
LINE
  5
7B390
330
7B55F
100
AcDbEntity
  8
Level 8
 62
   133
370
     0
100
AcDbLine
 10
-2.383517
 20
0.131714
 30
0.0
 11
-2.383517
 21
0.359125
 31
0.0
  0
LINE
  5
7B391
330
7B55F
100
AcDbEntity
  8
Level 8
 62
   133
370
     0
100
AcDbLine
 10
-2.383517
 20
0.131714
 30
0.0
 11
-2.383517
 21
0.359125
 31
0.0
  0
SPLINE
  5
7B392
330
7B55F
100
AcDbEntity
  8
Level 8
 62
   133
370
     0
100
AcDbSpline
210
0.0
220
0.0
230
1.0
 70
     8
 71
     3
 72
    17
 73
    13
 74
     0
 42
0.0000000001
 43
0.00000001
 40
0.0
 40
0.0
 40
0.0
 40
0.0
 40
0.1188920175173181
 40
0.1188920175173181
 40
0.1188920175173181
 40
0.4370642450454728
 40
0.4370642450454728
 40
0.4370642450454728
 40
0.7708126268407274
 40
0.7708126268407274
 40
0.7708126268407274
 40
1.0
 40
1.0
 40
1.0
 40
1.0
 10
-2.483517035676385
 20
0.4317136962460353
 30
0.0
 10
-2.483517035676385
 20
0.4317136962460353
 30
0.0
 10
-2.482970961108954
 20
0.4312857853703664
 30
0.0
 10
-2.481890266834164
 20
0.4304413967249356
 30
0.0
 10
-2.479007999541985
 20
0.4281893687172236
 30
0.0
 10
-2.472181370284069
 20
0.422849649794828
 30
0.0
 10
-2.462245290317625
 20
0.4152805637156778
 30
0.0
 10
-2.451806866801178
 20
0.4073288034245466
 30
0.0
 10
-2.437764099143891
 20
0.3967863239604514
 30
0.0
 10
-2.421270187946128
 20
0.3850241073261014
 30
0.0
 10
-2.409877803190348
 20
0.3768999155639019
 30
0.0
 10
-2.39720582936004
 20
0.3681165556180104
 30
0.0
 10
-2.383517035681365
 20
0.3591253483963386
 30
0.0
  0
SPLINE
  5
7B395
330
7B55F
100
AcDbEntity
  8
Level 8
 62
   133
370
     0
100
AcDbSpline
210
0.0
220
0.0
230
1.0
 70
     8
 71
     3
 72
    14
 73
    10
 74
     0
 42
0.0000000001
 43
0.00000001
 40
0.0
 40
0.0
 40
0.0
 40
0.0
 40
0.4155111778321488
 40
0.4155111778321488
 40
0.4155111778321488
 40
0.7657511632294429
 40
0.7657511632294429
 40
0.7657511632294429
 40
1.0
 40
1.0
 40
1.0
 40
1.0
 10
-2.38351703567637
 20
0.3591253483958541
 30
0.0
 10
-2.408183961970714
 20
0.3753273199526781
 30
0.0
 10
-2.429723842876847
 20
0.3909352251375093
 30
0.0
 10
-2.446330563598309
 20
0.4032945372283554
 30
0.0
 10
-2.460337575068301
 20
0.4137190532493964
 30
0.0
 10
-2.471094914404411
 20
0.4220439846593886
 30
0.0
 10
-2.477256738635802
 20
0.4268312321213075
 30
0.0
 10
-2.481375118370778
 20
0.4300308856967932
 30
0.0
 10
-2.483517035676385
 20
0.4317136962460353
 30
0.0
 10
-2.483517035676385
 20
0.4317136962460353
 30
0.0
  0
LINE
  5
7B398
330
7B55F
100
AcDbEntity
  8
Level 8
 62
   133
370
     0
100
AcDbLine
 10
-1.833517
 20
0.431714
 30
0.0
 11
-2.483517
 21
0.431714
 31
0.0
  0
SPLINE
  5
7B399
330
7B55F
100
AcDbEntity
  8
Level 8
 62
   133
370
     0
100
AcDbSpline
210
0.0
220
0.0
230
1.0
 70
     8
 71
     3
 72
    17
 73
    13
 74
     0
 42
0.0000000001
 43
0.00000001
 40
0.0
 40
0.0
 40
0.0
 40
0.0
 40
0.1188920175167992
 40
0.1188920175167992
 40
0.1188920175167992
 40
0.4370642450447248
 40
0.4370642450447248
 40
0.4370642450447248
 40
0.7708126268396294
 40
0.7708126268396294
 40
0.7708126268396294
 40
1.0
 40
1.0
 40
1.0
 40
1.0
 10
-1.833517035676238
 20
0.4317136962460353
 30
0.0
 10
-1.833517035676238
 20
0.4317136962460353
 30
0.0
 10
-1.834063110243676
 20
0.4312857853703758
 30
0.0
 10
-1.835143804518467
 20
0.4304413967249543
 30
0.0
 10
-1.838026071810624
 20
0.4281893687172609
 30
0.0
 10
-1.844852701068518
 20
0.4228496497948653
 30
0.0
 10
-1.854788781034962
 20
0.4152805637157337
 30
0.0
 10
-1.865227204551417
 20
0.4073288034246212
 30
0.0
 10
-1.879269972208697
 20
0.3967863239605354
 30
0.0
 10
-1.895763883406445
 20
0.3850241073262133
 30
0.0
 10
-1.907156268162282
 20
0.3768999155639672
 30
0.0
 10
-1.919828241992668
 20
0.368116555618029
 30
0.0
 10
-1.933517035671436
 20
0.3591253483963199
 30
0.0
  0
LINE
  5
7B39C
330
7B55F
100
AcDbEntity
  8
Level 8
 62
   133
370
     0
100
AcDbLine
 10
-1.933517
 20
0.131714
 30
0.0
 11
-1.933517
 21
0.359125
 31
0.0
  0
LINE
  5
7B39D
330
7B55F
100
AcDbEntity
  8
Level 8
 62
   133
370
     0
100
AcDbLine
 10
-1.933517
 20
0.131714
 30
0.0
 11
-1.933517
 21
0.359125
 31
0.0
  0
SPLINE
  5
7B39E
330
7B55F
100
AcDbEntity
  8
Level 8
 62
   133
370
     0
100
AcDbSpline
210
0.0
220
0.0
230
1.0
 70
     8
 71
     3
 72
    14
 73
    10
 74
     0
 42
0.0000000001
 43
0.00000001
 40
0.0
 40
0.0
 40
0.0
 40
0.0
 40
0.4155111778320348
 40
0.4155111778320348
 40
0.4155111778320348
 40
0.7657511632291136
 40
0.7657511632291136
 40
0.7657511632291136
 40
1.0
 40
1.0
 40
1.0
 40
1.0
 10
-1.93351703567641
 20
0.3591253483956494
 30
0.0
 10
-1.908850109382065
 20
0.3753273199525102
 30
0.0
 10
-1.887310228475869
 20
0.3909352251373606
 30
0.0
 10
-1.870703507754392
 20
0.4032945372282435
 30
0.0
 10
-1.856696496284378
 20
0.4137190532493031
 30
0.0
 10
-1.845939156948269
 20
0.4220439846593234
 30
0.0
 10
-1.839777332716864
 20
0.4268312321212702
 30
0.0
 10
-1.835658952981866
 20
0.4300308856967652
 30
0.0
 10
-1.833517035676238
 20
0.431713696246026
 30
0.0
 10
-1.833517035676238
 20
0.4317136962460353
 30
0.0
  0
LINE
  5
7B3A1
330
7B55F
100
AcDbEntity
  8
Level 8
 62
   133
370
     0
100
AcDbLine
 10
-2.158517
 20
0.131714
 30
0.0
 11
-2.158517
 21
0.431714
 31
0.0
  0
LINE
  5
7B3A2
330
7B55F
100
AcDbEntity
  8
Level 8
 62
   133
370
     0
100
AcDbLine
 10
-2.158517
 20
0.131714
 30
0.0
 11
-2.158517
 21
0.431714
 31
0.0
  0
ENDBLK
  5
7B561
330
7B55F
100
AcDbEntity
  8
0
100
AcDbBlockEnd
  0
BLOCK
  5
7B563
330
7B562
100
AcDbEntity
  8
0
100
AcDbBlockBegin
  2
Feature Solid_5
 70
     0
 71
     0
 10
0.0
 20
0.0
 30
0.0
  3
Feature Solid_5
  1

  0
INSERT
  5
7B3A4
330
7B562
100
AcDbEntity
  8
Level 26
 62
   133
370
     0
100
AcDbBlockReference
  2
DDPROJ_2
 10
0.0
 20
0.0
 30
0.0
  0
ENDBLK
  5
7B564
330
7B562
100
AcDbEntity
  8
0
100
AcDbBlockEnd
  0
BLOCK
  5
7B566
330
7B565
100
AcDbEntity
  8
0
100
AcDbBlockBegin
  2
DDPROJ_2
 70
     0
 71
     0
 10
0.0
 20
0.0
 30
0.0
  3
DDPROJ_2
  1

  0
LINE
  5
7B3A5
330
7B565
100
AcDbEntity
  8
Level 26
 62
   133
370
     0
100
AcDbLine
 10
-1.833517
 20
0.011714
 30
0.0
 11
-1.833517
 21
0.131714
 31
0.0
  0
LINE
  5
7B3A6
330
7B565
100
AcDbEntity
  8
Level 26
 62
   133
370
     0
100
AcDbLine
 10
-1.833517
 20
0.131714
 30
0.0
 11
-1.833517
 21
0.011714
 31
0.0
  0
LINE
  5
7B3A7
330
7B565
100
AcDbEntity
  8
Level 26
 62
   133
370
     0
100
AcDbLine
 10
-2.483517
 20
0.011714
 30
0.0
 11
-2.483517
 21
0.131714
 31
0.0
  0
LINE
  5
7B3A8
330
7B565
100
AcDbEntity
  8
Level 26
 62
   133
370
     0
100
AcDbLine
 10
-2.483517
 20
0.131714
 30
0.0
 11
-2.483517
 21
0.011714
 31
0.0
  0
LINE
  5
7B3A9
330
7B565
100
AcDbEntity
  8
Level 26
 62
   133
370
     0
100
AcDbLine
 10
-1.933517
 20
0.131714
 30
0.0
 11
-2.383517
 21
0.131714
 31
0.0
  0
LINE
  5
7B3AA
330
7B565
100
AcDbEntity
  8
Level 26
 62
   133
370
     0
100
AcDbLine
 10
-1.933517
 20
0.131714
 30
0.0
 11
-2.383517
 21
0.131714
 31
0.0
  0
LINE
  5
7B3AB
330
7B565
100
AcDbEntity
  8
Level 26
 62
   133
370
     0
100
AcDbLine
 10
-1.833517
 20
0.011714
 30
0.0
 11
-2.483517
 21
0.011714
 31
0.0
  0
POINT
  5
7B3AC
330
7B565
100
AcDbEntity
  8
Level 26
 62
   133
370
     0
100
AcDbPoint
 10
-2.483517
 20
0.131714
 30
0.0
  0
LINE
  5
7B3AD
330
7B565
100
AcDbEntity
  8
Level 26
 62
   133
370
     0
100
AcDbLine
 10
-1.833517
 20
0.011714
 30
0.0
 11
-2.483517
 21
0.011714
 31
0.0
  0
LINE
  5
7B3AE
330
7B565
100
AcDbEntity
  8
Level 26
 62
   133
370
     0
100
AcDbLine
 10
-1.833517
 20
0.131714
 30
0.0
 11
-2.483517
 21
0.131714
 31
0.0
  0
POINT
  5
7B3AF
330
7B565
100
AcDbEntity
  8
Level 26
 62
   133
370
     0
100
AcDbPoint
 10
-1.833517
 20
0.131714
 30
0.0
  0
POINT
  5
7B3B0
330
7B565
100
AcDbEntity
  8
Level 26
 62
   133
370
     0
100
AcDbPoint
 10
-2.483517
 20
0.131714
 30
0.0
  0
LINE
  5
7B3B1
330
7B565
100
AcDbEntity
  8
Level 26
 62
   133
370
     0
100
AcDbLine
 10
-1.833517
 20
0.131714
 30
0.0
 11
-2.483517
 21
0.131714
 31
0.0
  0
POINT
  5
7B3B2
330
7B565
100
AcDbEntity
  8
Level 26
 62
   133
370
     0
100
AcDbPoint
 10
-1.833517
 20
0.131714
 30
0.0
  0
POINT
  5
7B3B3
330
7B565
100
AcDbEntity
  8
Level 26
 62
   133
370
     0
100
AcDbPoint
 10
-2.383517
 20
0.131714
 30
0.0
  0
POINT
  5
7B3B4
330
7B565
100
AcDbEntity
  8
Level 26
 62
   133
370
     0
100
AcDbPoint
 10
-2.383517
 20
0.131714
 30
0.0
  0
LINE
  5
7B3B5
330
7B565
100
AcDbEntity
  8
Level 26
 62
   133
370
     0
100
AcDbLine
 10
-2.483517
 20
0.131714
 30
0.0
 11
-2.383517
 21
0.131714
 31
0.0
  0
LINE
  5
7B3B6
330
7B565
100
AcDbEntity
  8
Level 26
 62
   133
370
     0
100
AcDbLine
 10
-2.483517
 20
0.131714
 30
0.0
 11
-2.383517
 21
0.131714
 31
0.0
  0
POINT
  5
7B3B7
330
7B565
100
AcDbEntity
  8
Level 26
 62
   133
370
     0
100
AcDbPoint
 10
-1.933517
 20
0.131714
 30
0.0
  0
LINE
  5
7B3B8
330
7B565
100
AcDbEntity
  8
Level 26
 62
   133
370
     0
100
AcDbLine
 10
-1.933517
 20
0.131714
 30
0.0
 11
-1.833517
 21
0.131714
 31
0.0
  0
POINT
  5
7B3B9
330
7B565
100
AcDbEntity
  8
Level 26
 62
   133
370
     0
100
AcDbPoint
 10
-1.933517
 20
0.131714
 30
0.0
  0
LINE
  5
7B3BA
330
7B565
100
AcDbEntity
  8
Level 26
 62
   133
370
     0
100
AcDbLine
 10
-1.933517
 20
0.131714
 30
0.0
 11
-1.833517
 21
0.131714
 31
0.0
  0
LINE
  5
7B3BB
330
7B565
100
AcDbEntity
  8
Level 26
 62
   133
370
     0
100
AcDbLine
 10
-2.158517
 20
0.131714
 30
0.0
 11
-2.158517
 21
0.011714
 31
0.0
  0
LINE
  5
7B3BC
330
7B565
100
AcDbEntity
  8
Level 26
 62
   133
370
     0
100
AcDbLine
 10
-2.483517
 20
0.131714
 30
0.0
 11
-2.483517
 21
0.011714
 31
0.0
  0
LINE
  5
7B3BD
330
7B565
100
AcDbEntity
  8
Level 26
 62
   133
370
     0
100
AcDbLine
 10
-2.158517
 20
0.131714
 30
0.0
 11
-2.158517
 21
0.011714
 31
0.0
  0
LINE
  5
7B3BE
330
7B565
100
AcDbEntity
  8
Level 26
 62
   133
370
     0
100
AcDbLine
 10
-1.833517
 20
0.131714
 30
0.0
 11
-1.833517
 21
0.011714
 31
0.0
  0
ENDBLK
  5
7B567
330
7B565
100
AcDbEntity
  8
0
100
AcDbBlockEnd
  0
BLOCK
  5
7B569
330
7B568
100
AcDbEntity
  8
0
100
AcDbBlockBegin
  2
Feature Solid_6
 70
     0
 71
     0
 10
0.0
 20
0.0
 30
0.0
  3
Feature Solid_6
  1

  0
INSERT
  5
7B3C0
330
7B568
100
AcDbEntity
  8
Level 26
 62
   133
370
     0
100
AcDbBlockReference
  2
UNITE_2
 10
215.851704
 20
-22.17087
 30
0.0
 41
100.0
 42
100.0
 43
100.0
  0
ENDBLK
  5
7B56A
330
7B568
100
AcDbEntity
  8
0
100
AcDbBlockEnd
  0
BLOCK
  5
7B56C
330
7B56B
100
AcDbEntity
  8
0
100
AcDbBlockBegin
  2
UNITE_2
 70
     0
 71
     0
 10
0.0
 20
0.0
 30
0.0
  3
UNITE_2
  1

  0
INSERT
  5
7B3C1
330
7B56B
100
AcDbEntity
  8
Level 26
 62
   133
370
     0
100
AcDbBlockReference
  2
Feature Solid_7
 10
0.0
 20
0.0
 30
0.0
  0
INSERT
  5
7B3C8
330
7B56B
100
AcDbEntity
  8
Level 26
 62
   133
370
     0
100
AcDbBlockReference
  2
Feature Solid_8
 10
-0.55
 20
0.0
 30
0.0
  0
INSERT
  5
7B3CF
330
7B56B
100
AcDbEntity
  8
Level 8
 62
   133
370
     0
100
AcDbBlockReference
  2
Feature Solid_9
 10
0.0
 20
0.0
 30
0.0
  0
ENDBLK
  5
7B56D
330
7B56B
100
AcDbEntity
  8
0
100
AcDbBlockEnd
  0
BLOCK
  5
7B56F
330
7B56E
100
AcDbEntity
  8
0
100
AcDbBlockBegin
  2
Feature Solid_7
 70
     0
 71
     0
 10
0.0
 20
0.0
 30
0.0
  3
Feature Solid_7
  1

  0
INSERT
  5
7B3C2
330
7B56E
100
AcDbEntity
  8
Level 26
 62
   133
370
     0
100
AcDbBlockReference
  2
DDPROJ_3
 10
0.0
 20
0.0
 30
0.0
  0
ENDBLK
  5
7B570
330
7B56E
100
AcDbEntity
  8
0
100
AcDbBlockEnd
  0
BLOCK
  5
7B572
330
7B571
100
AcDbEntity
  8
0
100
AcDbBlockBegin
  2
DDPROJ_3
 70
     0
 71
     0
 10
0.0
 20
0.0
 30
0.0
  3
DDPROJ_3
  1

  0
POINT
  5
7B3C3
330
7B571
100
AcDbEntity
  8
Level 26
 62
   133
370
     0
100
AcDbPoint
 10
-1.833517
 20
0.011714
 30
0.0
  0
LINE
  5
7B3C4
330
7B571
100
AcDbEntity
  8
Level 26
 62
   133
370
     0
100
AcDbLine
 10
-1.933517
 20
0.131714
 30
0.0
 11
-1.933517
 21
0.359125
 31
0.0
  0
LINE
  5
7B3C5
330
7B571
100
AcDbEntity
  8
Level 26
 62
   133
370
     0
100
AcDbLine
 10
-1.833517
 20
0.131714
 30
0.0
 11
-1.833517
 21
0.431714
 31
0.0
  0
LINE
  5
7B3C6
330
7B571
100
AcDbEntity
  8
Level 26
 62
   133
370
     0
100
AcDbLine
 10
-1.833517
 20
0.131714
 30
0.0
 11
-1.833517
 21
0.431714
 31
0.0
  0
LINE
  5
7B3C7
330
7B571
100
AcDbEntity
  8
Level 26
 62
   133
370
     0
100
AcDbLine
 10
-1.933517
 20
0.131714
 30
0.0
 11
-1.933517
 21
0.359125
 31
0.0
  0
ENDBLK
  5
7B573
330
7B571
100
AcDbEntity
  8
0
100
AcDbBlockEnd
  0
BLOCK
  5
7B575
330
7B574
100
AcDbEntity
  8
0
100
AcDbBlockBegin
  2
Feature Solid_8
 70
     0
 71
     0
 10
0.0
 20
0.0
 30
0.0
  3
Feature Solid_8
  1

  0
INSERT
  5
7B3C9
330
7B574
100
AcDbEntity
  8
Level 26
 62
   133
370
     0
100
AcDbBlockReference
  2
DDPROJ_4
 10
0.0
 20
0.0
 30
0.0
  0
ENDBLK
  5
7B576
330
7B574
100
AcDbEntity
  8
0
100
AcDbBlockEnd
  0
BLOCK
  5
7B578
330
7B577
100
AcDbEntity
  8
0
100
AcDbBlockBegin
  2
DDPROJ_4
 70
     0
 71
     0
 10
0.0
 20
0.0
 30
0.0
  3
DDPROJ_4
  1

  0
POINT
  5
7B3CA
330
7B577
100
AcDbEntity
  8
Level 26
 62
   133
370
     0
100
AcDbPoint
 10
-1.933517
 20
0.011714
 30
0.0
  0
LINE
  5
7B3CB
330
7B577
100
AcDbEntity
  8
Level 26
 62
   133
370
     0
100
AcDbLine
 10
-1.933517
 20
0.131714
 30
0.0
 11
-1.933517
 21
0.431714
 31
0.0
  0
LINE
  5
7B3CC
330
7B577
100
AcDbEntity
  8
Level 26
 62
   133
370
     0
100
AcDbLine
 10
-1.833517
 20
0.131714
 30
0.0
 11
-1.833517
 21
0.359125
 31
0.0
  0
LINE
  5
7B3CD
330
7B577
100
AcDbEntity
  8
Level 26
 62
   133
370
     0
100
AcDbLine
 10
-1.833517
 20
0.131714
 30
0.0
 11
-1.833517
 21
0.359125
 31
0.0
  0
LINE
  5
7B3CE
330
7B577
100
AcDbEntity
  8
Level 26
 62
   133
370
     0
100
AcDbLine
 10
-1.933517
 20
0.131714
 30
0.0
 11
-1.933517
 21
0.431714
 31
0.0
  0
ENDBLK
  5
7B579
330
7B577
100
AcDbEntity
  8
0
100
AcDbBlockEnd
  0
BLOCK
  5
7B57B
330
7B57A
100
AcDbEntity
  8
0
100
AcDbBlockBegin
  2
Feature Solid_9
 70
     0
 71
     0
 10
0.0
 20
0.0
 30
0.0
  3
Feature Solid_9
  1

  0
INSERT
  5
7B3D0
330
7B57A
100
AcDbEntity
  8
Level 8
 62
   133
370
     0
100
AcDbBlockReference
  2
UNITE_3
 10
0.0
 20
0.0
 30
0.0
  0
ENDBLK
  5
7B57C
330
7B57A
100
AcDbEntity
  8
0
100
AcDbBlockEnd
  0
BLOCK
  5
7B57E
330
7B57D
100
AcDbEntity
  8
0
100
AcDbBlockBegin
  2
UNITE_3
 70
     0
 71
     0
 10
0.0
 20
0.0
 30
0.0
  3
UNITE_3
  1

  0
INSERT
  5
7B3D1
330
7B57D
100
AcDbEntity
  8
Level 8
 62
   133
370
     0
100
AcDbBlockReference
  2
Feature Solid_10
 10
0.0
 20
0.0
 30
0.0
  0
INSERT
  5
7B3E7
330
7B57D
100
AcDbEntity
  8
Level 26
 62
   133
370
     0
100
AcDbBlockReference
  2
Feature Solid_11
 10
0.0
 20
0.0
 30
0.0
  0
ENDBLK
  5
7B57F
330
7B57D
100
AcDbEntity
  8
0
100
AcDbBlockEnd
  0
BLOCK
  5
7B581
330
7B580
100
AcDbEntity
  8
0
100
AcDbBlockBegin
  2
Feature Solid_10
 70
     0
 71
     0
 10
0.0
 20
0.0
 30
0.0
  3
Feature Solid_10
  1

  0
INSERT
  5
7B3D2
330
7B580
100
AcDbEntity
  8
Level 8
 62
   133
370
     0
100
AcDbBlockReference
  2
CONE_1
 10
0.0
 20
0.0
 30
0.0
  0
ENDBLK
  5
7B582
330
7B580
100
AcDbEntity
  8
0
100
AcDbBlockEnd
  0
BLOCK
  5
7B584
330
7B583
100
AcDbEntity
  8
0
100
AcDbBlockBegin
  2
CONE_1
 70
     0
 71
     0
 10
0.0
 20
0.0
 30
0.0
  3
CONE_1
  1

  0
LINE
  5
7B3D3
330
7B583
100
AcDbEntity
  8
Level 8
 62
   133
370
     0
100
AcDbLine
 10
-1.833517
 20
0.431714
 30
0.0
 11
-2.483517
 21
0.431714
 31
0.0
  0
LINE
  5
7B3D4
330
7B583
100
AcDbEntity
  8
Level 8
 62
   133
370
     0
100
AcDbLine
 10
-2.383517
 20
0.131714
 30
0.0
 11
-2.383517
 21
0.359125
 31
0.0
  0
LINE
  5
7B3D5
330
7B583
100
AcDbEntity
  8
Level 8
 62
   133
370
     0
100
AcDbLine
 10
-2.383517
 20
0.131714
 30
0.0
 11
-2.383517
 21
0.359125
 31
0.0
  0
SPLINE
  5
7B3D6
330
7B583
100
AcDbEntity
  8
Level 8
 62
   133
370
     0
100
AcDbSpline
210
0.0
220
0.0
230
1.0
 70
     8
 71
     3
 72
    17
 73
    13
 74
     0
 42
0.0000000001
 43
0.00000001
 40
0.0
 40
0.0
 40
0.0
 40
0.0
 40
0.1188920175173181
 40
0.1188920175173181
 40
0.1188920175173181
 40
0.4370642450454728
 40
0.4370642450454728
 40
0.4370642450454728
 40
0.7708126268407274
 40
0.7708126268407274
 40
0.7708126268407274
 40
1.0
 40
1.0
 40
1.0
 40
1.0
 10
-2.483517035676389
 20
0.4317136962460353
 30
0.0
 10
-2.483517035676389
 20
0.4317136962460353
 30
0.0
 10
-2.482970961108954
 20
0.4312857853703664
 30
0.0
 10
-2.481890266834164
 20
0.4304413967249356
 30
0.0
 10
-2.479007999541985
 20
0.4281893687172236
 30
0.0
 10
-2.472181370284073
 20
0.422849649794828
 30
0.0
 10
-2.462245290317629
 20
0.4152805637156778
 30
0.0
 10
-2.451806866801178
 20
0.4073288034245466
 30
0.0
 10
-2.437764099143891
 20
0.3967863239604514
 30
0.0
 10
-2.421270187946128
 20
0.3850241073261014
 30
0.0
 10
-2.409877803190351
 20
0.3768999155639019
 30
0.0
 10
-2.397205829360036
 20
0.3681165556180104
 30
0.0
 10
-2.383517035681365
 20
0.3591253483963386
 30
0.0
  0
SPLINE
  5
7B3D9
330
7B583
100
AcDbEntity
  8
Level 8
 62
   133
370
     0
100
AcDbSpline
210
0.0
220
0.0
230
1.0
 70
     8
 71
     3
 72
    14
 73
    10
 74
     0
 42
0.0000000001
 43
0.00000001
 40
0.0
 40
0.0
 40
0.0
 40
0.0
 40
0.4155111778321488
 40
0.4155111778321488
 40
0.4155111778321488
 40
0.7657511632294429
 40
0.7657511632294429
 40
0.7657511632294429
 40
1.0
 40
1.0
 40
1.0
 40
1.0
 10
-2.38351703567637
 20
0.3591253483958541
 30
0.0
 10
-2.408183961970714
 20
0.3753273199526781
 30
0.0
 10
-2.42972384287685
 20
0.3909352251375093
 30
0.0
 10
-2.446330563598313
 20
0.4032945372283554
 30
0.0
 10
-2.460337575068305
 20
0.4137190532493964
 30
0.0
 10
-2.471094914404414
 20
0.4220439846593886
 30
0.0
 10
-2.477256738635806
 20
0.4268312321213075
 30
0.0
 10
-2.481375118370782
 20
0.4300308856967932
 30
0.0
 10
-2.483517035676389
 20
0.4317136962460353
 30
0.0
 10
-2.483517035676389
 20
0.4317136962460353
 30
0.0
  0
LINE
  5
7B3DC
330
7B583
100
AcDbEntity
  8
Level 8
 62
   133
370
     0
100
AcDbLine
 10
-1.833517
 20
0.431714
 30
0.0
 11
-2.483517
 21
0.431714
 31
0.0
  0
SPLINE
  5
7B3DD
330
7B583
100
AcDbEntity
  8
Level 8
 62
   133
370
     0
100
AcDbSpline
210
0.0
220
0.0
230
1.0
 70
     8
 71
     3
 72
    17
 73
    13
 74
     0
 42
0.0000000001
 43
0.00000001
 40
0.0
 40
0.0
 40
0.0
 40
0.0
 40
0.1188920175167992
 40
0.1188920175167992
 40
0.1188920175167992
 40
0.4370642450447248
 40
0.4370642450447248
 40
0.4370642450447248
 40
0.7708126268396294
 40
0.7708126268396294
 40
0.7708126268396294
 40
1.0
 40
1.0
 40
1.0
 40
1.0
 10
-1.833517035676241
 20
0.4317136962460353
 30
0.0
 10
-1.833517035676241
 20
0.4317136962460353
 30
0.0
 10
-1.83406311024368
 20
0.4312857853703758
 30
0.0
 10
-1.83514380451847
 20
0.4304413967249543
 30
0.0
 10
-1.838026071810628
 20
0.4281893687172609
 30
0.0
 10
-1.844852701068522
 20
0.4228496497948653
 30
0.0
 10
-1.854788781034966
 20
0.4152805637157337
 30
0.0
 10
-1.865227204551417
 20
0.4073288034246212
 30
0.0
 10
-1.8792699722087
 20
0.3967863239605354
 30
0.0
 10
-1.895763883406445
 20
0.3850241073262133
 30
0.0
 10
-1.907156268162279
 20
0.3768999155639672
 30
0.0
 10
-1.919828241992668
 20
0.368116555618029
 30
0.0
 10
-1.933517035671436
 20
0.3591253483963199
 30
0.0
  0
LINE
  5
7B3E0
330
7B583
100
AcDbEntity
  8
Level 8
 62
   133
370
     0
100
AcDbLine
 10
-1.933517
 20
0.131714
 30
0.0
 11
-1.933517
 21
0.359125
 31
0.0
  0
LINE
  5
7B3E1
330
7B583
100
AcDbEntity
  8
Level 8
 62
   133
370
     0
100
AcDbLine
 10
-1.933517
 20
0.131714
 30
0.0
 11
-1.933517
 21
0.359125
 31
0.0
  0
SPLINE
  5
7B3E2
330
7B583
100
AcDbEntity
  8
Level 8
 62
   133
370
     0
100
AcDbSpline
210
0.0
220
0.0
230
1.0
 70
     8
 71
     3
 72
    14
 73
    10
 74
     0
 42
0.0000000001
 43
0.00000001
 40
0.0
 40
0.0
 40
0.0
 40
0.0
 40
0.4155111778320348
 40
0.4155111778320348
 40
0.4155111778320348
 40
0.7657511632291136
 40
0.7657511632291136
 40
0.7657511632291136
 40
1.0
 40
1.0
 40
1.0
 40
1.0
 10
-1.93351703567641
 20
0.3591253483956494
 30
0.0
 10
-1.908850109382065
 20
0.3753273199525102
 30
0.0
 10
-1.887310228475872
 20
0.3909352251373606
 30
0.0
 10
-1.870703507754392
 20
0.4032945372282435
 30
0.0
 10
-1.856696496284382
 20
0.4137190532493031
 30
0.0
 10
-1.845939156948273
 20
0.4220439846593234
 30
0.0
 10
-1.839777332716864
 20
0.4268312321212702
 30
0.0
 10
-1.835658952981866
 20
0.4300308856967652
 30
0.0
 10
-1.833517035676241
 20
0.431713696246026
 30
0.0
 10
-1.833517035676241
 20
0.4317136962460353
 30
0.0
  0
LINE
  5
7B3E5
330
7B583
100
AcDbEntity
  8
Level 8
 62
   133
370
     0
100
AcDbLine
 10
-2.158517
 20
0.131714
 30
0.0
 11
-2.158517
 21
0.431714
 31
0.0
  0
LINE
  5
7B3E6
330
7B583
100
AcDbEntity
  8
Level 8
 62
   133
370
     0
100
AcDbLine
 10
-2.158517
 20
0.131714
 30
0.0
 11
-2.158517
 21
0.431714
 31
0.0
  0
ENDBLK
  5
7B585
330
7B583
100
AcDbEntity
  8
0
100
AcDbBlockEnd
  0
BLOCK
  5
7B587
330
7B586
100
AcDbEntity
  8
0
100
AcDbBlockBegin
  2
Feature Solid_11
 70
     0
 71
     0
 10
0.0
 20
0.0
 30
0.0
  3
Feature Solid_11
  1

  0
INSERT
  5
7B3E8
330
7B586
100
AcDbEntity
  8
Level 26
 62
   133
370
     0
100
AcDbBlockReference
  2
DDPROJ_5
 10
0.0
 20
0.0
 30
0.0
  0
ENDBLK
  5
7B588
330
7B586
100
AcDbEntity
  8
0
100
AcDbBlockEnd
  0
BLOCK
  5
7B58A
330
7B589
100
AcDbEntity
  8
0
100
AcDbBlockBegin
  2
DDPROJ_5
 70
     0
 71
     0
 10
0.0
 20
0.0
 30
0.0
  3
DDPROJ_5
  1

  0
LINE
  5
7B3E9
330
7B589
100
AcDbEntity
  8
Level 26
 62
   133
370
     0
100
AcDbLine
 10
-1.833517
 20
0.011714
 30
0.0
 11
-1.833517
 21
0.131714
 31
0.0
  0
LINE
  5
7B3EA
330
7B589
100
AcDbEntity
  8
Level 26
 62
   133
370
     0
100
AcDbLine
 10
-1.833517
 20
0.131714
 30
0.0
 11
-1.833517
 21
0.011714
 31
0.0
  0
LINE
  5
7B3EB
330
7B589
100
AcDbEntity
  8
Level 26
 62
   133
370
     0
100
AcDbLine
 10
-2.483517
 20
0.011714
 30
0.0
 11
-2.483517
 21
0.131714
 31
0.0
  0
LINE
  5
7B3EC
330
7B589
100
AcDbEntity
  8
Level 26
 62
   133
370
     0
100
AcDbLine
 10
-2.483517
 20
0.131714
 30
0.0
 11
-2.483517
 21
0.011714
 31
0.0
  0
LINE
  5
7B3ED
330
7B589
100
AcDbEntity
  8
Level 26
 62
   133
370
     0
100
AcDbLine
 10
-1.933517
 20
0.131714
 30
0.0
 11
-2.383517
 21
0.131714
 31
0.0
  0
LINE
  5
7B3EE
330
7B589
100
AcDbEntity
  8
Level 26
 62
   133
370
     0
100
AcDbLine
 10
-1.933517
 20
0.131714
 30
0.0
 11
-2.383517
 21
0.131714
 31
0.0
  0
LINE
  5
7B3EF
330
7B589
100
AcDbEntity
  8
Level 26
 62
   133
370
     0
100
AcDbLine
 10
-1.833517
 20
0.011714
 30
0.0
 11
-2.483517
 21
0.011714
 31
0.0
  0
POINT
  5
7B3F0
330
7B589
100
AcDbEntity
  8
Level 26
 62
   133
370
     0
100
AcDbPoint
 10
-2.483517
 20
0.131714
 30
0.0
  0
LINE
  5
7B3F1
330
7B589
100
AcDbEntity
  8
Level 26
 62
   133
370
     0
100
AcDbLine
 10
-1.833517
 20
0.011714
 30
0.0
 11
-2.483517
 21
0.011714
 31
0.0
  0
LINE
  5
7B3F2
330
7B589
100
AcDbEntity
  8
Level 26
 62
   133
370
     0
100
AcDbLine
 10
-1.833517
 20
0.131714
 30
0.0
 11
-2.483517
 21
0.131714
 31
0.0
  0
POINT
  5
7B3F3
330
7B589
100
AcDbEntity
  8
Level 26
 62
   133
370
     0
100
AcDbPoint
 10
-1.833517
 20
0.131714
 30
0.0
  0
POINT
  5
7B3F4
330
7B589
100
AcDbEntity
  8
Level 26
 62
   133
370
     0
100
AcDbPoint
 10
-2.483517
 20
0.131714
 30
0.0
  0
LINE
  5
7B3F5
330
7B589
100
AcDbEntity
  8
Level 26
 62
   133
370
     0
100
AcDbLine
 10
-1.833517
 20
0.131714
 30
0.0
 11
-2.483517
 21
0.131714
 31
0.0
  0
POINT
  5
7B3F6
330
7B589
100
AcDbEntity
  8
Level 26
 62
   133
370
     0
100
AcDbPoint
 10
-1.833517
 20
0.131714
 30
0.0
  0
POINT
  5
7B3F7
330
7B589
100
AcDbEntity
  8
Level 26
 62
   133
370
     0
100
AcDbPoint
 10
-2.383517
 20
0.131714
 30
0.0
  0
POINT
  5
7B3F8
330
7B589
100
AcDbEntity
  8
Level 26
 62
   133
370
     0
100
AcDbPoint
 10
-2.383517
 20
0.131714
 30
0.0
  0
LINE
  5
7B3F9
330
7B589
100
AcDbEntity
  8
Level 26
 62
   133
370
     0
100
AcDbLine
 10
-2.483517
 20
0.131714
 30
0.0
 11
-2.383517
 21
0.131714
 31
0.0
  0
LINE
  5
7B3FA
330
7B589
100
AcDbEntity
  8
Level 26
 62
   133
370
     0
100
AcDbLine
 10
-2.483517
 20
0.131714
 30
0.0
 11
-2.383517
 21
0.131714
 31
0.0
  0
POINT
  5
7B3FB
330
7B589
100
AcDbEntity
  8
Level 26
 62
   133
370
     0
100
AcDbPoint
 10
-1.933517
 20
0.131714
 30
0.0
  0
LINE
  5
7B3FC
330
7B589
100
AcDbEntity
  8
Level 26
 62
   133
370
     0
100
AcDbLine
 10
-1.933517
 20
0.131714
 30
0.0
 11
-1.833517
 21
0.131714
 31
0.0
  0
POINT
  5
7B3FD
330
7B589
100
AcDbEntity
  8
Level 26
 62
   133
370
     0
100
AcDbPoint
 10
-1.933517
 20
0.131714
 30
0.0
  0
LINE
  5
7B3FE
330
7B589
100
AcDbEntity
  8
Level 26
 62
   133
370
     0
100
AcDbLine
 10
-1.933517
 20
0.131714
 30
0.0
 11
-1.833517
 21
0.131714
 31
0.0
  0
LINE
  5
7B3FF
330
7B589
100
AcDbEntity
  8
Level 26
 62
   133
370
     0
100
AcDbLine
 10
-2.158517
 20
0.131714
 30
0.0
 11
-2.158517
 21
0.011714
 31
0.0
  0
LINE
  5
7B400
330
7B589
100
AcDbEntity
  8
Level 26
 62
   133
370
     0
100
AcDbLine
 10
-2.483517
 20
0.131714
 30
0.0
 11
-2.483517
 21
0.011714
 31
0.0
  0
LINE
  5
7B401
330
7B589
100
AcDbEntity
  8
Level 26
 62
   133
370
     0
100
AcDbLine
 10
-2.158517
 20
0.131714
 30
0.0
 11
-2.158517
 21
0.011714
 31
0.0
  0
LINE
  5
7B402
330
7B589
100
AcDbEntity
  8
Level 26
 62
   133
370
     0
100
AcDbLine
 10
-1.833517
 20
0.131714
 30
0.0
 11
-1.833517
 21
0.011714
 31
0.0
  0
ENDBLK
  5
7B58B
330
7B589
100
AcDbEntity
  8
0
100
AcDbBlockEnd
  0
BLOCK
  5
7B58D
330
7B58C
100
AcDbEntity
  8
0
100
AcDbBlockBegin
  2
Feature Solid_12
 70
     0
 71
     0
 10
0.0
 20
0.0
 30
0.0
  3
Feature Solid_12
  1

  0
INSERT
  5
7B404
330
7B58C
100
AcDbEntity
  8
Level 26
 62
   133
370
     0
100
AcDbBlockReference
  2
UNITE_4
 10
215.851704
 20
22.17087
 30
0.0
 41
100.0
 42
100.0
 43
100.0
  0
ENDBLK
  5
7B58E
330
7B58C
100
AcDbEntity
  8
0
100
AcDbBlockEnd
  0
BLOCK
  5
7B590
330
7B58F
100
AcDbEntity
  8
0
100
AcDbBlockBegin
  2
UNITE_4
 70
     0
 71
     0
 10
0.0
 20
0.0
 30
0.0
  3
UNITE_4
  1

  0
INSERT
  5
7B405
330
7B58F
100
AcDbEntity
  8
Level 26
 62
   133
370
     0
100
AcDbBlockReference
  2
Feature Solid_13
 10
0.0
 20
0.0
 30
0.0
  0
INSERT
  5
7B40C
330
7B58F
100
AcDbEntity
  8
Level 26
 62
   133
370
     0
100
AcDbBlockReference
  2
Feature Solid_14
 10
-0.55
 20
0.0
 30
0.0
  0
INSERT
  5
7B413
330
7B58F
100
AcDbEntity
  8
Level 8
 62
   133
370
     0
100
AcDbBlockReference
  2
Feature Solid_15
 10
0.0
 20
0.0
 30
0.0
  0
ENDBLK
  5
7B591
330
7B58F
100
AcDbEntity
  8
0
100
AcDbBlockEnd
  0
BLOCK
  5
7B593
330
7B592
100
AcDbEntity
  8
0
100
AcDbBlockBegin
  2
Feature Solid_13
 70
     0
 71
     0
 10
0.0
 20
0.0
 30
0.0
  3
Feature Solid_13
  1

  0
INSERT
  5
7B406
330
7B592
100
AcDbEntity
  8
Level 26
 62
   133
370
     0
100
AcDbBlockReference
  2
DDPROJ_6
 10
0.0
 20
0.0
 30
0.0
  0
ENDBLK
  5
7B594
330
7B592
100
AcDbEntity
  8
0
100
AcDbBlockEnd
  0
BLOCK
  5
7B596
330
7B595
100
AcDbEntity
  8
0
100
AcDbBlockBegin
  2
DDPROJ_6
 70
     0
 71
     0
 10
0.0
 20
0.0
 30
0.0
  3
DDPROJ_6
  1

  0
POINT
  5
7B407
330
7B595
100
AcDbEntity
  8
Level 26
 62
   133
370
     0
100
AcDbPoint
 10
-1.833517
 20
-0.011714
 30
0.0
  0
LINE
  5
7B408
330
7B595
100
AcDbEntity
  8
Level 26
 62
   133
370
     0
100
AcDbLine
 10
-1.933517
 20
-0.131714
 30
0.0
 11
-1.933517
 21
-0.359125
 31
0.0
  0
LINE
  5
7B409
330
7B595
100
AcDbEntity
  8
Level 26
 62
   133
370
     0
100
AcDbLine
 10
-1.833517
 20
-0.131714
 30
0.0
 11
-1.833517
 21
-0.431714
 31
0.0
  0
LINE
  5
7B40A
330
7B595
100
AcDbEntity
  8
Level 26
 62
   133
370
     0
100
AcDbLine
 10
-1.833517
 20
-0.131714
 30
0.0
 11
-1.833517
 21
-0.431714
 31
0.0
  0
LINE
  5
7B40B
330
7B595
100
AcDbEntity
  8
Level 26
 62
   133
370
     0
100
AcDbLine
 10
-1.933517
 20
-0.131714
 30
0.0
 11
-1.933517
 21
-0.359125
 31
0.0
  0
ENDBLK
  5
7B597
330
7B595
100
AcDbEntity
  8
0
100
AcDbBlockEnd
  0
BLOCK
  5
7B599
330
7B598
100
AcDbEntity
  8
0
100
AcDbBlockBegin
  2
Feature Solid_14
 70
     0
 71
     0
 10
0.0
 20
0.0
 30
0.0
  3
Feature Solid_14
  1

  0
INSERT
  5
7B40D
330
7B598
100
AcDbEntity
  8
Level 26
 62
   133
370
     0
100
AcDbBlockReference
  2
DDPROJ_7
 10
0.0
 20
0.0
 30
0.0
  0
ENDBLK
  5
7B59A
330
7B598
100
AcDbEntity
  8
0
100
AcDbBlockEnd
  0
BLOCK
  5
7B59C
330
7B59B
100
AcDbEntity
  8
0
100
AcDbBlockBegin
  2
DDPROJ_7
 70
     0
 71
     0
 10
0.0
 20
0.0
 30
0.0
  3
DDPROJ_7
  1

  0
POINT
  5
7B40E
330
7B59B
100
AcDbEntity
  8
Level 26
 62
   133
370
     0
100
AcDbPoint
 10
-1.933517
 20
-0.011714
 30
0.0
  0
LINE
  5
7B40F
330
7B59B
100
AcDbEntity
  8
Level 26
 62
   133
370
     0
100
AcDbLine
 10
-1.933517
 20
-0.131714
 30
0.0
 11
-1.933517
 21
-0.431714
 31
0.0
  0
LINE
  5
7B410
330
7B59B
100
AcDbEntity
  8
Level 26
 62
   133
370
     0
100
AcDbLine
 10
-1.833517
 20
-0.131714
 30
0.0
 11
-1.833517
 21
-0.359125
 31
0.0
  0
LINE
  5
7B411
330
7B59B
100
AcDbEntity
  8
Level 26
 62
   133
370
     0
100
AcDbLine
 10
-1.833517
 20
-0.131714
 30
0.0
 11
-1.833517
 21
-0.359125
 31
0.0
  0
LINE
  5
7B412
330
7B59B
100
AcDbEntity
  8
Level 26
 62
   133
370
     0
100
AcDbLine
 10
-1.933517
 20
-0.131714
 30
0.0
 11
-1.933517
 21
-0.431714
 31
0.0
  0
ENDBLK
  5
7B59D
330
7B59B
100
AcDbEntity
  8
0
100
AcDbBlockEnd
  0
BLOCK
  5
7B59F
330
7B59E
100
AcDbEntity
  8
0
100
AcDbBlockBegin
  2
Feature Solid_15
 70
     0
 71
     0
 10
0.0
 20
0.0
 30
0.0
  3
Feature Solid_15
  1

  0
INSERT
  5
7B414
330
7B59E
100
AcDbEntity
  8
Level 8
 62
   133
370
     0
100
AcDbBlockReference
  2
UNITE_5
 10
0.0
 20
0.0
 30
0.0
  0
ENDBLK
  5
7B5A0
330
7B59E
100
AcDbEntity
  8
0
100
AcDbBlockEnd
  0
BLOCK
  5
7B5A2
330
7B5A1
100
AcDbEntity
  8
0
100
AcDbBlockBegin
  2
UNITE_5
 70
     0
 71
     0
 10
0.0
 20
0.0
 30
0.0
  3
UNITE_5
  1

  0
INSERT
  5
7B415
330
7B5A1
100
AcDbEntity
  8
Level 8
 62
   133
370
     0
100
AcDbBlockReference
  2
Feature Solid_16
 10
0.0
 20
0.0
 30
0.0
  0
INSERT
  5
7B42B
330
7B5A1
100
AcDbEntity
  8
Level 26
 62
   133
370
     0
100
AcDbBlockReference
  2
Feature Solid_17
 10
0.0
 20
0.0
 30
0.0
  0
ENDBLK
  5
7B5A3
330
7B5A1
100
AcDbEntity
  8
0
100
AcDbBlockEnd
  0
BLOCK
  5
7B5A5
330
7B5A4
100
AcDbEntity
  8
0
100
AcDbBlockBegin
  2
Feature Solid_16
 70
     0
 71
     0
 10
0.0
 20
0.0
 30
0.0
  3
Feature Solid_16
  1

  0
INSERT
  5
7B416
330
7B5A4
100
AcDbEntity
  8
Level 8
 62
   133
370
     0
100
AcDbBlockReference
  2
CONE_2
 10
0.0
 20
0.0
 30
0.0
  0
ENDBLK
  5
7B5A6
330
7B5A4
100
AcDbEntity
  8
0
100
AcDbBlockEnd
  0
BLOCK
  5
7B5A8
330
7B5A7
100
AcDbEntity
  8
0
100
AcDbBlockBegin
  2
CONE_2
 70
     0
 71
     0
 10
0.0
 20
0.0
 30
0.0
  3
CONE_2
  1

  0
LINE
  5
7B417
330
7B5A7
100
AcDbEntity
  8
Level 8
 62
   133
370
     0
100
AcDbLine
 10
-1.833517
 20
-0.431714
 30
0.0
 11
-2.483517
 21
-0.431714
 31
0.0
  0
LINE
  5
7B418
330
7B5A7
100
AcDbEntity
  8
Level 8
 62
   133
370
     0
100
AcDbLine
 10
-2.383517
 20
-0.131714
 30
0.0
 11
-2.383517
 21
-0.359125
 31
0.0
  0
LINE
  5
7B419
330
7B5A7
100
AcDbEntity
  8
Level 8
 62
   133
370
     0
100
AcDbLine
 10
-2.383517
 20
-0.131714
 30
0.0
 11
-2.383517
 21
-0.359125
 31
0.0
  0
SPLINE
  5
7B41A
330
7B5A7
100
AcDbEntity
  8
Level 8
 62
   133
370
     0
100
AcDbSpline
210
0.0
220
0.0
230
1.0
 70
     8
 71
     3
 72
    17
 73
    13
 74
     0
 42
0.0000000001
 43
0.00000001
 40
0.0
 40
0.0
 40
0.0
 40
0.0
 40
0.1188920175173181
 40
0.1188920175173181
 40
0.1188920175173181
 40
0.4370642450454728
 40
0.4370642450454728
 40
0.4370642450454728
 40
0.7708126268407274
 40
0.7708126268407274
 40
0.7708126268407274
 40
1.0
 40
1.0
 40
1.0
 40
1.0
 10
-2.483517035676389
 20
-0.4317136962460353
 30
0.0
 10
-2.483517035676389
 20
-0.4317136962460353
 30
0.0
 10
-2.482970961108954
 20
-0.4312857853703669
 30
0.0
 10
-2.481890266834164
 20
-0.4304413967249374
 30
0.0
 10
-2.479007999541985
 20
-0.4281893687172236
 30
0.0
 10
-2.472181370284073
 20
-0.4228496497948306
 30
0.0
 10
-2.462245290317629
 20
-0.4152805637156796
 30
0.0
 10
-2.451806866801178
 20
-0.4073288034245479
 30
0.0
 10
-2.437764099143891
 20
-0.3967863239604519
 30
0.0
 10
-2.421270187946128
 20
-0.3850241073261032
 30
0.0
 10
-2.409877803190351
 20
-0.3768999155639037
 30
0.0
 10
-2.397205829360036
 20
-0.3681165556180126
 30
0.0
 10
-2.383517035681365
 20
-0.3591253483963399
 30
0.0
  0
SPLINE
  5
7B41D
330
7B5A7
100
AcDbEntity
  8
Level 8
 62
   133
370
     0
100
AcDbSpline
210
0.0
220
0.0
230
1.0
 70
     8
 71
     3
 72
    14
 73
    10
 74
     0
 42
0.0000000001
 43
0.00000001
 40
0.0
 40
0.0
 40
0.0
 40
0.0
 40
0.4155111778321488
 40
0.4155111778321488
 40
0.4155111778321488
 40
0.7657511632294429
 40
0.7657511632294429
 40
0.7657511632294429
 40
1.0
 40
1.0
 40
1.0
 40
1.0
 10
-2.38351703567637
 20
-0.3591253483958568
 30
0.0
 10
-2.408183961970714
 20
-0.3753273199526781
 30
0.0
 10
-2.42972384287685
 20
-0.3909352251375111
 30
0.0
 10
-2.446330563598313
 20
-0.403294537228355
 30
0.0
 10
-2.460337575068305
 20
-0.4137190532493982
 30
0.0
 10
-2.471094914404414
 20
-0.4220439846593891
 30
0.0
 10
-2.477256738635806
 20
-0.4268312321213088
 30
0.0
 10
-2.481375118370782
 20
-0.4300308856967945
 30
0.0
 10
-2.483517035676389
 20
-0.4317136962460353
 30
0.0
 10
-2.483517035676389
 20
-0.4317136962460353
 30
0.0
  0
LINE
  5
7B420
330
7B5A7
100
AcDbEntity
  8
Level 8
 62
   133
370
     0
100
AcDbLine
 10
-1.833517
 20
-0.431714
 30
0.0
 11
-2.483517
 21
-0.431714
 31
0.0
  0
SPLINE
  5
7B421
330
7B5A7
100
AcDbEntity
  8
Level 8
 62
   133
370
     0
100
AcDbSpline
210
0.0
220
0.0
230
1.0
 70
     8
 71
     3
 72
    17
 73
    13
 74
     0
 42
0.0000000001
 43
0.00000001
 40
0.0
 40
0.0
 40
0.0
 40
0.0
 40
0.1188920175167992
 40
0.1188920175167992
 40
0.1188920175167992
 40
0.4370642450447248
 40
0.4370642450447248
 40
0.4370642450447248
 40
0.7708126268396294
 40
0.7708126268396294
 40
0.7708126268396294
 40
1.0
 40
1.0
 40
1.0
 40
1.0
 10
-1.833517035676241
 20
-0.4317136962460353
 30
0.0
 10
-1.833517035676241
 20
-0.4317136962460353
 30
0.0
 10
-1.83406311024368
 20
-0.4312857853703775
 30
0.0
 10
-1.83514380451847
 20
-0.4304413967249552
 30
0.0
 10
-1.838026071810628
 20
-0.4281893687172627
 30
0.0
 10
-1.844852701068522
 20
-0.4228496497948662
 30
0.0
 10
-1.854788781034966
 20
-0.4152805637157364
 30
0.0
 10
-1.865227204551417
 20
-0.4073288034246225
 30
0.0
 10
-1.8792699722087
 20
-0.3967863239605372
 30
0.0
 10
-1.895763883406445
 20
-0.3850241073262133
 30
0.0
 10
-1.907156268162279
 20
-0.3768999155639676
 30
0.0
 10
-1.919828241992668
 20
-0.3681165556180304
 30
0.0
 10
-1.933517035671436
 20
-0.3591253483963222
 30
0.0
  0
LINE
  5
7B424
330
7B5A7
100
AcDbEntity
  8
Level 8
 62
   133
370
     0
100
AcDbLine
 10
-1.933517
 20
-0.131714
 30
0.0
 11
-1.933517
 21
-0.359125
 31
0.0
  0
LINE
  5
7B425
330
7B5A7
100
AcDbEntity
  8
Level 8
 62
   133
370
     0
100
AcDbLine
 10
-1.933517
 20
-0.131714
 30
0.0
 11
-1.933517
 21
-0.359125
 31
0.0
  0
SPLINE
  5
7B426
330
7B5A7
100
AcDbEntity
  8
Level 8
 62
   133
370
     0
100
AcDbSpline
210
0.0
220
0.0
230
1.0
 70
     8
 71
     3
 72
    14
 73
    10
 74
     0
 42
0.0000000001
 43
0.00000001
 40
0.0
 40
0.0
 40
0.0
 40
0.0
 40
0.4155111778320348
 40
0.4155111778320348
 40
0.4155111778320348
 40
0.7657511632291136
 40
0.7657511632291136
 40
0.7657511632291136
 40
1.0
 40
1.0
 40
1.0
 40
1.0
 10
-1.93351703567641
 20
-0.3591253483956507
 30
0.0
 10
-1.908850109382065
 20
-0.3753273199525111
 30
0.0
 10
-1.887310228475872
 20
-0.3909352251373619
 30
0.0
 10
-1.870703507754392
 20
-0.4032945372282448
 30
0.0
 10
-1.856696496284382
 20
-0.4137190532493058
 30
0.0
 10
-1.845939156948273
 20
-0.4220439846593251
 30
0.0
 10
-1.839777332716864
 20
-0.4268312321212697
 30
0.0
 10
-1.835658952981866
 20
-0.4300308856967661
 30
0.0
 10
-1.833517035676241
 20
-0.4317136962460282
 30
0.0
 10
-1.833517035676241
 20
-0.4317136962460353
 30
0.0
  0
LINE
  5
7B429
330
7B5A7
100
AcDbEntity
  8
Level 8
 62
   133
370
     0
100
AcDbLine
 10
-2.158517
 20
-0.131714
 30
0.0
 11
-2.158517
 21
-0.431714
 31
0.0
  0
LINE
  5
7B42A
330
7B5A7
100
AcDbEntity
  8
Level 8
 62
   133
370
     0
100
AcDbLine
 10
-2.158517
 20
-0.131714
 30
0.0
 11
-2.158517
 21
-0.431714
 31
0.0
  0
ENDBLK
  5
7B5A9
330
7B5A7
100
AcDbEntity
  8
0
100
AcDbBlockEnd
  0
BLOCK
  5
7B5AB
330
7B5AA
100
AcDbEntity
  8
0
100
AcDbBlockBegin
  2
Feature Solid_17
 70
     0
 71
     0
 10
0.0
 20
0.0
 30
0.0
  3
Feature Solid_17
  1

  0
INSERT
  5
7B42C
330
7B5AA
100
AcDbEntity
  8
Level 26
 62
   133
370
     0
100
AcDbBlockReference
  2
DDPROJ_8
 10
0.0
 20
0.0
 30
0.0
  0
ENDBLK
  5
7B5AC
330
7B5AA
100
AcDbEntity
  8
0
100
AcDbBlockEnd
  0
BLOCK
  5
7B5AE
330
7B5AD
100
AcDbEntity
  8
0
100
AcDbBlockBegin
  2
DDPROJ_8
 70
     0
 71
     0
 10
0.0
 20
0.0
 30
0.0
  3
DDPROJ_8
  1

  0
LINE
  5
7B42D
330
7B5AD
100
AcDbEntity
  8
Level 26
 62
   133
370
     0
100
AcDbLine
 10
-1.833517
 20
-0.011714
 30
0.0
 11
-1.833517
 21
-0.131714
 31
0.0
  0
LINE
  5
7B42E
330
7B5AD
100
AcDbEntity
  8
Level 26
 62
   133
370
     0
100
AcDbLine
 10
-1.833517
 20
-0.131714
 30
0.0
 11
-1.833517
 21
-0.011714
 31
0.0
  0
LINE
  5
7B42F
330
7B5AD
100
AcDbEntity
  8
Level 26
 62
   133
370
     0
100
AcDbLine
 10
-2.483517
 20
-0.011714
 30
0.0
 11
-2.483517
 21
-0.131714
 31
0.0
  0
LINE
  5
7B430
330
7B5AD
100
AcDbEntity
  8
Level 26
 62
   133
370
     0
100
AcDbLine
 10
-2.483517
 20
-0.131714
 30
0.0
 11
-2.483517
 21
-0.011714
 31
0.0
  0
LINE
  5
7B431
330
7B5AD
100
AcDbEntity
  8
Level 26
 62
   133
370
     0
100
AcDbLine
 10
-1.933517
 20
-0.131714
 30
0.0
 11
-2.383517
 21
-0.131714
 31
0.0
  0
LINE
  5
7B432
330
7B5AD
100
AcDbEntity
  8
Level 26
 62
   133
370
     0
100
AcDbLine
 10
-1.933517
 20
-0.131714
 30
0.0
 11
-2.383517
 21
-0.131714
 31
0.0
  0
LINE
  5
7B433
330
7B5AD
100
AcDbEntity
  8
Level 26
 62
   133
370
     0
100
AcDbLine
 10
-1.833517
 20
-0.011714
 30
0.0
 11
-2.483517
 21
-0.011714
 31
0.0
  0
POINT
  5
7B434
330
7B5AD
100
AcDbEntity
  8
Level 26
 62
   133
370
     0
100
AcDbPoint
 10
-2.483517
 20
-0.131714
 30
0.0
  0
LINE
  5
7B435
330
7B5AD
100
AcDbEntity
  8
Level 26
 62
   133
370
     0
100
AcDbLine
 10
-1.833517
 20
-0.011714
 30
0.0
 11
-2.483517
 21
-0.011714
 31
0.0
  0
LINE
  5
7B436
330
7B5AD
100
AcDbEntity
  8
Level 26
 62
   133
370
     0
100
AcDbLine
 10
-1.833517
 20
-0.131714
 30
0.0
 11
-2.483517
 21
-0.131714
 31
0.0
  0
POINT
  5
7B437
330
7B5AD
100
AcDbEntity
  8
Level 26
 62
   133
370
     0
100
AcDbPoint
 10
-1.833517
 20
-0.131714
 30
0.0
  0
POINT
  5
7B438
330
7B5AD
100
AcDbEntity
  8
Level 26
 62
   133
370
     0
100
AcDbPoint
 10
-2.483517
 20
-0.131714
 30
0.0
  0
LINE
  5
7B439
330
7B5AD
100
AcDbEntity
  8
Level 26
 62
   133
370
     0
100
AcDbLine
 10
-1.833517
 20
-0.131714
 30
0.0
 11
-2.483517
 21
-0.131714
 31
0.0
  0
POINT
  5
7B43A
330
7B5AD
100
AcDbEntity
  8
Level 26
 62
   133
370
     0
100
AcDbPoint
 10
-1.833517
 20
-0.131714
 30
0.0
  0
POINT
  5
7B43B
330
7B5AD
100
AcDbEntity
  8
Level 26
 62
   133
370
     0
100
AcDbPoint
 10
-2.383517
 20
-0.131714
 30
0.0
  0
POINT
  5
7B43C
330
7B5AD
100
AcDbEntity
  8
Level 26
 62
   133
370
     0
100
AcDbPoint
 10
-2.383517
 20
-0.131714
 30
0.0
  0
LINE
  5
7B43D
330
7B5AD
100
AcDbEntity
  8
Level 26
 62
   133
370
     0
100
AcDbLine
 10
-2.483517
 20
-0.131714
 30
0.0
 11
-2.383517
 21
-0.131714
 31
0.0
  0
LINE
  5
7B43E
330
7B5AD
100
AcDbEntity
  8
Level 26
 62
   133
370
     0
100
AcDbLine
 10
-2.483517
 20
-0.131714
 30
0.0
 11
-2.383517
 21
-0.131714
 31
0.0
  0
POINT
  5
7B43F
330
7B5AD
100
AcDbEntity
  8
Level 26
 62
   133
370
     0
100
AcDbPoint
 10
-1.933517
 20
-0.131714
 30
0.0
  0
LINE
  5
7B440
330
7B5AD
100
AcDbEntity
  8
Level 26
 62
   133
370
     0
100
AcDbLine
 10
-1.933517
 20
-0.131714
 30
0.0
 11
-1.833517
 21
-0.131714
 31
0.0
  0
POINT
  5
7B441
330
7B5AD
100
AcDbEntity
  8
Level 26
 62
   133
370
     0
100
AcDbPoint
 10
-1.933517
 20
-0.131714
 30
0.0
  0
LINE
  5
7B442
330
7B5AD
100
AcDbEntity
  8
Level 26
 62
   133
370
     0
100
AcDbLine
 10
-1.933517
 20
-0.131714
 30
0.0
 11
-1.833517
 21
-0.131714
 31
0.0
  0
LINE
  5
7B443
330
7B5AD
100
AcDbEntity
  8
Level 26
 62
   133
370
     0
100
AcDbLine
 10
-2.158517
 20
-0.131714
 30
0.0
 11
-2.158517
 21
-0.011714
 31
0.0
  0
LINE
  5
7B444
330
7B5AD
100
AcDbEntity
  8
Level 26
 62
   133
370
     0
100
AcDbLine
 10
-2.483517
 20
-0.131714
 30
0.0
 11
-2.483517
 21
-0.011714
 31
0.0
  0
LINE
  5
7B445
330
7B5AD
100
AcDbEntity
  8
Level 26
 62
   133
370
     0
100
AcDbLine
 10
-2.158517
 20
-0.131714
 30
0.0
 11
-2.158517
 21
-0.011714
 31
0.0
  0
LINE
  5
7B446
330
7B5AD
100
AcDbEntity
  8
Level 26
 62
   133
370
     0
100
AcDbLine
 10
-1.833517
 20
-0.131714
 30
0.0
 11
-1.833517
 21
-0.011714
 31
0.0
  0
ENDBLK
  5
7B5AF
330
7B5AD
100
AcDbEntity
  8
0
100
AcDbBlockEnd
  0
BLOCK
  5
7B5B1
330
7B5B0
100
AcDbEntity
  8
0
100
AcDbBlockBegin
  2
Feature Solid_18
 70
     0
 71
     0
 10
0.0
 20
0.0
 30
0.0
  3
Feature Solid_18
  1

  0
INSERT
  5
7B448
330
7B5B0
100
AcDbEntity
  8
Level 26
 62
   133
370
     0
100
AcDbBlockReference
  2
UNITE_6
 10
215.851704
 20
22.17087
 30
0.0
 41
100.0
 42
100.0
 43
100.0
  0
ENDBLK
  5
7B5B2
330
7B5B0
100
AcDbEntity
  8
0
100
AcDbBlockEnd
  0
BLOCK
  5
7B5B4
330
7B5B3
100
AcDbEntity
  8
0
100
AcDbBlockBegin
  2
UNITE_6
 70
     0
 71
     0
 10
0.0
 20
0.0
 30
0.0
  3
UNITE_6
  1

  0
INSERT
  5
7B449
330
7B5B3
100
AcDbEntity
  8
Level 26
 62
   133
370
     0
100
AcDbBlockReference
  2
Feature Solid_19
 10
0.0
 20
0.0
 30
0.0
  0
INSERT
  5
7B450
330
7B5B3
100
AcDbEntity
  8
Level 26
 62
   133
370
     0
100
AcDbBlockReference
  2
Feature Solid_20
 10
-0.55
 20
0.0
 30
0.0
  0
INSERT
  5
7B457
330
7B5B3
100
AcDbEntity
  8
Level 8
 62
   133
370
     0
100
AcDbBlockReference
  2
Feature Solid_21
 10
0.0
 20
0.0
 30
0.0
  0
ENDBLK
  5
7B5B5
330
7B5B3
100
AcDbEntity
  8
0
100
AcDbBlockEnd
  0
BLOCK
  5
7B5B7
330
7B5B6
100
AcDbEntity
  8
0
100
AcDbBlockBegin
  2
Feature Solid_19
 70
     0
 71
     0
 10
0.0
 20
0.0
 30
0.0
  3
Feature Solid_19
  1

  0
INSERT
  5
7B44A
330
7B5B6
100
AcDbEntity
  8
Level 26
 62
   133
370
     0
100
AcDbBlockReference
  2
DDPROJ_9
 10
0.0
 20
0.0
 30
0.0
  0
ENDBLK
  5
7B5B8
330
7B5B6
100
AcDbEntity
  8
0
100
AcDbBlockEnd
  0
BLOCK
  5
7B5BA
330
7B5B9
100
AcDbEntity
  8
0
100
AcDbBlockBegin
  2
DDPROJ_9
 70
     0
 71
     0
 10
0.0
 20
0.0
 30
0.0
  3
DDPROJ_9
  1

  0
POINT
  5
7B44B
330
7B5B9
100
AcDbEntity
  8
Level 26
 62
   133
370
     0
100
AcDbPoint
 10
-1.833517
 20
-0.011714
 30
0.0
  0
LINE
  5
7B44C
330
7B5B9
100
AcDbEntity
  8
Level 26
 62
   133
370
     0
100
AcDbLine
 10
-1.933517
 20
-0.131714
 30
0.0
 11
-1.933517
 21
-0.359125
 31
0.0
  0
LINE
  5
7B44D
330
7B5B9
100
AcDbEntity
  8
Level 26
 62
   133
370
     0
100
AcDbLine
 10
-1.833517
 20
-0.131714
 30
0.0
 11
-1.833517
 21
-0.431714
 31
0.0
  0
LINE
  5
7B44E
330
7B5B9
100
AcDbEntity
  8
Level 26
 62
   133
370
     0
100
AcDbLine
 10
-1.833517
 20
-0.131714
 30
0.0
 11
-1.833517
 21
-0.431714
 31
0.0
  0
LINE
  5
7B44F
330
7B5B9
100
AcDbEntity
  8
Level 26
 62
   133
370
     0
100
AcDbLine
 10
-1.933517
 20
-0.131714
 30
0.0
 11
-1.933517
 21
-0.359125
 31
0.0
  0
ENDBLK
  5
7B5BB
330
7B5B9
100
AcDbEntity
  8
0
100
AcDbBlockEnd
  0
BLOCK
  5
7B5BD
330
7B5BC
100
AcDbEntity
  8
0
100
AcDbBlockBegin
  2
Feature Solid_20
 70
     0
 71
     0
 10
0.0
 20
0.0
 30
0.0
  3
Feature Solid_20
  1

  0
INSERT
  5
7B451
330
7B5BC
100
AcDbEntity
  8
Level 26
 62
   133
370
     0
100
AcDbBlockReference
  2
DDPROJ_10
 10
0.0
 20
0.0
 30
0.0
  0
ENDBLK
  5
7B5BE
330
7B5BC
100
AcDbEntity
  8
0
100
AcDbBlockEnd
  0
BLOCK
  5
7B5C0
330
7B5BF
100
AcDbEntity
  8
0
100
AcDbBlockBegin
  2
DDPROJ_10
 70
     0
 71
     0
 10
0.0
 20
0.0
 30
0.0
  3
DDPROJ_10
  1

  0
POINT
  5
7B452
330
7B5BF
100
AcDbEntity
  8
Level 26
 62
   133
370
     0
100
AcDbPoint
 10
-1.933517
 20
-0.011714
 30
0.0
  0
LINE
  5
7B453
330
7B5BF
100
AcDbEntity
  8
Level 26
 62
   133
370
     0
100
AcDbLine
 10
-1.933517
 20
-0.131714
 30
0.0
 11
-1.933517
 21
-0.431714
 31
0.0
  0
LINE
  5
7B454
330
7B5BF
100
AcDbEntity
  8
Level 26
 62
   133
370
     0
100
AcDbLine
 10
-1.833517
 20
-0.131714
 30
0.0
 11
-1.833517
 21
-0.359125
 31
0.0
  0
LINE
  5
7B455
330
7B5BF
100
AcDbEntity
  8
Level 26
 62
   133
370
     0
100
AcDbLine
 10
-1.833517
 20
-0.131714
 30
0.0
 11
-1.833517
 21
-0.359125
 31
0.0
  0
LINE
  5
7B456
330
7B5BF
100
AcDbEntity
  8
Level 26
 62
   133
370
     0
100
AcDbLine
 10
-1.933517
 20
-0.131714
 30
0.0
 11
-1.933517
 21
-0.431714
 31
0.0
  0
ENDBLK
  5
7B5C1
330
7B5BF
100
AcDbEntity
  8
0
100
AcDbBlockEnd
  0
BLOCK
  5
7B5C3
330
7B5C2
100
AcDbEntity
  8
0
100
AcDbBlockBegin
  2
Feature Solid_21
 70
     0
 71
     0
 10
0.0
 20
0.0
 30
0.0
  3
Feature Solid_21
  1

  0
INSERT
  5
7B458
330
7B5C2
100
AcDbEntity
  8
Level 8
 62
   133
370
     0
100
AcDbBlockReference
  2
UNITE_7
 10
0.0
 20
0.0
 30
0.0
  0
ENDBLK
  5
7B5C4
330
7B5C2
100
AcDbEntity
  8
0
100
AcDbBlockEnd
  0
BLOCK
  5
7B5C6
330
7B5C5
100
AcDbEntity
  8
0
100
AcDbBlockBegin
  2
UNITE_7
 70
     0
 71
     0
 10
0.0
 20
0.0
 30
0.0
  3
UNITE_7
  1

  0
INSERT
  5
7B459
330
7B5C5
100
AcDbEntity
  8
Level 8
 62
   133
370
     0
100
AcDbBlockReference
  2
Feature Solid_22
 10
0.0
 20
0.0
 30
0.0
  0
INSERT
  5
7B46F
330
7B5C5
100
AcDbEntity
  8
Level 26
 62
   133
370
     0
100
AcDbBlockReference
  2
Feature Solid_23
 10
0.0
 20
0.0
 30
0.0
  0
ENDBLK
  5
7B5C7
330
7B5C5
100
AcDbEntity
  8
0
100
AcDbBlockEnd
  0
BLOCK
  5
7B5C9
330
7B5C8
100
AcDbEntity
  8
0
100
AcDbBlockBegin
  2
Feature Solid_22
 70
     0
 71
     0
 10
0.0
 20
0.0
 30
0.0
  3
Feature Solid_22
  1

  0
INSERT
  5
7B45A
330
7B5C8
100
AcDbEntity
  8
Level 8
 62
   133
370
     0
100
AcDbBlockReference
  2
CONE_3
 10
0.0
 20
0.0
 30
0.0
  0
ENDBLK
  5
7B5CA
330
7B5C8
100
AcDbEntity
  8
0
100
AcDbBlockEnd
  0
BLOCK
  5
7B5CC
330
7B5CB
100
AcDbEntity
  8
0
100
AcDbBlockBegin
  2
CONE_3
 70
     0
 71
     0
 10
0.0
 20
0.0
 30
0.0
  3
CONE_3
  1

  0
LINE
  5
7B45B
330
7B5CB
100
AcDbEntity
  8
Level 8
 62
   133
370
     0
100
AcDbLine
 10
-1.833517
 20
-0.431714
 30
0.0
 11
-2.483517
 21
-0.431714
 31
0.0
  0
LINE
  5
7B45C
330
7B5CB
100
AcDbEntity
  8
Level 8
 62
   133
370
     0
100
AcDbLine
 10
-2.383517
 20
-0.131714
 30
0.0
 11
-2.383517
 21
-0.359125
 31
0.0
  0
LINE
  5
7B45D
330
7B5CB
100
AcDbEntity
  8
Level 8
 62
   133
370
     0
100
AcDbLine
 10
-2.383517
 20
-0.131714
 30
0.0
 11
-2.383517
 21
-0.359125
 31
0.0
  0
SPLINE
  5
7B45E
330
7B5CB
100
AcDbEntity
  8
Level 8
 62
   133
370
     0
100
AcDbSpline
210
0.0
220
0.0
230
1.0
 70
     8
 71
     3
 72
    17
 73
    13
 74
     0
 42
0.0000000001
 43
0.00000001
 40
0.0
 40
0.0
 40
0.0
 40
0.0
 40
0.1188920175173181
 40
0.1188920175173181
 40
0.1188920175173181
 40
0.4370642450454728
 40
0.4370642450454728
 40
0.4370642450454728
 40
0.7708126268407274
 40
0.7708126268407274
 40
0.7708126268407274
 40
1.0
 40
1.0
 40
1.0
 40
1.0
 10
-2.483517035676385
 20
-0.4317136962460353
 30
0.0
 10
-2.483517035676385
 20
-0.4317136962460353
 30
0.0
 10
-2.482970961108954
 20
-0.4312857853703669
 30
0.0
 10
-2.481890266834164
 20
-0.4304413967249374
 30
0.0
 10
-2.479007999541985
 20
-0.4281893687172236
 30
0.0
 10
-2.472181370284069
 20
-0.4228496497948306
 30
0.0
 10
-2.462245290317625
 20
-0.4152805637156796
 30
0.0
 10
-2.451806866801178
 20
-0.4073288034245479
 30
0.0
 10
-2.437764099143891
 20
-0.3967863239604519
 30
0.0
 10
-2.421270187946128
 20
-0.3850241073261032
 30
0.0
 10
-2.409877803190348
 20
-0.3768999155639037
 30
0.0
 10
-2.39720582936004
 20
-0.3681165556180126
 30
0.0
 10
-2.383517035681365
 20
-0.3591253483963399
 30
0.0
  0
SPLINE
  5
7B461
330
7B5CB
100
AcDbEntity
  8
Level 8
 62
   133
370
     0
100
AcDbSpline
210
0.0
220
0.0
230
1.0
 70
     8
 71
     3
 72
    14
 73
    10
 74
     0
 42
0.0000000001
 43
0.00000001
 40
0.0
 40
0.0
 40
0.0
 40
0.0
 40
0.4155111778321488
 40
0.4155111778321488
 40
0.4155111778321488
 40
0.7657511632294429
 40
0.7657511632294429
 40
0.7657511632294429
 40
1.0
 40
1.0
 40
1.0
 40
1.0
 10
-2.38351703567637
 20
-0.3591253483958568
 30
0.0
 10
-2.408183961970714
 20
-0.3753273199526781
 30
0.0
 10
-2.429723842876847
 20
-0.3909352251375111
 30
0.0
 10
-2.446330563598309
 20
-0.403294537228355
 30
0.0
 10
-2.460337575068301
 20
-0.4137190532493982
 30
0.0
 10
-2.471094914404411
 20
-0.4220439846593891
 30
0.0
 10
-2.477256738635802
 20
-0.4268312321213088
 30
0.0
 10
-2.481375118370778
 20
-0.4300308856967945
 30
0.0
 10
-2.483517035676385
 20
-0.4317136962460353
 30
0.0
 10
-2.483517035676385
 20
-0.4317136962460353
 30
0.0
  0
LINE
  5
7B464
330
7B5CB
100
AcDbEntity
  8
Level 8
 62
   133
370
     0
100
AcDbLine
 10
-1.833517
 20
-0.431714
 30
0.0
 11
-2.483517
 21
-0.431714
 31
0.0
  0
SPLINE
  5
7B465
330
7B5CB
100
AcDbEntity
  8
Level 8
 62
   133
370
     0
100
AcDbSpline
210
0.0
220
0.0
230
1.0
 70
     8
 71
     3
 72
    17
 73
    13
 74
     0
 42
0.0000000001
 43
0.00000001
 40
0.0
 40
0.0
 40
0.0
 40
0.0
 40
0.1188920175167992
 40
0.1188920175167992
 40
0.1188920175167992
 40
0.4370642450447248
 40
0.4370642450447248
 40
0.4370642450447248
 40
0.7708126268396294
 40
0.7708126268396294
 40
0.7708126268396294
 40
1.0
 40
1.0
 40
1.0
 40
1.0
 10
-1.833517035676238
 20
-0.4317136962460353
 30
0.0
 10
-1.833517035676238
 20
-0.4317136962460353
 30
0.0
 10
-1.834063110243676
 20
-0.4312857853703775
 30
0.0
 10
-1.835143804518467
 20
-0.4304413967249552
 30
0.0
 10
-1.838026071810624
 20
-0.4281893687172627
 30
0.0
 10
-1.844852701068518
 20
-0.4228496497948662
 30
0.0
 10
-1.854788781034962
 20
-0.4152805637157364
 30
0.0
 10
-1.865227204551417
 20
-0.4073288034246225
 30
0.0
 10
-1.879269972208697
 20
-0.3967863239605372
 30
0.0
 10
-1.895763883406445
 20
-0.3850241073262133
 30
0.0
 10
-1.907156268162282
 20
-0.3768999155639676
 30
0.0
 10
-1.919828241992668
 20
-0.3681165556180304
 30
0.0
 10
-1.933517035671436
 20
-0.3591253483963222
 30
0.0
  0
LINE
  5
7B468
330
7B5CB
100
AcDbEntity
  8
Level 8
 62
   133
370
     0
100
AcDbLine
 10
-1.933517
 20
-0.131714
 30
0.0
 11
-1.933517
 21
-0.359125
 31
0.0
  0
LINE
  5
7B469
330
7B5CB
100
AcDbEntity
  8
Level 8
 62
   133
370
     0
100
AcDbLine
 10
-1.933517
 20
-0.131714
 30
0.0
 11
-1.933517
 21
-0.359125
 31
0.0
  0
SPLINE
  5
7B46A
330
7B5CB
100
AcDbEntity
  8
Level 8
 62
   133
370
     0
100
AcDbSpline
210
0.0
220
0.0
230
1.0
 70
     8
 71
     3
 72
    14
 73
    10
 74
     0
 42
0.0000000001
 43
0.00000001
 40
0.0
 40
0.0
 40
0.0
 40
0.0
 40
0.4155111778320348
 40
0.4155111778320348
 40
0.4155111778320348
 40
0.7657511632291136
 40
0.7657511632291136
 40
0.7657511632291136
 40
1.0
 40
1.0
 40
1.0
 40
1.0
 10
-1.93351703567641
 20
-0.3591253483956507
 30
0.0
 10
-1.908850109382065
 20
-0.3753273199525111
 30
0.0
 10
-1.887310228475869
 20
-0.3909352251373619
 30
0.0
 10
-1.870703507754392
 20
-0.4032945372282448
 30
0.0
 10
-1.856696496284378
 20
-0.4137190532493058
 30
0.0
 10
-1.845939156948269
 20
-0.4220439846593251
 30
0.0
 10
-1.839777332716864
 20
-0.4268312321212697
 30
0.0
 10
-1.835658952981866
 20
-0.4300308856967661
 30
0.0
 10
-1.833517035676238
 20
-0.4317136962460282
 30
0.0
 10
-1.833517035676238
 20
-0.4317136962460353
 30
0.0
  0
LINE
  5
7B46D
330
7B5CB
100
AcDbEntity
  8
Level 8
 62
   133
370
     0
100
AcDbLine
 10
-2.158517
 20
-0.131714
 30
0.0
 11
-2.158517
 21
-0.431714
 31
0.0
  0
LINE
  5
7B46E
330
7B5CB
100
AcDbEntity
  8
Level 8
 62
   133
370
     0
100
AcDbLine
 10
-2.158517
 20
-0.131714
 30
0.0
 11
-2.158517
 21
-0.431714
 31
0.0
  0
ENDBLK
  5
7B5CD
330
7B5CB
100
AcDbEntity
  8
0
100
AcDbBlockEnd
  0
BLOCK
  5
7B5CF
330
7B5CE
100
AcDbEntity
  8
0
100
AcDbBlockBegin
  2
Feature Solid_23
 70
     0
 71
     0
 10
0.0
 20
0.0
 30
0.0
  3
Feature Solid_23
  1

  0
INSERT
  5
7B470
330
7B5CE
100
AcDbEntity
  8
Level 26
 62
   133
370
     0
100
AcDbBlockReference
  2
DDPROJ_11
 10
0.0
 20
0.0
 30
0.0
  0
ENDBLK
  5
7B5D0
330
7B5CE
100
AcDbEntity
  8
0
100
AcDbBlockEnd
  0
BLOCK
  5
7B5D2
330
7B5D1
100
AcDbEntity
  8
0
100
AcDbBlockBegin
  2
DDPROJ_11
 70
     0
 71
     0
 10
0.0
 20
0.0
 30
0.0
  3
DDPROJ_11
  1

  0
LINE
  5
7B471
330
7B5D1
100
AcDbEntity
  8
Level 26
 62
   133
370
     0
100
AcDbLine
 10
-1.833517
 20
-0.011714
 30
0.0
 11
-1.833517
 21
-0.131714
 31
0.0
  0
LINE
  5
7B472
330
7B5D1
100
AcDbEntity
  8
Level 26
 62
   133
370
     0
100
AcDbLine
 10
-1.833517
 20
-0.131714
 30
0.0
 11
-1.833517
 21
-0.011714
 31
0.0
  0
LINE
  5
7B473
330
7B5D1
100
AcDbEntity
  8
Level 26
 62
   133
370
     0
100
AcDbLine
 10
-2.483517
 20
-0.011714
 30
0.0
 11
-2.483517
 21
-0.131714
 31
0.0
  0
LINE
  5
7B474
330
7B5D1
100
AcDbEntity
  8
Level 26
 62
   133
370
     0
100
AcDbLine
 10
-2.483517
 20
-0.131714
 30
0.0
 11
-2.483517
 21
-0.011714
 31
0.0
  0
LINE
  5
7B475
330
7B5D1
100
AcDbEntity
  8
Level 26
 62
   133
370
     0
100
AcDbLine
 10
-1.933517
 20
-0.131714
 30
0.0
 11
-2.383517
 21
-0.131714
 31
0.0
  0
LINE
  5
7B476
330
7B5D1
100
AcDbEntity
  8
Level 26
 62
   133
370
     0
100
AcDbLine
 10
-1.933517
 20
-0.131714
 30
0.0
 11
-2.383517
 21
-0.131714
 31
0.0
  0
LINE
  5
7B477
330
7B5D1
100
AcDbEntity
  8
Level 26
 62
   133
370
     0
100
AcDbLine
 10
-1.833517
 20
-0.011714
 30
0.0
 11
-2.483517
 21
-0.011714
 31
0.0
  0
POINT
  5
7B478
330
7B5D1
100
AcDbEntity
  8
Level 26
 62
   133
370
     0
100
AcDbPoint
 10
-2.483517
 20
-0.131714
 30
0.0
  0
LINE
  5
7B479
330
7B5D1
100
AcDbEntity
  8
Level 26
 62
   133
370
     0
100
AcDbLine
 10
-1.833517
 20
-0.011714
 30
0.0
 11
-2.483517
 21
-0.011714
 31
0.0
  0
LINE
  5
7B47A
330
7B5D1
100
AcDbEntity
  8
Level 26
 62
   133
370
     0
100
AcDbLine
 10
-1.833517
 20
-0.131714
 30
0.0
 11
-2.483517
 21
-0.131714
 31
0.0
  0
POINT
  5
7B47B
330
7B5D1
100
AcDbEntity
  8
Level 26
 62
   133
370
     0
100
AcDbPoint
 10
-1.833517
 20
-0.131714
 30
0.0
  0
POINT
  5
7B47C
330
7B5D1
100
AcDbEntity
  8
Level 26
 62
   133
370
     0
100
AcDbPoint
 10
-2.483517
 20
-0.131714
 30
0.0
  0
LINE
  5
7B47D
330
7B5D1
100
AcDbEntity
  8
Level 26
 62
   133
370
     0
100
AcDbLine
 10
-1.833517
 20
-0.131714
 30
0.0
 11
-2.483517
 21
-0.131714
 31
0.0
  0
POINT
  5
7B47E
330
7B5D1
100
AcDbEntity
  8
Level 26
 62
   133
370
     0
100
AcDbPoint
 10
-1.833517
 20
-0.131714
 30
0.0
  0
POINT
  5
7B47F
330
7B5D1
100
AcDbEntity
  8
Level 26
 62
   133
370
     0
100
AcDbPoint
 10
-2.383517
 20
-0.131714
 30
0.0
  0
POINT
  5
7B480
330
7B5D1
100
AcDbEntity
  8
Level 26
 62
   133
370
     0
100
AcDbPoint
 10
-2.383517
 20
-0.131714
 30
0.0
  0
LINE
  5
7B481
330
7B5D1
100
AcDbEntity
  8
Level 26
 62
   133
370
     0
100
AcDbLine
 10
-2.483517
 20
-0.131714
 30
0.0
 11
-2.383517
 21
-0.131714
 31
0.0
  0
LINE
  5
7B482
330
7B5D1
100
AcDbEntity
  8
Level 26
 62
   133
370
     0
100
AcDbLine
 10
-2.483517
 20
-0.131714
 30
0.0
 11
-2.383517
 21
-0.131714
 31
0.0
  0
POINT
  5
7B483
330
7B5D1
100
AcDbEntity
  8
Level 26
 62
   133
370
     0
100
AcDbPoint
 10
-1.933517
 20
-0.131714
 30
0.0
  0
LINE
  5
7B484
330
7B5D1
100
AcDbEntity
  8
Level 26
 62
   133
370
     0
100
AcDbLine
 10
-1.933517
 20
-0.131714
 30
0.0
 11
-1.833517
 21
-0.131714
 31
0.0
  0
POINT
  5
7B485
330
7B5D1
100
AcDbEntity
  8
Level 26
 62
   133
370
     0
100
AcDbPoint
 10
-1.933517
 20
-0.131714
 30
0.0
  0
LINE
  5
7B486
330
7B5D1
100
AcDbEntity
  8
Level 26
 62
   133
370
     0
100
AcDbLine
 10
-1.933517
 20
-0.131714
 30
0.0
 11
-1.833517
 21
-0.131714
 31
0.0
  0
LINE
  5
7B487
330
7B5D1
100
AcDbEntity
  8
Level 26
 62
   133
370
     0
100
AcDbLine
 10
-2.158517
 20
-0.131714
 30
0.0
 11
-2.158517
 21
-0.011714
 31
0.0
  0
LINE
  5
7B488
330
7B5D1
100
AcDbEntity
  8
Level 26
 62
   133
370
     0
100
AcDbLine
 10
-2.483517
 20
-0.131714
 30
0.0
 11
-2.483517
 21
-0.011714
 31
0.0
  0
LINE
  5
7B489
330
7B5D1
100
AcDbEntity
  8
Level 26
 62
   133
370
     0
100
AcDbLine
 10
-2.158517
 20
-0.131714
 30
0.0
 11
-2.158517
 21
-0.011714
 31
0.0
  0
LINE
  5
7B48A
330
7B5D1
100
AcDbEntity
  8
Level 26
 62
   133
370
     0
100
AcDbLine
 10
-1.833517
 20
-0.131714
 30
0.0
 11
-1.833517
 21
-0.011714
 31
0.0
  0
ENDBLK
  5
7B5D3
330
7B5D1
100
AcDbEntity
  8
0
100
AcDbBlockEnd
  0
ENDSEC
  0
SECTION
  2
ENTITIES
  0
INSERT
  5
7B1E4
330
7B4C0
100
AcDbEntity
  8
Level 25
  6
Continuous
 62
   174
370
    13
100
AcDbBlockReference
  2
FT23
 10
3198.749439
 20
205.276387
 30
0.0
  0
ENDSEC
  0
SECTION
  2
OBJECTS
  0
DICTIONARY
  5
7B4D3
330
0
100
AcDbDictionary
281
     1
  3
ACAD_GROUP
350
7B4D1
  3
ACAD_LAYOUT
350
7B4D4
  3
ACAD_MLINESTYLE
350
7B4D2
  3
ACAD_PLOTSETTINGS
350
7B4D5
  3
ACAD_PLOTSTYLENAME
350
7B4D6
  3
ACAD_TABLESTYLE
350
7B5D9
  3
AcadDim
350
7B4E6
  3
DWGPROPS
350
7B620
  0
DICTIONARY
  5
7B4D9
330
7B4C8
100
AcDbDictionary
280
     1
281
     1
  3
ACAD_LAYERFILTERS
360
7B4DA
  0
DICTIONARY
  5
7B4D1
102
{ACAD_REACTORS
330
7B4D3
102
}
330
7B4D3
100
AcDbDictionary
281
     1
  0
DICTIONARY
  5
7B4D4
102
{ACAD_REACTORS
330
7B4D3
102
}
330
7B4D3
100
AcDbDictionary
281
     1
  3
Layout1
350
7B4C7
  3
Model
350
7B4C3
  0
DICTIONARY
  5
7B4D2
102
{ACAD_REACTORS
330
7B4D3
102
}
330
7B4D3
100
AcDbDictionary
281
     1
  3
Standard
350
7B4BE
  0
DICTIONARY
  5
7B4D5
102
{ACAD_REACTORS
330
7B4D3
102
}
330
7B4D3
100
AcDbDictionary
281
     1
  0
ACDBDICTIONARYWDFLT
  5
7B4D6
102
{ACAD_REACTORS
330
7B4D3
102
}
330
7B4D3
100
AcDbDictionary
281
     1
  3
Normal
350
7B4B9
100
AcDbDictionaryWithDefault
340
7B4B9
  0
DICTIONARY
  5
7B5D9
102
{ACAD_REACTORS
330
7B4D3
102
}
330
7B4D3
100
AcDbDictionary
281
     1
  0
XRECORD
  5
7B4E6
102
{ACAD_REACTORS
330
7B4D3
102
}
330
7B4D3
100
AcDbXrecord
280
     1
 90
   990106
  3
 
 60
     0
 61
     0
 62
     1
 63
     1
 64
     0
 65
     0
 66
     0
 67
     3
 68
     1
 69
     1
 70
     0
 71
     0
 72
     0
 40
0.0
170
     0
  0
XRECORD
  5
7B620
102
{ACAD_REACTORS
330
7B4D3
102
}
330
7B4D3
100
AcDbXrecord
280
     1
  1
DWGPROPS COOKIE
  2

  3

  4
WAEngineering1
  6

  7

  8

  9

300
=
301
=
302
=
303
=
304
=
305
=
306
=
307
=
308
=
309
=
 40
0.0
 41
2451789.537469
 42
2451789.537561
  1

 90
        0
  0
DICTIONARY
  5
7B4DA
102
{ACAD_REACTORS
330
7B4D9
102
}
330
7B4D9
100
AcDbDictionary
281
     1
  0
LAYOUT
  5
7B4C7
102
{ACAD_REACTORS
330
7B4D4
330
7B4D4
102
}
330
7B4D4
100
AcDbPlotSettings
  1

  2

  4

  6

 40
0.0
 41
0.0
 42
0.0
 43
0.0
 44
0.0
 45
0.0
 46
0.0
 47
0.0
 48
0.0
 49
0.0
140
0.0
141
0.0
142
1.0
143
1.0
 70
   688
 72
     0
 73
     0
 74
     5
  7

 75
    16
147
1.0
148
0.0
149
0.0
100
AcDbLayout
  1
Layout1
 70
     1
 71
     1
 10
0.0
 20
0.0
 11
12.0
 21
9.0
 12
0.0
 22
0.0
 32
0.0
 14
1.000000E+20
 24
1.000000E+20
 34
1.000000E+20
 15
-1.000000E+20
 25
-1.000000E+20
 35
-1.000000E+20
146
0.0
 13
0.0
 23
0.0
 33
0.0
 16
1.0
 26
0.0
 36
0.0
 17
0.0
 27
1.0
 37
0.0
 76
     0
330
7B4C4
  0
LAYOUT
  5
7B4C3
102
{ACAD_REACTORS
330
7B4D4
330
7B4D4
102
}
330
7B4D4
100
AcDbPlotSettings
  1

  2

  4

  6

 40
0.0
 41
0.0
 42
0.0
 43
0.0
 44
0.0
 45
0.0
 46
0.0
 47
0.0
 48
0.0
 49
0.0
140
0.0
141
0.0
142
1.0
143
1.0
 70
  1712
 72
     0
 73
     0
 74
     0
  7

 75
     0
147
1.0
148
0.0
149
0.0
100
AcDbLayout
  1
Model
 70
     1
 71
     0
 10
0.0
 20
0.0
 11
12.0
 21
9.0
 12
0.0
 22
0.0
 32
0.0
 14
0.0
 24
0.0
 34
0.0
 15
0.0
 25
0.0
 35
0.0
146
0.0
 13
0.0
 23
0.0
 33
0.0
 16
1.0
 26
0.0
 36
0.0
 17
0.0
 27
1.0
 37
0.0
 76
     0
330
7B4C0
  0
MLINESTYLE
  5
7B4BE
102
{ACAD_REACTORS
330
7B4D2
102
}
330
7B4D2
100
AcDbMlineStyle
  2
STANDARD
 70
     0
  3

 62
   256
 51
90.0
 52
90.0
 71
     2
 49
0.5
 62
   256
  6
BYLAYER
 49
-0.5
 62
   256
  6
BYLAYER
  0
ACDBPLACEHOLDER
  5
7B4B9
102
{ACAD_REACTORS
330
7B4D6
102
}
330
7B4D6
  0
ENDSEC
  0
SECTION
  2
THUMBNAILIMAGE
 90
    16004
310
28000000B40000005300000001000800000000005C3A00000004000000040000000100000A000000FFFFFF000000B8009000000000C8F80048000000C8C8C800D878280090689000B0A09800B8B89800FFFFFF00FFFFFF00FFFFFF00FFFFFF00FFFFFF00FFFFFF00FFFFFF00FFFFFF00FFFFFF00FFFFFF00FFFFFF00FFFFFF
310
00FFFFFF00FFFFFF00FFFFFF00FFFFFF00FFFFFF00FFFFFF00FFFFFF00FFFFFF00FFFFFF00FFFFFF00FFFFFF00FFFFFF00FFFFFF00FFFFFF00FFFFFF00FFFFFF00FFFFFF00FFFFFF00FFFFFF00FFFFFF00FFFFFF00FFFFFF00FFFFFF00FFFFFF00FFFFFF00FFFFFF00FFFFFF00FFFFFF00FFFFFF00FFFFFF00FFFFFF00FFFF
310
FF00FFFFFF00FFFFFF00FFFFFF00FFFFFF00FFFFFF00FFFFFF00FFFFFF00FFFFFF00FFFFFF00FFFFFF00FFFFFF00FFFFFF00FFFFFF00FFFFFF00FFFFFF00FFFFFF00FFFFFF00FFFFFF00FFFFFF00FFFFFF00FFFFFF00FFFFFF00FFFFFF00FFFFFF00FFFFFF00FFFFFF00FFFFFF00FFFFFF00FFFFFF00FFFFFF00FFFFFF00FF
310
FFFF00FFFFFF00FFFFFF00FFFFFF00FFFFFF00FFFFFF00FFFFFF00FFFFFF00FFFFFF00FFFFFF00FFFFFF00FFFFFF00FFFFFF00FFFFFF00FFFFFF00FFFFFF00FFFFFF00FFFFFF00FFFFFF00FFFFFF00FFFFFF00FFFFFF00FFFFFF00FFFFFF00FFFFFF00FFFFFF00FFFFFF00FFFFFF00FFFFFF00FFFFFF00FFFFFF00FFFFFF00
310
FFFFFF00FFFFFF00FFFFFF00FFFFFF00FFFFFF00FFFFFF00FFFFFF00FFFFFF00FFFFFF00FFFFFF00FFFFFF00FFFFFF00FFFFFF00FFFFFF00FFFFFF00FFFFFF00FFFFFF00FFFFFF00FFFFFF00FFFFFF00FFFFFF00FFFFFF00FFFFFF00FFFFFF00FFFFFF00FFFFFF00FFFFFF00FFFFFF00FFFFFF00FFFFFF00FFFFFF00FFFFFF
310
00FFFFFF00FFFFFF00FFFFFF00FFFFFF00FFFFFF00FFFFFF00FFFFFF00FFFFFF00FFFFFF00FFFFFF00FFFFFF00FFFFFF00FFFFFF00FFFFFF00FFFFFF00FFFFFF00FFFFFF00FFFFFF00FFFFFF00FFFFFF00FFFFFF00FFFFFF00FFFFFF00FFFFFF00FFFFFF00FFFFFF00FFFFFF00FFFFFF00FFFFFF00FFFFFF00FFFFFF00FFFF
310
FF00FFFFFF00FFFFFF00FFFFFF00FFFFFF00FFFFFF00FFFFFF00FFFFFF00FFFFFF00FFFFFF00FFFFFF00FFFFFF00FFFFFF00FFFFFF00FFFFFF00FFFFFF00FFFFFF00FFFFFF00FFFFFF00FFFFFF00FFFFFF00FFFFFF00FFFFFF00FFFFFF00FFFFFF00FFFFFF00FFFFFF00FFFFFF00FFFFFF00FFFFFF00FFFFFF00FFFFFF00FF
310
FFFF00FFFFFF00FFFFFF00FFFFFF00FFFFFF00FFFFFF00FFFFFF00FFFFFF00FFFFFF00FFFFFF00FFFFFF00FFFFFF00FFFFFF00FFFFFF00FFFFFF00FFFFFF00FFFFFF00FFFFFF00FFFFFF00FFFFFF00FFFFFF00FFFFFF00FFFFFF00FFFFFF00FFFFFF00FFFFFF00FFFFFF00FFFFFF00FFFFFF00FFFFFF00FFFFFF00FFFFFF00
310
FFFFFF00FFFFFF00FFFFFF00FFFFFF00FFFFFF00FFFFFF00FFFFFF00FFFFFF00FFFFFF00FFFFFF00FFFFFF00FFFFFF0007070707070707070707070707070707070707070707070707070707070707070707070707070707070707070707070707070707070707070707070707070707070707070707070707070707070707
310
07070707070707070707070707070707070707070707070707070707070707070707070707070707070707070707070707070707070707070707070707070707070707070707070707070707070707070707070707070707070707070707070707070707070707070707070707070707070707070707070707070707070707
310
07070707070707070707070707070707070707070707070707070707070707070707070707070707070707070707070707080808080505050505050505050505050505050505050505050808080807070707070707070707070707070707070707070707070707070707070707070707070707070707070707070707070707
310
07070707070707070707070707070707070707070707070707070707070707070707070707070707070707070707070707070707070707070707070707070707070707070707070707070707070707070707070707070707070707070707070707070707070708080808050505050505050505050505050505050505050505
310
08080808070707070707070707070707070707070707070707070707070707070707070707070707070707070707070707070707070707070707070707070707070707070707070707070707070707070707070707070707070707070707070707070707070707070707070707070707070707070707070707070707070707
310
07070707070707070707070707070707070707070707070707070707090909080505050505050505050505050505050505050505050809090907070707070707070707070707070707070707070707070707070707070707070707070707070707070707070707070707070707070707070707070707070707070707070707
310
07070707070707070707070707070707070707070707070707070707070707070707070707070707070707070707070707070707070707070707070707070707070707070707070707070707070707070701090908070707070707070707030303050707070707070707070809090707070707070707070707070707070707
310
07070707070707070707070707070707070707070707070707070707070707070707070707070707070707070707070707070707070707070707070707070707070707070707070707070707070707070707070707070707070707070707070707070707070707070707070707070707070707070707070707070707070707
310
07070707070707010101070707070707070707070303030707070707070707070701010107070707070707070707070707070707070707070707070707070707070707070707070707070707070707070707070707070707070707070707070707070707070707070707070707070707070707070707070707070707070707
310
07070707070707070707070707070707070707070707070707070707070707070707070707070707070707070707070707070707070707070707070701010107070707070707070707030303070707070707070707070101010707070707070707070707070707070707070707070707070707070707070707070707070707
310
07070707070707070707070707070707070707070707070707070707070707070707070707070707070707070707070707070707070707070707070707070707070707070707070707070707070707070707070707070707070707070707070707070707070707070707070707070707070101010707070707070707070703
310
03030707070707070707070701010107070707070707070707070707070707070707070707070707070707070707070707070707070707070707070707070707070707070707070707070707070707070707070707070707070707070707070707070707070707070707070707070707070707070707070707070707070707
310
07070707070707070707070707070707070707070707070707070707070707070707070707070701010107070707070707070707030303070707070707070707070101010707070707070707070707070707070707070707070707070707070707070707070707070707070707070707070707070707070707070707070707
310
07070707070707070707070707070707070707070707070707070707070707070707070707070707070707070707070707070707070707070707070707070707070707070707070707070707070707070707070707070707070707070101010707070707070707070703030307070707070707070707010101070707070707
310
07070707070707070707070707070707070707070707070707070707070707070707070707070707070707070707070707070707070707070707070707070707070707070707070707070707070707070707070707070707070707070707070707070707070707070707070707070707070707070707070707070707070707
310
07070707070707070707070707070707070701010107070707070707070707030303070707070707070707070101010707070707070707070707070707070707070707070707070707070707070707070707070707070707070707070707070707070707070707070707070707070707070707070707070707070707070707
310
07070707070707070707070707070707070707070707070707070707070707070707070707070707070707070707070707070707070707070707070707070707070707070707070101010707070707070707070703030307070707070707070707010101070707070707070707070707070707070707070707070707070707
310
07070707070707070707070707070707070707070707070707070707070707070707070707070707070707070707070707070707070707070707070707070707070707070707070707070707070707070707070707070707070707070707070707070707070707070707070707070707070707070707070707070707010101
310
07070707070707070707030303070707070707070707070101010707070707070707070707070707070707070707070707070707070707070707070707070707070707070707070707070707070707070707070707070707070707070707070707070707070707070707070707070707070707070707070707070707070707
310
07070707070707070707070707070707070707070707070707070707070707070707070707070707070707070707070707070101010707070707070707070703030307070707070707070707010101070707070707070707070707070707070707070707070707070707070707070707070707070707070707070707070707
310
07070707070707070707070707070707070707070707070707070707070707070707070707070707070707070707070707070707070707070707070707070707070707070707070707070707070707070707070707070707070707070707070707070707070707010101070707070707070707070303030707070707070707
310
07070101010707070707070707070707070707070707070707070707070707070707070707070707070707070707070707070707070707070707070707070707070707070707070707070707070707070707070707070707070707070707070707070707070707070707070707070707070707070707070707070707070707
310
07070707070707070707070707070707070707070707070707070707070101010707070707070707070703030307070707070707070707010101070707070707070707070707070707070707070707070707070707070707070707070707070707070707070707070707070707070707070707070707070707070707070707
310
07070707070707070707070707070707070707070707070707070707070707070707070707070707070707070707070707070707070707070707070707070707070707070707070707070707070707070707010101070707070707070707070303030707070707070707070701010107070707070707070707070707070707
310
07070707070707070707070707070707070707070707070707070707070707070707070707070707070707070707070707070707070707070707070707070707070707070707070707070707070707070707070707070707070707070707070707070707070707070707070707070707070707070707070707070707070707
310
07070707070707070103030303030303030303030303030303030303030303030303030303070707070707070707070707070707070707070707070707070707070707070707070707070707070707070707070707070707070707070707070707070707070707070707070707070707070707070707070707070707070707
310
07070707070707070707070707070707070707070707070707070707070707070707070707070707070707070707070707070707070707070707070707010303030303030303030303030303030303030303030303030303030307070707070707070707070707070707070707070707070707070707070707070707070707
310
07070707070707070707070707070707070707070707070707070707070707070707070707070707070707070707070707070707070707070707070707070707070707070707070707070707070707070707070707070707070707070707070707070707070707070707070707070707070701010107070707070707070707
310
03030307070707070707070707010101070707070707070707070707070707070707070707070707070707070707070707070707070707070707070707070707070707070707070707070707070707070707070707070707070707070707070707070707070707070707070707070707070707070707070707070707070707
310
07070707070707070707070707070707070707070707070707070707070707070707070707070707010101070707070707070707070303030707070707070707070701010107070707070707070707070707070707070707070707070707070707070707070707070707070707070707070707070707070707070707070707
310
07070707070707070707070707070707070707070707070707070707070707070707070707070707070707070707070707070707070707070707070707070707070707070707070707070707070707070707070707070707070707070701010107070707070707070707030303070707070707070707070101010707070707
310
07070707070707070707070707070707070707070707070707070707070707070707070707070707070707070707070707070707070707070707070707070707070707070707070707070707070707070707070707070707070707070707070707070707070707070707070707070707070707070707070707070707070707
310
07070707070707070707070707070707070707010101070707070707070707070303030707070707070707070701010107070707070707070707070707070707070707070707070707070707070707070707070707070707070707070707070707070707070707070707070707070707070707070707070707070707070707
310
07070707070707070707070707070707070707070707070707070707070707070707070707070707070707070707070707070707070707070707070707070707070707070707070701010107070707070707070707030303070707070707070707070101010707070707070707070707070707070707070707070707070707
310
07070707070707070707070707070707070707070707070707070707070707070707070707070707070707070707070707070707070707070707070707070707070707070707070707070707070707070707070707070707070707070707070707070707070707070707070707070707070707070707070707070707070101
310
01070707070707070707070303030707070707070707070701010107070707070707070707070707070707070707070707070707070707070707070707070707070707070707070707070707070707070707070707070707070707070707070707070707070707070707070707070707070707070707070707070707070707
310
07070707070707070707070707070707070707070707070707070707070707070707070707070707070707070707070707070701010107070707070707070707030303070707070707070707070101010707070707070707070707070707070707070707070707070707070707070707070707070707070707070707070707
310
07070707070707070707070707070707070707070707070707070707070707070707070707070707070707070707070707070707070707070707070707070707070707070707070707070707070707070707070707070707070707070707070707070707070707070101010707070707070707070703030307070707070707
310
07070701010107070707070707070707070707070707070707070707070707070707070707070707070707070707070707070707070707070707070707070707070707070707070707070707070707070707070707070707070707070707070707070707070707070707070707070707070707070707070707070707070707
310
07070707070707070707070707070707070707070707070707070707070701010107070707070707070707030303070707070707070707070101010707070707070707070707070707070707070707070707070707070707070707070707070707070707070707070707070707070707070707070707070707070707070707
310
07070707070707070707070707070707070707070707070707070707070707070707070707070707070707070707070707070707070707070707070707070707070707070707070707070707070707070707070101010707070707070707070703030307070707070707070707010101070707070707070707070707070707
310
07070707070707070707070707070707070707070707070707070707070707070707070707070707070707070707070707070707070707070707070707070707070707070707070707070707070707070707070707070707070707070707070707070707070707070707070707070707070707070707070707070707070707
310
07070707070707070701010107070707070707070707030303070707070707070707070101010707070707070707070707070707070707070707070707070707070707070707070707070707070707070707070707070707070707070707070707070707070707070707070707070707070707070707070707070707070707
310
07070707070707070707070707070707070707070707070707070707070707070707070707070707070707070707070707070707070707070707070707070101010707070707070707070703030307070707070707070707010101070707070707070707070707070707070707070707070707070707070707070707070707
310
07070707070707070707070707070707070707070707070707070707070707070707070707070707070707070707070707070707070707070707070707070707070707070707070707070707070707070707070707070707070707070707070707070707070707070707070707070707070707010101070707070707070707
310
07030303070707070707070707070101010707070707070707070707070707070707070707070707070707070707070707070707070707070707070707070707070707070707070707070707070707070707070707070707070707070707070707070707070707070707070707070707070707070707070707070707070707
310
07070707070707070707070707070707070707070707070707070707070707070707070707070707070103030303030303030303030303030303030303030303030303030303070707070707070707070707070707070707070707070707070707070707070707070707070707070707070707070707070707070707070707
310
07070707070707070707070707070707070707070707070707070707070707070707070707070707070707070707070707070707070707070707070707070707070707070707070707070707070707070707070707070707070707070707010303030303030303030303030303030303030303030303030303030307070707
310
07070707070707070707070707070707070707070707070707070707070707070707070707070707070707070707070707070707070707070707070707070707070707070707070707070707070707070707070707070707070707070707070707070707070707070707070707070707070707070707070707070707070707
310
07070707070707070707070707070707070707070101010707070707070707070703030307070707070707070707010101070707070707070707070707070707070707070707070707070707070707070707070707070707070707070707070707070707070707070707070707070707070707070707070707070707070707
310
07070707070707070707070707070707070707070707070707070707070707070707070707070707070707070707070707070707070707070707070707070707070707070707070707010101070707070707070707070303030707070707070707070701010107070707070707070707070707070707070707070707070707
310
07070707070707070707070707070707070707070707070707070707070707070707070707070707070707070707070707070707070707070707070707070707070707070707070707070707070707070707070707070707070707070707070707070707070707070707070707070707070707070707070707070707070701
310
01010707070707070707070703030307070707070707070707010101070707070707070707070707070707070707070707070707070707070707070707070707070707070707070707070707070707070707070707070707070707070707070707070707070707070707070707070707070707070707070707070707070707
310
07070707070707070707070707070707070707070707070707070707070707070707070707070707070707070707070707070707010101070707070707070707070303030707070707070707070701010107070707070707070707070707070707070707070707070707070707070707070707070707070707070707070707
310
07070707070707070707070707070707070707070707070707070707070707070707070707070707070707070707070707070707070707070707070707070707070707070707070707070707070707070707070707070707070707070707070707070707070707070701010107070707070707070707030303070707070707
310
07070707010101070707070707070707070707070707070707070707070707070707070707070707070707070707070707070707070707070707070707070707070707070707070707070707070707070707070707070707070707070707070707070707070707070707070707070707070707070707070707070707070707
310
07070707070707070707070707070707070707070707070707070707070707010101070707070707070707070303030707070707070707070701010107070707070707070707070707070707070707070707070707070707070707070707070707070707070707070707070707070707070707070707070707070707070707
310
07070707070707070707070707070707070707070707070707070707070707070707070707070707070707070707070707070707070707070707070707070707070707070707070707070707070707070707070701010107070707070707070707030303070707070707070707070101010707070707070707070707070707
310
07070707070707070707070707070707070707070707070707070707070707070707070707070707070707070707070707070707070707070707070707070707070707070707070707070707070707070707070707070707070707070707070707070707070707070707070707070707070707070707070707070707070707
310
07070707070707070707010101070707070707070707070303030707070707070707070701010107070707070707070707070707070707070707070707070707070707070707070707070707070707070707070707070707070707070707070707070707070707070707070707070707070707070707070707070707070707
310
07070707070707070707070707070707070707070707070707070707070707070707070707070707070707070707070707070707070707070707070707070701010107070707070707070707030303070707070707070707070101010707070707070707070707070707070707070707070707070707070707070707070707
310
07070707070707070707070707070707070707070707070707070707070707070707070707070707070707070707070707070707070707070707070707070707070707070707070707070707070707070707070707070707070707070707070707070707070707070707070707070707070707070101010707070707070707
310
07070303030707070707070707070701010107070707070707070707070707070707070707070707070707070707070707070707070707070707070707070707070707070707070707070707070707070707070707070707070707070707070707070707070707070707070707070707070707070707070707070707070707
310
07070707070707070707070707070707070707070707070707070707070707070707070707070707070701010107070707070707070707030303070707070707070707070101010707070707070707070707070707070707070707070707070707070707070707070707070707070707070707070707070707070707070707
310
07070707070707070707070707070707070707070707070707070707070707070707070707070707070707070707070707070707070707070707070707070707070707070707070707070707070707070707070707070707070707070707070101010707070707070707070703030307070707070707070707010101070707
310
07070707070707070707070707070707070707070707070707070707070707070707070707070707070707070707070707070707070707070707070707070707070707070707070707070707070707070707070707070707070707070707070707070707070707070707070707070707070707070707070707070707070707
310
07070707070707070707070707070707070707070701010107070707070707070707030303070707070707070707070101010707070707070707070707070707070707070707070707070707070707070707070707070707070707070707070707070707070707070707070707070707070707070707070707070707070707
310
07070707070707070707070707070707070707070707070707070707070707070707070707070707070707070707070707070707070707070707070707070707070707070707070707070103030303030303030303030303030303030303030303030303030303070707070707070707070707070707070707070707070707
310
07070707070707070707070707070707070707070707070707070707070707070707070707070707070707070707070707070707070707070707070707070707070707070707070707070707070707070707070707070707070707070707070707070707070707070707070707070707070707070707070707070707070707
310
01030303030303030303030303030303030303030303030303030303030707070707070707070707070707070707070707070707070707070707070707070707070707070707070707070707070707070707070707070707070707070707070707070707070707070707070707070707070707070707070707070707070707
310
07070707070707070707070707070707070707070707070707070707070707070707070707070707070707070707070707070707070101010707070707070707070703030307070707070707070707010101070707070707070707070707070707070707070707070707070707070707070707070707070707070707070707
310
07070707070707070707070707070707070707070707070707070707070707070707070707070707070707070707070707070707070707070707070707070707070707070707070707070707070707070707070707070707070707070707070707070707070707070707010101070707070707070707070303030707070707
310
07070707070101010707070707070707070707070707070707070707070707070707070707070707070707070707070707070707070707070707070707070707070707070707070707070707070707070707070707070707070707070707070707070707070707070707070707070707070707070707070707070707070707
310
07070707070707070707070707070707070707070707070707070707070707070101010707070707070707070703030307070707070707070707010101070707070707070707070707070707070707070707070707070707070707070707070707070707070707070707070707070707070707070707070707070707070707
310
07070707070707070707070707070707070707070707070707070707070707070707070707070707070707070707070707070707070707070707070707070707070707070707070707070707070707070707070707010101070707070707070707070303030707070707070707070701010107070707070707070707070707
310
07070707070707070707070707070707070707070707070707070707070707070707070707070707070707070707070707070707070707070707070707070707070707070707070707070707070707070707070707070707070707070707070707070707070707070707070707070707070707070707070707070707070707
310
07070707070707070707070101010707070707070707070703030307070707070707070707010101070707070707070707070707070707070707070707070707070707070707070707070707070707070707070707070707070707070707070707070707070707070707070707070707070707070707070707070707070707
310
07070707070707070707070707070707070707070707070707070707070707070707070707070707070707070707070707070707070707070707070707070707010101070707070707070707070303030707070707070707070701010107070707070707070707070707070707070707070707070707070707070707070707
310
07070707070707070707070707070707070707070707070707070707070707070707070707070707070707070707070707070707070707070707070707070707070707070707070707070707070707070707070707070707070707070707070707070707070707070707070707070707070707070701010107070707070707
310
07070703030307070707070707070707010101070707070707070707070707070707070707070707070707070707070707070707070707070707070707070707070707070707070707070707070707070707070707070707070707070707070707070707070707070707070707070707070707070707070707070707070707
310
07070707070707070707070707070707070707070707070707070707070707070707070707070707070707010101070707070707070707070303030707070707070707070701010107070707070707070707070707070707070707070707070707070707070707070707070707070707070707070707070707070707070707
310
07070707070707070707070707070707070707070707070707070707070707070707070707070707070707070707070707070707070707070707070707070707070707070707070707070707070707070707070707070707070707070707070701010107070707070707070707030303070707070707070707070101010707
310
07070707070707070707070707070707070707070707070707070707070707070707070707070707070707070707070707070707070707070707070707070707070707070707070707070707070707070707070707070707070707070707070707070707070707070707070707070707070707070707070707070707070707
310
07070707070707070707070707070707070707070707010101070707070707070707070303030707070707070707070701010107070707070707070707070707070707070707070707070707070707070707070707070707070707070707070707070707070707070707070707070707070707070707070707070707070707
310
07070707070707070707070707070707070707070707070707070707070707070707070707070707070707070707070707070707070707070707070707070707070707070707070707070701010107070707070707070707030303070707070707070707070101010707070707070707070707070707070707070707070707
310
07070707070707070707070707070707070707070707070707070707070707070707070707070707070707070707070707070707070707070707070707070707070707070707070707070707070707070707070707070707070707070707070707070707070707070707070707070707070707070707070707070707070707
310
07010101070707070707070707070303030707070707070707070701010107070707070707070707070707070707070707070707070707070707070707070707070707070707070707070707070707070707070707070707070707070707070707070707070707070707070707070707070707070707070707070707070707
310
07070707070707070707070707070707070707070707070707070707070707070707070707070707070707070707070707070707070701010107070707070707070707030303070707070707070707070101010707070707070707070707070707070707070707070707070707070707070707070707070707070707070707
310
07070707070707070707070707070707070707070707070707070707070707070707070707070707070707070707070707070707070707070707070707070707070707070707070707070707070707070707070707070707070707070707070707070707070707070707070103030303030303030303030303030303030303
310
03030303030303030307070707070707070707070707070707070707070707070707070707070707070707070707070707070707070707070707070707070707070707070707070707070707070707070707070707070707070707070707070707070707070707070707070707070707070707070707070707070707070707
310
07070707070707070707070707070707070707070707070707070707070707070701030303030303030303030303030303030303030303030303030303030707070707070707070707070707070707070707070707070707070707070707070707070707070707070707070707070707070707070707070707070707070707
310
07070707070707070707070707070707070707070707070707070707070707070707070707070707070707070707070707070707070707070707070707070707070707070707070707070707070707070707070707070101010707070707070707070703030307070707070707070707010101070707070707070707070707
310
07070707070707070707070707070707070707070707070707070707070707070707070707070707070707070707070707070707070707070707070707070707070707070707070707070707070707070707070707070707070707070707070707070707070707070707070707070707070707070707070707070707070707
310
07070707070707070707070701010107070707070707070707030303070707070707070707070101010707070707070707070707070707070707070707070707070707070707070707070707070707070707070707070707070707070707070707070707070707070707070707070707070707070707070707070707070707
310
07070707070707070707070707070707070707070707070707070707070707070707070707070707070707070707070707070707070707070707070707070707070101010707070707070707070703030307070707070707070707010101070707070707070707070707070707070707070707070707070707070707070707
310
07070707070707070707070707070707070707070707070707070707070707070707070707070707070707070707070707070707070707070707070707070707070707070707070707070707070707070707070707070707070707070707070707070707070707070707070707070707070707070707010101070707070707
310
07070707030303070707070707070707070101010707070707070707070707070707070707070707070707070707070707070707070707070707070707070707070707070707070707070707070707070707070707070707070707070707070707070707070707070707070707070707070707070707070707070707070707
310
07070707070707070707070707070707070707070707070707070707070707070707070707070707070707070101010707070707070707070703030307070707070707070707010101070707070707070707070707070707070707070707070707070707070707070707070707070707070707070707070707070707070707
310
07070707070707070707070707070707070707070707070707070707070707070707070707070707070707070707070707070707070707070707070707070707070707070707070707070707070707070707070707070707070707070707070707010101070707070707070707070303030707070707070707070701010107
310
07070707070707070707070707070707070707070707070707070707070707070707070707070707070707070707070707070707070707070707070707070707070707070707070707070707070707070707070707070707070707070707070707070707070707070707070707070707070707070707070707070707070707
310
07070707070707070707070707070707070707070707070101010707070707070707070703030307070707070707070707010101070707070707070707070707070707070707070707070707070707070707070707070707070707070707070707070707070707070707070707070707070707070707070707070707070707
310
07070707070707070707070707070707070707070707070707070707070707070707070707070707070707070707070707070707070707070707070707070707070707070707070707070707010101070707070707070707070303030707070707070707070701010107070707070707070707070707070707070707070707
310
07070707070707070707070707070707070707070707070707070707070707070707070707070707070707070707070707070707070707070707070707070707070707070707070707070707070707070707070707070707070707070707070707070707070707070707070707070707070707070707070707070707070707
310
07070101010707070707070707070703030307070707070707070707010101070707070707070707070707070707070707070707070707070707070707070707070707070707070707070707070707070707070707070707070707070707070707070707070707070707070707070707070707070707070707070707070707
310
07070707070707070707070707070707070707070707070707070707070707070707070707070707070707070707070707070707070707010101070707070707070707070303030707070707070707070701010107070707070707070707070707070707070707070707070707070707070707070707070707070707070707
310
07070707070707070707070707070707070707070707070707070707070707070707070707070707070707070707070707070707070707070707070707070707070707070707070707070707070707070707070707070707070707070707070707070707070707070707070701010107070707070707070707030303070707
310
07070707070707010101070707070707070707070707070707070707070707070707070707070707070707070707070707070707070707070707070707070707070707070707070707070707070707070707070707070707070707070707070707070707070707070707070707070707070707070707070707070707070707
310
07070707070707070707070707070707070707070707070707070707070707070707010101070707070707070707070303030707070707070707070701010107070707070707070707070707070707070707070707070707070707070707070707070707070707070707070707070707070707070707070707070707070707
310
07070707070707070707070707070707070707070707070707070707070707070707070707070707070707070707070707070707070707070707070707070707070707070707070707070707070707070707070707070701090907070707070707070707030303070707070707070707070109090707070707070707070707
310
07070707070707070707070707070707070707070707070707070707070707070707070707070707070707070707070707070707070707070707070707070707070707070707070707070707070707070707070707070707070707070707070707070707070707070707070707070707070707070707070707070707070707
310
07070707070707070707070707080909080707070707070707070503030507070707070707070808090907070707070707070707070707070707070707070707070707070707070707070707070707070707070707070707070707070707070707070707070707070707070707070707070707070707070707070707070707
310
07070707070707070707070707070707070707070707070707070707070707070707070707070707070707070707070707070707070707070707070707070707070709080908020202020202020202020202020202020202020202080908090707070707070707070707070707070707070707070707070707070707070707
310
07070707070707070707070707070707070707070707070707070707070707070707070707070707070707070707070707070707070707070707070707070707070707070707070707070707070707070707070707070707070707070707070707070707070707070707070707070707070707070707070808080802020202
310
02020202020202020202020202020202020808080807070707070707070707070707070707070707070707070707070707070707070707070707070707070707070707070707070707070707070707070707070707070707070707070707070707070707070707070707070707070707070707070707070707070707070707
310
07070707070707070707070707070707070707070707070707070707070707070707070707070707070707070707080808020202020202020202020202020202020202020202020808080707070707070707070707070707070707070707070707070707070707070707070707070707070707070707070707070707070707
310
07070707070707070707070707070707070707070707070707070707070707070707070707070707070707070707070707070707070707070707070707070707070707070707070707070707070707070707070707070707070707070707070707070707020207070707070707070707070707070707070707070707020207
310
07070707070707070707070707070707070707070707070707070707070707070707070707070707070707070707070707070707070707070707070707070707070707070707070707070707000000000000000000000000000000000000000000000000000000000000000000000000000000000000000000000000000000
310
00000000000000000000000000000000000000000000000000000000000000000000000000000000000000000000000000000000000000000000000000000000000000000000000000000000000000000000000000000000000000000000000000000000000000000000000000000000000000000000000000000000000000
310
0406
  0
ENDSEC
  0
EOF
