  0
SECTION
  2
HEADER
  9
$ACADVER
  1
AC1015
  9
$ACADMAINTVER
 70
     6
  9
$DWGCODEPAGE
  3
ANSI_1252
  9
$INSBASE
 10
0.0
 20
0.0
 30
0.0
  9
$EXTMIN
 10
3161.249
 20
167.776
 30
0.0
  9
$EXTMAX
 10
4661.25
 20
2071.741
 30
0.0
  9
$LIMMIN
 10
-936.465723
 20
-3727.956723
  9
$LIMMAX
 10
8758.964723
 20
5967.473723
  9
$ORTHOMODE
 70
     0
  9
$REGENMODE
 70
     1
  9
$FILLMODE
 70
     1
  9
$QTEXTMODE
 70
     0
  9
$MIRRTEXT
 70
     1
  9
$LTSCALE
 40
1.0
  9
$ATTMODE
 70
     1
  9
$TEXTSIZE
 40
100.0
  9
$TRACEWID
 40
0.05
  9
$TEXTSTYLE
  7
Standard
  9
$CLAYER
  8
Level 8
  9
$CELTYPE
  6
Continuous
  9
$CECOLOR
 62
    98
  9
$CELTSCALE
 40
1.0
  9
$DISPSILH
 70
     0
  9
$DIMSCALE
 40
1.0
  9
$DIMASZ
 40
100.0
  9
$DIMEXO
 40
50.0
  9
$DIMDLI
 40
0.0
  9
$DIMRND
 40
0.0
  9
$DIMDLE
 40
0.0
  9
$DIMEXE
 40
50.0
  9
$DIMTP
 40
0.0
  9
$DIMTM
 40
0.0
  9
$DIMTXT
 40
100.0
  9
$DIMCEN
 40
0.09
  9
$DIMTSZ
 40
0.0
  9
$DIMTOL
 70
     0
  9
$DIMLIM
 70
     0
  9
$DIMTIH
 70
     0
  9
$DIMTOH
 70
     0
  9
$DIMSE1
 70
     0
  9
$DIMSE2
 70
     0
  9
$DIMTAD
 70
     1
  9
$DIMZIN
 70
    11
  9
$DIMBLK
  1
TerminatorOpen_0.5
  9
$DIMASO
 70
     1
  9
$DIMSHO
 70
     1
  9
$DIMPOST
  1

  9
$DIMAPOST
  1

  9
$DIMALT
 70
     0
  9
$DIMALTD
 70
     4
  9
$DIMALTF
 40
25.4
  9
$DIMLFAC
 40
1.0
  9
$DIMTOFL
 70
     0
  9
$DIMTVP
 40
0.0
  9
$DIMTIX
 70
     0
  9
$DIMSOXD
 70
     0
  9
$DIMSAH
 70
     0
  9
$DIMBLK1
  1

  9
$DIMBLK2
  1

  9
$DIMSTYLE
  2
Standard
  9
$DIMCLRD
 70
     0
  9
$DIMCLRE
 70
     0
  9
$DIMCLRT
 70
     0
  9
$DIMTFAC
 40
1.0
  9
$DIMGAP
 40
50.0
  9
$DIMJUST
 70
     0
  9
$DIMSD1
 70
     0
  9
$DIMSD2
 70
     0
  9
$DIMTOLJ
 70
     0
  9
$DIMTZIN
 70
    11
  9
$DIMALTZ
 70
    15
  9
$DIMALTTZ
 70
    15
  9
$DIMUPT
 70
     0
  9
$DIMDEC
 70
     0
  9
$DIMTDEC
 70
     0
  9
$DIMALTU
 70
     2
  9
$DIMALTTD
 70
     4
  9
$DIMTXSTY
  7
Style-ENGINEERING
  9
$DIMAUNIT
 70
     0
  9
$DIMADEC
 70
     0
  9
$DIMALTRND
 40
0.0
  9
$DIMAZIN
 70
     3
  9
$DIMDSEP
 70
    46
  9
$DIMATFIT
 70
     3
  9
$DIMFRAC
 70
     2
  9
$DIMLDRBLK
  1
TerminatorOpen_0.5
  9
$DIMLUNIT
 70
     2
  9
$DIMLWD
 70
    -2
  9
$DIMLWE
 70
    -2
  9
$DIMTMOVE
 70
     0
  9
$LUNITS
 70
     2
  9
$LUPREC
 70
     0
  9
$SKETCHINC
 40
0.1
  9
$FILLETRAD
 40
0.5
  9
$AUNITS
 70
     0
  9
$AUPREC
 70
     0
  9
$MENU
  1
.
  9
$ELEVATION
 40
0.0
  9
$PELEVATION
 40
0.0
  9
$THICKNESS
 40
0.0
  9
$LIMCHECK
 70
     0
  9
$CHAMFERA
 40
0.5
  9
$CHAMFERB
 40
0.5
  9
$CHAMFERC
 40
1.0
  9
$CHAMFERD
 40
0.0
  9
$SKPOLY
 70
     0
  9
$TDCREATE
 40
2451789.870802037
  9
$TDUCREATE
 40
2451789.537468704
  9
$TDUPDATE
 40
2451789.87089463
  9
$TDUUPDATE
 40
2451789.537561297
  9
$TDINDWG
 40
0.0000927662
  9
$TDUSRTIMER
 40
0.0000925926
  9
$USRTIMER
 70
     1
  9
$ANGBASE
 50
0.0
  9
$ANGDIR
 70
     0
  9
$PDMODE
 70
     0
  9
$PDSIZE
 40
0.0
  9
$PLINEWID
 40
0.0
  9
$SPLFRAME
 70
     0
  9
$SPLINETYPE
 70
     6
  9
$SPLINESEGS
 70
     8
  9
$HANDSEED
  5
7AC2C
  9
$SURFTAB1
 70
     6
  9
$SURFTAB2
 70
     6
  9
$SURFTYPE
 70
     6
  9
$SURFU
 70
     6
  9
$SURFV
 70
     6
  9
$UCSBASE
  2

  9
$UCSNAME
  2

  9
$UCSORG
 10
0.0
 20
0.0
 30
0.0
  9
$UCSXDIR
 10
1.0
 20
0.0
 30
0.0
  9
$UCSYDIR
 10
0.0
 20
1.0
 30
0.0
  9
$UCSORTHOREF
  2

  9
$UCSORTHOVIEW
 70
     0
  9
$UCSORGTOP
 10
0.0
 20
0.0
 30
0.0
  9
$UCSORGBOTTOM
 10
0.0
 20
0.0
 30
0.0
  9
$UCSORGLEFT
 10
0.0
 20
0.0
 30
0.0
  9
$UCSORGRIGHT
 10
0.0
 20
0.0
 30
0.0
  9
$UCSORGFRONT
 10
0.0
 20
0.0
 30
0.0
  9
$UCSORGBACK
 10
0.0
 20
0.0
 30
0.0
  9
$PUCSBASE
  2

  9
$PUCSNAME
  2

  9
$PUCSORG
 10
0.0
 20
0.0
 30
0.0
  9
$PUCSXDIR
 10
1.0
 20
0.0
 30
0.0
  9
$PUCSYDIR
 10
0.0
 20
1.0
 30
0.0
  9
$PUCSORTHOREF
  2

  9
$PUCSORTHOVIEW
 70
     0
  9
$PUCSORGTOP
 10
0.0
 20
0.0
 30
0.0
  9
$PUCSORGBOTTOM
 10
0.0
 20
0.0
 30
0.0
  9
$PUCSORGLEFT
 10
0.0
 20
0.0
 30
0.0
  9
$PUCSORGRIGHT
 10
0.0
 20
0.0
 30
0.0
  9
$PUCSORGFRONT
 10
0.0
 20
0.0
 30
0.0
  9
$PUCSORGBACK
 10
0.0
 20
0.0
 30
0.0
  9
$USERI1
 70
     0
  9
$USERI2
 70
     0
  9
$USERI3
 70
     0
  9
$USERI4
 70
     0
  9
$USERI5
 70
     0
  9
$USERR1
 40
0.0
  9
$USERR2
 40
0.0
  9
$USERR3
 40
0.0
  9
$USERR4
 40
0.0
  9
$USERR5
 40
0.0
  9
$WORLDVIEW
 70
     1
  9
$SHADEDGE
 70
     3
  9
$SHADEDIF
 70
    70
  9
$TILEMODE
 70
     1
  9
$MAXACTVP
 70
    64
  9
$PINSBASE
 10
0.0
 20
0.0
 30
0.0
  9
$PLIMCHECK
 70
     0
  9
$PEXTMIN
 10
1.000000E+20
 20
1.000000E+20
 30
1.000000E+20
  9
$PEXTMAX
 10
-1.000000E+20
 20
-1.000000E+20
 30
-1.000000E+20
  9
$PLIMMIN
 10
0.0
 20
0.0
  9
$PLIMMAX
 10
12.0
 20
9.0
  9
$UNITMODE
 70
     0
  9
$VISRETAIN
 70
     1
  9
$PLINEGEN
 70
     0
  9
$PSLTSCALE
 70
     0
  9
$TREEDEPTH
 70
  3020
  9
$CMLSTYLE
  2
Standard
  9
$CMLJUST
 70
     0
  9
$CMLSCALE
 40
1.0
  9
$PROXYGRAPHICS
 70
     1
  9
$MEASUREMENT
 70
     0
  9
$CELWEIGHT
370
     0
  9
$ENDCAPS
280
     0
  9
$JOINSTYLE
280
     0
  9
$LWDISPLAY
290
     1
  9
$INSUNITS
 70
     4
  9
$HYPERLINKBASE
  1

  9
$STYLESHEET
  1

  9
$XEDIT
290
     1
  9
$CEPSNTYPE
380
     0
  9
$PSTYLEMODE
290
     1
  9
$FINGERPRINTGUID
  2
{FDEAD576-A652-11D2-9A35-0060089B3A3F}
  9
$VERSIONGUID
  2
{A257D680-BC79-11D2-9A46-0060089B3A3F}
  9
$EXTNAMES
290
     1
  9
$PSVPSCALE
 40
0.0
  9
$OLESTARTUP
290
     0
  0
ENDSEC
  0
SECTION
  2
CLASSES
  0
CLASS
  1
ACDBDICTIONARYWDFLT
  2
AcDbDictionaryWithDefault
  3
ObjectDBX Classes
 90
        0
280
     0
281
     0
  0
CLASS
  1
ACDBPLACEHOLDER
  2
AcDbPlaceHolder
  3
ObjectDBX Classes
 90
        0
280
     0
281
     0
  0
CLASS
  1
LAYOUT
  2
AcDbLayout
  3
ObjectDBX Classes
 90
        0
280
     0
281
     0
  0
ENDSEC
  0
SECTION
  2
TABLES
  0
TABLE
  2
VPORT
  5
7AB16
330
0
100
AcDbSymbolTable
 70
     3
  0
VPORT
  5
4B
330
7AB16
100
AcDbSymbolTableRecord
100
AcDbViewportTableRecord
  2
*ACTIVE
 70
     0
 10
0.0
 20
0.0
 11
1.0
 21
1.0
 12
4456.498548
 22
220.030042
 13
0.0
 23
0.0
 14
1.0
 24
1.0
 15
1.0
 25
1.0
 16
0.0
 26
0.0
 36
1.0
 17
0.0
 27
0.0
 37
0.0
 40
2183.540975
 41
2.064189
 42
50.0
 43
0.0
 44
0.0
 50
0.0
 51
0.0
 71
     0
 72
   100
 73
     1
 74
     2
 75
     0
 76
     0
 77
     0
 78
     1
281
     0
 65
     1
110
0.0
120
0.0
130
0.0
111
1.0
121
0.0
131
0.0
112
0.0
122
1.0
132
0.0
 79
     0
146
0.0
  0
ENDTAB
  0
TABLE
  2
LTYPE
  5
7AB12
330
0
100
AcDbSymbolTable
 70
     2
  0
LTYPE
  5
7AB13
330
7AB12
100
AcDbSymbolTableRecord
100
AcDbLinetypeTableRecord
  2
ByBlock
 70
     0
  3

 72
    65
 73
     0
 40
0.0
  0
LTYPE
  5
7AB04
330
7AB12
100
AcDbSymbolTableRecord
100
AcDbLinetypeTableRecord
  2
ByLayer
 70
     0
  3

 72
    65
 73
     0
 40
0.0
  0
LTYPE
  5
7AB02
330
7AB12
100
AcDbSymbolTableRecord
100
AcDbLinetypeTableRecord
  2
Continuous
 70
     0
  3
Solid line
 72
    65
 73
     0
 40
0.0
  0
LTYPE
  5
4E1B6
330
7AB12
100
AcDbSymbolTableRecord
100
AcDbLinetypeTableRecord
  2
Continuous_1
 70
     0
  3

 72
    65
 73
     0
 40
0.0
  0
ENDTAB
  0
TABLE
  2
LAYER
  5
7AB10
102
{ACAD_XDICTIONARY
360
7AB21
102
}
330
0
100
AcDbSymbolTable
 70
    65
  0
LAYER
  5
7AB00
330
7AB10
100
AcDbSymbolTableRecord
100
AcDbLayerTableRecord
  2
0
 70
     0
 62
     7
  6
Continuous
370
    -3
390
7AB01
  0
LAYER
  5
7
330
7AB10
100
AcDbSymbolTableRecord
100
AcDbLayerTableRecord
  2
Level 1
 70
     0
 62
     7
  6
Continuous
370
     0
390
7AB01
  0
LAYER
  5
8
330
7AB10
100
AcDbSymbolTableRecord
100
AcDbLayerTableRecord
  2
Level 2
 70
     0
 62
     7
  6
Continuous
370
     0
390
7AB01
  0
LAYER
  5
9
330
7AB10
100
AcDbSymbolTableRecord
100
AcDbLayerTableRecord
  2
Level 3
 70
     0
 62
     7
  6
Continuous
370
     0
390
7AB01
  0
LAYER
  5
A
330
7AB10
100
AcDbSymbolTableRecord
100
AcDbLayerTableRecord
  2
Level 4
 70
     0
 62
     7
  6
Continuous
370
     0
390
7AB01
  0
LAYER
  5
B
330
7AB10
100
AcDbSymbolTableRecord
100
AcDbLayerTableRecord
  2
Level 5
 70
     0
 62
     7
  6
Continuous
370
     0
390
7AB01
  0
LAYER
  5
C
330
7AB10
100
AcDbSymbolTableRecord
100
AcDbLayerTableRecord
  2
Level 6
 70
     0
 62
     7
  6
Continuous
370
     0
390
7AB01
  0
LAYER
  5
D
330
7AB10
100
AcDbSymbolTableRecord
100
AcDbLayerTableRecord
  2
Level 7
 70
     0
 62
     7
  6
Continuous
370
     0
390
7AB01
  0
LAYER
  5
E
330
7AB10
100
AcDbSymbolTableRecord
100
AcDbLayerTableRecord
  2
Level 8
 70
     0
 62
     7
  6
Continuous
370
     0
390
7AB01
  0
LAYER
  5
F
330
7AB10
100
AcDbSymbolTableRecord
100
AcDbLayerTableRecord
  2
Level 9
 70
     0
 62
     7
  6
Continuous
370
     0
390
7AB01
  0
LAYER
  5
10
330
7AB10
100
AcDbSymbolTableRecord
100
AcDbLayerTableRecord
  2
Level 10
 70
     0
 62
     7
  6
Continuous
370
     0
390
7AB01
  0
LAYER
  5
11
330
7AB10
100
AcDbSymbolTableRecord
100
AcDbLayerTableRecord
  2
Level 11
 70
     0
 62
     7
  6
Continuous
370
     0
390
7AB01
  0
LAYER
  5
12
330
7AB10
100
AcDbSymbolTableRecord
100
AcDbLayerTableRecord
  2
Level 12
 70
     0
 62
     7
  6
Continuous
370
     0
390
7AB01
  0
LAYER
  5
13
330
7AB10
100
AcDbSymbolTableRecord
100
AcDbLayerTableRecord
  2
Level 13
 70
     0
 62
     7
  6
Continuous
370
     0
390
7AB01
  0
LAYER
  5
14
330
7AB10
100
AcDbSymbolTableRecord
100
AcDbLayerTableRecord
  2
Level 14
 70
     0
 62
     7
  6
Continuous
370
     0
390
7AB01
  0
LAYER
  5
15
330
7AB10
100
AcDbSymbolTableRecord
100
AcDbLayerTableRecord
  2
Level 15
 70
     0
 62
     7
  6
Continuous
370
     0
390
7AB01
  0
LAYER
  5
16
330
7AB10
100
AcDbSymbolTableRecord
100
AcDbLayerTableRecord
  2
Level 16
 70
     0
 62
     7
  6
Continuous
370
     0
390
7AB01
  0
LAYER
  5
17
330
7AB10
100
AcDbSymbolTableRecord
100
AcDbLayerTableRecord
  2
Level 17
 70
     0
 62
     7
  6
Continuous
370
     0
390
7AB01
  0
LAYER
  5
18
330
7AB10
100
AcDbSymbolTableRecord
100
AcDbLayerTableRecord
  2
Level 18
 70
     0
 62
     7
  6
Continuous
370
     0
390
7AB01
  0
LAYER
  5
19
330
7AB10
100
AcDbSymbolTableRecord
100
AcDbLayerTableRecord
  2
Level 19
 70
     0
 62
     7
  6
Continuous
370
     0
390
7AB01
  0
LAYER
  5
1A
330
7AB10
100
AcDbSymbolTableRecord
100
AcDbLayerTableRecord
  2
Level 20
 70
     0
 62
     7
  6
Continuous
370
     0
390
7AB01
  0
LAYER
  5
1B
330
7AB10
100
AcDbSymbolTableRecord
100
AcDbLayerTableRecord
  2
Level 21
 70
     0
 62
     7
  6
Continuous
370
     0
390
7AB01
  0
LAYER
  5
1C
330
7AB10
100
AcDbSymbolTableRecord
100
AcDbLayerTableRecord
  2
Level 22
 70
     0
 62
     7
  6
Continuous
370
     0
390
7AB01
  0
LAYER
  5
1D
330
7AB10
100
AcDbSymbolTableRecord
100
AcDbLayerTableRecord
  2
Level 23
 70
     0
 62
     7
  6
Continuous
370
     0
390
7AB01
  0
LAYER
  5
1E
330
7AB10
100
AcDbSymbolTableRecord
100
AcDbLayerTableRecord
  2
Level 24
 70
     0
 62
     7
  6
Continuous
370
     0
390
7AB01
  0
LAYER
  5
1F
330
7AB10
100
AcDbSymbolTableRecord
100
AcDbLayerTableRecord
  2
Level 25
 70
     0
 62
     7
  6
Continuous
370
     0
390
7AB01
  0
LAYER
  5
20
330
7AB10
100
AcDbSymbolTableRecord
100
AcDbLayerTableRecord
  2
Level 26
 70
     0
 62
     7
  6
Continuous
370
     0
390
7AB01
  0
LAYER
  5
21
330
7AB10
100
AcDbSymbolTableRecord
100
AcDbLayerTableRecord
  2
Level 27
 70
     0
 62
     7
  6
Continuous
370
     0
390
7AB01
  0
LAYER
  5
22
330
7AB10
100
AcDbSymbolTableRecord
100
AcDbLayerTableRecord
  2
Level 28
 70
     0
 62
     7
  6
Continuous
370
     0
390
7AB01
  0
LAYER
  5
23
330
7AB10
100
AcDbSymbolTableRecord
100
AcDbLayerTableRecord
  2
Level 29
 70
     0
 62
     7
  6
Continuous
370
     0
390
7AB01
  0
LAYER
  5
24
330
7AB10
100
AcDbSymbolTableRecord
100
AcDbLayerTableRecord
  2
Level 30
 70
     0
 62
     7
  6
Continuous
370
     0
390
7AB01
  0
LAYER
  5
25
330
7AB10
100
AcDbSymbolTableRecord
100
AcDbLayerTableRecord
  2
Level 31
 70
     0
 62
     7
  6
Continuous
370
     0
390
7AB01
  0
LAYER
  5
26
330
7AB10
100
AcDbSymbolTableRecord
100
AcDbLayerTableRecord
  2
Level 32
 70
     0
 62
     7
  6
Continuous
370
     0
390
7AB01
  0
LAYER
  5
27
330
7AB10
100
AcDbSymbolTableRecord
100
AcDbLayerTableRecord
  2
Level 33
 70
     0
 62
     7
  6
Continuous
370
     0
390
7AB01
  0
LAYER
  5
28
330
7AB10
100
AcDbSymbolTableRecord
100
AcDbLayerTableRecord
  2
Level 34
 70
     0
 62
     7
  6
Continuous
370
     0
390
7AB01
  0
LAYER
  5
29
330
7AB10
100
AcDbSymbolTableRecord
100
AcDbLayerTableRecord
  2
Level 35
 70
     0
 62
     7
  6
Continuous
370
     0
390
7AB01
  0
LAYER
  5
2A
330
7AB10
100
AcDbSymbolTableRecord
100
AcDbLayerTableRecord
  2
Level 36
 70
     0
 62
     7
  6
Continuous
370
     0
390
7AB01
  0
LAYER
  5
2B
330
7AB10
100
AcDbSymbolTableRecord
100
AcDbLayerTableRecord
  2
Level 37
 70
     0
 62
     7
  6
Continuous
370
     0
390
7AB01
  0
LAYER
  5
2C
330
7AB10
100
AcDbSymbolTableRecord
100
AcDbLayerTableRecord
  2
Level 38
 70
     0
 62
     7
  6
Continuous
370
     0
390
7AB01
  0
LAYER
  5
2D
330
7AB10
100
AcDbSymbolTableRecord
100
AcDbLayerTableRecord
  2
Level 39
 70
     0
 62
     7
  6
Continuous
370
     0
390
7AB01
  0
LAYER
  5
2E
330
7AB10
100
AcDbSymbolTableRecord
100
AcDbLayerTableRecord
  2
Level 40
 70
     0
 62
     7
  6
Continuous
370
     0
390
7AB01
  0
LAYER
  5
2F
330
7AB10
100
AcDbSymbolTableRecord
100
AcDbLayerTableRecord
  2
Level 41
 70
     0
 62
     7
  6
Continuous
370
     0
390
7AB01
  0
LAYER
  5
30
330
7AB10
100
AcDbSymbolTableRecord
100
AcDbLayerTableRecord
  2
Level 42
 70
     0
 62
     7
  6
Continuous
370
     0
390
7AB01
  0
LAYER
  5
31
330
7AB10
100
AcDbSymbolTableRecord
100
AcDbLayerTableRecord
  2
Level 43
 70
     0
 62
     7
  6
Continuous
370
     0
390
7AB01
  0
LAYER
  5
32
330
7AB10
100
AcDbSymbolTableRecord
100
AcDbLayerTableRecord
  2
Level 44
 70
     0
 62
     7
  6
Continuous
370
     0
390
7AB01
  0
LAYER
  5
33
330
7AB10
100
AcDbSymbolTableRecord
100
AcDbLayerTableRecord
  2
Level 45
 70
     0
 62
     7
  6
Continuous
370
     0
390
7AB01
  0
LAYER
  5
34
330
7AB10
100
AcDbSymbolTableRecord
100
AcDbLayerTableRecord
  2
Level 46
 70
     0
 62
     7
  6
Continuous
370
     0
390
7AB01
  0
LAYER
  5
35
330
7AB10
100
AcDbSymbolTableRecord
100
AcDbLayerTableRecord
  2
Level 47
 70
     0
 62
     7
  6
Continuous
370
     0
390
7AB01
  0
LAYER
  5
36
330
7AB10
100
AcDbSymbolTableRecord
100
AcDbLayerTableRecord
  2
Level 48
 70
     0
 62
     7
  6
Continuous
370
     0
390
7AB01
  0
LAYER
  5
37
330
7AB10
100
AcDbSymbolTableRecord
100
AcDbLayerTableRecord
  2
Level 49
 70
     0
 62
     7
  6
Continuous
370
     0
390
7AB01
  0
LAYER
  5
38
330
7AB10
100
AcDbSymbolTableRecord
100
AcDbLayerTableRecord
  2
Level 50
 70
     0
 62
     7
  6
Continuous
370
     0
390
7AB01
  0
LAYER
  5
39
330
7AB10
100
AcDbSymbolTableRecord
100
AcDbLayerTableRecord
  2
Level 51
 70
     0
 62
     7
  6
Continuous
370
     0
390
7AB01
  0
LAYER
  5
3A
330
7AB10
100
AcDbSymbolTableRecord
100
AcDbLayerTableRecord
  2
Level 52
 70
     0
 62
     7
  6
Continuous
370
     0
390
7AB01
  0
LAYER
  5
3B
330
7AB10
100
AcDbSymbolTableRecord
100
AcDbLayerTableRecord
  2
Level 53
 70
     0
 62
     7
  6
Continuous
370
     0
390
7AB01
  0
LAYER
  5
3C
330
7AB10
100
AcDbSymbolTableRecord
100
AcDbLayerTableRecord
  2
Level 54
 70
     0
 62
     7
  6
Continuous
370
     0
390
7AB01
  0
LAYER
  5
3D
330
7AB10
100
AcDbSymbolTableRecord
100
AcDbLayerTableRecord
  2
Level 55
 70
     0
 62
     7
  6
Continuous
370
     0
390
7AB01
  0
LAYER
  5
3E
330
7AB10
100
AcDbSymbolTableRecord
100
AcDbLayerTableRecord
  2
Level 56
 70
     0
 62
     7
  6
Continuous
370
     0
390
7AB01
  0
LAYER
  5
3F
330
7AB10
100
AcDbSymbolTableRecord
100
AcDbLayerTableRecord
  2
Level 57
 70
     0
 62
     7
  6
Continuous
370
     0
390
7AB01
  0
LAYER
  5
40
330
7AB10
100
AcDbSymbolTableRecord
100
AcDbLayerTableRecord
  2
Level 58
 70
     0
 62
     7
  6
Continuous
370
     0
390
7AB01
  0
LAYER
  5
41
330
7AB10
100
AcDbSymbolTableRecord
100
AcDbLayerTableRecord
  2
Level 59
 70
     0
 62
     7
  6
Continuous
370
     0
390
7AB01
  0
LAYER
  5
42
330
7AB10
100
AcDbSymbolTableRecord
100
AcDbLayerTableRecord
  2
Level 60
 70
     0
 62
     7
  6
Continuous
370
     0
390
7AB01
  0
LAYER
  5
43
330
7AB10
100
AcDbSymbolTableRecord
100
AcDbLayerTableRecord
  2
Level 61
 70
     0
 62
     7
  6
Continuous
370
     0
390
7AB01
  0
LAYER
  5
44
330
7AB10
100
AcDbSymbolTableRecord
100
AcDbLayerTableRecord
  2
Level 62
 70
     0
 62
     7
  6
Continuous
370
     0
390
7AB01
  0
LAYER
  5
45
330
7AB10
100
AcDbSymbolTableRecord
100
AcDbLayerTableRecord
  2
Level 63
 70
     0
 62
     7
  6
Continuous
370
     0
390
7AB01
  0
LAYER
  5
50CA0
330
7AB10
100
AcDbSymbolTableRecord
100
AcDbLayerTableRecord
  2
25
 70
     0
 62
     7
  6
Continuous
370
     0
390
7AB01
  0
ENDTAB
  0
TABLE
  2
STYLE
  5
7AB11
330
0
100
AcDbSymbolTable
 70
     2
  0
STYLE
  5
7AB03
330
7AB11
100
AcDbSymbolTableRecord
100
AcDbTextStyleTableRecord
  2
Standard
 70
     0
 40
0.0
 41
1.0
 50
0.0
 71
     0
 42
100.0
  3
txt
  4

  0
STYLE
  5
7AB27
330
7AB11
100
AcDbSymbolTableRecord
100
AcDbTextStyleTableRecord
  2
Style-ENGINEERING
 70
     0
 40
0.0
 41
1.0
 50
0.0
 71
     0
 42
0.2
  3
ENGINEERING.shx
  4

  0
ENDTAB
  0
TABLE
  2
VIEW
  5
7AB14
330
0
100
AcDbSymbolTable
 70
     0
  0
ENDTAB
  0
TABLE
  2
UCS
  5
7AB15
330
0
100
AcDbSymbolTable
 70
     0
  0
ENDTAB
  0
TABLE
  2
APPID
  5
7AB17
330
0
100
AcDbSymbolTable
 70
     1
  0
APPID
  5
7AB1F
330
7AB17
100
AcDbSymbolTableRecord
100
AcDbRegAppTableRecord
  2
ACAD
 70
     0
  0
ENDTAB
  0
TABLE
  2
DIMSTYLE
  5
7AB18
330
0
100
AcDbSymbolTable
 70
     1
100
AcDbDimStyleTable
  0
DIMSTYLE
105
7AB05
330
7AB18
100
AcDbSymbolTableRecord
100
AcDbDimStyleTableRecord
  2
Standard
 70
     0
340
7AB03
  0
ENDTAB
  0
TABLE
  2
BLOCK_RECORD
  5
7AB07
330
0
100
AcDbSymbolTable
 70
    67
  0
BLOCK_RECORD
  5
7AB08
330
7AB07
100
AcDbSymbolTableRecord
100
AcDbBlockTableRecord
  2
*Model_Space
340
7AB0B
  0
BLOCK_RECORD
  5
7AB0C
330
7AB07
100
AcDbSymbolTableRecord
100
AcDbBlockTableRecord
  2
*Paper_Space
340
7AB0F
  0
BLOCK_RECORD
  5
7AAC4
330
7AB07
100
AcDbSymbolTableRecord
100
AcDbBlockTableRecord
  2
*U0
340
0
  0
BLOCK_RECORD
  5
7AACA
330
7AB07
100
AcDbSymbolTableRecord
100
AcDbBlockTableRecord
  2
*U1
340
0
  0
BLOCK_RECORD
  5
7AB28
330
7AB07
100
AcDbSymbolTableRecord
100
AcDbBlockTableRecord
  2
TerminatorOpen_0.5
340
0
  0
BLOCK_RECORD
  5
7AB2F
330
7AB07
100
AcDbSymbolTableRecord
100
AcDbBlockTableRecord
  2
From Solid
340
0
102
{BLKREFS
331
7AAD0
331
7AAD1
331
7AAD2
331
7AAD3
331
7AAFE
102
}
  0
BLOCK_RECORD
  5
7AB32
330
7AB07
100
AcDbSymbolTableRecord
100
AcDbBlockTableRecord
  2
From Solid_1
340
0
102
{BLKREFS
331
7AAD4
102
}
  0
BLOCK_RECORD
  5
7AB35
330
7AB07
100
AcDbSymbolTableRecord
100
AcDbBlockTableRecord
  2
From Solid_2
340
0
102
{BLKREFS
331
7AAD5
102
}
  0
BLOCK_RECORD
  5
7AB38
330
7AB07
100
AcDbSymbolTableRecord
100
AcDbBlockTableRecord
  2
From Solid_3
340
0
102
{BLKREFS
331
7AAD6
102
}
  0
BLOCK_RECORD
  5
7AB3B
330
7AB07
100
AcDbSymbolTableRecord
100
AcDbBlockTableRecord
  2
From Solid_4
340
0
102
{BLKREFS
331
7AAD7
102
}
  0
BLOCK_RECORD
  5
7AB3E
330
7AB07
100
AcDbSymbolTableRecord
100
AcDbBlockTableRecord
  2
From Solid_5
340
0
102
{BLKREFS
331
7AAD8
102
}
  0
BLOCK_RECORD
  5
7AB41
330
7AB07
100
AcDbSymbolTableRecord
100
AcDbBlockTableRecord
  2
From Solid_6
340
0
102
{BLKREFS
331
7AAD9
331
7AAF0
102
}
  0
BLOCK_RECORD
  5
7AB44
330
7AB07
100
AcDbSymbolTableRecord
100
AcDbBlockTableRecord
  2
From Solid_7
340
0
102
{BLKREFS
331
7AADA
102
}
  0
BLOCK_RECORD
  5
7AB47
330
7AB07
100
AcDbSymbolTableRecord
100
AcDbBlockTableRecord
  2
From Solid_8
340
0
102
{BLKREFS
331
7AADB
102
}
  0
BLOCK_RECORD
  5
7AB4A
330
7AB07
100
AcDbSymbolTableRecord
100
AcDbBlockTableRecord
  2
From Solid_9
340
0
102
{BLKREFS
331
7AADC
102
}
  0
BLOCK_RECORD
  5
7AB4D
330
7AB07
100
AcDbSymbolTableRecord
100
AcDbBlockTableRecord
  2
From Solid_10
340
0
102
{BLKREFS
331
7AADD
102
}
  0
BLOCK_RECORD
  5
7AB50
330
7AB07
100
AcDbSymbolTableRecord
100
AcDbBlockTableRecord
  2
From Solid_11
340
0
102
{BLKREFS
331
7AADE
102
}
  0
BLOCK_RECORD
  5
7AB53
330
7AB07
100
AcDbSymbolTableRecord
100
AcDbBlockTableRecord
  2
From Solid_12
340
0
102
{BLKREFS
331
7AADF
102
}
  0
BLOCK_RECORD
  5
7AB56
330
7AB07
100
AcDbSymbolTableRecord
100
AcDbBlockTableRecord
  2
From Solid_13
340
0
102
{BLKREFS
331
7AAE0
102
}
  0
BLOCK_RECORD
  5
7AB59
330
7AB07
100
AcDbSymbolTableRecord
100
AcDbBlockTableRecord
  2
From Solid_14
340
0
102
{BLKREFS
331
7AAE1
102
}
  0
BLOCK_RECORD
  5
7AB5C
330
7AB07
100
AcDbSymbolTableRecord
100
AcDbBlockTableRecord
  2
From Solid_15
340
0
102
{BLKREFS
331
7AAE2
102
}
  0
BLOCK_RECORD
  5
7AB5F
330
7AB07
100
AcDbSymbolTableRecord
100
AcDbBlockTableRecord
  2
From Solid_16
340
0
102
{BLKREFS
331
7AAE3
102
}
  0
BLOCK_RECORD
  5
7AB62
330
7AB07
100
AcDbSymbolTableRecord
100
AcDbBlockTableRecord
  2
From Solid_17
340
0
102
{BLKREFS
331
7AAE4
102
}
  0
BLOCK_RECORD
  5
7AB65
330
7AB07
100
AcDbSymbolTableRecord
100
AcDbBlockTableRecord
  2
From Solid_18
340
0
102
{BLKREFS
331
7AAE5
102
}
  0
BLOCK_RECORD
  5
7AB68
330
7AB07
100
AcDbSymbolTableRecord
100
AcDbBlockTableRecord
  2
From Solid_19
340
0
102
{BLKREFS
331
7AAE6
102
}
  0
BLOCK_RECORD
  5
7AB6B
330
7AB07
100
AcDbSymbolTableRecord
100
AcDbBlockTableRecord
  2
From Solid_20
340
0
102
{BLKREFS
331
7AAE7
102
}
  0
BLOCK_RECORD
  5
7AB6E
330
7AB07
100
AcDbSymbolTableRecord
100
AcDbBlockTableRecord
  2
From Solid_21
340
0
102
{BLKREFS
331
7AAE8
102
}
  0
BLOCK_RECORD
  5
7AB71
330
7AB07
100
AcDbSymbolTableRecord
100
AcDbBlockTableRecord
  2
From Solid_22
340
0
102
{BLKREFS
331
7AAE9
102
}
  0
BLOCK_RECORD
  5
7AB74
330
7AB07
100
AcDbSymbolTableRecord
100
AcDbBlockTableRecord
  2
From Solid_23
340
0
102
{BLKREFS
331
7AAEA
102
}
  0
BLOCK_RECORD
  5
7AB77
330
7AB07
100
AcDbSymbolTableRecord
100
AcDbBlockTableRecord
  2
From Solid_24
340
0
102
{BLKREFS
331
7AAEB
102
}
  0
BLOCK_RECORD
  5
7AB7A
330
7AB07
100
AcDbSymbolTableRecord
100
AcDbBlockTableRecord
  2
From Solid_25
340
0
102
{BLKREFS
331
7AAEC
102
}
  0
BLOCK_RECORD
  5
7AB7D
330
7AB07
100
AcDbSymbolTableRecord
100
AcDbBlockTableRecord
  2
From Solid_26
340
0
102
{BLKREFS
331
7AAED
102
}
  0
BLOCK_RECORD
  5
7AB80
330
7AB07
100
AcDbSymbolTableRecord
100
AcDbBlockTableRecord
  2
From Solid_27
340
0
102
{BLKREFS
331
7AAEE
102
}
  0
BLOCK_RECORD
  5
7AB83
330
7AB07
100
AcDbSymbolTableRecord
100
AcDbBlockTableRecord
  2
From Solid_28
340
0
102
{BLKREFS
331
7AAEF
102
}
  0
BLOCK_RECORD
  5
7AB86
330
7AB07
100
AcDbSymbolTableRecord
100
AcDbBlockTableRecord
  2
From Solid_29
340
0
102
{BLKREFS
331
7AAF1
102
}
  0
BLOCK_RECORD
  5
7AB89
330
7AB07
100
AcDbSymbolTableRecord
100
AcDbBlockTableRecord
  2
From Solid_30
340
0
102
{BLKREFS
331
7AAF2
102
}
  0
BLOCK_RECORD
  5
7AB8C
330
7AB07
100
AcDbSymbolTableRecord
100
AcDbBlockTableRecord
  2
From Solid_31
340
0
102
{BLKREFS
331
7AAF3
102
}
  0
BLOCK_RECORD
  5
7AB8F
330
7AB07
100
AcDbSymbolTableRecord
100
AcDbBlockTableRecord
  2
From Solid_32
340
0
102
{BLKREFS
331
7AAF4
102
}
  0
BLOCK_RECORD
  5
7AB92
330
7AB07
100
AcDbSymbolTableRecord
100
AcDbBlockTableRecord
  2
From Solid_33
340
0
102
{BLKREFS
331
7AAF5
102
}
  0
BLOCK_RECORD
  5
7AB95
330
7AB07
100
AcDbSymbolTableRecord
100
AcDbBlockTableRecord
  2
From Solid_34
340
0
102
{BLKREFS
331
7AAF6
102
}
  0
BLOCK_RECORD
  5
7AB98
330
7AB07
100
AcDbSymbolTableRecord
100
AcDbBlockTableRecord
  2
From Solid_35
340
0
102
{BLKREFS
331
7AAF7
102
}
  0
BLOCK_RECORD
  5
7AB9B
330
7AB07
100
AcDbSymbolTableRecord
100
AcDbBlockTableRecord
  2
From Solid_36
340
0
102
{BLKREFS
331
7AAF8
102
}
  0
BLOCK_RECORD
  5
7AB9E
330
7AB07
100
AcDbSymbolTableRecord
100
AcDbBlockTableRecord
  2
From Solid_37
340
0
102
{BLKREFS
331
7AAF9
102
}
  0
BLOCK_RECORD
  5
7ABA1
330
7AB07
100
AcDbSymbolTableRecord
100
AcDbBlockTableRecord
  2
From Solid_38
340
0
102
{BLKREFS
331
7AAFA
102
}
  0
BLOCK_RECORD
  5
7ABA4
330
7AB07
100
AcDbSymbolTableRecord
100
AcDbBlockTableRecord
  2
From Solid_39
340
0
102
{BLKREFS
331
7AAFB
102
}
  0
BLOCK_RECORD
  5
7ABA7
330
7AB07
100
AcDbSymbolTableRecord
100
AcDbBlockTableRecord
  2
From Solid_40
340
0
102
{BLKREFS
331
7AAFC
102
}
  0
BLOCK_RECORD
  5
7ABAA
330
7AB07
100
AcDbSymbolTableRecord
100
AcDbBlockTableRecord
  2
From Solid_41
340
0
102
{BLKREFS
331
7AAFD
102
}
  0
BLOCK_RECORD
  5
7ABAD
330
7AB07
100
AcDbSymbolTableRecord
100
AcDbBlockTableRecord
  2
UNITE
340
0
102
{BLKREFS
331
7A825
331
7A8AB
331
7A931
331
7A9B7
331
7AA3D
102
}
  0
BLOCK_RECORD
  5
7ABB0
330
7AB07
100
AcDbSymbolTableRecord
100
AcDbBlockTableRecord
  2
Feature Solid
340
0
102
{BLKREFS
331
7A826
102
}
  0
BLOCK_RECORD
  5
7ABB3
330
7AB07
100
AcDbSymbolTableRecord
100
AcDbBlockTableRecord
  2
DDPROJ
340
0
102
{BLKREFS
331
7A827
102
}
  0
BLOCK_RECORD
  5
7ABB6
330
7AB07
100
AcDbSymbolTableRecord
100
AcDbBlockTableRecord
  2
Feature Solid_1
340
0
102
{BLKREFS
331
7A82D
102
}
  0
BLOCK_RECORD
  5
7ABB9
330
7AB07
100
AcDbSymbolTableRecord
100
AcDbBlockTableRecord
  2
DDPROJ_1
340
0
102
{BLKREFS
331
7A82E
102
}
  0
BLOCK_RECORD
  5
7ABBC
330
7AB07
100
AcDbSymbolTableRecord
100
AcDbBlockTableRecord
  2
Feature Solid_2
340
0
102
{BLKREFS
331
7A834
102
}
  0
BLOCK_RECORD
  5
7ABBF
330
7AB07
100
AcDbSymbolTableRecord
100
AcDbBlockTableRecord
  2
UNITE_1
340
0
102
{BLKREFS
331
7A835
102
}
  0
BLOCK_RECORD
  5
7ABC2
330
7AB07
100
AcDbSymbolTableRecord
100
AcDbBlockTableRecord
  2
Feature Solid_3
340
0
102
{BLKREFS
331
7A836
102
}
  0
BLOCK_RECORD
  5
7ABC5
330
7AB07
100
AcDbSymbolTableRecord
100
AcDbBlockTableRecord
  2
CONE
340
0
102
{BLKREFS
331
7A837
102
}
  0
BLOCK_RECORD
  5
7ABC8
330
7AB07
100
AcDbSymbolTableRecord
100
AcDbBlockTableRecord
  2
Feature Solid_4
340
0
102
{BLKREFS
331
7A84C
102
}
  0
BLOCK_RECORD
  5
7ABCB
330
7AB07
100
AcDbSymbolTableRecord
100
AcDbBlockTableRecord
  2
DDPROJ_2
340
0
102
{BLKREFS
331
7A84D
102
}
  0
BLOCK_RECORD
  5
7ABCE
330
7AB07
100
AcDbSymbolTableRecord
100
AcDbBlockTableRecord
  2
UNITE_2
340
0
102
{BLKREFS
331
7A868
331
7A8EE
331
7A974
331
7A9FA
331
7AA80
102
}
  0
BLOCK_RECORD
  5
7ABD1
330
7AB07
100
AcDbSymbolTableRecord
100
AcDbBlockTableRecord
  2
Feature Solid_5
340
0
102
{BLKREFS
331
7A869
102
}
  0
BLOCK_RECORD
  5
7ABD4
330
7AB07
100
AcDbSymbolTableRecord
100
AcDbBlockTableRecord
  2
DDPROJ_3
340
0
102
{BLKREFS
331
7A86A
102
}
  0
BLOCK_RECORD
  5
7ABD7
330
7AB07
100
AcDbSymbolTableRecord
100
AcDbBlockTableRecord
  2
Feature Solid_6
340
0
102
{BLKREFS
331
7A870
102
}
  0
BLOCK_RECORD
  5
7ABDA
330
7AB07
100
AcDbSymbolTableRecord
100
AcDbBlockTableRecord
  2
DDPROJ_4
340
0
102
{BLKREFS
331
7A871
102
}
  0
BLOCK_RECORD
  5
7ABDD
330
7AB07
100
AcDbSymbolTableRecord
100
AcDbBlockTableRecord
  2
Feature Solid_7
340
0
102
{BLKREFS
331
7A877
102
}
  0
BLOCK_RECORD
  5
7ABE0
330
7AB07
100
AcDbSymbolTableRecord
100
AcDbBlockTableRecord
  2
UNITE_3
340
0
102
{BLKREFS
331
7A878
102
}
  0
BLOCK_RECORD
  5
7ABE3
330
7AB07
100
AcDbSymbolTableRecord
100
AcDbBlockTableRecord
  2
Feature Solid_8
340
0
102
{BLKREFS
331
7A879
102
}
  0
BLOCK_RECORD
  5
7ABE6
330
7AB07
100
AcDbSymbolTableRecord
100
AcDbBlockTableRecord
  2
CONE_1
340
0
102
{BLKREFS
331
7A87A
102
}
  0
BLOCK_RECORD
  5
7ABE9
330
7AB07
100
AcDbSymbolTableRecord
100
AcDbBlockTableRecord
  2
Feature Solid_9
340
0
102
{BLKREFS
331
7A88F
102
}
  0
BLOCK_RECORD
  5
7ABEC
330
7AB07
100
AcDbSymbolTableRecord
100
AcDbBlockTableRecord
  2
DDPROJ_5
340
0
102
{BLKREFS
331
7A890
102
}
  0
ENDTAB
  0
ENDSEC
  0
SECTION
  2
BLOCKS
  0
BLOCK
  5
7AB09
330
7AB08
100
AcDbEntity
  8
0
100
AcDbBlockBegin
  2
*Model_Space
 70
     0
 71
     0
 10
0.0
 20
0.0
 30
0.0
  3
*Model_Space
  1

  0
ENDBLK
  5
7AB0A
330
7AB08
100
AcDbEntity
  8
0
100
AcDbBlockEnd
  0
BLOCK
  5
7AB0D
330
7AB0C
100
AcDbEntity
 67
     1
  8
0
100
AcDbBlockBegin
  2
*Paper_Space
 70
     0
 71
     0
 10
0.0
 20
0.0
 30
0.0
  3
*Paper_Space
  1

  0
ENDBLK
  5
7AB0E
330
7AB0C
100
AcDbEntity
 67
     1
  8
0
100
AcDbBlockEnd
  0
BLOCK
  5
7AB23
330
7AAC4
100
AcDbEntity
  8
0
100
AcDbBlockBegin
  2
*U0
 70
     1
 71
     0
 10
0.0
 20
0.0
 30
0.0
  3
*U0
  1

  0
LWPOLYLINE
  5
7AAC5
330
7AAC4
100
AcDbEntity
  8
0
100
AcDbPolyline
 90
        4
 70
   129
 43
0.0
 10
0.82
 20
0.0
 42
0.853659
 10
0.0
 20
0.0
 10
0.0
 20
-0.07
 10
0.82
 20
-0.07
  0
ENDBLK
  5
7AB24
330
7AAC4
100
AcDbEntity
  8
0
100
AcDbBlockEnd
  0
BLOCK
  5
7AB25
330
7AACA
100
AcDbEntity
  8
0
100
AcDbBlockBegin
  2
*U1
 70
     1
 71
     0
 10
0.0
 20
0.0
 30
0.0
  3
*U1
  1

  0
LWPOLYLINE
  5
7AACB
330
7AACA
100
AcDbEntity
  8
0
100
AcDbPolyline
 90
        4
 70
   129
 43
0.0
 10
0.325
 20
0.325
 42
1.0
 10
0.325
 20
-0.325
 10
1.145
 20
-0.325
 42
1.0
 10
1.145
 20
0.325
  0
ENDBLK
  5
7AB26
330
7AACA
100
AcDbEntity
  8
0
100
AcDbBlockEnd
  0
BLOCK
  5
7AB2C
330
7AB28
100
AcDbEntity
  8
0
100
AcDbBlockBegin
  2
TerminatorOpen_0.5
 70
     0
 71
     0
 10
0.0
 20
0.0
 30
0.0
  3
TerminatorOpen_0.5
  1

  0
LINE
  5
7AB29
330
7AB28
100
AcDbEntity
  8
0
  6
ByBlock
 62
     0
370
    -2
100
AcDbLine
 10
0.0
 20
0.0
 30
0.0
 11
-1.0
 21
0.0
 31
0.0
  0
LINE
  5
7AB2A
330
7AB28
100
AcDbEntity
  8
0
  6
ByBlock
 62
     0
370
    -2
100
AcDbLine
 10
0.0
 20
0.0
 30
0.0
 11
-1.0
 21
0.25
 31
0.0
  0
LINE
  5
7AB2B
330
7AB28
100
AcDbEntity
  8
0
  6
ByBlock
 62
     0
370
    -2
100
AcDbLine
 10
0.0
 20
0.0
 30
0.0
 11
-1.0
 21
-0.25
 31
0.0
  0
ENDBLK
  5
7AB2D
330
7AB28
100
AcDbEntity
  8
0
100
AcDbBlockEnd
  0
BLOCK
  5
7AB30
330
7AB2F
100
AcDbEntity
  8
0
100
AcDbBlockBegin
  2
From Solid
 70
     0
 71
     0
 10
0.0
 20
0.0
 30
0.0
  3
From Solid
  1

  0
LINE
  5
7A6D3
330
7AB2F
100
AcDbEntity
  8
Level 27
  6
Continuous
 62
    12
370
    13
100
AcDbLine
 10
3237.249439
 20
229.276387
 30
0.0
 11
3237.249439
 21
181.276387
 31
0.0
  0
LINE
  5
7A6D4
330
7AB2F
100
AcDbEntity
  8
Level 27
  6
Continuous
 62
    12
370
    13
100
AcDbLine
 10
4585.249439
 20
229.276387
 30
0.0
 11
4585.249439
 21
181.276387
 31
0.0
  0
LINE
  5
7A6D5
330
7AB2F
100
AcDbEntity
  8
Level 27
  6
Continuous
 62
    12
370
    13
100
AcDbLine
 10
3237.249439
 20
205.276387
 30
0.0
 11
4585.249439
 21
205.276387
 31
0.0
  0
LINE
  5
7A6D6
330
7AB2F
100
AcDbEntity
  8
Level 27
  6
Continuous
 62
    12
370
    13
100
AcDbLine
 10
3237.249439
 20
229.276387
 30
0.0
 11
4585.249439
 21
229.276387
 31
0.0
  0
LINE
  5
7A6D7
330
7AB2F
100
AcDbEntity
  8
Level 27
  6
Continuous
 62
    12
370
    13
100
AcDbLine
 10
3237.249439
 20
205.276387
 30
0.0
 11
4585.249439
 21
205.276387
 31
0.0
  0
LINE
  5
7A6D8
330
7AB2F
100
AcDbEntity
  8
Level 27
  6
Continuous
 62
    12
370
    13
100
AcDbLine
 10
3237.249439
 20
181.276387
 30
0.0
 11
4585.249439
 21
181.276387
 31
0.0
  0
ENDBLK
  5
7AB31
330
7AB2F
100
AcDbEntity
  8
0
100
AcDbBlockEnd
  0
BLOCK
  5
7AB33
330
7AB32
100
AcDbEntity
  8
0
100
AcDbBlockBegin
  2
From Solid_1
 70
     0
 71
     0
 10
0.0
 20
0.0
 30
0.0
  3
From Solid_1
  1

  0
ELLIPSE
  5
7A6EF
330
7AB32
100
AcDbEntity
  8
Level 27
  6
Continuous
 62
   253
370
    13
100
AcDbEllipse
 10
4140.27322
 20
331.156376
 30
0.0
 11
0.0
 21
-10.0
 31
0.0
210
0.0
220
0.0
230
1.0
 40
0.488496
 41
0.0
 42
6.283185307179586
  0
ELLIPSE
  5
7A6F0
330
7AB32
100
AcDbEntity
  8
Level 27
  6
Continuous
 62
   253
370
    13
100
AcDbEllipse
 10
4370.27322
 20
331.156376
 30
0.0
 11
0.0
 21
-10.0
 31
0.0
210
0.0
220
0.0
230
1.0
 40
0.488496
 41
0.0
 42
6.283185307179586
  0
LINE
  5
7A6F1
330
7AB32
100
AcDbEntity
  8
Level 27
  6
Continuous
 62
   253
370
    13
100
AcDbLine
 10
4370.27322
 20
321.156376
 30
0.0
 11
4140.27322
 21
321.156376
 31
0.0
  0
LINE
  5
7A6F2
330
7AB32
100
AcDbEntity
  8
Level 27
  6
Continuous
 62
   253
370
    13
100
AcDbLine
 10
4375.158176
 20
331.156376
 30
0.0
 11
4135.388264
 21
331.156376
 31
0.0
  0
LINE
  5
7A6F3
330
7AB32
100
AcDbEntity
  8
Level 27
  6
Continuous
 62
   253
370
    13
100
AcDbLine
 10
4370.27322
 20
341.156376
 30
0.0
 11
4140.27322
 21
341.156376
 31
0.0
  0
LINE
  5
7A6F4
330
7AB32
100
AcDbEntity
  8
Level 27
  6
Continuous
 62
   253
370
    13
100
AcDbLine
 10
4365.388265
 20
331.156376
 30
0.0
 11
4145.158176
 21
331.156376
 31
0.0
  0
ENDBLK
  5
7AB34
330
7AB32
100
AcDbEntity
  8
0
100
AcDbBlockEnd
  0
BLOCK
  5
7AB36
330
7AB35
100
AcDbEntity
  8
0
100
AcDbBlockBegin
  2
From Solid_2
 70
     0
 71
     0
 10
0.0
 20
0.0
 30
0.0
  3
From Solid_2
  1

  0
ELLIPSE
  5
7A6F6
330
7AB35
100
AcDbEntity
  8
Level 27
  6
Continuous
 62
   253
370
    13
100
AcDbEllipse
 10
3680.27322
 20
331.156376
 30
0.0
 11
0.0
 21
-10.0
 31
0.0
210
0.0
220
0.0
230
1.0
 40
0.488496
 41
0.0
 42
6.283185307179586
  0
ELLIPSE
  5
7A6F7
330
7AB35
100
AcDbEntity
  8
Level 27
  6
Continuous
 62
   253
370
    13
100
AcDbEllipse
 10
3910.27322
 20
331.156376
 30
0.0
 11
0.0
 21
-10.0
 31
0.0
210
0.0
220
0.0
230
1.0
 40
0.488496
 41
0.0
 42
6.283185307179586
  0
LINE
  5
7A6F8
330
7AB35
100
AcDbEntity
  8
Level 27
  6
Continuous
 62
   253
370
    13
100
AcDbLine
 10
3910.27322
 20
321.156376
 30
0.0
 11
3680.27322
 21
321.156376
 31
0.0
  0
LINE
  5
7A6F9
330
7AB35
100
AcDbEntity
  8
Level 27
  6
Continuous
 62
   253
370
    13
100
AcDbLine
 10
3915.158176
 20
331.156376
 30
0.0
 11
3675.388264
 21
331.156376
 31
0.0
  0
LINE
  5
7A6FA
330
7AB35
100
AcDbEntity
  8
Level 27
  6
Continuous
 62
   253
370
    13
100
AcDbLine
 10
3910.27322
 20
341.156376
 30
0.0
 11
3680.27322
 21
341.156376
 31
0.0
  0
LINE
  5
7A6FB
330
7AB35
100
AcDbEntity
  8
Level 27
  6
Continuous
 62
   253
370
    13
100
AcDbLine
 10
3905.388265
 20
331.156376
 30
0.0
 11
3685.158176
 21
331.156376
 31
0.0
  0
ENDBLK
  5
7AB37
330
7AB35
100
AcDbEntity
  8
0
100
AcDbBlockEnd
  0
BLOCK
  5
7AB39
330
7AB38
100
AcDbEntity
  8
0
100
AcDbBlockBegin
  2
From Solid_3
 70
     0
 71
     0
 10
0.0
 20
0.0
 30
0.0
  3
From Solid_3
  1

  0
ELLIPSE
  5
7A6FD
330
7AB38
100
AcDbEntity
  8
Level 27
  6
Continuous
 62
   253
370
    13
100
AcDbEllipse
 10
3910.27322
 20
331.156376
 30
0.0
 11
0.0
 21
-10.0
 31
0.0
210
0.0
220
0.0
230
1.0
 40
0.488496
 41
0.0
 42
6.283185307179586
  0
ELLIPSE
  5
7A6FE
330
7AB38
100
AcDbEntity
  8
Level 27
  6
Continuous
 62
   253
370
    13
100
AcDbEllipse
 10
4140.27322
 20
331.156376
 30
0.0
 11
0.0
 21
-10.0
 31
0.0
210
0.0
220
0.0
230
1.0
 40
0.488496
 41
0.0
 42
6.283185307179586
  0
LINE
  5
7A6FF
330
7AB38
100
AcDbEntity
  8
Level 27
  6
Continuous
 62
   253
370
    13
100
AcDbLine
 10
4140.27322
 20
321.156376
 30
0.0
 11
3910.27322
 21
321.156376
 31
0.0
  0
LINE
  5
7A700
330
7AB38
100
AcDbEntity
  8
Level 27
  6
Continuous
 62
   253
370
    13
100
AcDbLine
 10
4145.158176
 20
331.156376
 30
0.0
 11
3905.388264
 21
331.156376
 31
0.0
  0
LINE
  5
7A701
330
7AB38
100
AcDbEntity
  8
Level 27
  6
Continuous
 62
   253
370
    13
100
AcDbLine
 10
4140.27322
 20
341.156376
 30
0.0
 11
3910.27322
 21
341.156376
 31
0.0
  0
LINE
  5
7A702
330
7AB38
100
AcDbEntity
  8
Level 27
  6
Continuous
 62
   253
370
    13
100
AcDbLine
 10
4135.388265
 20
331.156376
 30
0.0
 11
3915.158176
 21
331.156376
 31
0.0
  0
ENDBLK
  5
7AB3A
330
7AB38
100
AcDbEntity
  8
0
100
AcDbBlockEnd
  0
BLOCK
  5
7AB3C
330
7AB3B
100
AcDbEntity
  8
0
100
AcDbBlockBegin
  2
From Solid_4
 70
     0
 71
     0
 10
0.0
 20
0.0
 30
0.0
  3
From Solid_4
  1

  0
ELLIPSE
  5
7A704
330
7AB3B
100
AcDbEntity
  8
Level 27
  6
Continuous
 62
   253
370
    13
100
AcDbEllipse
 10
4374.098516
 20
2065.028408
 30
0.0
 11
-9.999265273696532
 21
0.1212251258673658
 31
0.0
210
0.0
220
0.0
230
1.0
 40
0.671133
 41
0.0
 42
6.283185307179586
  0
ELLIPSE
  5
7A705
330
7AB3B
100
AcDbEntity
  8
Level 27
  6
Continuous
 62
   253
370
    13
100
AcDbEllipse
 10
4370.21157
 20
188.23106
 30
0.0
 11
-9.990432790625741
 21
-0.4373261950592581
 31
0.0
210
0.0
220
0.0
230
1.0
 40
0.935478
 41
0.0
 42
6.283185307179586
  0
ELLIPSE
  5
7A706
330
7AB3B
100
AcDbEntity
  8
Level 27
  6
Continuous
 62
   253
370
    13
100
AcDbEllipse
 10
4648.266185
 20
4919.211509
 30
0.0
 11
-211.9787028645743
 21
-5580.870138341953
 31
0.0
210
0.0
220
0.0
230
1.0
 40
0.036624
 41
5.25053361806081
 42
5.725309192081581
  0
ELLIPSE
  5
7A707
330
7AB3B
100
AcDbEntity
  8
Level 27
  6
Continuous
 62
   253
370
    13
100
AcDbEllipse
 10
4658.267544
 20
4918.831627
 30
0.0
 11
-212.3498804461127
 21
-5590.642317591481
 31
0.0
210
0.0
220
0.0
230
1.0
 40
0.036624
 41
5.250894119492438
 42
5.725669693513209
  0
ELLIPSE
  5
7A708
330
7AB3B
100
AcDbEntity
  8
Level 27
  6
Continuous
 62
   253
370
    13
100
AcDbEllipse
 10
4668.238047
 20
4918.452916
 30
0.0
 11
-211.9767413875416
 21
-5580.818497548465
 31
0.0
210
0.0
220
0.0
230
1.0
 40
0.036624
 41
5.250551620500607
 42
5.725327194521379
  0
ELLIPSE
  5
7A709
330
7AB3B
100
AcDbEntity
  8
Level 27
  6
Continuous
 62
   253
370
    13
100
AcDbEllipse
 10
4658.236689
 20
4918.832799
 30
0.0
 11
-211.6055900712702
 21
-5571.047009798976
 31
0.0
210
0.0
220
0.0
230
1.0
 40
0.036624
 41
5.250189882637153
 42
5.724965456657924
  0
ENDBLK
  5
7AB3D
330
7AB3B
100
AcDbEntity
  8
0
100
AcDbBlockEnd
  0
BLOCK
  5
7AB3F
330
7AB3E
100
AcDbEntity
  8
0
100
AcDbBlockBegin
  2
From Solid_5
 70
     0
 71
     0
 10
0.0
 20
0.0
 30
0.0
  3
From Solid_5
  1

  0
ELLIPSE
  5
7A70B
330
7AB3E
100
AcDbEntity
  8
Level 27
  6
Continuous
 62
   253
370
    13
100
AcDbEllipse
 10
3448.400362
 20
2065.028408
 30
0.0
 11
9.999265273696482
 21
0.121225125867367
 31
0.0
210
0.0
220
0.0
230
1.0
 40
0.671133
 41
0.0
 42
6.283185307179586
  0
ELLIPSE
  5
7A70C
330
7AB3E
100
AcDbEntity
  8
Level 27
  6
Continuous
 62
   253
370
    13
100
AcDbEllipse
 10
3452.283564
 20
188.233101
 30
0.0
 11
9.99053754111981
 21
-0.4349266425155294
 31
0.0
210
0.0
220
0.0
230
1.0
 40
0.935481
 41
0.0
 42
6.283185307179586
  0
ELLIPSE
  5
7A70D
330
7AB3E
100
AcDbEntity
  8
Level 27
  6
Continuous
 62
   253
370
    13
100
AcDbEllipse
 10
3175.231447
 20
4919.251136
 30
0.0
 11
211.251490968721
 21
-5580.893424087069
 31
0.0
210
0.0
220
0.0
230
-1.0
 40
0.036493
 41
5.250529679372242
 42
5.725305361258768
  0
ELLIPSE
  5
7A70E
330
7AB3E
100
AcDbEntity
  8
Level 27
  6
Continuous
 62
   253
370
    13
100
AcDbEllipse
 10
3165.231831
 20
4918.872624
 30
0.0
 11
211.6214633699696
 21
-5590.66744523827
 31
0.0
210
0.0
220
0.0
230
-1.0
 40
0.036493
 41
5.250890259607144
 42
5.72566594149367
  0
ELLIPSE
  5
7A70F
330
7AB3E
100
AcDbEntity
  8
Level 27
  6
Continuous
 62
   253
370
    13
100
AcDbEllipse
 10
3155.259387
 20
4918.495141
 30
0.0
 11
211.2496716756353
 21
-5580.845361558995
 31
0.0
210
0.0
220
0.0
230
-1.0
 40
0.036493
 41
5.250547842037232
 42
5.725323523923758
  0
ELLIPSE
  5
7A710
330
7AB3E
100
AcDbEntity
  8
Level 27
  6
Continuous
 62
   253
370
    13
100
AcDbEllipse
 10
3165.259004
 20
4918.873653
 30
0.0
 11
210.879725449141
 21
-5571.072031897688
 31
0.0
210
0.0
220
0.0
230
-1.0
 40
0.036493
 41
5.250186025379061
 42
5.724961707265587
  0
ENDBLK
  5
7AB40
330
7AB3E
100
AcDbEntity
  8
0
100
AcDbBlockEnd
  0
BLOCK
  5
7AB42
330
7AB41
100
AcDbEntity
  8
0
100
AcDbBlockBegin
  2
From Solid_6
 70
     0
 71
     0
 10
0.0
 20
0.0
 30
0.0
  3
From Solid_6
  1

  0
ELLIPSE
  5
7A712
330
7AB41
100
AcDbEntity
  8
Level 27
  6
Continuous
 62
   253
370
    13
100
AcDbEllipse
 10
3678.400362
 20
2065.028408
 30
0.0
 11
9.999265273696535
 21
0.1212251258673676
 31
0.0
210
0.0
220
0.0
230
1.0
 40
0.671133
 41
0.0
 42
6.283185307179586
  0
ELLIPSE
  5
7A713
330
7AB41
100
AcDbEntity
  8
Level 27
  6
Continuous
 62
   253
370
    13
100
AcDbEllipse
 10
3682.283564
 20
188.233101
 30
0.0
 11
9.990537541119862
 21
-0.4349266425155312
 31
0.0
210
0.0
220
0.0
230
1.0
 40
0.935481
 41
0.0
 42
6.283185307179586
  0
ELLIPSE
  5
7A714
330
7AB41
100
AcDbEntity
  8
Level 27
  6
Continuous
 62
   253
370
    13
100
AcDbEllipse
 10
3405.231447
 20
4919.251136
 30
0.0
 11
211.251490968721
 21
-5580.893424087069
 31
0.0
210
0.0
220
0.0
230
-1.0
 40
0.036493
 41
5.250529679372242
 42
5.725305361258768
  0
ELLIPSE
  5
7A715
330
7AB41
100
AcDbEntity
  8
Level 27
  6
Continuous
 62
   253
370
    13
100
AcDbEllipse
 10
3395.231831
 20
4918.872624
 30
0.0
 11
211.6214633699696
 21
-5590.66744523827
 31
0.0
210
0.0
220
0.0
230
-1.0
 40
0.036493
 41
5.250890259607144
 42
5.72566594149367
  0
ELLIPSE
  5
7A716
330
7AB41
100
AcDbEntity
  8
Level 27
  6
Continuous
 62
   253
370
    13
100
AcDbEllipse
 10
3385.259387
 20
4918.495141
 30
0.0
 11
211.2496716756353
 21
-5580.845361558995
 31
0.0
210
0.0
220
0.0
230
-1.0
 40
0.036493
 41
5.250547842037232
 42
5.725323523923758
  0
ELLIPSE
  5
7A717
330
7AB41
100
AcDbEntity
  8
Level 27
  6
Continuous
 62
   253
370
    13
100
AcDbEllipse
 10
3395.259004
 20
4918.873653
 30
0.0
 11
210.879725449141
 21
-5571.072031897688
 31
0.0
210
0.0
220
0.0
230
-1.0
 40
0.036493
 41
5.250186025379061
 42
5.724961707265587
  0
ENDBLK
  5
7AB43
330
7AB41
100
AcDbEntity
  8
0
100
AcDbBlockEnd
  0
BLOCK
  5
7AB45
330
7AB44
100
AcDbEntity
  8
0
100
AcDbBlockBegin
  2
From Solid_7
 70
     0
 71
     0
 10
0.0
 20
0.0
 30
0.0
  3
From Solid_7
  1

  0
ELLIPSE
  5
7A719
330
7AB44
100
AcDbEntity
  8
Level 27
  6
Continuous
 62
   253
370
    13
100
AcDbEllipse
 10
3908.400362
 20
2065.028408
 30
0.0
 11
9.99926527369642
 21
0.1212251258673663
 31
0.0
210
0.0
220
0.0
230
1.0
 40
0.671133
 41
0.0
 42
6.283185307179586
  0
ELLIPSE
  5
7A71A
330
7AB44
100
AcDbEntity
  8
Level 27
  6
Continuous
 62
   253
370
    13
100
AcDbEllipse
 10
3912.283564
 20
188.233101
 30
0.0
 11
9.990537541119748
 21
-0.4349266425155254
 31
0.0
210
0.0
220
0.0
230
1.0
 40
0.935481
 41
0.0
 42
6.283185307179586
  0
ELLIPSE
  5
7A71B
330
7AB44
100
AcDbEntity
  8
Level 27
  6
Continuous
 62
   253
370
    13
100
AcDbEllipse
 10
3635.231447
 20
4919.251136
 30
0.0
 11
211.251490968721
 21
-5580.893424087067
 31
0.0
210
0.0
220
0.0
230
-1.0
 40
0.036493
 41
5.250529679372242
 42
5.725305361258768
  0
ELLIPSE
  5
7A71C
330
7AB44
100
AcDbEntity
  8
Level 27
  6
Continuous
 62
   253
370
    13
100
AcDbEllipse
 10
3625.231831
 20
4918.872624
 30
0.0
 11
211.6214633699695
 21
-5590.667445238269
 31
0.0
210
0.0
220
0.0
230
-1.0
 40
0.036493
 41
5.250890259607144
 42
5.72566594149367
  0
ELLIPSE
  5
7A71D
330
7AB44
100
AcDbEntity
  8
Level 27
  6
Continuous
 62
   253
370
    13
100
AcDbEllipse
 10
3615.259387
 20
4918.495141
 30
0.0
 11
211.2496716756353
 21
-5580.845361558994
 31
0.0
210
0.0
220
0.0
230
-1.0
 40
0.036493
 41
5.250547842037232
 42
5.725323523923758
  0
ELLIPSE
  5
7A71E
330
7AB44
100
AcDbEntity
  8
Level 27
  6
Continuous
 62
   253
370
    13
100
AcDbEllipse
 10
3625.259004
 20
4918.873653
 30
0.0
 11
210.879725449141
 21
-5571.072031897688
 31
0.0
210
0.0
220
0.0
230
-1.0
 40
0.036493
 41
5.250186025379061
 42
5.724961707265587
  0
ENDBLK
  5
7AB46
330
7AB44
100
AcDbEntity
  8
0
100
AcDbBlockEnd
  0
BLOCK
  5
7AB48
330
7AB47
100
AcDbEntity
  8
0
100
AcDbBlockBegin
  2
From Solid_8
 70
     0
 71
     0
 10
0.0
 20
0.0
 30
0.0
  3
From Solid_8
  1

  0
ELLIPSE
  5
7A720
330
7AB47
100
AcDbEntity
  8
Level 27
  6
Continuous
 62
   253
370
    13
100
AcDbEllipse
 10
3909.797266
 20
606.196044
 30
0.0
 11
0.0
 21
-10.0
 31
0.0
210
0.0
220
0.0
230
1.0
 40
0.488496
 41
0.0
 42
6.283185307179586
  0
ELLIPSE
  5
7A721
330
7AB47
100
AcDbEntity
  8
Level 27
  6
Continuous
 62
   253
370
    13
100
AcDbEllipse
 10
4139.797266
 20
606.196044
 30
0.0
 11
0.0
 21
-10.0
 31
0.0
210
0.0
220
0.0
230
1.0
 40
0.488496
 41
0.0
 42
6.283185307179586
  0
LINE
  5
7A722
330
7AB47
100
AcDbEntity
  8
Level 27
  6
Continuous
 62
   253
370
    13
100
AcDbLine
 10
4139.797266
 20
596.196044
 30
0.0
 11
3909.797266
 21
596.196044
 31
0.0
  0
LINE
  5
7A723
330
7AB47
100
AcDbEntity
  8
Level 27
  6
Continuous
 62
   253
370
    13
100
AcDbLine
 10
4144.682222
 20
606.196044
 30
0.0
 11
3904.91231
 21
606.196044
 31
0.0
  0
LINE
  5
7A724
330
7AB47
100
AcDbEntity
  8
Level 27
  6
Continuous
 62
   253
370
    13
100
AcDbLine
 10
4139.797266
 20
616.196044
 30
0.0
 11
3909.797266
 21
616.196044
 31
0.0
  0
LINE
  5
7A725
330
7AB47
100
AcDbEntity
  8
Level 27
  6
Continuous
 62
   253
370
    13
100
AcDbLine
 10
4134.912311
 20
606.196044
 30
0.0
 11
3914.682222
 21
606.196044
 31
0.0
  0
ENDBLK
  5
7AB49
330
7AB47
100
AcDbEntity
  8
0
100
AcDbBlockEnd
  0
BLOCK
  5
7AB4B
330
7AB4A
100
AcDbEntity
  8
0
100
AcDbBlockBegin
  2
From Solid_9
 70
     0
 71
     0
 10
0.0
 20
0.0
 30
0.0
  3
From Solid_9
  1

  0
ELLIPSE
  5
7A727
330
7AB4A
100
AcDbEntity
  8
Level 27
  6
Continuous
 62
   253
370
    13
100
AcDbEllipse
 10
3910.298343
 20
754.885939
 30
0.0
 11
0.0
 21
-10.0
 31
0.0
210
0.0
220
0.0
230
1.0
 40
0.488496
 41
0.0
 42
6.283185307179586
  0
ELLIPSE
  5
7A728
330
7AB4A
100
AcDbEntity
  8
Level 27
  6
Continuous
 62
   253
370
    13
100
AcDbEllipse
 10
4140.298343
 20
754.885939
 30
0.0
 11
0.0
 21
-10.0
 31
0.0
210
0.0
220
0.0
230
1.0
 40
0.488496
 41
0.0
 42
6.283185307179586
  0
LINE
  5
7A729
330
7AB4A
100
AcDbEntity
  8
Level 27
  6
Continuous
 62
   253
370
    13
100
AcDbLine
 10
4140.298343
 20
744.885939
 30
0.0
 11
3910.298343
 21
744.885939
 31
0.0
  0
LINE
  5
7A72A
330
7AB4A
100
AcDbEntity
  8
Level 27
  6
Continuous
 62
   253
370
    13
100
AcDbLine
 10
4145.183299
 20
754.885939
 30
0.0
 11
3905.413387
 21
754.885939
 31
0.0
  0
LINE
  5
7A72B
330
7AB4A
100
AcDbEntity
  8
Level 27
  6
Continuous
 62
   253
370
    13
100
AcDbLine
 10
4140.298343
 20
764.885939
 30
0.0
 11
3910.298343
 21
764.885939
 31
0.0
  0
LINE
  5
7A72C
330
7AB4A
100
AcDbEntity
  8
Level 27
  6
Continuous
 62
   253
370
    13
100
AcDbLine
 10
4135.413388
 20
754.885939
 30
0.0
 11
3915.183299
 21
754.885939
 31
0.0
  0
ENDBLK
  5
7AB4C
330
7AB4A
100
AcDbEntity
  8
0
100
AcDbBlockEnd
  0
BLOCK
  5
7AB4E
330
7AB4D
100
AcDbEntity
  8
0
100
AcDbBlockBegin
  2
From Solid_10
 70
     0
 71
     0
 10
0.0
 20
0.0
 30
0.0
  3
From Solid_10
  1

  0
ELLIPSE
  5
7A72E
330
7AB4D
100
AcDbEntity
  8
Level 27
  6
Continuous
 62
   253
370
    13
100
AcDbEllipse
 10
3680.298343
 20
754.885939
 30
0.0
 11
0.0
 21
-10.0
 31
0.0
210
0.0
220
0.0
230
1.0
 40
0.488496
 41
0.0
 42
6.283185307179586
  0
ELLIPSE
  5
7A72F
330
7AB4D
100
AcDbEntity
  8
Level 27
  6
Continuous
 62
   253
370
    13
100
AcDbEllipse
 10
3910.298343
 20
754.885939
 30
0.0
 11
0.0
 21
-10.0
 31
0.0
210
0.0
220
0.0
230
1.0
 40
0.488496
 41
0.0
 42
6.283185307179586
  0
LINE
  5
7A730
330
7AB4D
100
AcDbEntity
  8
Level 27
  6
Continuous
 62
   253
370
    13
100
AcDbLine
 10
3910.298343
 20
744.885939
 30
0.0
 11
3680.298343
 21
744.885939
 31
0.0
  0
LINE
  5
7A731
330
7AB4D
100
AcDbEntity
  8
Level 27
  6
Continuous
 62
   253
370
    13
100
AcDbLine
 10
3915.183299
 20
754.885939
 30
0.0
 11
3675.413387
 21
754.885939
 31
0.0
  0
LINE
  5
7A732
330
7AB4D
100
AcDbEntity
  8
Level 27
  6
Continuous
 62
   253
370
    13
100
AcDbLine
 10
3910.298343
 20
764.885939
 30
0.0
 11
3680.298343
 21
764.885939
 31
0.0
  0
LINE
  5
7A733
330
7AB4D
100
AcDbEntity
  8
Level 27
  6
Continuous
 62
   253
370
    13
100
AcDbLine
 10
3905.413388
 20
754.885939
 30
0.0
 11
3685.183299
 21
754.885939
 31
0.0
  0
ENDBLK
  5
7AB4F
330
7AB4D
100
AcDbEntity
  8
0
100
AcDbBlockEnd
  0
BLOCK
  5
7AB51
330
7AB50
100
AcDbEntity
  8
0
100
AcDbBlockBegin
  2
From Solid_11
 70
     0
 71
     0
 10
0.0
 20
0.0
 30
0.0
  3
From Solid_11
  1

  0
ELLIPSE
  5
7A735
330
7AB50
100
AcDbEntity
  8
Level 27
  6
Continuous
 62
   253
370
    13
100
AcDbEllipse
 10
3679.797266
 20
606.196044
 30
0.0
 11
0.0
 21
-10.0
 31
0.0
210
0.0
220
0.0
230
1.0
 40
0.488496
 41
0.0
 42
6.283185307179586
  0
ELLIPSE
  5
7A736
330
7AB50
100
AcDbEntity
  8
Level 27
  6
Continuous
 62
   253
370
    13
100
AcDbEllipse
 10
3909.797266
 20
606.196044
 30
0.0
 11
0.0
 21
-10.0
 31
0.0
210
0.0
220
0.0
230
1.0
 40
0.488496
 41
0.0
 42
6.283185307179586
  0
LINE
  5
7A737
330
7AB50
100
AcDbEntity
  8
Level 27
  6
Continuous
 62
   253
370
    13
100
AcDbLine
 10
3909.797266
 20
596.196044
 30
0.0
 11
3679.797266
 21
596.196044
 31
0.0
  0
LINE
  5
7A738
330
7AB50
100
AcDbEntity
  8
Level 27
  6
Continuous
 62
   253
370
    13
100
AcDbLine
 10
3914.682222
 20
606.196044
 30
0.0
 11
3674.91231
 21
606.196044
 31
0.0
  0
LINE
  5
7A739
330
7AB50
100
AcDbEntity
  8
Level 27
  6
Continuous
 62
   253
370
    13
100
AcDbLine
 10
3909.797266
 20
616.196044
 30
0.0
 11
3679.797266
 21
616.196044
 31
0.0
  0
LINE
  5
7A73A
330
7AB50
100
AcDbEntity
  8
Level 27
  6
Continuous
 62
   253
370
    13
100
AcDbLine
 10
3904.912311
 20
606.196044
 30
0.0
 11
3684.682222
 21
606.196044
 31
0.0
  0
ENDBLK
  5
7AB52
330
7AB50
100
AcDbEntity
  8
0
100
AcDbBlockEnd
  0
BLOCK
  5
7AB54
330
7AB53
100
AcDbEntity
  8
0
100
AcDbBlockBegin
  2
From Solid_12
 70
     0
 71
     0
 10
0.0
 20
0.0
 30
0.0
  3
From Solid_12
  1

  0
ELLIPSE
  5
7A73C
330
7AB53
100
AcDbEntity
  8
Level 27
  6
Continuous
 62
   253
370
    13
100
AcDbEllipse
 10
3681.291263
 20
910.688106
 30
0.0
 11
0.0
 21
-10.0
 31
0.0
210
0.0
220
0.0
230
1.0
 40
0.488496
 41
0.0
 42
6.283185307179586
  0
ELLIPSE
  5
7A73D
330
7AB53
100
AcDbEntity
  8
Level 27
  6
Continuous
 62
   253
370
    13
100
AcDbEllipse
 10
3911.291263
 20
910.688106
 30
0.0
 11
0.0
 21
-10.0
 31
0.0
210
0.0
220
0.0
230
1.0
 40
0.488496
 41
0.0
 42
6.283185307179586
  0
LINE
  5
7A73E
330
7AB53
100
AcDbEntity
  8
Level 27
  6
Continuous
 62
   253
370
    13
100
AcDbLine
 10
3911.291263
 20
900.688106
 30
0.0
 11
3681.291263
 21
900.688106
 31
0.0
  0
LINE
  5
7A73F
330
7AB53
100
AcDbEntity
  8
Level 27
  6
Continuous
 62
   253
370
    13
100
AcDbLine
 10
3916.176218
 20
910.688106
 30
0.0
 11
3676.406307
 21
910.688106
 31
0.0
  0
LINE
  5
7A740
330
7AB53
100
AcDbEntity
  8
Level 27
  6
Continuous
 62
   253
370
    13
100
AcDbLine
 10
3911.291263
 20
920.688106
 30
0.0
 11
3681.291263
 21
920.688106
 31
0.0
  0
LINE
  5
7A741
330
7AB53
100
AcDbEntity
  8
Level 27
  6
Continuous
 62
   253
370
    13
100
AcDbLine
 10
3906.406308
 20
910.688106
 30
0.0
 11
3686.176219
 21
910.688106
 31
0.0
  0
ENDBLK
  5
7AB55
330
7AB53
100
AcDbEntity
  8
0
100
AcDbBlockEnd
  0
BLOCK
  5
7AB57
330
7AB56
100
AcDbEntity
  8
0
100
AcDbBlockBegin
  2
From Solid_13
 70
     0
 71
     0
 10
0.0
 20
0.0
 30
0.0
  3
From Solid_13
  1

  0
ELLIPSE
  5
7A743
330
7AB56
100
AcDbEntity
  8
Level 27
  6
Continuous
 62
   253
370
    13
100
AcDbEllipse
 10
3909.788886
 20
464.872393
 30
0.0
 11
0.0
 21
-10.00000000000001
 31
0.0
210
0.0
220
0.0
230
1.0
 40
0.488496
 41
0.0
 42
6.283185307179586
  0
ELLIPSE
  5
7A744
330
7AB56
100
AcDbEntity
  8
Level 27
  6
Continuous
 62
   253
370
    13
100
AcDbEllipse
 10
4139.788886
 20
464.872393
 30
0.0
 11
0.0
 21
-10.00000000000001
 31
0.0
210
0.0
220
0.0
230
1.0
 40
0.488496
 41
0.0
 42
6.283185307179586
  0
LINE
  5
7A745
330
7AB56
100
AcDbEntity
  8
Level 27
  6
Continuous
 62
   253
370
    13
100
AcDbLine
 10
4139.788886
 20
454.872393
 30
0.0
 11
3909.788886
 21
454.872393
 31
0.0
  0
LINE
  5
7A746
330
7AB56
100
AcDbEntity
  8
Level 27
  6
Continuous
 62
   253
370
    13
100
AcDbLine
 10
4144.673842
 20
464.872393
 30
0.0
 11
3904.903931
 21
464.872393
 31
0.0
  0
LINE
  5
7A747
330
7AB56
100
AcDbEntity
  8
Level 27
  6
Continuous
 62
   253
370
    13
100
AcDbLine
 10
4139.788886
 20
474.872393
 30
0.0
 11
3909.788886
 21
474.872393
 31
0.0
  0
LINE
  5
7A748
330
7AB56
100
AcDbEntity
  8
Level 27
  6
Continuous
 62
   253
370
    13
100
AcDbLine
 10
4134.90393
 20
464.872393
 30
0.0
 11
3914.673842
 21
464.872393
 31
0.0
  0
ENDBLK
  5
7AB58
330
7AB56
100
AcDbEntity
  8
0
100
AcDbBlockEnd
  0
BLOCK
  5
7AB5A
330
7AB59
100
AcDbEntity
  8
0
100
AcDbBlockBegin
  2
From Solid_14
 70
     0
 71
     0
 10
0.0
 20
0.0
 30
0.0
  3
From Solid_14
  1

  0
ELLIPSE
  5
7A74A
330
7AB59
100
AcDbEntity
  8
Level 27
  6
Continuous
 62
   253
370
    13
100
AcDbEllipse
 10
4139.788886
 20
464.872393
 30
0.0
 11
0.0
 21
-10.00000000000001
 31
0.0
210
0.0
220
0.0
230
1.0
 40
0.488496
 41
0.0
 42
6.283185307179586
  0
ELLIPSE
  5
7A74B
330
7AB59
100
AcDbEntity
  8
Level 27
  6
Continuous
 62
   253
370
    13
100
AcDbEllipse
 10
4369.788886
 20
464.872393
 30
0.0
 11
0.0
 21
-10.00000000000001
 31
0.0
210
0.0
220
0.0
230
1.0
 40
0.488496
 41
0.0
 42
6.283185307179586
  0
LINE
  5
7A74C
330
7AB59
100
AcDbEntity
  8
Level 27
  6
Continuous
 62
   253
370
    13
100
AcDbLine
 10
4369.788886
 20
454.872393
 30
0.0
 11
4139.788886
 21
454.872393
 31
0.0
  0
LINE
  5
7A74D
330
7AB59
100
AcDbEntity
  8
Level 27
  6
Continuous
 62
   253
370
    13
100
AcDbLine
 10
4374.673842
 20
464.872393
 30
0.0
 11
4134.903931
 21
464.872393
 31
0.0
  0
LINE
  5
7A74E
330
7AB59
100
AcDbEntity
  8
Level 27
  6
Continuous
 62
   253
370
    13
100
AcDbLine
 10
4369.788886
 20
474.872393
 30
0.0
 11
4139.788886
 21
474.872393
 31
0.0
  0
LINE
  5
7A74F
330
7AB59
100
AcDbEntity
  8
Level 27
  6
Continuous
 62
   253
370
    13
100
AcDbLine
 10
4364.90393
 20
464.872393
 30
0.0
 11
4144.673842
 21
464.872393
 31
0.0
  0
ENDBLK
  5
7AB5B
330
7AB59
100
AcDbEntity
  8
0
100
AcDbBlockEnd
  0
BLOCK
  5
7AB5D
330
7AB5C
100
AcDbEntity
  8
0
100
AcDbBlockBegin
  2
From Solid_15
 70
     0
 71
     0
 10
0.0
 20
0.0
 30
0.0
  3
From Solid_15
  1

  0
ELLIPSE
  5
7A751
330
7AB5C
100
AcDbEntity
  8
Level 27
  6
Continuous
 62
   253
370
    13
100
AcDbEllipse
 10
3679.788886
 20
464.872393
 30
0.0
 11
0.0
 21
-10.0
 31
0.0
210
0.0
220
0.0
230
1.0
 40
0.488496
 41
0.0
 42
6.283185307179586
  0
ELLIPSE
  5
7A752
330
7AB5C
100
AcDbEntity
  8
Level 27
  6
Continuous
 62
   253
370
    13
100
AcDbEllipse
 10
3909.788886
 20
464.872393
 30
0.0
 11
0.0
 21
-10.0
 31
0.0
210
0.0
220
0.0
230
1.0
 40
0.488496
 41
0.0
 42
6.283185307179586
  0
LINE
  5
7A753
330
7AB5C
100
AcDbEntity
  8
Level 27
  6
Continuous
 62
   253
370
    13
100
AcDbLine
 10
3909.788886
 20
454.872393
 30
0.0
 11
3679.788886
 21
454.872393
 31
0.0
  0
LINE
  5
7A754
330
7AB5C
100
AcDbEntity
  8
Level 27
  6
Continuous
 62
   253
370
    13
100
AcDbLine
 10
3914.673842
 20
464.872393
 30
0.0
 11
3674.903931
 21
464.872393
 31
0.0
  0
LINE
  5
7A755
330
7AB5C
100
AcDbEntity
  8
Level 27
  6
Continuous
 62
   253
370
    13
100
AcDbLine
 10
3909.788886
 20
474.872393
 30
0.0
 11
3679.788886
 21
474.872393
 31
0.0
  0
LINE
  5
7A756
330
7AB5C
100
AcDbEntity
  8
Level 27
  6
Continuous
 62
   253
370
    13
100
AcDbLine
 10
3904.90393
 20
464.872393
 30
0.0
 11
3684.673842
 21
464.872393
 31
0.0
  0
ENDBLK
  5
7AB5E
330
7AB5C
100
AcDbEntity
  8
0
100
AcDbBlockEnd
  0
BLOCK
  5
7AB60
330
7AB5F
100
AcDbEntity
  8
0
100
AcDbBlockBegin
  2
From Solid_16
 70
     0
 71
     0
 10
0.0
 20
0.0
 30
0.0
  3
From Solid_16
  1

  0
ELLIPSE
  5
7A758
330
7AB5F
100
AcDbEntity
  8
Level 27
  6
Continuous
 62
   253
370
    13
100
AcDbEllipse
 10
4139.797266
 20
606.196044
 30
0.0
 11
0.0
 21
-10.0
 31
0.0
210
0.0
220
0.0
230
1.0
 40
0.488496
 41
0.0
 42
6.283185307179586
  0
ELLIPSE
  5
7A759
330
7AB5F
100
AcDbEntity
  8
Level 27
  6
Continuous
 62
   253
370
    13
100
AcDbEllipse
 10
4369.797266
 20
606.196044
 30
0.0
 11
0.0
 21
-10.0
 31
0.0
210
0.0
220
0.0
230
1.0
 40
0.488496
 41
0.0
 42
6.283185307179586
  0
LINE
  5
7A75A
330
7AB5F
100
AcDbEntity
  8
Level 27
  6
Continuous
 62
   253
370
    13
100
AcDbLine
 10
4369.797266
 20
596.196044
 30
0.0
 11
4139.797266
 21
596.196044
 31
0.0
  0
LINE
  5
7A75B
330
7AB5F
100
AcDbEntity
  8
Level 27
  6
Continuous
 62
   253
370
    13
100
AcDbLine
 10
4374.682222
 20
606.196044
 30
0.0
 11
4134.91231
 21
606.196044
 31
0.0
  0
LINE
  5
7A75C
330
7AB5F
100
AcDbEntity
  8
Level 27
  6
Continuous
 62
   253
370
    13
100
AcDbLine
 10
4369.797266
 20
616.196044
 30
0.0
 11
4139.797266
 21
616.196044
 31
0.0
  0
LINE
  5
7A75D
330
7AB5F
100
AcDbEntity
  8
Level 27
  6
Continuous
 62
   253
370
    13
100
AcDbLine
 10
4364.912311
 20
606.196044
 30
0.0
 11
4144.682222
 21
606.196044
 31
0.0
  0
ENDBLK
  5
7AB61
330
7AB5F
100
AcDbEntity
  8
0
100
AcDbBlockEnd
  0
BLOCK
  5
7AB63
330
7AB62
100
AcDbEntity
  8
0
100
AcDbBlockBegin
  2
From Solid_17
 70
     0
 71
     0
 10
0.0
 20
0.0
 30
0.0
  3
From Solid_17
  1

  0
ELLIPSE
  5
7A75F
330
7AB62
100
AcDbEntity
  8
Level 27
  6
Continuous
 62
   253
370
    13
100
AcDbEllipse
 10
3911.291263
 20
910.688106
 30
0.0
 11
0.0
 21
-10.0
 31
0.0
210
0.0
220
0.0
230
1.0
 40
0.488496
 41
0.0
 42
6.283185307179586
  0
ELLIPSE
  5
7A760
330
7AB62
100
AcDbEntity
  8
Level 27
  6
Continuous
 62
   253
370
    13
100
AcDbEllipse
 10
4141.291263
 20
910.688106
 30
0.0
 11
0.0
 21
-10.0
 31
0.0
210
0.0
220
0.0
230
1.0
 40
0.488496
 41
0.0
 42
6.283185307179586
  0
LINE
  5
7A761
330
7AB62
100
AcDbEntity
  8
Level 27
  6
Continuous
 62
   253
370
    13
100
AcDbLine
 10
4141.291263
 20
900.688106
 30
0.0
 11
3911.291263
 21
900.688106
 31
0.0
  0
LINE
  5
7A762
330
7AB62
100
AcDbEntity
  8
Level 27
  6
Continuous
 62
   253
370
    13
100
AcDbLine
 10
4146.176218
 20
910.688106
 30
0.0
 11
3906.406307
 21
910.688106
 31
0.0
  0
LINE
  5
7A763
330
7AB62
100
AcDbEntity
  8
Level 27
  6
Continuous
 62
   253
370
    13
100
AcDbLine
 10
4141.291263
 20
920.688106
 30
0.0
 11
3911.291263
 21
920.688106
 31
0.0
  0
LINE
  5
7A764
330
7AB62
100
AcDbEntity
  8
Level 27
  6
Continuous
 62
   253
370
    13
100
AcDbLine
 10
4136.406308
 20
910.688106
 30
0.0
 11
3916.176219
 21
910.688106
 31
0.0
  0
ENDBLK
  5
7AB64
330
7AB62
100
AcDbEntity
  8
0
100
AcDbBlockEnd
  0
BLOCK
  5
7AB66
330
7AB65
100
AcDbEntity
  8
0
100
AcDbBlockBegin
  2
From Solid_18
 70
     0
 71
     0
 10
0.0
 20
0.0
 30
0.0
  3
From Solid_18
  1

  0
ELLIPSE
  5
7A766
330
7AB65
100
AcDbEntity
  8
Level 27
  6
Continuous
 62
   253
370
    13
100
AcDbEllipse
 10
4142.77433
 20
1073.336426
 30
0.0
 11
0.0
 21
-10.0
 31
0.0
210
0.0
220
0.0
230
1.0
 40
0.488496
 41
0.0
 42
6.283185307179586
  0
ELLIPSE
  5
7A767
330
7AB65
100
AcDbEntity
  8
Level 27
  6
Continuous
 62
   253
370
    13
100
AcDbEllipse
 10
4372.77433
 20
1073.336426
 30
0.0
 11
0.0
 21
-10.0
 31
0.0
210
0.0
220
0.0
230
1.0
 40
0.488496
 41
0.0
 42
6.283185307179586
  0
LINE
  5
7A768
330
7AB65
100
AcDbEntity
  8
Level 27
  6
Continuous
 62
   253
370
    13
100
AcDbLine
 10
4372.77433
 20
1063.336426
 30
0.0
 11
4142.77433
 21
1063.336426
 31
0.0
  0
LINE
  5
7A769
330
7AB65
100
AcDbEntity
  8
Level 27
  6
Continuous
 62
   253
370
    13
100
AcDbLine
 10
4377.659286
 20
1073.336426
 30
0.0
 11
4137.889374
 21
1073.336426
 31
0.0
  0
LINE
  5
7A76A
330
7AB65
100
AcDbEntity
  8
Level 27
  6
Continuous
 62
   253
370
    13
100
AcDbLine
 10
4372.77433
 20
1083.336426
 30
0.0
 11
4142.77433
 21
1083.336426
 31
0.0
  0
LINE
  5
7A76B
330
7AB65
100
AcDbEntity
  8
Level 27
  6
Continuous
 62
   253
370
    13
100
AcDbLine
 10
4367.889375
 20
1073.336426
 30
0.0
 11
4147.659286
 21
1073.336426
 31
0.0
  0
ENDBLK
  5
7AB67
330
7AB65
100
AcDbEntity
  8
0
100
AcDbBlockEnd
  0
BLOCK
  5
7AB69
330
7AB68
100
AcDbEntity
  8
0
100
AcDbBlockBegin
  2
From Solid_19
 70
     0
 71
     0
 10
0.0
 20
0.0
 30
0.0
  3
From Solid_19
  1

  0
ELLIPSE
  5
7A76D
330
7AB68
100
AcDbEntity
  8
Level 27
  6
Continuous
 62
   253
370
    13
100
AcDbEllipse
 10
4140.298343
 20
754.885939
 30
0.0
 11
0.0
 21
-10.0
 31
0.0
210
0.0
220
0.0
230
1.0
 40
0.488496
 41
0.0
 42
6.283185307179586
  0
ELLIPSE
  5
7A76E
330
7AB68
100
AcDbEntity
  8
Level 27
  6
Continuous
 62
   253
370
    13
100
AcDbEllipse
 10
4370.298343
 20
754.885939
 30
0.0
 11
0.0
 21
-10.0
 31
0.0
210
0.0
220
0.0
230
1.0
 40
0.488496
 41
0.0
 42
6.283185307179586
  0
LINE
  5
7A76F
330
7AB68
100
AcDbEntity
  8
Level 27
  6
Continuous
 62
   253
370
    13
100
AcDbLine
 10
4370.298343
 20
744.885939
 30
0.0
 11
4140.298343
 21
744.885939
 31
0.0
  0
LINE
  5
7A770
330
7AB68
100
AcDbEntity
  8
Level 27
  6
Continuous
 62
   253
370
    13
100
AcDbLine
 10
4375.183299
 20
754.885939
 30
0.0
 11
4135.413387
 21
754.885939
 31
0.0
  0
LINE
  5
7A771
330
7AB68
100
AcDbEntity
  8
Level 27
  6
Continuous
 62
   253
370
    13
100
AcDbLine
 10
4370.298343
 20
764.885939
 30
0.0
 11
4140.298343
 21
764.885939
 31
0.0
  0
LINE
  5
7A772
330
7AB68
100
AcDbEntity
  8
Level 27
  6
Continuous
 62
   253
370
    13
100
AcDbLine
 10
4365.413388
 20
754.885939
 30
0.0
 11
4145.183299
 21
754.885939
 31
0.0
  0
ENDBLK
  5
7AB6A
330
7AB68
100
AcDbEntity
  8
0
100
AcDbBlockEnd
  0
BLOCK
  5
7AB6C
330
7AB6B
100
AcDbEntity
  8
0
100
AcDbBlockBegin
  2
From Solid_20
 70
     0
 71
     0
 10
0.0
 20
0.0
 30
0.0
  3
From Solid_20
  1

  0
ELLIPSE
  5
7A774
330
7AB6B
100
AcDbEntity
  8
Level 27
  6
Continuous
 62
   253
370
    13
100
AcDbEllipse
 10
4141.291263
 20
910.688106
 30
0.0
 11
0.0
 21
-10.0
 31
0.0
210
0.0
220
0.0
230
1.0
 40
0.488496
 41
0.0
 42
6.283185307179586
  0
ELLIPSE
  5
7A775
330
7AB6B
100
AcDbEntity
  8
Level 27
  6
Continuous
 62
   253
370
    13
100
AcDbEllipse
 10
4371.291263
 20
910.688106
 30
0.0
 11
0.0
 21
-10.0
 31
0.0
210
0.0
220
0.0
230
1.0
 40
0.488496
 41
0.0
 42
6.283185307179586
  0
LINE
  5
7A776
330
7AB6B
100
AcDbEntity
  8
Level 27
  6
Continuous
 62
   253
370
    13
100
AcDbLine
 10
4371.291263
 20
900.688106
 30
0.0
 11
4141.291263
 21
900.688106
 31
0.0
  0
LINE
  5
7A777
330
7AB6B
100
AcDbEntity
  8
Level 27
  6
Continuous
 62
   253
370
    13
100
AcDbLine
 10
4376.176218
 20
910.688106
 30
0.0
 11
4136.406307
 21
910.688106
 31
0.0
  0
LINE
  5
7A778
330
7AB6B
100
AcDbEntity
  8
Level 27
  6
Continuous
 62
   253
370
    13
100
AcDbLine
 10
4371.291263
 20
920.688106
 30
0.0
 11
4141.291263
 21
920.688106
 31
0.0
  0
LINE
  5
7A779
330
7AB6B
100
AcDbEntity
  8
Level 27
  6
Continuous
 62
   253
370
    13
100
AcDbLine
 10
4366.406308
 20
910.688106
 30
0.0
 11
4146.176219
 21
910.688106
 31
0.0
  0
ENDBLK
  5
7AB6D
330
7AB6B
100
AcDbEntity
  8
0
100
AcDbBlockEnd
  0
BLOCK
  5
7AB6F
330
7AB6E
100
AcDbEntity
  8
0
100
AcDbBlockBegin
  2
From Solid_21
 70
     0
 71
     0
 10
0.0
 20
0.0
 30
0.0
  3
From Solid_21
  1

  0
ELLIPSE
  5
7A77B
330
7AB6E
100
AcDbEntity
  8
Level 27
  6
Continuous
 62
   253
370
    13
100
AcDbEllipse
 10
3912.77433
 20
1073.336426
 30
0.0
 11
0.0
 21
-10.0
 31
0.0
210
0.0
220
0.0
230
1.0
 40
0.488496
 41
0.0
 42
6.283185307179586
  0
ELLIPSE
  5
7A77C
330
7AB6E
100
AcDbEntity
  8
Level 27
  6
Continuous
 62
   253
370
    13
100
AcDbEllipse
 10
4142.77433
 20
1073.336426
 30
0.0
 11
0.0
 21
-10.0
 31
0.0
210
0.0
220
0.0
230
1.0
 40
0.488496
 41
0.0
 42
6.283185307179586
  0
LINE
  5
7A77D
330
7AB6E
100
AcDbEntity
  8
Level 27
  6
Continuous
 62
   253
370
    13
100
AcDbLine
 10
4142.77433
 20
1063.336426
 30
0.0
 11
3912.77433
 21
1063.336426
 31
0.0
  0
LINE
  5
7A77E
330
7AB6E
100
AcDbEntity
  8
Level 27
  6
Continuous
 62
   253
370
    13
100
AcDbLine
 10
4147.659286
 20
1073.336426
 30
0.0
 11
3907.889374
 21
1073.336426
 31
0.0
  0
LINE
  5
7A77F
330
7AB6E
100
AcDbEntity
  8
Level 27
  6
Continuous
 62
   253
370
    13
100
AcDbLine
 10
4142.77433
 20
1083.336426
 30
0.0
 11
3912.77433
 21
1083.336426
 31
0.0
  0
LINE
  5
7A780
330
7AB6E
100
AcDbEntity
  8
Level 27
  6
Continuous
 62
   253
370
    13
100
AcDbLine
 10
4137.889375
 20
1073.336426
 30
0.0
 11
3917.659286
 21
1073.336426
 31
0.0
  0
ENDBLK
  5
7AB70
330
7AB6E
100
AcDbEntity
  8
0
100
AcDbBlockEnd
  0
BLOCK
  5
7AB72
330
7AB71
100
AcDbEntity
  8
0
100
AcDbBlockBegin
  2
From Solid_22
 70
     0
 71
     0
 10
0.0
 20
0.0
 30
0.0
  3
From Solid_22
  1

  0
ELLIPSE
  5
7A782
330
7AB71
100
AcDbEntity
  8
Level 27
  6
Continuous
 62
   253
370
    13
100
AcDbEllipse
 10
3682.77433
 20
1073.336426
 30
0.0
 11
0.0
 21
-10.0
 31
0.0
210
0.0
220
0.0
230
1.0
 40
0.488496
 41
0.0
 42
6.283185307179586
  0
ELLIPSE
  5
7A783
330
7AB71
100
AcDbEntity
  8
Level 27
  6
Continuous
 62
   253
370
    13
100
AcDbEllipse
 10
3912.77433
 20
1073.336426
 30
0.0
 11
0.0
 21
-10.0
 31
0.0
210
0.0
220
0.0
230
1.0
 40
0.488496
 41
0.0
 42
6.283185307179586
  0
LINE
  5
7A784
330
7AB71
100
AcDbEntity
  8
Level 27
  6
Continuous
 62
   253
370
    13
100
AcDbLine
 10
3912.77433
 20
1063.336426
 30
0.0
 11
3682.77433
 21
1063.336426
 31
0.0
  0
LINE
  5
7A785
330
7AB71
100
AcDbEntity
  8
Level 27
  6
Continuous
 62
   253
370
    13
100
AcDbLine
 10
3917.659286
 20
1073.336426
 30
0.0
 11
3677.889374
 21
1073.336426
 31
0.0
  0
LINE
  5
7A786
330
7AB71
100
AcDbEntity
  8
Level 27
  6
Continuous
 62
   253
370
    13
100
AcDbLine
 10
3912.77433
 20
1083.336426
 30
0.0
 11
3682.77433
 21
1083.336426
 31
0.0
  0
LINE
  5
7A787
330
7AB71
100
AcDbEntity
  8
Level 27
  6
Continuous
 62
   253
370
    13
100
AcDbLine
 10
3907.889375
 20
1073.336426
 30
0.0
 11
3687.659286
 21
1073.336426
 31
0.0
  0
ENDBLK
  5
7AB73
330
7AB71
100
AcDbEntity
  8
0
100
AcDbBlockEnd
  0
BLOCK
  5
7AB75
330
7AB74
100
AcDbEntity
  8
0
100
AcDbBlockBegin
  2
From Solid_23
 70
     0
 71
     0
 10
0.0
 20
0.0
 30
0.0
  3
From Solid_23
  1

  0
ELLIPSE
  5
7A789
330
7AB74
100
AcDbEntity
  8
Level 27
  6
Continuous
 62
   253
370
    13
100
AcDbEllipse
 10
3452.77433
 20
1073.336426
 30
0.0
 11
0.0
 21
-10.0
 31
0.0
210
0.0
220
0.0
230
1.0
 40
0.488496
 41
0.0
 42
6.283185307179586
  0
ELLIPSE
  5
7A78A
330
7AB74
100
AcDbEntity
  8
Level 27
  6
Continuous
 62
   253
370
    13
100
AcDbEllipse
 10
3682.77433
 20
1073.336426
 30
0.0
 11
0.0
 21
-10.0
 31
0.0
210
0.0
220
0.0
230
1.0
 40
0.488496
 41
0.0
 42
6.283185307179586
  0
LINE
  5
7A78B
330
7AB74
100
AcDbEntity
  8
Level 27
  6
Continuous
 62
   253
370
    13
100
AcDbLine
 10
3682.77433
 20
1063.336426
 30
0.0
 11
3452.77433
 21
1063.336426
 31
0.0
  0
LINE
  5
7A78C
330
7AB74
100
AcDbEntity
  8
Level 27
  6
Continuous
 62
   253
370
    13
100
AcDbLine
 10
3687.659286
 20
1073.336426
 30
0.0
 11
3447.889374
 21
1073.336426
 31
0.0
  0
LINE
  5
7A78D
330
7AB74
100
AcDbEntity
  8
Level 27
  6
Continuous
 62
   253
370
    13
100
AcDbLine
 10
3682.77433
 20
1083.336426
 30
0.0
 11
3452.77433
 21
1083.336426
 31
0.0
  0
LINE
  5
7A78E
330
7AB74
100
AcDbEntity
  8
Level 27
  6
Continuous
 62
   253
370
    13
100
AcDbLine
 10
3677.889375
 20
1073.336426
 30
0.0
 11
3457.659286
 21
1073.336426
 31
0.0
  0
ENDBLK
  5
7AB76
330
7AB74
100
AcDbEntity
  8
0
100
AcDbBlockEnd
  0
BLOCK
  5
7AB78
330
7AB77
100
AcDbEntity
  8
0
100
AcDbBlockBegin
  2
From Solid_24
 70
     0
 71
     0
 10
0.0
 20
0.0
 30
0.0
  3
From Solid_24
  1

  0
ELLIPSE
  5
7A790
330
7AB77
100
AcDbEntity
  8
Level 27
  6
Continuous
 62
   253
370
    13
100
AcDbEllipse
 10
3449.788886
 20
464.872393
 30
0.0
 11
0.0
 21
-10.0
 31
0.0
210
0.0
220
0.0
230
1.0
 40
0.488496
 41
0.0
 42
6.283185307179586
  0
ELLIPSE
  5
7A791
330
7AB77
100
AcDbEntity
  8
Level 27
  6
Continuous
 62
   253
370
    13
100
AcDbEllipse
 10
3679.788886
 20
464.872393
 30
0.0
 11
0.0
 21
-10.0
 31
0.0
210
0.0
220
0.0
230
1.0
 40
0.488496
 41
0.0
 42
6.283185307179586
  0
LINE
  5
7A792
330
7AB77
100
AcDbEntity
  8
Level 27
  6
Continuous
 62
   253
370
    13
100
AcDbLine
 10
3679.788886
 20
454.872393
 30
0.0
 11
3449.788886
 21
454.872393
 31
0.0
  0
LINE
  5
7A793
330
7AB77
100
AcDbEntity
  8
Level 27
  6
Continuous
 62
   253
370
    13
100
AcDbLine
 10
3684.673842
 20
464.872393
 30
0.0
 11
3444.903931
 21
464.872393
 31
0.0
  0
LINE
  5
7A794
330
7AB77
100
AcDbEntity
  8
Level 27
  6
Continuous
 62
   253
370
    13
100
AcDbLine
 10
3679.788886
 20
474.872393
 30
0.0
 11
3449.788886
 21
474.872393
 31
0.0
  0
LINE
  5
7A795
330
7AB77
100
AcDbEntity
  8
Level 27
  6
Continuous
 62
   253
370
    13
100
AcDbLine
 10
3674.90393
 20
464.872393
 30
0.0
 11
3454.673842
 21
464.872393
 31
0.0
  0
ENDBLK
  5
7AB79
330
7AB77
100
AcDbEntity
  8
0
100
AcDbBlockEnd
  0
BLOCK
  5
7AB7B
330
7AB7A
100
AcDbEntity
  8
0
100
AcDbBlockBegin
  2
From Solid_25
 70
     0
 71
     0
 10
0.0
 20
0.0
 30
0.0
  3
From Solid_25
  1

  0
ELLIPSE
  5
7A797
330
7AB7A
100
AcDbEntity
  8
Level 27
  6
Continuous
 62
   253
370
    13
100
AcDbEllipse
 10
3451.291263
 20
910.688106
 30
0.0
 11
0.0
 21
-10.0
 31
0.0
210
0.0
220
0.0
230
1.0
 40
0.488496
 41
0.0
 42
6.283185307179586
  0
ELLIPSE
  5
7A798
330
7AB7A
100
AcDbEntity
  8
Level 27
  6
Continuous
 62
   253
370
    13
100
AcDbEllipse
 10
3681.291263
 20
910.688106
 30
0.0
 11
0.0
 21
-10.0
 31
0.0
210
0.0
220
0.0
230
1.0
 40
0.488496
 41
0.0
 42
6.283185307179586
  0
LINE
  5
7A799
330
7AB7A
100
AcDbEntity
  8
Level 27
  6
Continuous
 62
   253
370
    13
100
AcDbLine
 10
3681.291263
 20
900.688106
 30
0.0
 11
3451.291263
 21
900.688106
 31
0.0
  0
LINE
  5
7A79A
330
7AB7A
100
AcDbEntity
  8
Level 27
  6
Continuous
 62
   253
370
    13
100
AcDbLine
 10
3686.176218
 20
910.688106
 30
0.0
 11
3446.406307
 21
910.688106
 31
0.0
  0
LINE
  5
7A79B
330
7AB7A
100
AcDbEntity
  8
Level 27
  6
Continuous
 62
   253
370
    13
100
AcDbLine
 10
3681.291263
 20
920.688106
 30
0.0
 11
3451.291263
 21
920.688106
 31
0.0
  0
LINE
  5
7A79C
330
7AB7A
100
AcDbEntity
  8
Level 27
  6
Continuous
 62
   253
370
    13
100
AcDbLine
 10
3676.406308
 20
910.688106
 30
0.0
 11
3456.176219
 21
910.688106
 31
0.0
  0
ENDBLK
  5
7AB7C
330
7AB7A
100
AcDbEntity
  8
0
100
AcDbBlockEnd
  0
BLOCK
  5
7AB7E
330
7AB7D
100
AcDbEntity
  8
0
100
AcDbBlockBegin
  2
From Solid_26
 70
     0
 71
     0
 10
0.0
 20
0.0
 30
0.0
  3
From Solid_26
  1

  0
ELLIPSE
  5
7A79E
330
7AB7D
100
AcDbEntity
  8
Level 27
  6
Continuous
 62
   253
370
    13
100
AcDbEllipse
 10
3449.797266
 20
606.196044
 30
0.0
 11
0.0
 21
-10.0
 31
0.0
210
0.0
220
0.0
230
1.0
 40
0.488496
 41
0.0
 42
6.283185307179586
  0
ELLIPSE
  5
7A79F
330
7AB7D
100
AcDbEntity
  8
Level 27
  6
Continuous
 62
   253
370
    13
100
AcDbEllipse
 10
3679.797266
 20
606.196044
 30
0.0
 11
0.0
 21
-10.0
 31
0.0
210
0.0
220
0.0
230
1.0
 40
0.488496
 41
0.0
 42
6.283185307179586
  0
LINE
  5
7A7A0
330
7AB7D
100
AcDbEntity
  8
Level 27
  6
Continuous
 62
   253
370
    13
100
AcDbLine
 10
3679.797266
 20
596.196044
 30
0.0
 11
3449.797266
 21
596.196044
 31
0.0
  0
LINE
  5
7A7A1
330
7AB7D
100
AcDbEntity
  8
Level 27
  6
Continuous
 62
   253
370
    13
100
AcDbLine
 10
3684.682222
 20
606.196044
 30
0.0
 11
3444.91231
 21
606.196044
 31
0.0
  0
LINE
  5
7A7A2
330
7AB7D
100
AcDbEntity
  8
Level 27
  6
Continuous
 62
   253
370
    13
100
AcDbLine
 10
3679.797266
 20
616.196044
 30
0.0
 11
3449.797266
 21
616.196044
 31
0.0
  0
LINE
  5
7A7A3
330
7AB7D
100
AcDbEntity
  8
Level 27
  6
Continuous
 62
   253
370
    13
100
AcDbLine
 10
3674.912311
 20
606.196044
 30
0.0
 11
3454.682222
 21
606.196044
 31
0.0
  0
ENDBLK
  5
7AB7F
330
7AB7D
100
AcDbEntity
  8
0
100
AcDbBlockEnd
  0
BLOCK
  5
7AB81
330
7AB80
100
AcDbEntity
  8
0
100
AcDbBlockBegin
  2
From Solid_27
 70
     0
 71
     0
 10
0.0
 20
0.0
 30
0.0
  3
From Solid_27
  1

  0
ELLIPSE
  5
7A7A5
330
7AB80
100
AcDbEntity
  8
Level 27
  6
Continuous
 62
   253
370
    13
100
AcDbEllipse
 10
3450.298343
 20
754.885939
 30
0.0
 11
0.0
 21
-10.0
 31
0.0
210
0.0
220
0.0
230
1.0
 40
0.488496
 41
0.0
 42
6.283185307179586
  0
ELLIPSE
  5
7A7A6
330
7AB80
100
AcDbEntity
  8
Level 27
  6
Continuous
 62
   253
370
    13
100
AcDbEllipse
 10
3680.298343
 20
754.885939
 30
0.0
 11
0.0
 21
-10.0
 31
0.0
210
0.0
220
0.0
230
1.0
 40
0.488496
 41
0.0
 42
6.283185307179586
  0
LINE
  5
7A7A7
330
7AB80
100
AcDbEntity
  8
Level 27
  6
Continuous
 62
   253
370
    13
100
AcDbLine
 10
3680.298343
 20
744.885939
 30
0.0
 11
3450.298343
 21
744.885939
 31
0.0
  0
LINE
  5
7A7A8
330
7AB80
100
AcDbEntity
  8
Level 27
  6
Continuous
 62
   253
370
    13
100
AcDbLine
 10
3685.183299
 20
754.885939
 30
0.0
 11
3445.413387
 21
754.885939
 31
0.0
  0
LINE
  5
7A7A9
330
7AB80
100
AcDbEntity
  8
Level 27
  6
Continuous
 62
   253
370
    13
100
AcDbLine
 10
3680.298343
 20
764.885939
 30
0.0
 11
3450.298343
 21
764.885939
 31
0.0
  0
LINE
  5
7A7AA
330
7AB80
100
AcDbEntity
  8
Level 27
  6
Continuous
 62
   253
370
    13
100
AcDbLine
 10
3675.413388
 20
754.885939
 30
0.0
 11
3455.183299
 21
754.885939
 31
0.0
  0
ENDBLK
  5
7AB82
330
7AB80
100
AcDbEntity
  8
0
100
AcDbBlockEnd
  0
BLOCK
  5
7AB84
330
7AB83
100
AcDbEntity
  8
0
100
AcDbBlockBegin
  2
From Solid_28
 70
     0
 71
     0
 10
0.0
 20
0.0
 30
0.0
  3
From Solid_28
  1

  0
ELLIPSE
  5
7A7AC
330
7AB83
100
AcDbEntity
  8
Level 27
  6
Continuous
 62
   253
370
    13
100
AcDbEllipse
 10
4144.098516
 20
2065.028408
 30
0.0
 11
-9.999265273696413
 21
0.1212251258673644
 31
0.0
210
0.0
220
0.0
230
1.0
 40
0.671133
 41
0.0
 42
6.283185307179586
  0
ELLIPSE
  5
7A7AD
330
7AB83
100
AcDbEntity
  8
Level 27
  6
Continuous
 62
   253
370
    13
100
AcDbEllipse
 10
4140.21157
 20
188.23106
 30
0.0
 11
-9.990432790625622
 21
-0.4373261950592529
 31
0.0
210
0.0
220
0.0
230
1.0
 40
0.935478
 41
0.0
 42
6.283185307179586
  0
ELLIPSE
  5
7A7AE
330
7AB83
100
AcDbEntity
  8
Level 27
  6
Continuous
 62
   253
370
    13
100
AcDbEllipse
 10
4418.266185
 20
4919.211509
 30
0.0
 11
-211.9787028645743
 21
-5580.870138341953
 31
0.0
210
0.0
220
0.0
230
1.0
 40
0.036624
 41
5.25053361806081
 42
5.725309192081581
  0
ELLIPSE
  5
7A7AF
330
7AB83
100
AcDbEntity
  8
Level 27
  6
Continuous
 62
   253
370
    13
100
AcDbEllipse
 10
4428.267544
 20
4918.831627
 30
0.0
 11
-212.3498804461129
 21
-5590.642317591485
 31
0.0
210
0.0
220
0.0
230
1.0
 40
0.036624
 41
5.250894119492437
 42
5.725669693513209
  0
ELLIPSE
  5
7A7B0
330
7AB83
100
AcDbEntity
  8
Level 27
  6
Continuous
 62
   253
370
    13
100
AcDbEllipse
 10
4438.238047
 20
4918.452916
 30
0.0
 11
-211.9767413875417
 21
-5580.818497548466
 31
0.0
210
0.0
220
0.0
230
1.0
 40
0.036624
 41
5.250551620500608
 42
5.725327194521379
  0
ELLIPSE
  5
7A7B1
330
7AB83
100
AcDbEntity
  8
Level 27
  6
Continuous
 62
   253
370
    13
100
AcDbEllipse
 10
4428.236689
 20
4918.832799
 30
0.0
 11
-211.6055900712703
 21
-5571.047009798978
 31
0.0
210
0.0
220
0.0
230
1.0
 40
0.036624
 41
5.250189882637153
 42
5.724965456657924
  0
ENDBLK
  5
7AB85
330
7AB83
100
AcDbEntity
  8
0
100
AcDbBlockEnd
  0
BLOCK
  5
7AB87
330
7AB86
100
AcDbEntity
  8
0
100
AcDbBlockBegin
  2
From Solid_29
 70
     0
 71
     0
 10
0.0
 20
0.0
 30
0.0
  3
From Solid_29
  1

  0
ELLIPSE
  5
7A7BA
330
7AB86
100
AcDbEntity
  8
Level 27
  6
Continuous
 62
   253
370
    13
100
AcDbEllipse
 10
3450.27322
 20
331.156376
 30
0.0
 11
0.0
 21
-10.0
 31
0.0
210
0.0
220
0.0
230
1.0
 40
0.488496
 41
0.0
 42
6.283185307179586
  0
ELLIPSE
  5
7A7BB
330
7AB86
100
AcDbEntity
  8
Level 27
  6
Continuous
 62
   253
370
    13
100
AcDbEllipse
 10
3680.27322
 20
331.156376
 30
0.0
 11
0.0
 21
-10.0
 31
0.0
210
0.0
220
0.0
230
1.0
 40
0.488496
 41
0.0
 42
6.283185307179586
  0
LINE
  5
7A7BC
330
7AB86
100
AcDbEntity
  8
Level 27
  6
Continuous
 62
   253
370
    13
100
AcDbLine
 10
3680.27322
 20
321.156376
 30
0.0
 11
3450.27322
 21
321.156376
 31
0.0
  0
LINE
  5
7A7BD
330
7AB86
100
AcDbEntity
  8
Level 27
  6
Continuous
 62
   253
370
    13
100
AcDbLine
 10
3685.158176
 20
331.156376
 30
0.0
 11
3445.388264
 21
331.156376
 31
0.0
  0
LINE
  5
7A7BE
330
7AB86
100
AcDbEntity
  8
Level 27
  6
Continuous
 62
   253
370
    13
100
AcDbLine
 10
3680.27322
 20
341.156376
 30
0.0
 11
3450.27322
 21
341.156376
 31
0.0
  0
LINE
  5
7A7BF
330
7AB86
100
AcDbEntity
  8
Level 27
  6
Continuous
 62
   253
370
    13
100
AcDbLine
 10
3675.388265
 20
331.156376
 30
0.0
 11
3455.158176
 21
331.156376
 31
0.0
  0
ENDBLK
  5
7AB88
330
7AB86
100
AcDbEntity
  8
0
100
AcDbBlockEnd
  0
BLOCK
  5
7AB8A
330
7AB89
100
AcDbEntity
  8
0
100
AcDbBlockBegin
  2
From Solid_30
 70
     0
 71
     0
 10
0.0
 20
0.0
 30
0.0
  3
From Solid_30
  1

  0
ELLIPSE
  5
7A7C1
330
7AB89
100
AcDbEntity
  8
Level 27
  6
Continuous
 62
   253
370
    13
100
AcDbEllipse
 10
3912.77433
 20
1250.429548
 30
0.0
 11
0.0
 21
-10.0
 31
0.0
210
0.0
220
0.0
230
1.0
 40
0.488496
 41
0.0
 42
6.283185307179586
  0
ELLIPSE
  5
7A7C2
330
7AB89
100
AcDbEntity
  8
Level 27
  6
Continuous
 62
   253
370
    13
100
AcDbEllipse
 10
4142.77433
 20
1250.429548
 30
0.0
 11
0.0
 21
-10.0
 31
0.0
210
0.0
220
0.0
230
1.0
 40
0.488496
 41
0.0
 42
6.283185307179586
  0
LINE
  5
7A7C3
330
7AB89
100
AcDbEntity
  8
Level 27
  6
Continuous
 62
   253
370
    13
100
AcDbLine
 10
4142.77433
 20
1240.429548
 30
0.0
 11
3912.77433
 21
1240.429548
 31
0.0
  0
LINE
  5
7A7C4
330
7AB89
100
AcDbEntity
  8
Level 27
  6
Continuous
 62
   253
370
    13
100
AcDbLine
 10
4147.659286
 20
1250.429548
 30
0.0
 11
3907.889374
 21
1250.429548
 31
0.0
  0
LINE
  5
7A7C5
330
7AB89
100
AcDbEntity
  8
Level 27
  6
Continuous
 62
   253
370
    13
100
AcDbLine
 10
4142.77433
 20
1260.429548
 30
0.0
 11
3912.77433
 21
1260.429548
 31
0.0
  0
LINE
  5
7A7C6
330
7AB89
100
AcDbEntity
  8
Level 27
  6
Continuous
 62
   253
370
    13
100
AcDbLine
 10
4137.889375
 20
1250.429548
 30
0.0
 11
3917.659286
 21
1250.429548
 31
0.0
  0
ENDBLK
  5
7AB8B
330
7AB89
100
AcDbEntity
  8
0
100
AcDbBlockEnd
  0
BLOCK
  5
7AB8D
330
7AB8C
100
AcDbEntity
  8
0
100
AcDbBlockBegin
  2
From Solid_31
 70
     0
 71
     0
 10
0.0
 20
0.0
 30
0.0
  3
From Solid_31
  1

  0
ELLIPSE
  5
7A7C8
330
7AB8C
100
AcDbEntity
  8
Level 27
  6
Continuous
 62
   253
370
    13
100
AcDbEllipse
 10
3682.77433
 20
1250.429548
 30
0.0
 11
0.0
 21
-10.0
 31
0.0
210
0.0
220
0.0
230
1.0
 40
0.488496
 41
0.0
 42
6.283185307179586
  0
ELLIPSE
  5
7A7C9
330
7AB8C
100
AcDbEntity
  8
Level 27
  6
Continuous
 62
   253
370
    13
100
AcDbEllipse
 10
3912.77433
 20
1250.429548
 30
0.0
 11
0.0
 21
-10.0
 31
0.0
210
0.0
220
0.0
230
1.0
 40
0.488496
 41
0.0
 42
6.283185307179586
  0
LINE
  5
7A7CA
330
7AB8C
100
AcDbEntity
  8
Level 27
  6
Continuous
 62
   253
370
    13
100
AcDbLine
 10
3912.77433
 20
1240.429548
 30
0.0
 11
3682.77433
 21
1240.429548
 31
0.0
  0
LINE
  5
7A7CB
330
7AB8C
100
AcDbEntity
  8
Level 27
  6
Continuous
 62
   253
370
    13
100
AcDbLine
 10
3917.659286
 20
1250.429548
 30
0.0
 11
3677.889374
 21
1250.429548
 31
0.0
  0
LINE
  5
7A7CC
330
7AB8C
100
AcDbEntity
  8
Level 27
  6
Continuous
 62
   253
370
    13
100
AcDbLine
 10
3912.77433
 20
1260.429548
 30
0.0
 11
3682.77433
 21
1260.429548
 31
0.0
  0
LINE
  5
7A7CD
330
7AB8C
100
AcDbEntity
  8
Level 27
  6
Continuous
 62
   253
370
    13
100
AcDbLine
 10
3907.889375
 20
1250.429548
 30
0.0
 11
3687.659286
 21
1250.429548
 31
0.0
  0
ENDBLK
  5
7AB8E
330
7AB8C
100
AcDbEntity
  8
0
100
AcDbBlockEnd
  0
BLOCK
  5
7AB90
330
7AB8F
100
AcDbEntity
  8
0
100
AcDbBlockBegin
  2
From Solid_32
 70
     0
 71
     0
 10
0.0
 20
0.0
 30
0.0
  3
From Solid_32
  1

  0
ELLIPSE
  5
7A7CF
330
7AB8F
100
AcDbEntity
  8
Level 27
  6
Continuous
 62
   253
370
    13
100
AcDbEllipse
 10
3452.77433
 20
1250.429548
 30
0.0
 11
0.0
 21
-10.0
 31
0.0
210
0.0
220
0.0
230
1.0
 40
0.488496
 41
0.0
 42
6.283185307179586
  0
ELLIPSE
  5
7A7D0
330
7AB8F
100
AcDbEntity
  8
Level 27
  6
Continuous
 62
   253
370
    13
100
AcDbEllipse
 10
3682.77433
 20
1250.429548
 30
0.0
 11
0.0
 21
-10.0
 31
0.0
210
0.0
220
0.0
230
1.0
 40
0.488496
 41
0.0
 42
6.283185307179586
  0
LINE
  5
7A7D1
330
7AB8F
100
AcDbEntity
  8
Level 27
  6
Continuous
 62
   253
370
    13
100
AcDbLine
 10
3682.77433
 20
1240.429548
 30
0.0
 11
3452.77433
 21
1240.429548
 31
0.0
  0
LINE
  5
7A7D2
330
7AB8F
100
AcDbEntity
  8
Level 27
  6
Continuous
 62
   253
370
    13
100
AcDbLine
 10
3687.659286
 20
1250.429548
 30
0.0
 11
3447.889374
 21
1250.429548
 31
0.0
  0
LINE
  5
7A7D3
330
7AB8F
100
AcDbEntity
  8
Level 27
  6
Continuous
 62
   253
370
    13
100
AcDbLine
 10
3682.77433
 20
1260.429548
 30
0.0
 11
3452.77433
 21
1260.429548
 31
0.0
  0
LINE
  5
7A7D4
330
7AB8F
100
AcDbEntity
  8
Level 27
  6
Continuous
 62
   253
370
    13
100
AcDbLine
 10
3677.889375
 20
1250.429548
 30
0.0
 11
3457.659286
 21
1250.429548
 31
0.0
  0
ENDBLK
  5
7AB91
330
7AB8F
100
AcDbEntity
  8
0
100
AcDbBlockEnd
  0
BLOCK
  5
7AB93
330
7AB92
100
AcDbEntity
  8
0
100
AcDbBlockBegin
  2
From Solid_33
 70
     0
 71
     0
 10
0.0
 20
0.0
 30
0.0
  3
From Solid_33
  1

  0
ELLIPSE
  5
7A7D6
330
7AB92
100
AcDbEntity
  8
Level 27
  6
Continuous
 62
   253
370
    13
100
AcDbEllipse
 10
4142.77433
 20
1250.429548
 30
0.0
 11
0.0
 21
-10.0
 31
0.0
210
0.0
220
0.0
230
1.0
 40
0.488496
 41
0.0
 42
6.283185307179586
  0
ELLIPSE
  5
7A7D7
330
7AB92
100
AcDbEntity
  8
Level 27
  6
Continuous
 62
   253
370
    13
100
AcDbEllipse
 10
4372.77433
 20
1250.429548
 30
0.0
 11
0.0
 21
-10.0
 31
0.0
210
0.0
220
0.0
230
1.0
 40
0.488496
 41
0.0
 42
6.283185307179586
  0
LINE
  5
7A7D8
330
7AB92
100
AcDbEntity
  8
Level 27
  6
Continuous
 62
   253
370
    13
100
AcDbLine
 10
4372.77433
 20
1240.429548
 30
0.0
 11
4142.77433
 21
1240.429548
 31
0.0
  0
LINE
  5
7A7D9
330
7AB92
100
AcDbEntity
  8
Level 27
  6
Continuous
 62
   253
370
    13
100
AcDbLine
 10
4377.659286
 20
1250.429548
 30
0.0
 11
4137.889374
 21
1250.429548
 31
0.0
  0
LINE
  5
7A7DA
330
7AB92
100
AcDbEntity
  8
Level 27
  6
Continuous
 62
   253
370
    13
100
AcDbLine
 10
4372.77433
 20
1260.429548
 30
0.0
 11
4142.77433
 21
1260.429548
 31
0.0
  0
LINE
  5
7A7DB
330
7AB92
100
AcDbEntity
  8
Level 27
  6
Continuous
 62
   253
370
    13
100
AcDbLine
 10
4367.889375
 20
1250.429548
 30
0.0
 11
4147.659286
 21
1250.429548
 31
0.0
  0
ENDBLK
  5
7AB94
330
7AB92
100
AcDbEntity
  8
0
100
AcDbBlockEnd
  0
BLOCK
  5
7AB96
330
7AB95
100
AcDbEntity
  8
0
100
AcDbBlockBegin
  2
From Solid_34
 70
     0
 71
     0
 10
0.0
 20
0.0
 30
0.0
  3
From Solid_34
  1

  0
ELLIPSE
  5
7A7DD
330
7AB95
100
AcDbEntity
  8
Level 27
  6
Continuous
 62
   253
370
    13
100
AcDbEllipse
 10
3452.77433
 20
1447.199684
 30
0.0
 11
0.0
 21
-10.0
 31
0.0
210
0.0
220
0.0
230
1.0
 40
0.488496
 41
0.0
 42
6.283185307179586
  0
ELLIPSE
  5
7A7DE
330
7AB95
100
AcDbEntity
  8
Level 27
  6
Continuous
 62
   253
370
    13
100
AcDbEllipse
 10
3682.77433
 20
1447.199684
 30
0.0
 11
0.0
 21
-10.0
 31
0.0
210
0.0
220
0.0
230
1.0
 40
0.488496
 41
0.0
 42
6.283185307179586
  0
LINE
  5
7A7DF
330
7AB95
100
AcDbEntity
  8
Level 27
  6
Continuous
 62
   253
370
    13
100
AcDbLine
 10
3682.77433
 20
1437.199684
 30
0.0
 11
3452.77433
 21
1437.199684
 31
0.0
  0
LINE
  5
7A7E0
330
7AB95
100
AcDbEntity
  8
Level 27
  6
Continuous
 62
   253
370
    13
100
AcDbLine
 10
3687.659286
 20
1447.199684
 30
0.0
 11
3447.889374
 21
1447.199684
 31
0.0
  0
LINE
  5
7A7E1
330
7AB95
100
AcDbEntity
  8
Level 27
  6
Continuous
 62
   253
370
    13
100
AcDbLine
 10
3682.77433
 20
1457.199684
 30
0.0
 11
3452.77433
 21
1457.199684
 31
0.0
  0
LINE
  5
7A7E2
330
7AB95
100
AcDbEntity
  8
Level 27
  6
Continuous
 62
   253
370
    13
100
AcDbLine
 10
3677.889375
 20
1447.199684
 30
0.0
 11
3457.659286
 21
1447.199684
 31
0.0
  0
ENDBLK
  5
7AB97
330
7AB95
100
AcDbEntity
  8
0
100
AcDbBlockEnd
  0
BLOCK
  5
7AB99
330
7AB98
100
AcDbEntity
  8
0
100
AcDbBlockBegin
  2
From Solid_35
 70
     0
 71
     0
 10
0.0
 20
0.0
 30
0.0
  3
From Solid_35
  1

  0
ELLIPSE
  5
7A7E4
330
7AB98
100
AcDbEntity
  8
Level 27
  6
Continuous
 62
   253
370
    13
100
AcDbEllipse
 10
3682.77433
 20
1447.199684
 30
0.0
 11
0.0
 21
-10.0
 31
0.0
210
0.0
220
0.0
230
1.0
 40
0.488496
 41
0.0
 42
6.283185307179586
  0
ELLIPSE
  5
7A7E5
330
7AB98
100
AcDbEntity
  8
Level 27
  6
Continuous
 62
   253
370
    13
100
AcDbEllipse
 10
3912.77433
 20
1447.199684
 30
0.0
 11
0.0
 21
-10.0
 31
0.0
210
0.0
220
0.0
230
1.0
 40
0.488496
 41
0.0
 42
6.283185307179586
  0
LINE
  5
7A7E6
330
7AB98
100
AcDbEntity
  8
Level 27
  6
Continuous
 62
   253
370
    13
100
AcDbLine
 10
3912.77433
 20
1437.199684
 30
0.0
 11
3682.77433
 21
1437.199684
 31
0.0
  0
LINE
  5
7A7E7
330
7AB98
100
AcDbEntity
  8
Level 27
  6
Continuous
 62
   253
370
    13
100
AcDbLine
 10
3917.659286
 20
1447.199684
 30
0.0
 11
3677.889374
 21
1447.199684
 31
0.0
  0
LINE
  5
7A7E8
330
7AB98
100
AcDbEntity
  8
Level 27
  6
Continuous
 62
   253
370
    13
100
AcDbLine
 10
3912.77433
 20
1457.199684
 30
0.0
 11
3682.77433
 21
1457.199684
 31
0.0
  0
LINE
  5
7A7E9
330
7AB98
100
AcDbEntity
  8
Level 27
  6
Continuous
 62
   253
370
    13
100
AcDbLine
 10
3907.889375
 20
1447.199684
 30
0.0
 11
3687.659286
 21
1447.199684
 31
0.0
  0
ENDBLK
  5
7AB9A
330
7AB98
100
AcDbEntity
  8
0
100
AcDbBlockEnd
  0
BLOCK
  5
7AB9C
330
7AB9B
100
AcDbEntity
  8
0
100
AcDbBlockBegin
  2
From Solid_36
 70
     0
 71
     0
 10
0.0
 20
0.0
 30
0.0
  3
From Solid_36
  1

  0
ELLIPSE
  5
7A7EB
330
7AB9B
100
AcDbEntity
  8
Level 27
  6
Continuous
 62
   253
370
    13
100
AcDbEllipse
 10
3912.77433
 20
1447.199684
 30
0.0
 11
0.0
 21
-10.0
 31
0.0
210
0.0
220
0.0
230
1.0
 40
0.488496
 41
0.0
 42
6.283185307179586
  0
ELLIPSE
  5
7A7EC
330
7AB9B
100
AcDbEntity
  8
Level 27
  6
Continuous
 62
   253
370
    13
100
AcDbEllipse
 10
4142.77433
 20
1447.199684
 30
0.0
 11
0.0
 21
-10.0
 31
0.0
210
0.0
220
0.0
230
1.0
 40
0.488496
 41
0.0
 42
6.283185307179586
  0
LINE
  5
7A7ED
330
7AB9B
100
AcDbEntity
  8
Level 27
  6
Continuous
 62
   253
370
    13
100
AcDbLine
 10
4142.77433
 20
1437.199684
 30
0.0
 11
3912.77433
 21
1437.199684
 31
0.0
  0
LINE
  5
7A7EE
330
7AB9B
100
AcDbEntity
  8
Level 27
  6
Continuous
 62
   253
370
    13
100
AcDbLine
 10
4147.659286
 20
1447.199684
 30
0.0
 11
3907.889374
 21
1447.199684
 31
0.0
  0
LINE
  5
7A7EF
330
7AB9B
100
AcDbEntity
  8
Level 27
  6
Continuous
 62
   253
370
    13
100
AcDbLine
 10
4142.77433
 20
1457.199684
 30
0.0
 11
3912.77433
 21
1457.199684
 31
0.0
  0
LINE
  5
7A7F0
330
7AB9B
100
AcDbEntity
  8
Level 27
  6
Continuous
 62
   253
370
    13
100
AcDbLine
 10
4137.889375
 20
1447.199684
 30
0.0
 11
3917.659286
 21
1447.199684
 31
0.0
  0
ENDBLK
  5
7AB9D
330
7AB9B
100
AcDbEntity
  8
0
100
AcDbBlockEnd
  0
BLOCK
  5
7AB9F
330
7AB9E
100
AcDbEntity
  8
0
100
AcDbBlockBegin
  2
From Solid_37
 70
     0
 71
     0
 10
0.0
 20
0.0
 30
0.0
  3
From Solid_37
  1

  0
ELLIPSE
  5
7A7F2
330
7AB9E
100
AcDbEntity
  8
Level 27
  6
Continuous
 62
   253
370
    13
100
AcDbEllipse
 10
4142.77433
 20
1447.199684
 30
0.0
 11
0.0
 21
-10.0
 31
0.0
210
0.0
220
0.0
230
1.0
 40
0.488496
 41
0.0
 42
6.283185307179586
  0
ELLIPSE
  5
7A7F3
330
7AB9E
100
AcDbEntity
  8
Level 27
  6
Continuous
 62
   253
370
    13
100
AcDbEllipse
 10
4372.77433
 20
1447.199684
 30
0.0
 11
0.0
 21
-10.0
 31
0.0
210
0.0
220
0.0
230
1.0
 40
0.488496
 41
0.0
 42
6.283185307179586
  0
LINE
  5
7A7F4
330
7AB9E
100
AcDbEntity
  8
Level 27
  6
Continuous
 62
   253
370
    13
100
AcDbLine
 10
4372.77433
 20
1437.199684
 30
0.0
 11
4142.77433
 21
1437.199684
 31
0.0
  0
LINE
  5
7A7F5
330
7AB9E
100
AcDbEntity
  8
Level 27
  6
Continuous
 62
   253
370
    13
100
AcDbLine
 10
4377.659286
 20
1447.199684
 30
0.0
 11
4137.889374
 21
1447.199684
 31
0.0
  0
LINE
  5
7A7F6
330
7AB9E
100
AcDbEntity
  8
Level 27
  6
Continuous
 62
   253
370
    13
100
AcDbLine
 10
4372.77433
 20
1457.199684
 30
0.0
 11
4142.77433
 21
1457.199684
 31
0.0
  0
LINE
  5
7A7F7
330
7AB9E
100
AcDbEntity
  8
Level 27
  6
Continuous
 62
   253
370
    13
100
AcDbLine
 10
4367.889375
 20
1447.199684
 30
0.0
 11
4147.659286
 21
1447.199684
 31
0.0
  0
ENDBLK
  5
7ABA0
330
7AB9E
100
AcDbEntity
  8
0
100
AcDbBlockEnd
  0
BLOCK
  5
7ABA2
330
7ABA1
100
AcDbEntity
  8
0
100
AcDbBlockBegin
  2
From Solid_38
 70
     0
 71
     0
 10
0.0
 20
0.0
 30
0.0
  3
From Solid_38
  1

  0
ELLIPSE
  5
7A7F9
330
7ABA1
100
AcDbEntity
  8
Level 27
  6
Continuous
 62
   253
370
    13
100
AcDbEllipse
 10
3452.77433
 20
1662.133217
 30
0.0
 11
0.0
 21
-10.0
 31
0.0
210
0.0
220
0.0
230
1.0
 40
0.488496
 41
0.0
 42
6.283185307179586
  0
ELLIPSE
  5
7A7FA
330
7ABA1
100
AcDbEntity
  8
Level 27
  6
Continuous
 62
   253
370
    13
100
AcDbEllipse
 10
3682.77433
 20
1662.133217
 30
0.0
 11
0.0
 21
-10.0
 31
0.0
210
0.0
220
0.0
230
1.0
 40
0.488496
 41
0.0
 42
6.283185307179586
  0
LINE
  5
7A7FB
330
7ABA1
100
AcDbEntity
  8
Level 27
  6
Continuous
 62
   253
370
    13
100
AcDbLine
 10
3682.77433
 20
1652.133217
 30
0.0
 11
3452.77433
 21
1652.133217
 31
0.0
  0
LINE
  5
7A7FC
330
7ABA1
100
AcDbEntity
  8
Level 27
  6
Continuous
 62
   253
370
    13
100
AcDbLine
 10
3687.659285
 20
1662.133217
 30
0.0
 11
3447.889374
 21
1662.133217
 31
0.0
  0
LINE
  5
7A7FD
330
7ABA1
100
AcDbEntity
  8
Level 27
  6
Continuous
 62
   253
370
    13
100
AcDbLine
 10
3682.77433
 20
1672.133217
 30
0.0
 11
3452.77433
 21
1672.133217
 31
0.0
  0
LINE
  5
7A7FE
330
7ABA1
100
AcDbEntity
  8
Level 27
  6
Continuous
 62
   253
370
    13
100
AcDbLine
 10
3677.889375
 20
1662.133217
 30
0.0
 11
3457.659286
 21
1662.133217
 31
0.0
  0
ENDBLK
  5
7ABA3
330
7ABA1
100
AcDbEntity
  8
0
100
AcDbBlockEnd
  0
BLOCK
  5
7ABA5
330
7ABA4
100
AcDbEntity
  8
0
100
AcDbBlockBegin
  2
From Solid_39
 70
     0
 71
     0
 10
0.0
 20
0.0
 30
0.0
  3
From Solid_39
  1

  0
ELLIPSE
  5
7A800
330
7ABA4
100
AcDbEntity
  8
Level 27
  6
Continuous
 62
   253
370
    13
100
AcDbEllipse
 10
3682.77433
 20
1662.133217
 30
0.0
 11
0.0
 21
-10.0
 31
0.0
210
0.0
220
0.0
230
1.0
 40
0.488496
 41
0.0
 42
6.283185307179586
  0
ELLIPSE
  5
7A801
330
7ABA4
100
AcDbEntity
  8
Level 27
  6
Continuous
 62
   253
370
    13
100
AcDbEllipse
 10
3912.77433
 20
1662.133217
 30
0.0
 11
0.0
 21
-10.0
 31
0.0
210
0.0
220
0.0
230
1.0
 40
0.488496
 41
0.0
 42
6.283185307179586
  0
LINE
  5
7A802
330
7ABA4
100
AcDbEntity
  8
Level 27
  6
Continuous
 62
   253
370
    13
100
AcDbLine
 10
3912.77433
 20
1652.133217
 30
0.0
 11
3682.77433
 21
1652.133217
 31
0.0
  0
LINE
  5
7A803
330
7ABA4
100
AcDbEntity
  8
Level 27
  6
Continuous
 62
   253
370
    13
100
AcDbLine
 10
3917.659285
 20
1662.133217
 30
0.0
 11
3677.889374
 21
1662.133217
 31
0.0
  0
LINE
  5
7A804
330
7ABA4
100
AcDbEntity
  8
Level 27
  6
Continuous
 62
   253
370
    13
100
AcDbLine
 10
3912.77433
 20
1672.133217
 30
0.0
 11
3682.77433
 21
1672.133217
 31
0.0
  0
LINE
  5
7A805
330
7ABA4
100
AcDbEntity
  8
Level 27
  6
Continuous
 62
   253
370
    13
100
AcDbLine
 10
3907.889375
 20
1662.133217
 30
0.0
 11
3687.659286
 21
1662.133217
 31
0.0
  0
ENDBLK
  5
7ABA6
330
7ABA4
100
AcDbEntity
  8
0
100
AcDbBlockEnd
  0
BLOCK
  5
7ABA8
330
7ABA7
100
AcDbEntity
  8
0
100
AcDbBlockBegin
  2
From Solid_40
 70
     0
 71
     0
 10
0.0
 20
0.0
 30
0.0
  3
From Solid_40
  1

  0
ELLIPSE
  5
7A807
330
7ABA7
100
AcDbEntity
  8
Level 27
  6
Continuous
 62
   253
370
    13
100
AcDbEllipse
 10
3912.77433
 20
1662.133217
 30
0.0
 11
0.0
 21
-10.0
 31
0.0
210
0.0
220
0.0
230
1.0
 40
0.488496
 41
0.0
 42
6.283185307179586
  0
ELLIPSE
  5
7A808
330
7ABA7
100
AcDbEntity
  8
Level 27
  6
Continuous
 62
   253
370
    13
100
AcDbEllipse
 10
4142.77433
 20
1662.133217
 30
0.0
 11
0.0
 21
-10.0
 31
0.0
210
0.0
220
0.0
230
1.0
 40
0.488496
 41
0.0
 42
6.283185307179586
  0
LINE
  5
7A809
330
7ABA7
100
AcDbEntity
  8
Level 27
  6
Continuous
 62
   253
370
    13
100
AcDbLine
 10
4142.77433
 20
1652.133217
 30
0.0
 11
3912.77433
 21
1652.133217
 31
0.0
  0
LINE
  5
7A80A
330
7ABA7
100
AcDbEntity
  8
Level 27
  6
Continuous
 62
   253
370
    13
100
AcDbLine
 10
4147.659285
 20
1662.133217
 30
0.0
 11
3907.889374
 21
1662.133217
 31
0.0
  0
LINE
  5
7A80B
330
7ABA7
100
AcDbEntity
  8
Level 27
  6
Continuous
 62
   253
370
    13
100
AcDbLine
 10
4142.77433
 20
1672.133217
 30
0.0
 11
3912.77433
 21
1672.133217
 31
0.0
  0
LINE
  5
7A80C
330
7ABA7
100
AcDbEntity
  8
Level 27
  6
Continuous
 62
   253
370
    13
100
AcDbLine
 10
4137.889375
 20
1662.133217
 30
0.0
 11
3917.659286
 21
1662.133217
 31
0.0
  0
ENDBLK
  5
7ABA9
330
7ABA7
100
AcDbEntity
  8
0
100
AcDbBlockEnd
  0
BLOCK
  5
7ABAB
330
7ABAA
100
AcDbEntity
  8
0
100
AcDbBlockBegin
  2
From Solid_41
 70
     0
 71
     0
 10
0.0
 20
0.0
 30
0.0
  3
From Solid_41
  1

  0
ELLIPSE
  5
7A80E
330
7ABAA
100
AcDbEntity
  8
Level 27
  6
Continuous
 62
   253
370
    13
100
AcDbEllipse
 10
4142.77433
 20
1662.133217
 30
0.0
 11
0.0
 21
-10.0
 31
0.0
210
0.0
220
0.0
230
1.0
 40
0.488496
 41
0.0
 42
6.283185307179586
  0
ELLIPSE
  5
7A80F
330
7ABAA
100
AcDbEntity
  8
Level 27
  6
Continuous
 62
   253
370
    13
100
AcDbEllipse
 10
4372.77433
 20
1662.133217
 30
0.0
 11
0.0
 21
-10.0
 31
0.0
210
0.0
220
0.0
230
1.0
 40
0.488496
 41
0.0
 42
6.283185307179586
  0
LINE
  5
7A810
330
7ABAA
100
AcDbEntity
  8
Level 27
  6
Continuous
 62
   253
370
    13
100
AcDbLine
 10
4372.77433
 20
1652.133217
 30
0.0
 11
4142.77433
 21
1652.133217
 31
0.0
  0
LINE
  5
7A811
330
7ABAA
100
AcDbEntity
  8
Level 27
  6
Continuous
 62
   253
370
    13
100
AcDbLine
 10
4377.659285
 20
1662.133217
 30
0.0
 11
4137.889374
 21
1662.133217
 31
0.0
  0
LINE
  5
7A812
330
7ABAA
100
AcDbEntity
  8
Level 27
  6
Continuous
 62
   253
370
    13
100
AcDbLine
 10
4372.77433
 20
1672.133217
 30
0.0
 11
4142.77433
 21
1672.133217
 31
0.0
  0
LINE
  5
7A813
330
7ABAA
100
AcDbEntity
  8
Level 27
  6
Continuous
 62
   253
370
    13
100
AcDbLine
 10
4367.889375
 20
1662.133217
 30
0.0
 11
4147.659286
 21
1662.133217
 31
0.0
  0
ENDBLK
  5
7ABAC
330
7ABAA
100
AcDbEntity
  8
0
100
AcDbBlockEnd
  0
BLOCK
  5
7ABAE
330
7ABAD
100
AcDbEntity
  8
0
100
AcDbBlockBegin
  2
UNITE
 70
     0
 71
     0
 10
0.0
 20
0.0
 30
0.0
  3
UNITE
  1

  0
INSERT
  5
7A826
330
7ABAD
100
AcDbEntity
  8
Level 26
 62
   133
370
     0
100
AcDbBlockReference
  2
Feature Solid
 10
0.0
 20
0.0
 30
0.0
  0
INSERT
  5
7A82D
330
7ABAD
100
AcDbEntity
  8
Level 26
 62
   133
370
     0
100
AcDbBlockReference
  2
Feature Solid_1
 10
0.0
 20
-0.55
 30
0.0
  0
INSERT
  5
7A834
330
7ABAD
100
AcDbEntity
  8
Level 8
 62
   133
370
     0
100
AcDbBlockReference
  2
Feature Solid_2
 10
0.0
 20
0.0
 30
0.0
  0
ENDBLK
  5
7ABAF
330
7ABAD
100
AcDbEntity
  8
0
100
AcDbBlockEnd
  0
BLOCK
  5
7ABB1
330
7ABB0
100
AcDbEntity
  8
0
100
AcDbBlockBegin
  2
Feature Solid
 70
     0
 71
     0
 10
0.0
 20
0.0
 30
0.0
  3
Feature Solid
  1

  0
INSERT
  5
7A827
330
7ABB0
100
AcDbEntity
  8
Level 26
 62
   133
370
     0
100
AcDbBlockReference
  2
DDPROJ
 10
0.0
 20
0.0
 30
0.0
  0
ENDBLK
  5
7ABB2
330
7ABB0
100
AcDbEntity
  8
0
100
AcDbBlockEnd
  0
BLOCK
  5
7ABB4
330
7ABB3
100
AcDbEntity
  8
0
100
AcDbBlockBegin
  2
DDPROJ
 70
     0
 71
     0
 10
0.0
 20
0.0
 30
0.0
  3
DDPROJ
  1

  0
POINT
  5
7A828
330
7ABB3
100
AcDbEntity
  8
Level 26
 62
   133
370
     0
100
AcDbPoint
 10
-0.011714
 20
-1.833517
 30
0.0
  0
LINE
  5
7A829
330
7ABB3
100
AcDbEntity
  8
Level 26
 62
   133
370
     0
100
AcDbLine
 10
-0.131714
 20
-1.933517
 30
0.0
 11
-0.359125
 21
-1.933517
 31
0.0
  0
LINE
  5
7A82A
330
7ABB3
100
AcDbEntity
  8
Level 26
 62
   133
370
     0
100
AcDbLine
 10
-0.131714
 20
-1.833517
 30
0.0
 11
-0.431714
 21
-1.833517
 31
0.0
  0
LINE
  5
7A82B
330
7ABB3
100
AcDbEntity
  8
Level 26
 62
   133
370
     0
100
AcDbLine
 10
-0.131714
 20
-1.833517
 30
0.0
 11
-0.431714
 21
-1.833517
 31
0.0
  0
LINE
  5
7A82C
330
7ABB3
100
AcDbEntity
  8
Level 26
 62
   133
370
     0
100
AcDbLine
 10
-0.131714
 20
-1.933517
 30
0.0
 11
-0.359125
 21
-1.933517
 31
0.0
  0
ENDBLK
  5
7ABB5
330
7ABB3
100
AcDbEntity
  8
0
100
AcDbBlockEnd
  0
BLOCK
  5
7ABB7
330
7ABB6
100
AcDbEntity
  8
0
100
AcDbBlockBegin
  2
Feature Solid_1
 70
     0
 71
     0
 10
0.0
 20
0.0
 30
0.0
  3
Feature Solid_1
  1

  0
INSERT
  5
7A82E
330
7ABB6
100
AcDbEntity
  8
Level 26
 62
   133
370
     0
100
AcDbBlockReference
  2
DDPROJ_1
 10
0.0
 20
0.0
 30
0.0
  0
ENDBLK
  5
7ABB8
330
7ABB6
100
AcDbEntity
  8
0
100
AcDbBlockEnd
  0
BLOCK
  5
7ABBA
330
7ABB9
100
AcDbEntity
  8
0
100
AcDbBlockBegin
  2
DDPROJ_1
 70
     0
 71
     0
 10
0.0
 20
0.0
 30
0.0
  3
DDPROJ_1
  1

  0
POINT
  5
7A82F
330
7ABB9
100
AcDbEntity
  8
Level 26
 62
   133
370
     0
100
AcDbPoint
 10
-0.011714
 20
-1.933517
 30
0.0
  0
LINE
  5
7A830
330
7ABB9
100
AcDbEntity
  8
Level 26
 62
   133
370
     0
100
AcDbLine
 10
-0.131714
 20
-1.933517
 30
0.0
 11
-0.431714
 21
-1.933517
 31
0.0
  0
LINE
  5
7A831
330
7ABB9
100
AcDbEntity
  8
Level 26
 62
   133
370
     0
100
AcDbLine
 10
-0.131714
 20
-1.833517
 30
0.0
 11
-0.359125
 21
-1.833517
 31
0.0
  0
LINE
  5
7A832
330
7ABB9
100
AcDbEntity
  8
Level 26
 62
   133
370
     0
100
AcDbLine
 10
-0.131714
 20
-1.833517
 30
0.0
 11
-0.359125
 21
-1.833517
 31
0.0
  0
LINE
  5
7A833
330
7ABB9
100
AcDbEntity
  8
Level 26
 62
   133
370
     0
100
AcDbLine
 10
-0.131714
 20
-1.933517
 30
0.0
 11
-0.431714
 21
-1.933517
 31
0.0
  0
ENDBLK
  5
7ABBB
330
7ABB9
100
AcDbEntity
  8
0
100
AcDbBlockEnd
  0
BLOCK
  5
7ABBD
330
7ABBC
100
AcDbEntity
  8
0
100
AcDbBlockBegin
  2
Feature Solid_2
 70
     0
 71
     0
 10
0.0
 20
0.0
 30
0.0
  3
Feature Solid_2
  1

  0
INSERT
  5
7A835
330
7ABBC
100
AcDbEntity
  8
Level 8
 62
   133
370
     0
100
AcDbBlockReference
  2
UNITE_1
 10
0.0
 20
0.0
 30
0.0
  0
ENDBLK
  5
7ABBE
330
7ABBC
100
AcDbEntity
  8
0
100
AcDbBlockEnd
  0
BLOCK
  5
7ABC0
330
7ABBF
100
AcDbEntity
  8
0
100
AcDbBlockBegin
  2
UNITE_1
 70
     0
 71
     0
 10
0.0
 20
0.0
 30
0.0
  3
UNITE_1
  1

  0
INSERT
  5
7A836
330
7ABBF
100
AcDbEntity
  8
Level 8
 62
   133
370
     0
100
AcDbBlockReference
  2
Feature Solid_3
 10
0.0
 20
0.0
 30
0.0
  0
INSERT
  5
7A84C
330
7ABBF
100
AcDbEntity
  8
Level 26
 62
   133
370
     0
100
AcDbBlockReference
  2
Feature Solid_4
 10
0.0
 20
0.0
 30
0.0
  0
ENDBLK
  5
7ABC1
330
7ABBF
100
AcDbEntity
  8
0
100
AcDbBlockEnd
  0
BLOCK
  5
7ABC3
330
7ABC2
100
AcDbEntity
  8
0
100
AcDbBlockBegin
  2
Feature Solid_3
 70
     0
 71
     0
 10
0.0
 20
0.0
 30
0.0
  3
Feature Solid_3
  1

  0
INSERT
  5
7A837
330
7ABC2
100
AcDbEntity
  8
Level 8
 62
   133
370
     0
100
AcDbBlockReference
  2
CONE
 10
0.0
 20
0.0
 30
0.0
  0
ENDBLK
  5
7ABC4
330
7ABC2
100
AcDbEntity
  8
0
100
AcDbBlockEnd
  0
BLOCK
  5
7ABC6
330
7ABC5
100
AcDbEntity
  8
0
100
AcDbBlockBegin
  2
CONE
 70
     0
 71
     0
 10
0.0
 20
0.0
 30
0.0
  3
CONE
  1

  0
LINE
  5
7A838
330
7ABC5
100
AcDbEntity
  8
Level 8
 62
   133
370
     0
100
AcDbLine
 10
-0.431714
 20
-1.833517
 30
0.0
 11
-0.431714
 21
-2.483517
 31
0.0
  0
LINE
  5
7A839
330
7ABC5
100
AcDbEntity
  8
Level 8
 62
   133
370
     0
100
AcDbLine
 10
-0.131714
 20
-2.383517
 30
0.0
 11
-0.359125
 21
-2.383517
 31
0.0
  0
LINE
  5
7A83A
330
7ABC5
100
AcDbEntity
  8
Level 8
 62
   133
370
     0
100
AcDbLine
 10
-0.131714
 20
-2.383517
 30
0.0
 11
-0.359125
 21
-2.383517
 31
0.0
  0
SPLINE
  5
7A83B
330
7ABC5
100
AcDbEntity
  8
Level 8
 62
   133
370
     0
100
AcDbSpline
210
0.0
220
0.0
230
1.0
 70
     8
 71
     3
 72
    17
 73
    13
 74
     0
 42
0.0000000001
 43
0.00000001
 40
0.0
 40
0.0
 40
0.0
 40
0.0
 40
0.1188920175173181
 40
0.1188920175173181
 40
0.1188920175173181
 40
0.4370642450454728
 40
0.4370642450454728
 40
0.4370642450454728
 40
0.7708126268407274
 40
0.7708126268407274
 40
0.7708126268407274
 40
1.0
 40
1.0
 40
1.0
 40
1.0
 10
-0.4317136962460495
 20
-2.4835170356764
 30
0.0
 10
-0.4317136962460353
 20
-2.4835170356764
 30
0.0
 10
-0.4312857853703775
 20
-2.482970961108962
 30
0.0
 10
-0.4304413967249445
 20
-2.481890266834163
 30
0.0
 10
-0.4281893687172342
 20
-2.479007999541993
 30
0.0
 10
-0.4228496497948271
 20
-2.472181370284083
 30
0.0
 10
-0.4152805637156831
 20
-2.462245290317638
 30
0.0
 10
-0.407328803424555
 20
-2.451806866801186
 30
0.0
 10
-0.3967863239604625
 20
-2.437764099143893
 30
0.0
 10
-0.3850241073261103
 20
-2.42127018794613
 30
0.0
 10
-0.3768999155639108
 20
-2.409877803190351
 30
0.0
 10
-0.3681165556180233
 20
-2.397205829360039
 30
0.0
 10
-0.3591253483963612
 20
-2.383517035681364
 30
0.0
  0
SPLINE
  5
7A83E
330
7ABC5
100
AcDbEntity
  8
Level 8
 62
   133
370
     0
100
AcDbSpline
210
0.0
220
0.0
230
1.0
 70
     8
 71
     3
 72
    14
 73
    10
 74
     0
 42
0.0000000001
 43
0.00000001
 40
0.0
 40
0.0
 40
0.0
 40
0.0
 40
0.4155111778321488
 40
0.4155111778321488
 40
0.4155111778321488
 40
0.7657511632294429
 40
0.7657511632294429
 40
0.7657511632294429
 40
1.0
 40
1.0
 40
1.0
 40
1.0
 10
-0.3591253483958568
 20
-2.383517035676381
 30
0.0
 10
-0.3753273199526888
 20
-2.408183961970713
 30
0.0
 10
-0.3909352251375111
 20
-2.429723842876861
 30
0.0
 10
-0.4032945372283692
 20
-2.446330563598322
 30
0.0
 10
-0.4137190532494088
 20
-2.460337575068316
 30
0.0
 10
-0.4220439846594104
 20
-2.471094914404415
 30
0.0
 10
-0.4268312321213301
 20
-2.477256738635805
 30
0.0
 10
-0.4300308856968016
 20
-2.481375118370783
 30
0.0
 10
-0.4317136962460495
 20
-2.4835170356764
 30
0.0
 10
-0.4317136962460495
 20
-2.4835170356764
 30
0.0
  0
LINE
  5
7A841
330
7ABC5
100
AcDbEntity
  8
Level 8
 62
   133
370
     0
100
AcDbLine
 10
-0.431714
 20
-1.833517
 30
0.0
 11
-0.431714
 21
-2.483517
 31
0.0
  0
SPLINE
  5
7A842
330
7ABC5
100
AcDbEntity
  8
Level 8
 62
   133
370
     0
100
AcDbSpline
210
0.0
220
0.0
230
1.0
 70
     8
 71
     3
 72
    17
 73
    13
 74
     0
 42
0.0000000001
 43
0.00000001
 40
0.0
 40
0.0
 40
0.0
 40
0.0
 40
0.1188920175167992
 40
0.1188920175167992
 40
0.1188920175167992
 40
0.4370642450447248
 40
0.4370642450447248
 40
0.4370642450447248
 40
0.7708126268396294
 40
0.7708126268396294
 40
0.7708126268396294
 40
1.0
 40
1.0
 40
1.0
 40
1.0
 10
-0.4317136962460353
 20
-1.833517035676251
 30
0.0
 10
-0.4317136962460353
 20
-1.833517035676251
 30
0.0
 10
-0.4312857853703846
 20
-1.834063110243678
 30
0.0
 10
-0.4304413967249587
 20
-1.835143804518469
 30
0.0
 10
-0.4281893687172627
 20
-1.83802607181063
 30
0.0
 10
-0.4228496497948839
 20
-1.84485270106853
 30
0.0
 10
-0.4152805637157471
 20
-1.854788781034975
 30
0.0
 10
-0.4073288034246332
 20
-1.865227204551418
 30
0.0
 10
-0.3967863239605549
 20
-1.879269972208701
 30
0.0
 10
-0.3850241073262168
 20
-1.895763883406455
 30
0.0
 10
-0.3768999155639889
 20
-1.90715626816229
 30
0.0
 10
-0.3681165556180517
 20
-1.919828241992677
 30
0.0
 10
-0.3591253483963328
 20
-1.933517035671436
 30
0.0
  0
LINE
  5
7A845
330
7ABC5
100
AcDbEntity
  8
Level 8
 62
   133
370
     0
100
AcDbLine
 10
-0.131714
 20
-1.933517
 30
0.0
 11
-0.359125
 21
-1.933517
 31
0.0
  0
LINE
  5
7A846
330
7ABC5
100
AcDbEntity
  8
Level 8
 62
   133
370
     0
100
AcDbLine
 10
-0.131714
 20
-1.933517
 30
0.0
 11
-0.359125
 21
-1.933517
 31
0.0
  0
SPLINE
  5
7A847
330
7ABC5
100
AcDbEntity
  8
Level 8
 62
   133
370
     0
100
AcDbSpline
210
0.0
220
0.0
230
1.0
 70
     8
 71
     3
 72
    14
 73
    10
 74
     0
 42
0.0000000001
 43
0.00000001
 40
0.0
 40
0.0
 40
0.0
 40
0.0
 40
0.4155111778320348
 40
0.4155111778320348
 40
0.4155111778320348
 40
0.7657511632291136
 40
0.7657511632291136
 40
0.7657511632291136
 40
1.0
 40
1.0
 40
1.0
 40
1.0
 10
-0.359125348395672
 20
-1.933517035676418
 30
0.0
 10
-0.3753273199525253
 20
-1.908850109382067
 30
0.0
 10
-0.3909352251373832
 20
-1.887310228475882
 30
0.0
 10
-0.4032945372282555
 20
-1.870703507754402
 30
0.0
 10
-0.4137190532493165
 20
-1.85669649628439
 30
0.0
 10
-0.4220439846593322
 20
-1.845939156948282
 30
0.0
 10
-0.4268312321212733
 20
-1.839777332716864
 30
0.0
 10
-0.4300308856967874
 20
-1.835658952981877
 30
0.0
 10
-0.4317136962460353
 20
-1.833517035676251
 30
0.0
 10
-0.4317136962460353
 20
-1.833517035676251
 30
0.0
  0
LINE
  5
7A84A
330
7ABC5
100
AcDbEntity
  8
Level 8
 62
   133
370
     0
100
AcDbLine
 10
-0.131714
 20
-2.158517
 30
0.0
 11
-0.431714
 21
-2.158517
 31
0.0
  0
LINE
  5
7A84B
330
7ABC5
100
AcDbEntity
  8
Level 8
 62
   133
370
     0
100
AcDbLine
 10
-0.131714
 20
-2.158517
 30
0.0
 11
-0.431714
 21
-2.158517
 31
0.0
  0
ENDBLK
  5
7ABC7
330
7ABC5
100
AcDbEntity
  8
0
100
AcDbBlockEnd
  0
BLOCK
  5
7ABC9
330
7ABC8
100
AcDbEntity
  8
0
100
AcDbBlockBegin
  2
Feature Solid_4
 70
     0
 71
     0
 10
0.0
 20
0.0
 30
0.0
  3
Feature Solid_4
  1

  0
INSERT
  5
7A84D
330
7ABC8
100
AcDbEntity
  8
Level 26
 62
   133
370
     0
100
AcDbBlockReference
  2
DDPROJ_2
 10
0.0
 20
0.0
 30
0.0
  0
ENDBLK
  5
7ABCA
330
7ABC8
100
AcDbEntity
  8
0
100
AcDbBlockEnd
  0
BLOCK
  5
7ABCC
330
7ABCB
100
AcDbEntity
  8
0
100
AcDbBlockBegin
  2
DDPROJ_2
 70
     0
 71
     0
 10
0.0
 20
0.0
 30
0.0
  3
DDPROJ_2
  1

  0
LINE
  5
7A84E
330
7ABCB
100
AcDbEntity
  8
Level 26
 62
   133
370
     0
100
AcDbLine
 10
-0.011714
 20
-1.833517
 30
0.0
 11
-0.131714
 21
-1.833517
 31
0.0
  0
LINE
  5
7A84F
330
7ABCB
100
AcDbEntity
  8
Level 26
 62
   133
370
     0
100
AcDbLine
 10
-0.131714
 20
-1.833517
 30
0.0
 11
-0.011714
 21
-1.833517
 31
0.0
  0
LINE
  5
7A850
330
7ABCB
100
AcDbEntity
  8
Level 26
 62
   133
370
     0
100
AcDbLine
 10
-0.011714
 20
-2.483517
 30
0.0
 11
-0.131714
 21
-2.483517
 31
0.0
  0
LINE
  5
7A851
330
7ABCB
100
AcDbEntity
  8
Level 26
 62
   133
370
     0
100
AcDbLine
 10
-0.131714
 20
-2.483517
 30
0.0
 11
-0.011714
 21
-2.483517
 31
0.0
  0
LINE
  5
7A852
330
7ABCB
100
AcDbEntity
  8
Level 26
 62
   133
370
     0
100
AcDbLine
 10
-0.131714
 20
-1.933517
 30
0.0
 11
-0.131714
 21
-2.383517
 31
0.0
  0
LINE
  5
7A853
330
7ABCB
100
AcDbEntity
  8
Level 26
 62
   133
370
     0
100
AcDbLine
 10
-0.131714
 20
-1.933517
 30
0.0
 11
-0.131714
 21
-2.383517
 31
0.0
  0
LINE
  5
7A854
330
7ABCB
100
AcDbEntity
  8
Level 26
 62
   133
370
     0
100
AcDbLine
 10
-0.011714
 20
-1.833517
 30
0.0
 11
-0.011714
 21
-2.483517
 31
0.0
  0
POINT
  5
7A855
330
7ABCB
100
AcDbEntity
  8
Level 26
 62
   133
370
     0
100
AcDbPoint
 10
-0.131714
 20
-2.483517
 30
0.0
  0
LINE
  5
7A856
330
7ABCB
100
AcDbEntity
  8
Level 26
 62
   133
370
     0
100
AcDbLine
 10
-0.011714
 20
-1.833517
 30
0.0
 11
-0.011714
 21
-2.483517
 31
0.0
  0
LINE
  5
7A857
330
7ABCB
100
AcDbEntity
  8
Level 26
 62
   133
370
     0
100
AcDbLine
 10
-0.131714
 20
-1.833517
 30
0.0
 11
-0.131714
 21
-2.483517
 31
0.0
  0
POINT
  5
7A858
330
7ABCB
100
AcDbEntity
  8
Level 26
 62
   133
370
     0
100
AcDbPoint
 10
-0.131714
 20
-1.833517
 30
0.0
  0
POINT
  5
7A859
330
7ABCB
100
AcDbEntity
  8
Level 26
 62
   133
370
     0
100
AcDbPoint
 10
-0.131714
 20
-2.483517
 30
0.0
  0
LINE
  5
7A85A
330
7ABCB
100
AcDbEntity
  8
Level 26
 62
   133
370
     0
100
AcDbLine
 10
-0.131714
 20
-1.833517
 30
0.0
 11
-0.131714
 21
-2.483517
 31
0.0
  0
POINT
  5
7A85B
330
7ABCB
100
AcDbEntity
  8
Level 26
 62
   133
370
     0
100
AcDbPoint
 10
-0.131714
 20
-1.833517
 30
0.0
  0
POINT
  5
7A85C
330
7ABCB
100
AcDbEntity
  8
Level 26
 62
   133
370
     0
100
AcDbPoint
 10
-0.131714
 20
-2.383517
 30
0.0
  0
POINT
  5
7A85D
330
7ABCB
100
AcDbEntity
  8
Level 26
 62
   133
370
     0
100
AcDbPoint
 10
-0.131714
 20
-2.383517
 30
0.0
  0
LINE
  5
7A85E
330
7ABCB
100
AcDbEntity
  8
Level 26
 62
   133
370
     0
100
AcDbLine
 10
-0.131714
 20
-2.483517
 30
0.0
 11
-0.131714
 21
-2.383517
 31
0.0
  0
LINE
  5
7A85F
330
7ABCB
100
AcDbEntity
  8
Level 26
 62
   133
370
     0
100
AcDbLine
 10
-0.131714
 20
-2.483517
 30
0.0
 11
-0.131714
 21
-2.383517
 31
0.0
  0
POINT
  5
7A860
330
7ABCB
100
AcDbEntity
  8
Level 26
 62
   133
370
     0
100
AcDbPoint
 10
-0.131714
 20
-1.933517
 30
0.0
  0
LINE
  5
7A861
330
7ABCB
100
AcDbEntity
  8
Level 26
 62
   133
370
     0
100
AcDbLine
 10
-0.131714
 20
-1.933517
 30
0.0
 11
-0.131714
 21
-1.833517
 31
0.0
  0
POINT
  5
7A862
330
7ABCB
100
AcDbEntity
  8
Level 26
 62
   133
370
     0
100
AcDbPoint
 10
-0.131714
 20
-1.933517
 30
0.0
  0
LINE
  5
7A863
330
7ABCB
100
AcDbEntity
  8
Level 26
 62
   133
370
     0
100
AcDbLine
 10
-0.131714
 20
-1.933517
 30
0.0
 11
-0.131714
 21
-1.833517
 31
0.0
  0
LINE
  5
7A864
330
7ABCB
100
AcDbEntity
  8
Level 26
 62
   133
370
     0
100
AcDbLine
 10
-0.131714
 20
-2.158517
 30
0.0
 11
-0.011714
 21
-2.158517
 31
0.0
  0
LINE
  5
7A865
330
7ABCB
100
AcDbEntity
  8
Level 26
 62
   133
370
     0
100
AcDbLine
 10
-0.131714
 20
-2.483517
 30
0.0
 11
-0.011714
 21
-2.483517
 31
0.0
  0
LINE
  5
7A866
330
7ABCB
100
AcDbEntity
  8
Level 26
 62
   133
370
     0
100
AcDbLine
 10
-0.131714
 20
-2.158517
 30
0.0
 11
-0.011714
 21
-2.158517
 31
0.0
  0
LINE
  5
7A867
330
7ABCB
100
AcDbEntity
  8
Level 26
 62
   133
370
     0
100
AcDbLine
 10
-0.131714
 20
-1.833517
 30
0.0
 11
-0.011714
 21
-1.833517
 31
0.0
  0
ENDBLK
  5
7ABCD
330
7ABCB
100
AcDbEntity
  8
0
100
AcDbBlockEnd
  0
BLOCK
  5
7ABCF
330
7ABCE
100
AcDbEntity
  8
0
100
AcDbBlockBegin
  2
UNITE_2
 70
     0
 71
     0
 10
0.0
 20
0.0
 30
0.0
  3
UNITE_2
  1

  0
INSERT
  5
7A869
330
7ABCE
100
AcDbEntity
  8
Level 26
 62
   133
370
     0
100
AcDbBlockReference
  2
Feature Solid_5
 10
0.0
 20
0.0
 30
0.0
  0
INSERT
  5
7A870
330
7ABCE
100
AcDbEntity
  8
Level 26
 62
   133
370
     0
100
AcDbBlockReference
  2
Feature Solid_6
 10
0.0
 20
-0.55
 30
0.0
  0
INSERT
  5
7A877
330
7ABCE
100
AcDbEntity
  8
Level 8
 62
   133
370
     0
100
AcDbBlockReference
  2
Feature Solid_7
 10
0.0
 20
0.0
 30
0.0
  0
ENDBLK
  5
7ABD0
330
7ABCE
100
AcDbEntity
  8
0
100
AcDbBlockEnd
  0
BLOCK
  5
7ABD2
330
7ABD1
100
AcDbEntity
  8
0
100
AcDbBlockBegin
  2
Feature Solid_5
 70
     0
 71
     0
 10
0.0
 20
0.0
 30
0.0
  3
Feature Solid_5
  1

  0
INSERT
  5
7A86A
330
7ABD1
100
AcDbEntity
  8
Level 26
 62
   133
370
     0
100
AcDbBlockReference
  2
DDPROJ_3
 10
0.0
 20
0.0
 30
0.0
  0
ENDBLK
  5
7ABD3
330
7ABD1
100
AcDbEntity
  8
0
100
AcDbBlockEnd
  0
BLOCK
  5
7ABD5
330
7ABD4
100
AcDbEntity
  8
0
100
AcDbBlockBegin
  2
DDPROJ_3
 70
     0
 71
     0
 10
0.0
 20
0.0
 30
0.0
  3
DDPROJ_3
  1

  0
POINT
  5
7A86B
330
7ABD4
100
AcDbEntity
  8
Level 26
 62
   133
370
     0
100
AcDbPoint
 10
0.011714
 20
-1.833517
 30
0.0
  0
LINE
  5
7A86C
330
7ABD4
100
AcDbEntity
  8
Level 26
 62
   133
370
     0
100
AcDbLine
 10
0.131714
 20
-1.933517
 30
0.0
 11
0.359125
 21
-1.933517
 31
0.0
  0
LINE
  5
7A86D
330
7ABD4
100
AcDbEntity
  8
Level 26
 62
   133
370
     0
100
AcDbLine
 10
0.131714
 20
-1.833517
 30
0.0
 11
0.431714
 21
-1.833517
 31
0.0
  0
LINE
  5
7A86E
330
7ABD4
100
AcDbEntity
  8
Level 26
 62
   133
370
     0
100
AcDbLine
 10
0.131714
 20
-1.833517
 30
0.0
 11
0.431714
 21
-1.833517
 31
0.0
  0
LINE
  5
7A86F
330
7ABD4
100
AcDbEntity
  8
Level 26
 62
   133
370
     0
100
AcDbLine
 10
0.131714
 20
-1.933517
 30
0.0
 11
0.359125
 21
-1.933517
 31
0.0
  0
ENDBLK
  5
7ABD6
330
7ABD4
100
AcDbEntity
  8
0
100
AcDbBlockEnd
  0
BLOCK
  5
7ABD8
330
7ABD7
100
AcDbEntity
  8
0
100
AcDbBlockBegin
  2
Feature Solid_6
 70
     0
 71
     0
 10
0.0
 20
0.0
 30
0.0
  3
Feature Solid_6
  1

  0
INSERT
  5
7A871
330
7ABD7
100
AcDbEntity
  8
Level 26
 62
   133
370
     0
100
AcDbBlockReference
  2
DDPROJ_4
 10
0.0
 20
0.0
 30
0.0
  0
ENDBLK
  5
7ABD9
330
7ABD7
100
AcDbEntity
  8
0
100
AcDbBlockEnd
  0
BLOCK
  5
7ABDB
330
7ABDA
100
AcDbEntity
  8
0
100
AcDbBlockBegin
  2
DDPROJ_4
 70
     0
 71
     0
 10
0.0
 20
0.0
 30
0.0
  3
DDPROJ_4
  1

  0
POINT
  5
7A872
330
7ABDA
100
AcDbEntity
  8
Level 26
 62
   133
370
     0
100
AcDbPoint
 10
0.011714
 20
-1.933517
 30
0.0
  0
LINE
  5
7A873
330
7ABDA
100
AcDbEntity
  8
Level 26
 62
   133
370
     0
100
AcDbLine
 10
0.131714
 20
-1.933517
 30
0.0
 11
0.431714
 21
-1.933517
 31
0.0
  0
LINE
  5
7A874
330
7ABDA
100
AcDbEntity
  8
Level 26
 62
   133
370
     0
100
AcDbLine
 10
0.131714
 20
-1.833517
 30
0.0
 11
0.359125
 21
-1.833517
 31
0.0
  0
LINE
  5
7A875
330
7ABDA
100
AcDbEntity
  8
Level 26
 62
   133
370
     0
100
AcDbLine
 10
0.131714
 20
-1.833517
 30
0.0
 11
0.359125
 21
-1.833517
 31
0.0
  0
LINE
  5
7A876
330
7ABDA
100
AcDbEntity
  8
Level 26
 62
   133
370
     0
100
AcDbLine
 10
0.131714
 20
-1.933517
 30
0.0
 11
0.431714
 21
-1.933517
 31
0.0
  0
ENDBLK
  5
7ABDC
330
7ABDA
100
AcDbEntity
  8
0
100
AcDbBlockEnd
  0
BLOCK
  5
7ABDE
330
7ABDD
100
AcDbEntity
  8
0
100
AcDbBlockBegin
  2
Feature Solid_7
 70
     0
 71
     0
 10
0.0
 20
0.0
 30
0.0
  3
Feature Solid_7
  1

  0
INSERT
  5
7A878
330
7ABDD
100
AcDbEntity
  8
Level 8
 62
   133
370
     0
100
AcDbBlockReference
  2
UNITE_3
 10
0.0
 20
0.0
 30
0.0
  0
ENDBLK
  5
7ABDF
330
7ABDD
100
AcDbEntity
  8
0
100
AcDbBlockEnd
  0
BLOCK
  5
7ABE1
330
7ABE0
100
AcDbEntity
  8
0
100
AcDbBlockBegin
  2
UNITE_3
 70
     0
 71
     0
 10
0.0
 20
0.0
 30
0.0
  3
UNITE_3
  1

  0
INSERT
  5
7A879
330
7ABE0
100
AcDbEntity
  8
Level 8
 62
   133
370
     0
100
AcDbBlockReference
  2
Feature Solid_8
 10
0.0
 20
0.0
 30
0.0
  0
INSERT
  5
7A88F
330
7ABE0
100
AcDbEntity
  8
Level 26
 62
   133
370
     0
100
AcDbBlockReference
  2
Feature Solid_9
 10
0.0
 20
0.0
 30
0.0
  0
ENDBLK
  5
7ABE2
330
7ABE0
100
AcDbEntity
  8
0
100
AcDbBlockEnd
  0
BLOCK
  5
7ABE4
330
7ABE3
100
AcDbEntity
  8
0
100
AcDbBlockBegin
  2
Feature Solid_8
 70
     0
 71
     0
 10
0.0
 20
0.0
 30
0.0
  3
Feature Solid_8
  1

  0
INSERT
  5
7A87A
330
7ABE3
100
AcDbEntity
  8
Level 8
 62
   133
370
     0
100
AcDbBlockReference
  2
CONE_1
 10
0.0
 20
0.0
 30
0.0
  0
ENDBLK
  5
7ABE5
330
7ABE3
100
AcDbEntity
  8
0
100
AcDbBlockEnd
  0
BLOCK
  5
7ABE7
330
7ABE6
100
AcDbEntity
  8
0
100
AcDbBlockBegin
  2
CONE_1
 70
     0
 71
     0
 10
0.0
 20
0.0
 30
0.0
  3
CONE_1
  1

  0
LINE
  5
7A87B
330
7ABE6
100
AcDbEntity
  8
Level 8
 62
   133
370
     0
100
AcDbLine
 10
0.431714
 20
-1.833517
 30
0.0
 11
0.431714
 21
-2.483517
 31
0.0
  0
LINE
  5
7A87C
330
7ABE6
100
AcDbEntity
  8
Level 8
 62
   133
370
     0
100
AcDbLine
 10
0.131714
 20
-2.383517
 30
0.0
 11
0.359125
 21
-2.383517
 31
0.0
  0
LINE
  5
7A87D
330
7ABE6
100
AcDbEntity
  8
Level 8
 62
   133
370
     0
100
AcDbLine
 10
0.131714
 20
-2.383517
 30
0.0
 11
0.359125
 21
-2.383517
 31
0.0
  0
SPLINE
  5
7A87E
330
7ABE6
100
AcDbEntity
  8
Level 8
 62
   133
370
     0
100
AcDbSpline
210
0.0
220
0.0
230
1.0
 70
     8
 71
     3
 72
    17
 73
    13
 74
     0
 42
0.0000000001
 43
0.00000001
 40
0.0
 40
0.0
 40
0.0
 40
0.0
 40
0.1188920175173181
 40
0.1188920175173181
 40
0.1188920175173181
 40
0.4370642450454728
 40
0.4370642450454728
 40
0.4370642450454728
 40
0.7708126268407274
 40
0.7708126268407274
 40
0.7708126268407274
 40
1.0
 40
1.0
 40
1.0
 40
1.0
 10
0.4317136962460424
 20
-2.4835170356764
 30
0.0
 10
0.4317136962460353
 20
-2.4835170356764
 30
0.0
 10
0.4312857853703704
 20
-2.482970961108962
 30
0.0
 10
0.4304413967249374
 20
-2.481890266834163
 30
0.0
 10
0.4281893687172271
 20
-2.479007999541993
 30
0.0
 10
0.4228496497948271
 20
-2.472181370284083
 30
0.0
 10
0.415280563715676
 20
-2.462245290317638
 30
0.0
 10
0.4073288034245479
 20
-2.451806866801186
 30
0.0
 10
0.3967863239604554
 20
-2.437764099143893
 30
0.0
 10
0.3850241073261032
 20
-2.42127018794613
 30
0.0
 10
0.3768999155639037
 20
-2.409877803190351
 30
0.0
 10
0.3681165556180162
 20
-2.397205829360039
 30
0.0
 10
0.359125348396347
 20
-2.383517035681364
 30
0.0
  0
SPLINE
  5
7A881
330
7ABE6
100
AcDbEntity
  8
Level 8
 62
   133
370
     0
100
AcDbSpline
210
0.0
220
0.0
230
1.0
 70
     8
 71
     3
 72
    14
 73
    10
 74
     0
 42
0.0000000001
 43
0.00000001
 40
0.0
 40
0.0
 40
0.0
 40
0.0
 40
0.4155111778321488
 40
0.4155111778321488
 40
0.4155111778321488
 40
0.7657511632294429
 40
0.7657511632294429
 40
0.7657511632294429
 40
1.0
 40
1.0
 40
1.0
 40
1.0
 10
0.3591253483958568
 20
-2.383517035676381
 30
0.0
 10
0.3753273199526817
 20
-2.408183961970713
 30
0.0
 10
0.3909352251375111
 20
-2.429723842876861
 30
0.0
 10
0.4032945372283621
 20
-2.446330563598322
 30
0.0
 10
0.4137190532494017
 20
-2.460337575068316
 30
0.0
 10
0.4220439846593962
 20
-2.471094914404415
 30
0.0
 10
0.4268312321213159
 20
-2.477256738635805
 30
0.0
 10
0.4300308856967945
 20
-2.481375118370783
 30
0.0
 10
0.4317136962460424
 20
-2.4835170356764
 30
0.0
 10
0.4317136962460424
 20
-2.4835170356764
 30
0.0
  0
LINE
  5
7A884
330
7ABE6
100
AcDbEntity
  8
Level 8
 62
   133
370
     0
100
AcDbLine
 10
0.431714
 20
-1.833517
 30
0.0
 11
0.431714
 21
-2.483517
 31
0.0
  0
SPLINE
  5
7A885
330
7ABE6
100
AcDbEntity
  8
Level 8
 62
   133
370
     0
100
AcDbSpline
210
0.0
220
0.0
230
1.0
 70
     8
 71
     3
 72
    17
 73
    13
 74
     0
 42
0.0000000001
 43
0.00000001
 40
0.0
 40
0.0
 40
0.0
 40
0.0
 40
0.1188920175167992
 40
0.1188920175167992
 40
0.1188920175167992
 40
0.4370642450447248
 40
0.4370642450447248
 40
0.4370642450447248
 40
0.7708126268396294
 40
0.7708126268396294
 40
0.7708126268396294
 40
1.0
 40
1.0
 40
1.0
 40
1.0
 10
0.4317136962460353
 20
-1.833517035676251
 30
0.0
 10
0.4317136962460353
 20
-1.833517035676251
 30
0.0
 10
0.4312857853703775
 20
-1.834063110243678
 30
0.0
 10
0.4304413967249516
 20
-1.835143804518469
 30
0.0
 10
0.4281893687172627
 20
-1.83802607181063
 30
0.0
 10
0.4228496497948768
 20
-1.84485270106853
 30
0.0
 10
0.41528056371574
 20
-1.854788781034975
 30
0.0
 10
0.4073288034246261
 20
-1.865227204551418
 30
0.0
 10
0.3967863239605478
 20
-1.879269972208701
 30
0.0
 10
0.3850241073262168
 20
-1.895763883406455
 30
0.0
 10
0.3768999155639747
 20
-1.90715626816229
 30
0.0
 10
0.3681165556180375
 20
-1.919828241992677
 30
0.0
 10
0.3591253483963257
 20
-1.933517035671436
 30
0.0
  0
LINE
  5
7A888
330
7ABE6
100
AcDbEntity
  8
Level 8
 62
   133
370
     0
100
AcDbLine
 10
0.131714
 20
-1.933517
 30
0.0
 11
0.359125
 21
-1.933517
 31
0.0
  0
LINE
  5
7A889
330
7ABE6
100
AcDbEntity
  8
Level 8
 62
   133
370
     0
100
AcDbLine
 10
0.131714
 20
-1.933517
 30
0.0
 11
0.359125
 21
-1.933517
 31
0.0
  0
SPLINE
  5
7A88A
330
7ABE6
100
AcDbEntity
  8
Level 8
 62
   133
370
     0
100
AcDbSpline
210
0.0
220
0.0
230
1.0
 70
     8
 71
     3
 72
    14
 73
    10
 74
     0
 42
0.0000000001
 43
0.00000001
 40
0.0
 40
0.0
 40
0.0
 40
0.0
 40
0.4155111778320348
 40
0.4155111778320348
 40
0.4155111778320348
 40
0.7657511632291136
 40
0.7657511632291136
 40
0.7657511632291136
 40
1.0
 40
1.0
 40
1.0
 40
1.0
 10
0.3591253483956578
 20
-1.933517035676418
 30
0.0
 10
0.3753273199525182
 20
-1.908850109382067
 30
0.0
 10
0.390935225137369
 20
-1.887310228475882
 30
0.0
 10
0.4032945372282484
 20
-1.870703507754402
 30
0.0
 10
0.4137190532493094
 20
-1.85669649628439
 30
0.0
 10
0.4220439846593251
 20
-1.845939156948282
 30
0.0
 10
0.4268312321212733
 20
-1.839777332716864
 30
0.0
 10
0.4300308856967732
 20
-1.835658952981877
 30
0.0
 10
0.4317136962460282
 20
-1.833517035676251
 30
0.0
 10
0.4317136962460353
 20
-1.833517035676251
 30
0.0
  0
LINE
  5
7A88D
330
7ABE6
100
AcDbEntity
  8
Level 8
 62
   133
370
     0
100
AcDbLine
 10
0.131714
 20
-2.158517
 30
0.0
 11
0.431714
 21
-2.158517
 31
0.0
  0
LINE
  5
7A88E
330
7ABE6
100
AcDbEntity
  8
Level 8
 62
   133
370
     0
100
AcDbLine
 10
0.131714
 20
-2.158517
 30
0.0
 11
0.431714
 21
-2.158517
 31
0.0
  0
ENDBLK
  5
7ABE8
330
7ABE6
100
AcDbEntity
  8
0
100
AcDbBlockEnd
  0
BLOCK
  5
7ABEA
330
7ABE9
100
AcDbEntity
  8
0
100
AcDbBlockBegin
  2
Feature Solid_9
 70
     0
 71
     0
 10
0.0
 20
0.0
 30
0.0
  3
Feature Solid_9
  1

  0
INSERT
  5
7A890
330
7ABE9
100
AcDbEntity
  8
Level 26
 62
   133
370
     0
100
AcDbBlockReference
  2
DDPROJ_5
 10
0.0
 20
0.0
 30
0.0
  0
ENDBLK
  5
7ABEB
330
7ABE9
100
AcDbEntity
  8
0
100
AcDbBlockEnd
  0
BLOCK
  5
7ABED
330
7ABEC
100
AcDbEntity
  8
0
100
AcDbBlockBegin
  2
DDPROJ_5
 70
     0
 71
     0
 10
0.0
 20
0.0
 30
0.0
  3
DDPROJ_5
  1

  0
LINE
  5
7A891
330
7ABEC
100
AcDbEntity
  8
Level 26
 62
   133
370
     0
100
AcDbLine
 10
0.011714
 20
-1.833517
 30
0.0
 11
0.131714
 21
-1.833517
 31
0.0
  0
LINE
  5
7A892
330
7ABEC
100
AcDbEntity
  8
Level 26
 62
   133
370
     0
100
AcDbLine
 10
0.131714
 20
-1.833517
 30
0.0
 11
0.011714
 21
-1.833517
 31
0.0
  0
LINE
  5
7A893
330
7ABEC
100
AcDbEntity
  8
Level 26
 62
   133
370
     0
100
AcDbLine
 10
0.011714
 20
-2.483517
 30
0.0
 11
0.131714
 21
-2.483517
 31
0.0
  0
LINE
  5
7A894
330
7ABEC
100
AcDbEntity
  8
Level 26
 62
   133
370
     0
100
AcDbLine
 10
0.131714
 20
-2.483517
 30
0.0
 11
0.011714
 21
-2.483517
 31
0.0
  0
LINE
  5
7A895
330
7ABEC
100
AcDbEntity
  8
Level 26
 62
   133
370
     0
100
AcDbLine
 10
0.131714
 20
-1.933517
 30
0.0
 11
0.131714
 21
-2.383517
 31
0.0
  0
LINE
  5
7A896
330
7ABEC
100
AcDbEntity
  8
Level 26
 62
   133
370
     0
100
AcDbLine
 10
0.131714
 20
-1.933517
 30
0.0
 11
0.131714
 21
-2.383517
 31
0.0
  0
LINE
  5
7A897
330
7ABEC
100
AcDbEntity
  8
Level 26
 62
   133
370
     0
100
AcDbLine
 10
0.011714
 20
-1.833517
 30
0.0
 11
0.011714
 21
-2.483517
 31
0.0
  0
POINT
  5
7A898
330
7ABEC
100
AcDbEntity
  8
Level 26
 62
   133
370
     0
100
AcDbPoint
 10
0.131714
 20
-2.483517
 30
0.0
  0
LINE
  5
7A899
330
7ABEC
100
AcDbEntity
  8
Level 26
 62
   133
370
     0
100
AcDbLine
 10
0.011714
 20
-1.833517
 30
0.0
 11
0.011714
 21
-2.483517
 31
0.0
  0
LINE
  5
7A89A
330
7ABEC
100
AcDbEntity
  8
Level 26
 62
   133
370
     0
100
AcDbLine
 10
0.131714
 20
-1.833517
 30
0.0
 11
0.131714
 21
-2.483517
 31
0.0
  0
POINT
  5
7A89B
330
7ABEC
100
AcDbEntity
  8
Level 26
 62
   133
370
     0
100
AcDbPoint
 10
0.131714
 20
-1.833517
 30
0.0
  0
POINT
  5
7A89C
330
7ABEC
100
AcDbEntity
  8
Level 26
 62
   133
370
     0
100
AcDbPoint
 10
0.131714
 20
-2.483517
 30
0.0
  0
LINE
  5
7A89D
330
7ABEC
100
AcDbEntity
  8
Level 26
 62
   133
370
     0
100
AcDbLine
 10
0.131714
 20
-1.833517
 30
0.0
 11
0.131714
 21
-2.483517
 31
0.0
  0
POINT
  5
7A89E
330
7ABEC
100
AcDbEntity
  8
Level 26
 62
   133
370
     0
100
AcDbPoint
 10
0.131714
 20
-1.833517
 30
0.0
  0
POINT
  5
7A89F
330
7ABEC
100
AcDbEntity
  8
Level 26
 62
   133
370
     0
100
AcDbPoint
 10
0.131714
 20
-2.383517
 30
0.0
  0
POINT
  5
7A8A0
330
7ABEC
100
AcDbEntity
  8
Level 26
 62
   133
370
     0
100
AcDbPoint
 10
0.131714
 20
-2.383517
 30
0.0
  0
LINE
  5
7A8A1
330
7ABEC
100
AcDbEntity
  8
Level 26
 62
   133
370
     0
100
AcDbLine
 10
0.131714
 20
-2.483517
 30
0.0
 11
0.131714
 21
-2.383517
 31
0.0
  0
LINE
  5
7A8A2
330
7ABEC
100
AcDbEntity
  8
Level 26
 62
   133
370
     0
100
AcDbLine
 10
0.131714
 20
-2.483517
 30
0.0
 11
0.131714
 21
-2.383517
 31
0.0
  0
POINT
  5
7A8A3
330
7ABEC
100
AcDbEntity
  8
Level 26
 62
   133
370
     0
100
AcDbPoint
 10
0.131714
 20
-1.933517
 30
0.0
  0
LINE
  5
7A8A4
330
7ABEC
100
AcDbEntity
  8
Level 26
 62
   133
370
     0
100
AcDbLine
 10
0.131714
 20
-1.933517
 30
0.0
 11
0.131714
 21
-1.833517
 31
0.0
  0
POINT
  5
7A8A5
330
7ABEC
100
AcDbEntity
  8
Level 26
 62
   133
370
     0
100
AcDbPoint
 10
0.131714
 20
-1.933517
 30
0.0
  0
LINE
  5
7A8A6
330
7ABEC
100
AcDbEntity
  8
Level 26
 62
   133
370
     0
100
AcDbLine
 10
0.131714
 20
-1.933517
 30
0.0
 11
0.131714
 21
-1.833517
 31
0.0
  0
LINE
  5
7A8A7
330
7ABEC
100
AcDbEntity
  8
Level 26
 62
   133
370
     0
100
AcDbLine
 10
0.131714
 20
-2.158517
 30
0.0
 11
0.011714
 21
-2.158517
 31
0.0
  0
LINE
  5
7A8A8
330
7ABEC
100
AcDbEntity
  8
Level 26
 62
   133
370
     0
100
AcDbLine
 10
0.131714
 20
-2.483517
 30
0.0
 11
0.011714
 21
-2.483517
 31
0.0
  0
LINE
  5
7A8A9
330
7ABEC
100
AcDbEntity
  8
Level 26
 62
   133
370
     0
100
AcDbLine
 10
0.131714
 20
-2.158517
 30
0.0
 11
0.011714
 21
-2.158517
 31
0.0
  0
LINE
  5
7A8AA
330
7ABEC
100
AcDbEntity
  8
Level 26
 62
   133
370
     0
100
AcDbLine
 10
0.131714
 20
-1.833517
 30
0.0
 11
0.011714
 21
-1.833517
 31
0.0
  0
ENDBLK
  5
7ABEE
330
7ABEC
100
AcDbEntity
  8
0
100
AcDbBlockEnd
  0
ENDSEC
  0
SECTION
  2
ENTITIES
  0
LWPOLYLINE
  5
7A6C2
330
7AB08
100
AcDbEntity
  8
Level 25
  6
Continuous
 62
   174
370
    13
100
AcDbPolyline
 90
        4
 70
   129
 43
0.0
 10
3161.249439
 20
242.776387
 10
3161.249439
 20
167.776387
 10
3161.249439
 20
167.776387
 10
3161.249439
 20
242.776387
  0
LWPOLYLINE
  5
7A6C3
330
7AB08
100
AcDbEntity
  8
Level 25
  6
Continuous
 62
   174
370
    13
100
AcDbPolyline
 90
        4
 70
   129
 43
0.0
 10
3161.249439
 20
167.776387
 10
3236.249439
 20
167.776387
 10
3236.249439
 20
167.776387
 10
3161.249439
 20
167.776387
  0
LWPOLYLINE
  5
7A6C4
330
7AB08
100
AcDbEntity
  8
Level 25
  6
Continuous
 62
   174
370
    13
100
AcDbPolyline
 90
        4
 70
   129
 43
0.0
 10
3236.249439
 20
242.776387
 10
3161.249439
 20
242.776387
 10
3161.249439
 20
242.776387
 10
3236.249439
 20
242.776387
  0
LWPOLYLINE
  5
7A6C5
330
7AB08
100
AcDbEntity
  8
Level 25
  6
Continuous
 62
   174
370
    13
100
AcDbPolyline
 90
        4
 70
   129
 43
0.0
 10
3236.249439
 20
167.776387
 10
3236.249439
 20
242.776387
 10
3236.249439
 20
242.776387
 10
3236.249439
 20
167.776387
  0
LWPOLYLINE
  5
7A6C6
330
7AB08
100
AcDbEntity
  8
Level 26
  6
Continuous
 62
   163
370
    13
100
AcDbPolyline
 90
        4
 70
   129
 43
0.0
 10
3236.249439
 20
242.776387
 10
3161.249439
 20
242.776387
 10
3161.249439
 20
242.776387
 10
3236.249439
 20
242.776387
  0
LWPOLYLINE
  5
7A6C7
330
7AB08
100
AcDbEntity
  8
Level 26
  6
Continuous
 62
   163
370
    13
100
AcDbPolyline
 90
        4
 70
   129
 43
0.0
 10
3236.249439
 20
167.776387
 10
3236.249439
 20
242.776387
 10
3236.249439
 20
242.776387
 10
3236.249439
 20
167.776387
  0
LWPOLYLINE
  5
7A6C8
330
7AB08
100
AcDbEntity
  8
Level 26
  6
Continuous
 62
   163
370
    13
100
AcDbPolyline
 90
        4
 70
   129
 43
0.0
 10
3161.249439
 20
167.776387
 10
3236.249439
 20
167.776387
 10
3236.249439
 20
167.776387
 10
3161.249439
 20
167.776387
  0
LWPOLYLINE
  5
7A6C9
330
7AB08
100
AcDbEntity
  8
Level 26
  6
Continuous
 62
   163
370
    13
100
AcDbPolyline
 90
        4
 70
   129
 43
0.0
 10
3161.249439
 20
242.776387
 10
3161.249439
 20
167.776387
 10
3161.249439
 20
167.776387
 10
3161.249439
 20
242.776387
  0
LWPOLYLINE
  5
7A6CA
330
7AB08
100
AcDbEntity
  8
Level 25
  6
Continuous
 62
   174
370
    13
100
AcDbPolyline
 90
        4
 70
   129
 43
0.0
 10
4586.249439
 20
242.776387
 10
4586.249439
 20
167.776387
 10
4586.249439
 20
167.776387
 10
4586.249439
 20
242.776387
  0
LWPOLYLINE
  5
7A6CB
330
7AB08
100
AcDbEntity
  8
Level 25
  6
Continuous
 62
   174
370
    13
100
AcDbPolyline
 90
        4
 70
   129
 43
0.0
 10
4586.249439
 20
167.776387
 10
4661.249439
 20
167.776387
 10
4661.249439
 20
167.776387
 10
4586.249439
 20
167.776387
  0
LWPOLYLINE
  5
7A6CC
330
7AB08
100
AcDbEntity
  8
Level 25
  6
Continuous
 62
   174
370
    13
100
AcDbPolyline
 90
        4
 70
   129
 43
0.0
 10
4661.249439
 20
242.776387
 10
4586.249439
 20
242.776387
 10
4586.249439
 20
242.776387
 10
4661.249439
 20
242.776387
  0
LWPOLYLINE
  5
7A6CD
330
7AB08
100
AcDbEntity
  8
Level 25
  6
Continuous
 62
   174
370
    13
100
AcDbPolyline
 90
        4
 70
   129
 43
0.0
 10
4661.249439
 20
167.776387
 10
4661.249439
 20
242.776387
 10
4661.249439
 20
242.776387
 10
4661.249439
 20
167.776387
  0
LWPOLYLINE
  5
7A6CE
330
7AB08
100
AcDbEntity
  8
Level 26
  6
Continuous
 62
   163
370
    13
100
AcDbPolyline
 90
        4
 70
   129
 43
0.0
 10
4661.249439
 20
242.776387
 10
4586.249439
 20
242.776387
 10
4586.249439
 20
242.776387
 10
4661.249439
 20
242.776387
  0
LWPOLYLINE
  5
7A6CF
330
7AB08
100
AcDbEntity
  8
Level 26
  6
Continuous
 62
   163
370
    13
100
AcDbPolyline
 90
        4
 70
   129
 43
0.0
 10
4661.249439
 20
167.776387
 10
4661.249439
 20
242.776387
 10
4661.249439
 20
242.776387
 10
4661.249439
 20
167.776387
  0
LWPOLYLINE
  5
7A6D0
330
7AB08
100
AcDbEntity
  8
Level 26
  6
Continuous
 62
   163
370
    13
100
AcDbPolyline
 90
        4
 70
   129
 43
0.0
 10
4586.249439
 20
167.776387
 10
4661.249439
 20
167.776387
 10
4661.249439
 20
167.776387
 10
4586.249439
 20
167.776387
  0
LWPOLYLINE
  5
7A6D1
330
7AB08
100
AcDbEntity
  8
Level 26
  6
Continuous
 62
   163
370
    13
100
AcDbPolyline
 90
        4
 70
   129
 43
0.0
 10
4586.249439
 20
242.776387
 10
4586.249439
 20
167.776387
 10
4586.249439
 20
167.776387
 10
4586.249439
 20
242.776387
  0
INSERT
  5
7AAD0
330
7AB08
100
AcDbEntity
  8
Level 27
  6
Continuous
 62
    12
370
    13
100
AcDbBlockReference
  2
From Solid
 10
0.0
 20
0.0
 30
0.0
  0
INSERT
  5
7AAD1
330
7AB08
100
AcDbEntity
  8
Level 27
  6
Continuous
 62
    12
370
    13
100
AcDbBlockReference
  2
From Solid
 10
0.0
 20
0.0
 30
0.0
  0
INSERT
  5
7AAD2
330
7AB08
100
AcDbEntity
  8
Level 27
  6
Continuous
 62
    12
370
    13
100
AcDbBlockReference
  2
From Solid
 10
0.0
 20
0.0
 30
0.0
  0
INSERT
  5
7AAD3
330
7AB08
100
AcDbEntity
  8
Level 27
  6
Continuous
 62
    12
370
    13
100
AcDbBlockReference
  2
From Solid
 10
0.0
 20
0.0
 30
0.0
  0
INSERT
  5
7AAD4
330
7AB08
100
AcDbEntity
  8
Level 27
  6
Continuous
 62
   253
370
    13
100
AcDbBlockReference
  2
From Solid_1
 10
0.0
 20
0.0
 30
0.0
  0
INSERT
  5
7AAD5
330
7AB08
100
AcDbEntity
  8
Level 27
  6
Continuous
 62
   253
370
    13
100
AcDbBlockReference
  2
From Solid_2
 10
0.0
 20
0.0
 30
0.0
  0
INSERT
  5
7AAD6
330
7AB08
100
AcDbEntity
  8
Level 27
  6
Continuous
 62
   253
370
    13
100
AcDbBlockReference
  2
From Solid_3
 10
0.0
 20
0.0
 30
0.0
  0
INSERT
  5
7AAD7
330
7AB08
100
AcDbEntity
  8
Level 27
  6
Continuous
 62
   253
370
    13
100
AcDbBlockReference
  2
From Solid_4
 10
0.0
 20
0.0
 30
0.0
  0
INSERT
  5
7AAD8
330
7AB08
100
AcDbEntity
  8
Level 27
  6
Continuous
 62
   253
370
    13
100
AcDbBlockReference
  2
From Solid_5
 10
0.0
 20
0.0
 30
0.0
  0
INSERT
  5
7AAD9
330
7AB08
100
AcDbEntity
  8
Level 27
  6
Continuous
 62
   253
370
    13
100
AcDbBlockReference
  2
From Solid_6
 10
0.0
 20
0.0
 30
0.0
  0
INSERT
  5
7AADA
330
7AB08
100
AcDbEntity
  8
Level 27
  6
Continuous
 62
   253
370
    13
100
AcDbBlockReference
  2
From Solid_7
 10
0.0
 20
0.0
 30
0.0
  0
INSERT
  5
7AADB
330
7AB08
100
AcDbEntity
  8
Level 27
  6
Continuous
 62
   253
370
    13
100
AcDbBlockReference
  2
From Solid_8
 10
0.0
 20
0.0
 30
0.0
  0
INSERT
  5
7AADC
330
7AB08
100
AcDbEntity
  8
Level 27
  6
Continuous
 62
   253
370
    13
100
AcDbBlockReference
  2
From Solid_9
 10
0.0
 20
0.0
 30
0.0
  0
INSERT
  5
7AADD
330
7AB08
100
AcDbEntity
  8
Level 27
  6
Continuous
 62
   253
370
    13
100
AcDbBlockReference
  2
From Solid_10
 10
0.0
 20
0.0
 30
0.0
  0
INSERT
  5
7AADE
330
7AB08
100
AcDbEntity
  8
Level 27
  6
Continuous
 62
   253
370
    13
100
AcDbBlockReference
  2
From Solid_11
 10
0.0
 20
0.0
 30
0.0
  0
INSERT
  5
7AADF
330
7AB08
100
AcDbEntity
  8
Level 27
  6
Continuous
 62
   253
370
    13
100
AcDbBlockReference
  2
From Solid_12
 10
0.0
 20
0.0
 30
0.0
  0
INSERT
  5
7AAE0
330
7AB08
100
AcDbEntity
  8
Level 27
  6
Continuous
 62
   253
370
    13
100
AcDbBlockReference
  2
From Solid_13
 10
0.0
 20
0.0
 30
0.0
  0
INSERT
  5
7AAE1
330
7AB08
100
AcDbEntity
  8
Level 27
  6
Continuous
 62
   253
370
    13
100
AcDbBlockReference
  2
From Solid_14
 10
0.0
 20
0.0
 30
0.0
  0
INSERT
  5
7AAE2
330
7AB08
100
AcDbEntity
  8
Level 27
  6
Continuous
 62
   253
370
    13
100
AcDbBlockReference
  2
From Solid_15
 10
0.0
 20
0.0
 30
0.0
  0
INSERT
  5
7AAE3
330
7AB08
100
AcDbEntity
  8
Level 27
  6
Continuous
 62
   253
370
    13
100
AcDbBlockReference
  2
From Solid_16
 10
0.0
 20
0.0
 30
0.0
  0
INSERT
  5
7AAE4
330
7AB08
100
AcDbEntity
  8
Level 27
  6
Continuous
 62
   253
370
    13
100
AcDbBlockReference
  2
From Solid_17
 10
0.0
 20
0.0
 30
0.0
  0
INSERT
  5
7AAE5
330
7AB08
100
AcDbEntity
  8
Level 27
  6
Continuous
 62
   253
370
    13
100
AcDbBlockReference
  2
From Solid_18
 10
0.0
 20
0.0
 30
0.0
  0
INSERT
  5
7AAE6
330
7AB08
100
AcDbEntity
  8
Level 27
  6
Continuous
 62
   253
370
    13
100
AcDbBlockReference
  2
From Solid_19
 10
0.0
 20
0.0
 30
0.0
  0
INSERT
  5
7AAE7
330
7AB08
100
AcDbEntity
  8
Level 27
  6
Continuous
 62
   253
370
    13
100
AcDbBlockReference
  2
From Solid_20
 10
0.0
 20
0.0
 30
0.0
  0
INSERT
  5
7AAE8
330
7AB08
100
AcDbEntity
  8
Level 27
  6
Continuous
 62
   253
370
    13
100
AcDbBlockReference
  2
From Solid_21
 10
0.0
 20
0.0
 30
0.0
  0
INSERT
  5
7AAE9
330
7AB08
100
AcDbEntity
  8
Level 27
  6
Continuous
 62
   253
370
    13
100
AcDbBlockReference
  2
From Solid_22
 10
0.0
 20
0.0
 30
0.0
  0
INSERT
  5
7AAEA
330
7AB08
100
AcDbEntity
  8
Level 27
  6
Continuous
 62
   253
370
    13
100
AcDbBlockReference
  2
From Solid_23
 10
0.0
 20
0.0
 30
0.0
  0
INSERT
  5
7AAEB
330
7AB08
100
AcDbEntity
  8
Level 27
  6
Continuous
 62
   253
370
    13
100
AcDbBlockReference
  2
From Solid_24
 10
0.0
 20
0.0
 30
0.0
  0
INSERT
  5
7AAEC
330
7AB08
100
AcDbEntity
  8
Level 27
  6
Continuous
 62
   253
370
    13
100
AcDbBlockReference
  2
From Solid_25
 10
0.0
 20
0.0
 30
0.0
  0
INSERT
  5
7AAED
330
7AB08
100
AcDbEntity
  8
Level 27
  6
Continuous
 62
   253
370
    13
100
AcDbBlockReference
  2
From Solid_26
 10
0.0
 20
0.0
 30
0.0
  0
INSERT
  5
7AAEE
330
7AB08
100
AcDbEntity
  8
Level 27
  6
Continuous
 62
   253
370
    13
100
AcDbBlockReference
  2
From Solid_27
 10
0.0
 20
0.0
 30
0.0
  0
INSERT
  5
7AAEF
330
7AB08
100
AcDbEntity
  8
Level 27
  6
Continuous
 62
   253
370
    13
100
AcDbBlockReference
  2
From Solid_28
 10
0.0
 20
0.0
 30
0.0
  0
INSERT
  5
7AAF0
330
7AB08
100
AcDbEntity
  8
Level 27
  6
Continuous
 62
   253
370
    13
100
AcDbBlockReference
  2
From Solid_6
 10
0.0
 20
0.0
 30
0.0
  0
INSERT
  5
7AAF1
330
7AB08
100
AcDbEntity
  8
Level 27
  6
Continuous
 62
   253
370
    13
100
AcDbBlockReference
  2
From Solid_29
 10
0.0
 20
0.0
 30
0.0
  0
INSERT
  5
7AAF2
330
7AB08
100
AcDbEntity
  8
Level 27
  6
Continuous
 62
   253
370
    13
100
AcDbBlockReference
  2
From Solid_30
 10
0.0
 20
0.0
 30
0.0
  0
INSERT
  5
7AAF3
330
7AB08
100
AcDbEntity
  8
Level 27
  6
Continuous
 62
   253
370
    13
100
AcDbBlockReference
  2
From Solid_31
 10
0.0
 20
0.0
 30
0.0
  0
INSERT
  5
7AAF4
330
7AB08
100
AcDbEntity
  8
Level 27
  6
Continuous
 62
   253
370
    13
100
AcDbBlockReference
  2
From Solid_32
 10
0.0
 20
0.0
 30
0.0
  0
INSERT
  5
7AAF5
330
7AB08
100
AcDbEntity
  8
Level 27
  6
Continuous
 62
   253
370
    13
100
AcDbBlockReference
  2
From Solid_33
 10
0.0
 20
0.0
 30
0.0
  0
INSERT
  5
7AAF6
330
7AB08
100
AcDbEntity
  8
Level 27
  6
Continuous
 62
   253
370
    13
100
AcDbBlockReference
  2
From Solid_34
 10
0.0
 20
0.0
 30
0.0
  0
INSERT
  5
7AAF7
330
7AB08
100
AcDbEntity
  8
Level 27
  6
Continuous
 62
   253
370
    13
100
AcDbBlockReference
  2
From Solid_35
 10
0.0
 20
0.0
 30
0.0
  0
INSERT
  5
7AAF8
330
7AB08
100
AcDbEntity
  8
Level 27
  6
Continuous
 62
   253
370
    13
100
AcDbBlockReference
  2
From Solid_36
 10
0.0
 20
0.0
 30
0.0
  0
INSERT
  5
7AAF9
330
7AB08
100
AcDbEntity
  8
Level 27
  6
Continuous
 62
   253
370
    13
100
AcDbBlockReference
  2
From Solid_37
 10
0.0
 20
0.0
 30
0.0
  0
INSERT
  5
7AAFA
330
7AB08
100
AcDbEntity
  8
Level 27
  6
Continuous
 62
   253
370
    13
100
AcDbBlockReference
  2
From Solid_38
 10
0.0
 20
0.0
 30
0.0
  0
INSERT
  5
7AAFB
330
7AB08
100
AcDbEntity
  8
Level 27
  6
Continuous
 62
   253
370
    13
100
AcDbBlockReference
  2
From Solid_39
 10
0.0
 20
0.0
 30
0.0
  0
INSERT
  5
7AAFC
330
7AB08
100
AcDbEntity
  8
Level 27
  6
Continuous
 62
   253
370
    13
100
AcDbBlockReference
  2
From Solid_40
 10
0.0
 20
0.0
 30
0.0
  0
INSERT
  5
7AAFD
330
7AB08
100
AcDbEntity
  8
Level 27
  6
Continuous
 62
   253
370
    13
100
AcDbBlockReference
  2
From Solid_41
 10
0.0
 20
0.0
 30
0.0
  0
LWPOLYLINE
  5
7A814
330
7AB08
100
AcDbEntity
  8
Level 26
  6
Continuous
 62
   163
370
    13
100
AcDbPolyline
 90
        4
 70
   129
 43
0.0
 10
3236.249439
 20
242.776387
 10
3161.249439
 20
242.776387
 10
3161.249439
 20
167.776387
 10
3236.249439
 20
167.776387
  0
LWPOLYLINE
  5
7A819
330
7AB08
100
AcDbEntity
  8
Level 26
  6
Continuous
 62
   163
370
    13
100
AcDbPolyline
 90
        4
 70
   129
 43
0.0
 10
4661.249439
 20
242.776387
 10
4586.249439
 20
242.776387
 10
4586.249439
 20
167.776387
 10
4661.249439
 20
167.776387
  0
INSERT
  5
7AAFE
330
7AB08
100
AcDbEntity
  8
Level 27
  6
Continuous
 62
    12
370
    13
100
AcDbBlockReference
  2
From Solid
 10
0.0
 20
0.0
 30
0.0
  0
INSERT
  5
7A825
330
7AB08
100
AcDbEntity
  8
Level 26
 62
   133
370
     0
100
AcDbBlockReference
  2
UNITE
 10
4587.420809
 20
421.12809
 30
0.0
 41
100.0
 42
100.0
 43
100.0
  0
INSERT
  5
7A868
330
7AB08
100
AcDbEntity
  8
Level 26
 62
   133
370
     0
100
AcDbBlockReference
  2
UNITE_2
 10
3235.07807
 20
421.12809
 30
0.0
 41
100.0
 42
100.0
 43
100.0
  0
INSERT
  5
7A8AB
330
7AB08
100
AcDbEntity
  8
Level 26
 62
   133
370
     0
100
AcDbBlockReference
  2
UNITE
 10
4587.420809
 20
421.12809
 30
0.0
 41
100.0
 42
100.0
 43
100.0
  0
INSERT
  5
7A8EE
330
7AB08
100
AcDbEntity
  8
Level 26
 62
   133
370
     0
100
AcDbBlockReference
  2
UNITE_2
 10
3235.07807
 20
421.12809
 30
0.0
 41
100.0
 42
100.0
 43
100.0
  0
INSERT
  5
7A931
330
7AB08
100
AcDbEntity
  8
Level 26
 62
   133
370
     0
100
AcDbBlockReference
  2
UNITE
 10
4587.420809
 20
421.12809
 30
0.0
 41
100.0
 42
100.0
 43
100.0
  0
INSERT
  5
7A974
330
7AB08
100
AcDbEntity
  8
Level 26
 62
   133
370
     0
100
AcDbBlockReference
  2
UNITE_2
 10
3235.07807
 20
421.12809
 30
0.0
 41
100.0
 42
100.0
 43
100.0
  0
INSERT
  5
7A9B7
330
7AB08
100
AcDbEntity
  8
Level 26
 62
   133
370
     0
100
AcDbBlockReference
  2
UNITE
 10
4587.420809
 20
421.12809
 30
0.0
 41
100.0
 42
100.0
 43
100.0
  0
INSERT
  5
7A9FA
330
7AB08
100
AcDbEntity
  8
Level 26
 62
   133
370
     0
100
AcDbBlockReference
  2
UNITE_2
 10
3235.07807
 20
421.12809
 30
0.0
 41
100.0
 42
100.0
 43
100.0
  0
INSERT
  5
7AA3D
330
7AB08
100
AcDbEntity
  8
Level 26
 62
   133
370
     0
100
AcDbBlockReference
  2
UNITE
 10
4587.420809
 20
421.12809
 30
0.0
 41
100.0
 42
100.0
 43
100.0
  0
INSERT
  5
7AA80
330
7AB08
100
AcDbEntity
  8
Level 26
 62
   133
370
     0
100
AcDbBlockReference
  2
UNITE_2
 10
3235.07807
 20
421.12809
 30
0.0
 41
100.0
 42
100.0
 43
100.0
  0
ENDSEC
  0
SECTION
  2
OBJECTS
  0
DICTIONARY
  5
7AB1B
330
0
100
AcDbDictionary
281
     1
  3
ACAD_GROUP
350
7AB19
  3
ACAD_LAYOUT
350
7AB1C
  3
ACAD_MLINESTYLE
350
7AB1A
  3
ACAD_PLOTSETTINGS
350
7AB1D
  3
ACAD_PLOTSTYLENAME
350
7AB1E
  3
ACAD_TABLESTYLE
350
7ABF4
  3
AcadDim
350
7AB2E
  3
DWGPROPS
350
7AC2B
  0
DICTIONARY
  5
7AB21
330
7AB10
100
AcDbDictionary
280
     1
281
     1
  3
ACAD_LAYERFILTERS
360
7AB22
  0
DICTIONARY
  5
7AB19
102
{ACAD_REACTORS
330
7AB1B
102
}
330
7AB1B
100
AcDbDictionary
281
     1
  0
DICTIONARY
  5
7AB1C
102
{ACAD_REACTORS
330
7AB1B
102
}
330
7AB1B
100
AcDbDictionary
281
     1
  3
Layout1
350
7AB0F
  3
Model
350
7AB0B
  0
DICTIONARY
  5
7AB1A
102
{ACAD_REACTORS
330
7AB1B
102
}
330
7AB1B
100
AcDbDictionary
281
     1
  3
Standard
350
7AB06
  0
DICTIONARY
  5
7AB1D
102
{ACAD_REACTORS
330
7AB1B
102
}
330
7AB1B
100
AcDbDictionary
281
     1
  0
ACDBDICTIONARYWDFLT
  5
7AB1E
102
{ACAD_REACTORS
330
7AB1B
102
}
330
7AB1B
100
AcDbDictionary
281
     1
  3
Normal
350
7AB01
100
AcDbDictionaryWithDefault
340
7AB01
  0
DICTIONARY
  5
7ABF4
102
{ACAD_REACTORS
330
7AB1B
102
}
330
7AB1B
100
AcDbDictionary
281
     1
  0
XRECORD
  5
7AB2E
102
{ACAD_REACTORS
330
7AB1B
102
}
330
7AB1B
100
AcDbXrecord
280
     1
 90
   990106
  3
 
 60
     0
 61
     0
 62
     1
 63
     1
 64
     0
 65
     0
 66
     0
 67
     3
 68
     1
 69
     1
 70
     0
 71
     0
 72
     0
 40
0.0
170
     0
  0
XRECORD
  5
7AC2B
102
{ACAD_REACTORS
330
7AB1B
102
}
330
7AB1B
100
AcDbXrecord
280
     1
  1
DWGPROPS COOKIE
  2

  3

  4
WAEngineering1
  6

  7

  8

  9

300
=
301
=
302
=
303
=
304
=
305
=
306
=
307
=
308
=
309
=
 40
0.0
 41
2451789.537469
 42
2451789.537561
  1

 90
        0
  0
DICTIONARY
  5
7AB22
102
{ACAD_REACTORS
330
7AB21
102
}
330
7AB21
100
AcDbDictionary
281
     1
  0
LAYOUT
  5
7AB0F
102
{ACAD_REACTORS
330
7AB1C
330
7AB1C
102
}
330
7AB1C
100
AcDbPlotSettings
  1

  2

  4

  6

 40
0.0
 41
0.0
 42
0.0
 43
0.0
 44
0.0
 45
0.0
 46
0.0
 47
0.0
 48
0.0
 49
0.0
140
0.0
141
0.0
142
1.0
143
1.0
 70
   688
 72
     0
 73
     0
 74
     5
  7

 75
    16
147
1.0
148
0.0
149
0.0
100
AcDbLayout
  1
Layout1
 70
     1
 71
     1
 10
0.0
 20
0.0
 11
12.0
 21
9.0
 12
0.0
 22
0.0
 32
0.0
 14
1.000000E+20
 24
1.000000E+20
 34
1.000000E+20
 15
-1.000000E+20
 25
-1.000000E+20
 35
-1.000000E+20
146
0.0
 13
0.0
 23
0.0
 33
0.0
 16
1.0
 26
0.0
 36
0.0
 17
0.0
 27
1.0
 37
0.0
 76
     0
330
7AB0C
  0
LAYOUT
  5
7AB0B
102
{ACAD_REACTORS
330
7AB1C
330
7AB1C
102
}
330
7AB1C
100
AcDbPlotSettings
  1

  2

  4

  6

 40
0.0
 41
0.0
 42
0.0
 43
0.0
 44
0.0
 45
0.0
 46
0.0
 47
0.0
 48
0.0
 49
0.0
140
0.0
141
0.0
142
1.0
143
1.0
 70
  1712
 72
     0
 73
     0
 74
     0
  7

 75
     0
147
1.0
148
0.0
149
0.0
100
AcDbLayout
  1
Model
 70
     1
 71
     0
 10
0.0
 20
0.0
 11
12.0
 21
9.0
 12
0.0
 22
0.0
 32
0.0
 14
0.0
 24
0.0
 34
0.0
 15
0.0
 25
0.0
 35
0.0
146
0.0
 13
0.0
 23
0.0
 33
0.0
 16
1.0
 26
0.0
 36
0.0
 17
0.0
 27
1.0
 37
0.0
 76
     0
330
7AB08
  0
MLINESTYLE
  5
7AB06
102
{ACAD_REACTORS
330
7AB1A
102
}
330
7AB1A
100
AcDbMlineStyle
  2
STANDARD
 70
     0
  3

 62
   256
 51
90.0
 52
90.0
 71
     2
 49
0.5
 62
   256
  6
BYLAYER
 49
-0.5
 62
   256
  6
BYLAYER
  0
ACDBPLACEHOLDER
  5
7AB01
102
{ACAD_REACTORS
330
7AB1E
102
}
330
7AB1E
  0
ENDSEC
  0
SECTION
  2
THUMBNAILIMAGE
 90
    16004
310
28000000B40000005300000001000800000000005C3A000000040000000400000001000008000000FFFFFF00D87828000000B8009068900048000000B0A09800A8A8A800B8B89800FFFFFF00FFFFFF00FFFFFF00FFFFFF00FFFFFF00FFFFFF00FFFFFF00FFFFFF00FFFFFF00FFFFFF00FFFFFF00FFFFFF00FFFFFF00FFFFFF
310
00FFFFFF00FFFFFF00FFFFFF00FFFFFF00FFFFFF00FFFFFF00FFFFFF00FFFFFF00FFFFFF00FFFFFF00FFFFFF00FFFFFF00FFFFFF00FFFFFF00FFFFFF00FFFFFF00FFFFFF00FFFFFF00FFFFFF00FFFFFF00FFFFFF00FFFFFF00FFFFFF00FFFFFF00FFFFFF00FFFFFF00FFFFFF00FFFFFF00FFFFFF00FFFFFF00FFFFFF00FFFF
310
FF00FFFFFF00FFFFFF00FFFFFF00FFFFFF00FFFFFF00FFFFFF00FFFFFF00FFFFFF00FFFFFF00FFFFFF00FFFFFF00FFFFFF00FFFFFF00FFFFFF00FFFFFF00FFFFFF00FFFFFF00FFFFFF00FFFFFF00FFFFFF00FFFFFF00FFFFFF00FFFFFF00FFFFFF00FFFFFF00FFFFFF00FFFFFF00FFFFFF00FFFFFF00FFFFFF00FFFFFF00FF
310
FFFF00FFFFFF00FFFFFF00FFFFFF00FFFFFF00FFFFFF00FFFFFF00FFFFFF00FFFFFF00FFFFFF00FFFFFF00FFFFFF00FFFFFF00FFFFFF00FFFFFF00FFFFFF00FFFFFF00FFFFFF00FFFFFF00FFFFFF00FFFFFF00FFFFFF00FFFFFF00FFFFFF00FFFFFF00FFFFFF00FFFFFF00FFFFFF00FFFFFF00FFFFFF00FFFFFF00FFFFFF00
310
FFFFFF00FFFFFF00FFFFFF00FFFFFF00FFFFFF00FFFFFF00FFFFFF00FFFFFF00FFFFFF00FFFFFF00FFFFFF00FFFFFF00FFFFFF00FFFFFF00FFFFFF00FFFFFF00FFFFFF00FFFFFF00FFFFFF00FFFFFF00FFFFFF00FFFFFF00FFFFFF00FFFFFF00FFFFFF00FFFFFF00FFFFFF00FFFFFF00FFFFFF00FFFFFF00FFFFFF00FFFFFF
310
00FFFFFF00FFFFFF00FFFFFF00FFFFFF00FFFFFF00FFFFFF00FFFFFF00FFFFFF00FFFFFF00FFFFFF00FFFFFF00FFFFFF00FFFFFF00FFFFFF00FFFFFF00FFFFFF00FFFFFF00FFFFFF00FFFFFF00FFFFFF00FFFFFF00FFFFFF00FFFFFF00FFFFFF00FFFFFF00FFFFFF00FFFFFF00FFFFFF00FFFFFF00FFFFFF00FFFFFF00FFFF
310
FF00FFFFFF00FFFFFF00FFFFFF00FFFFFF00FFFFFF00FFFFFF00FFFFFF00FFFFFF00FFFFFF00FFFFFF00FFFFFF00FFFFFF00FFFFFF00FFFFFF00FFFFFF00FFFFFF00FFFFFF00FFFFFF00FFFFFF00FFFFFF00FFFFFF00FFFFFF00FFFFFF00FFFFFF00FFFFFF00FFFFFF00FFFFFF00FFFFFF00FFFFFF00FFFFFF00FFFFFF00FF
310
FFFF00FFFFFF00FFFFFF00FFFFFF00FFFFFF00FFFFFF00FFFFFF00FFFFFF00FFFFFF00FFFFFF00FFFFFF00FFFFFF00FFFFFF00FFFFFF00FFFFFF00FFFFFF00FFFFFF00FFFFFF00FFFFFF00FFFFFF00FFFFFF00FFFFFF00FFFFFF00FFFFFF00FFFFFF00FFFFFF00FFFFFF00FFFFFF00FFFFFF00FFFFFF00FFFFFF00FFFFFF00
310
FFFFFF00FFFFFF00FFFFFF00FFFFFF00FFFFFF00FFFFFF00FFFFFF00FFFFFF00FFFFFF00FFFFFF00FFFFFF00FFFFFF0003030303030303030303030303030303030303030303030303030303030303030303030303030303030303030303030303030303030303030303030303030303030303030303030303030303030303
310
03030303030303030303030303030303030303030303030303030303030303030303030303030303030303030303030303030303030303030303030303030303030303030303030303030303030303030303030303030303030303030303030303030303030303030303030303030303030303030303030303030303030303
310
03030303030303030303030303030303030303030303030303030303030303050505020707070202020202020202020202020202020202020202020202020202020202020202020202020202020202020202020202020202020207070705050503030303030303030303030303030303030303030303030303030303030303
310
03030303030303030303030303030303030303030303030303030303030303030303030303030303030303030303030303030303030303030303030303030303030303030303030303030303030303030303030305050502070707020202020202020202020202020202020202020202020202020202020202020202020202
310
02020202020202020202020202020202070707050505030303030303030303030303030303030303030303030303030303030303030303030303030303030303030303030303030303030303030303030303030303030303030303030303030303030303030303030303030303030303030303030303030303030303030303
310
03030303030303030303050503020707070202020202020202020202020202020202020202020202020202020202020202020202020202020202020202020202020202020207070703050503030303030303030303030303030303030303030303030303030303030303030303030303030303030303030303030303030303
310
03030303030303030303030303030303030303030303030303030303030303030303030303030303030303030303030303030303030303030303030303030305050505070202020202020202020202020202020202020202020202020202020202020202020202020202020202020202020202020202020202020207020505
310
05030303030303030303030303030303030303030303030303030303030303030303030303030303030303030303030303030303030303030303030303030303030303030303030303030303030303030303030303030303030303030303030303030303030303030303030303030303030303030305050505030303030303
310
03060606030303030303030606030303030303030606060303030303030306060303030303030306060603030303030303030505050503030303030303030303030303030303030303030303030303030303030303030303030303030303030303030303030303030303030303030303030303030303030303030303030303
310
03030303030303030303030303030303030303030303030303030303030303030303030303030303030303030303030303030303030306060603030303030303060603030303030303060606030303030303030606030303030303030606060303030303030303030303030303030303030303030303030303030303030303
310
03030303030303030303030303030303030303030303030303030303030303030303030303030303030303030303030303030303030303030303030303030303030303030303030303030303030303030303030303030303030303030303030303030303030303030303030606060606060606060606060606060606060606
310
06060606060606060606060606060606060606060603030303030303030303030303030303030303030303030303030303030303030303030303030303030303030303030303030303030303030303030303030303030303030303030303030303030303030303030303030303030303030303030303030303030303030303
310
03030303030303030303030303030303030303030303030303030303030303030306060606060606060606060606060606060606060606060606060606060606060606060606060606060303030303030303030303030303030303030303030303030303030303030303030303030303030303030303030303030303030303
310
03030303030303030303030303030303030303030303030303030303030303030303030303030303030303030303030303030303030303030303030303030303030303030303030303030303030303030303030303030606060606060606060606060606060606060606060606060606060606060606060606060606060606
310
03030303030303030303030303030303030303030303030303030303030303030303030303030303030303030303030303030303030303030303030303030303030303030303030303030303030303030303030303030303030303030303030303030303030303030303030303030303030303030303030303030303030303
310
03030303030303030303030306060603030303030303060603030303030303060606030303030303030606030303030303030606060303030303030303030303030303030303030303030303030303030303030303030303030303030303030303030303030303030303030303030303030303030303030303030303030303
310
03030303030303030303030303030303030303030303030303030303030303030303030303030303030303030303030303030303030303030303030303030303030606060303030303030306060303030303030306060603030303030303060603030303030303060606030303030303030303030303030303030303030303
310
03030303030303030303030303030303030303030303030303030303030303030303030303030303030303030303030303030303030303030303030303030303030303030303030303030303030303030303030303030303030303030303030303030303030303030303030303030303030303030303060606060606060606
310
06060606060606060606060606060606060606060606060606060606060606060303030303030303030303030303030303030303030303030303030303030303030303030303030303030303030303030303030303030303030303030303030303030303030303030303030303030303030303030303030303030303030303
310
03030303030303030303030303030303030303030303030303030303030303030303030303030303030303030606060606060606060606060606060606060606060606060606060606060606060606060606060606030303030303030303030303030303030303030303030303030303030303030303030303030303030303
310
03030303030303030303030303030303030303030303030303030303030303030303030303030303030303030303030303030303030303030303030303030303030303030303030303030303030303030303030303030303030303030303030303060606060606060606060606060606060606060606060606060606060606
310
06060606060606060606060303030303030303030303030303030303030303030303030303030303030303030303030303030303030303030303030303030303030303030303030303030303030303030303030303030303030303030303030303030303030303030303030303030303030303030303030303030303030303
310
03030303030303030303030303030303030303030303030606060303030303030306060603030303030306060603030303030306060603030303030303060606030303030303030303030303030303030303030303030303030303030303030303030303030303030303030303030303030303030303030303030303030303
310
03030303030303030303030303030303030303030303030303030303030303030303030303030303030303030303030303030303030303030303030303030303030303030303030303030303060606030303030303030606060303030303030606060303030303030606060303030303030306060603030303030303030303
310
03030303030303030303030303030303030303030303030303030303030303030303030303030303030303030303030303030303030303030303030303030303030303030303030303030303030303030303030303030303030303030303030303030303030303030303030303030303030303030303030303030303030303
310
03030606060303030303030306060603030303030306060603030303030306060603030303030303060606030303030303030303030303030303030303030303030303030303030303030303030303030303030303030303030303030303030303030303030303030303030303030303030303030303030303030303030303
310
03030303030303030303030303030303030303030303030303030303030303030303030303030303030303030303030303030303030303060606060606060606060606060606060606060606060606060606060606060606060606060606060603030303030303030303030303030303030303030303030303030303030303
310
03030303030303030303030303030303030303030303030303030303030303030303030303030303030303030303030303030303030303030303030303030303030303030303030303030303030303030303030303030303030303030303030303030303030303030303030306060606060606060606060606060606060606
310
06060606060606060606060606060606060606060606030303030303030303030303030303030303030303030303030303030303030303030303030303030303030303030303030303030303030303030303030303030303030303030303030303030303030303030303030303030303030303030303030303030303030303
310
03030303030303030303030303030303030303030303030303030303030303030303060606060606060606060606060606060606060606060606060606060606060606060606060606060603030303030303030303030303030303030303030303030303030303030303030303030303030303030303030303030303030303
310
03030303030303030303030303030303030303030303030303030303030303030303030303030303030303030303030303030303030303030303030303030303030303030303030303030303030303030303030303030306060603030303030303060606030303030303060606030303030303060606030303030303030606
310
06030303030303030303030303030303030303030303030303030303030303030303030303030303030303030303030303030303030303030303030303030303030303030303030303030303030303030303030303030303030303030303030303030303030303030303030303030303030303030303030303030303030303
310
03030303030303030303030303060606030303030303030606060303030303030606060303030303030606060303030303030306060603030303030303030303030303030303030303030303030303030303030303030303030303030303030303030303030303030303030303030303030303030303030303030303030303
310
03030303030303030303030303030303030303030303030303030303030303030303030303030303030303030303030303030303030303030303030303030303030306060603030303030303060606030303030303060606030303030303060606030303030303030606060303030303030303030303030303030303030303
310
03030303030303030303030303030303030303030303030303030303030303030303030303030303030303030303030303030303030303030303030303030303030303030303030303030303030303030303030303030303030303030303030303030303030303030303030303030303030303030303030606060606060606
310
06060606060606060606060606060606060606060606060606060606060606060603030303030303030303030303030303030303030303030303030303030303030303030303030303030303030303030303030303030303030303030303030303030303030303030303030303030303030303030303030303030303030303
310
03030303030303030303030303030303030303030303030303030303030303030303030303030303030303030306060606060606060606060606060606060606060606060606060606060606060606060606060606060303030303030303030303030303030303030303030303030303030303030303030303030303030303
310
03030303030303030303030303030303030303030303030303030303030303030303030303030303030303030303030303030303030303030303030303030303030303030303030303030303030303030303030303030303030303030303030303030606060606060606060606060606060606060606060606060606060606
310
06060606060606060606060603030303030303030303030303030303030303030303030303030303030303030303030303030303030303030303030303030303030303030303030303030303030303030303030303030303030303030303030303030303030303030303030303030303030303030303030303030303030303
310
03030303030303030303030303030303030303030303030306060603030303030303060606030303030303060606030303030303060606030303030303030606060303030303030303030303030303030303030303030303030303030303030303030303030303030303030303030303030303030303030303030303030303
310
03030303030303030303030303030303030303030303030303030303030303030303030303030303030303030303030303030303030303030303030303030303030303030303030303030303030606060303030303030306060603030303030306060603030303030306060603030303030303060606030303030303030303
310
03030303030303030303030303030303030303030303030303030303030303030303030303030303030303030303030303030303030303030303030303030303030303030303030303030303030303030303030303030303030303030303030303030303030303030303030303030303030303030303030303030303030303
310
03030306060603030303030303060606030303030303060606030303030303060606030303030303030606060303030303030303030303030303030303030303030303030303030303030303030303030303030303030303030303030303030303030303030303030303030303030303030303030303030303030303030303
310
03030303030303030303030303030303030303030303030303030303030303030303030303030303030303030303030303030303030303030606060303030303030306060603030303030306060603030303030306060603030303030303060606030303030303030303030303030303030303030303030303030303030303
310
03030303030303030303030303030303030303030303030303030303030303030303030303030303030303030303030303030303030303030303030303030303030303030303030303030303030303030303030303030303030303030303030303030303030303030303030303060606060606060606060606060606060606
310
06060606060606060606060606060606060606060606060303030303030303030303030303030303030303030303030303030303030303030303030303030303030303030303030303030303030303030303030303030303030303030303030303030303030303030303030303030303030303030303030303030303030303
310
03030303030303030303030303030303030303030303030303030303030303030303030606060606060606060606060606060606060606060606060606060606060606060606060606060606030303030303030303030303030303030303030303030303030303030303030303030303030303030303030303030303030303
310
03030303030303030303030303030303030303030303030303030303030303030303030303030303030303030303030303030303030303030303030303030303030303030303030303030303030303030303030303030303060606060606060606060606060606060606060606060606060606060606060606060606060606
310
06060303030303030303030303030303030303030303030303030303030303030303030303030303030303030303030303030303030303030303030303030303030303030303030303030303030303030303030303030303030303030303030303030303030303030303030303030303030303030303030303030303030303
310
03030303030303030303030303030606060303030303030306060603030303030306060603030303030306060603030303030303060606030303030303030303030303030303030303030303030303030303030303030303030303030303030303030303030303030303030303030303030303030303030303030303030303
310
03030303030303030303030303030303030303030303030303030303030303030303030303030303030303030303030303030303030303030303030303030303030303060606030303030303030606060303030303030606060303030303030606060303030303030306060603030303030303030303030303030303030303
310
03030303030303030303030303030303030303030303030303030303030303030303030303030303030303030303030303030303030303030303030303030303030303030303030303030303030303030303030303030303030303030303030303030303030303030303030303030303030303030303030306060603030303
310
03030306060603030303030306060603030303030306060603030303030303060606030303030303030303030303030303030303030303030303030303030303030303030303030303030303030303030303030303030303030303030303030303030303030303030303030303030303030303030303030303030303030303
310
03030303030303030303030303030303030303030303030303030303030303030303030303030303030303030303060606030303030303030606060303030303030606060303030303030606060303030303030306060603030303030303030303030303030303030303030303030303030303030303030303030303030303
310
03030303030303030303030303030303030303030303030303030303030303030303030303030303030303030303030303030303030303030303030303030303030303030303030303030303030303030303030303030303030303030303030303030306060606060606060606060606060606060606060606060606060606
310
06060606060606060606060606030303030303030303030303030303030303030303030303030303030303030303030303030303030303030303030303030303030303030303030303030303030303030303030303030303030303030303030303030303030303030303030303030303030303030303030303030303030303
310
03030303030303030303030303030303030303030303030303060606060606060606060606060606060606060606060606060606060606060606060606060606060603030303030303030303030303030303030303030303030303030303030303030303030303030303030303030303030303030303030303030303030303
310
03030303030303030303030303030303030303030303030303030303030303030303030303030303030303030303030303030303030303030303030303030303030303030303030303030303030306060603030303030303060606030303030303060606030303030303060606030303030303030606060303030303030303
310
03030303030303030303030303030303030303030303030303030303030303030303030303030303030303030303030303030303030303030303030303030303030303030303030303030303030303030303030303030303030303030303030303030303030303030303030303030303030303030303030303030303030303
310
03030303060606030303030303030606060303030303030606060303030303030606060303030303030306060603030303030303030303030303030303030303030303030303030303030303030303030303030303030303030303030303030303030303030303030303030303030303030303030303030303030303030303
310
03030303030303030303030303030303030303030303030303030303030303030303030303030303030303030303030303030303030303030306060603030303030303060606030303030303060606030303030303060606030303030303030606060303030303030303030303030303030303030303030303030303030303
310
03030303030303030303030303030303030303030303030303030303030303030303030303030303030303030303030303030303030303030303030303030303030303030303030303030303030303030303030303030303030303030303030303030303030303030303030303030606060303030303030306060603030303
310
03030606060303030303030606060303030303030306060603030303030303030303030303030303030303030303030303030303030303030303030303030303030303030303030303030303030303030303030303030303030303030303030303030303030303030303030303030303030303030303030303030303030303
310
03030303030303030303030303030303030303030303030303030303030303030303030306060603030303030303060606030303030303060606030303030303060606030303030303030606060303030303030303030303030303030303030303030303030303030303030303030303030303030303030303030303030303
310
03030303030303030303030303030303030303030303030303030303030303030303030303030303030303030303030303030303030303030303030303030303030303030303030303030303030303030303030303030303030606060606060606060606060606060606060606060606060606060606060606060606060606
310
06060603030303030303030303030303030303030303030303030303030303030303030303030303030303030303030303030303030303030303030303030303030303030303030303030303030303030303030303030303030303030303030303030303030303030303030303030303030303030303030303030303030303
310
03030303030303030303030303030306060606060606060606060606060606060606060606060606060606060606060606060606060606060303030303030303030303030303030303030303030303030303030303030303030303030303030303030303030303030303030303030303030303030303030303030303030303
310
03030303030303030303030303030303030303030303030303030303030303030303030303030303030303030303030303030303030303030303030303030303030303030606060606060606060606060606060606060606060606060606060606060606060606060606060606030303030303030303030303030303030303
310
03030303030303030303030303030303030303030303030303030303030303030303030303030303030303030303030303030303030303030303030303030303030303030303030303030303030303030303030303030303030303030303030303030303030303030303030303030303030303030303030303060606030303
310
03030303060606030303030303060606030303030303060606030303030303030606060303030303030303030303030303030303030303030303030303030303030303030303030303030303030303030303030303030303030303030303030303030303030303030303030303030303030303030303030303030303030303
310
03030303030303030303030303030303030303030303030303030303030303030303030303030303030303030303030606060303030303030306060603030303030306060603030303030306060603030303030303060606030303030303030303030303030303030303030303030303030303030303030303030303030303
310
03030303030303030303030303030303030303030303030303030303030303030303030303030303030303030303030303030303030303030303030303030303030303030303030303030303030303030303030303030303030303030303030303030303060606030303030303030606060303030303030606060303030303
310
03060606030303030303030606060303030303030303030303030303030303030303030303030303030303030303030303030303030303030303030303030303030303030303030303030303030303030303030303030303030303030303030303030303030303030303030303030303030303030303030303030303030303
310
03030303030303030303030303030303030303030303030303030606060303030303030306060603030303030306060603030303030306060603030303030303060606030303030303030303030303030303030303030303030303030303030303030303030303030303030303030303030303030303030303030303030303
310
03030303030303030303030303030303030303030303030303030303030303030303030303030303030303030303030303030303030303030303030303030303030303030303030303030303030303060606030303030303030606060303030303030606060303030303030606060303030303030306060603030303030303
310
03030303030303030303030303030303030303030303030303030303030303030303030303030303030303030303030303030303030303030303030303030303030303030303030303030303030303030303030303030303030303030303030303030303030303030303030303030303030303030303030303030303030303
310
03030303030606060606060606060606060606060606060606060606060606060606060606060606060606060606030303030303030303030303030303030303030303030303030303030303030303030303030303030303030303030303030303030303030303030303030303030303030303030303030303030303030303
310
03030303030303030303030303030303030303030303030303030303030303030303030303030303030303030303030303030303030303030303060606060606060606060606060606060606060606060606060606060606060606060606060606060603030303030303030303030303030303030303030303030303030303
310
03030303030303030303030303030303030303030303030303030303030303030303030303030303030303030303030303030303030303030303030303030303030303030303030303030303030303030303030303030303030303030303030303030303030303030303030303030306060606060606060606060606060606
310
06060606060606060606060606060606060606060606060606030303030303030303030303030303030303030303030303030303030303030303030303030303030303030303030303030303030303030303030303030303030303030303030303030303030303030303030303030303030303030303030303030303030303
310
03030303030303030303030303030303030303030303030303030303030303030303030303060606030303030303030606030303030303030606060303030303030306060303030303030306060603030303030303030303030303030303030303030303030303030303030303030303030303030303030303030303030303
310
03030303030303030303030303030303030303030303030303030303030303030303030303030303030303030303030303030303030303030303030303030303030303030303030303030303030303030303030303030303030306060603030303030303060603030303030303060606030303030303030606030303030303
310
03060606030303030303030303030303030303030303030303030303030303030303030303030303030303030303030303030303030303030303030303030303030303030303030303030303030303030303030303030303030303030303030303030303030303030303030303030303030303030303030303030303030303
310
03030303030303030303030303030303060606030303030303030606030303030303030606060303030303030306060303030303030306060603030303030303030303030303030303030303030303030303030303030303030303030303030303030303030303030303030303030303030303030303030303030303030303
310
03030303030303030303030303030303030303030303030303030303030303030303030303030303030303030303030303030303030303030303030303030303030303030306060603030303030303060603030303030303060606030303030303030606030303030303030606060303030303030303030303030303030303
310
03030303030303030303030303030303030303030303030303030303030303030303030303030303030303030303030303030303030303030303030303030303030303030303030303030303030303030303030303030303030303030303030303030303030303030303030303030303030303030303030303030606060303
310
03030303030606030303030303030606060303030303030306060303030303030306060603030303030303030303030303030303030303030303030303030303030303030303030303030303030303030303030303030303030303030303030303030303030303030303030303030303030303030303030303030303030303
310
03030303030303030303030303030303030303030303030303030303030303030303030303030303030303030303030306060603030303030303060603030303030303060606030303030303030606030303030303030606060303030303030303030303030303030303030303030303030303030303030303030303030303
310
03030303030303030303030303030303030303030303030303030303030303030303030303030303030303030303030303030303030303030303030303030303030303030303030303030303030303030303030303030303030303030303030303030303030606060606060606060606060606060606060606060606060606
310
06060606060606060606060606060603030303030303030303030303030303030303030303030303030303030303030303030303030303030303030303030303030303030303030303030303030303030303030303030303030303030303030303030303030303030303030303030303030303030303030303030303030303
310
03030303030303030303030303030303030303030303030303030306060606060606060606060606060606060606060606060606060606060606060606060606060606060303030303030303030303030303030303030303030303030303030303030303030303030303030303030303030303030303030303030303030303
310
03030303030303030303030303030303030303030303030303030303030303030303030303030303030303030303030303030303030303030303030303030303030303030303030303030303030303030606060606060606060606060606060606060606060606060606060606060606060606060606060606030303030303
310
03030303030303030303030303030303030303030303030303030303030303030303030303030303030303030303030303030303030303030303030303030303030303030303030303030303030303030303030303030303030303030303030303030303030303030303030303030303030303030303030303030303030303
310
03030303030306060603030303030306060603030303030303060606030303030303030606060303030303030606060303030303030303030303030303030303030303030303030303030303030303030303030303030303030303030303030303030303030303030303030303030303030303030303030303030303030303
310
03030303030303030303030303030303030303030303030303030303030303030303030303030303030303030303030303030303030303030303030606060303030303030606060303030303030306060603030303030303060606030303030303060606030303030303030303030303030303030303030303030303030303
310
03030303030303030303030303030303030303030303030303030303030303030303030303030303030303030303030303030303030303030303030303030303030303030303030303030303030303030303030303030303030303030303030303030303030303030303030303030303060606030303030303060606030303
310
03030303060606030303030303030606060303030303030606060303030303030303030303030303030303030303030303030303030303030303030303030303030303030303030303030303030303030303030303030303030303030303030303030303030303030303030303030303030303030303030303030303030303
310
03030303030303030303030303030303030303030303030303030303030303030303030303030606060303030303030606060303030303030306060603030303030303060606030303030303060606030303030303030303030303030303030303030303030303030303030303030303030303030303030303030303030303
310
03030303030303030303030303030303030303030303030303030303030303030303030303030303030303030303030303030303030303030303030303030303030303030303030303030303030303030303030303030303030303060606030303030303060606030303030303030606060303030303030306060603030303
310
03030606060303030303030303030303030303030303030303030303030303030303030303030303030303030303030303030303030303030303030303030303030303030303030303030303030303030303030303030303030303030303030303030303030303030303030303030303030303030303030303030303030303
310
03030303030303030303030303030303030606060303030303030606060303030303030306060603030303030303060606030303030303060606030303030303030303030303030303030303030303030303030303030303030303030303030303030303030303030303030303030303030303030303030303030303030303
310
03030303030303030303030303030303030303030303030303030303030303030303030303030303030303030303030303030303030303030303030303030303030303030303060606030303030303060606030303030303030606060303030303030306060603030303030306060603030303030303030303030303030303
310
03030303030303030303030303030303030303030303030303030303030303030303030303030303030303030303030303030303030303030303030303030303030303030303030303030303030303030303030303030303030303030303030303030303030303030303030303030303030303030303030303030306060603
310
03030303030606060303030303030306060603030303030303060606030303030303060606030303030303030303030303030303030303030303030303030303030303030303030303030303030303030303030303030303030303030303030303030303030303030303030303030303030303030303030303030303030303
310
03030303030303030303030303030303030303030303030303030303030303030303030303030303030303030303030303060606030303030303060606030303030303030606060303030303030306060603030303030306060603030303030303030303030303030303030303030303030303030303030303030303030303
310
03030303030303030303030303030303030303030303030303030303030303030303030303030303030303030303030303030303030303030303030303030303030303030303030303030303030303030303030303030303030303030303030303030303030306060603030303030306060603030303030303060606030303
310
03030303060606030303030303060606030303030303030303030303030303030303030303030303030303030303030303030303030303030303030303030303030303030303030303030303030303030303030303030303030303030303030303030303030303030303030303030303030303030303030303030303030303
310
03030303030303030303030303030303030303030303030303030303060606030303030303060606030303030303030606060303030303030306060603030303030306060603030303030303030303030303030303030303030303030303030303030303030303030303030303030303030303030303030303030303030303
310
03030303030303030303030303030303030303030303030303030303030303030303030303030303030303030303030303030303030303030303030303030303030303030303030303030303030303030306060603030303030306060603030303030303060606030303030303030606060303030303030606060303030303
310
03030303030303030303030303030303030303030303030303030303030303030303030303030303030303030303030303030303030303030303030303030303030303030303030303030303030303030303030303030303030303030303030303030303030303030303030303030303030303030303030303030303030303
310
03030303030303060606030303030303060606030303030303030606060303030303030306060603030303030306060603030303030303030303030303030303030303030303030303030303030303030303030303030303030303030303030303030303030303030303030303030303030303030303030303030303030303
310
03030303030303030303030303030303030303030303030303030303030303030303030303030303030303030303030303030303030303030303030306060603030303030306060603030303030303060606030303030303030606060303030303030606060303030303030303030303030303030303030303030303030303
310
03030303030303030303030303030303030303030303030303030303030303030303030303030303030303030303030303030303030303030303030303030303030303030303030303030303030303030303030303030303030303030303030303030303030303030303030303030303030606060303030303030606060303
310
03030303030606060303030303030306060603030303030306060603030303030303030303030303030303030303030303030303030303030303030303030303030303030303030303030303030303030303030303030303030303030303030303030303030303030303030303030303030303030303030303030303030303
310
03030303030303030303030303030303030303030303030303030303030303030303030303030303060603030303030303060603030303030303030606030303030303030306060303030303030306060303030303030303030303030303030303030303030303030303030303030303030303030303030303030303030303
310
03030303030303030303030303030303030303030303030303030303030303030303030303030303030303030303030303030303030303030303030303030303030303030303030303030303030303030303030303030303030303030303030303030303030303030303030303030303030303030303030303030303030303
310
03030303030303030303030303030303030303030303030303030303030303030303030303030303030303030303030303030303030303030303030303030303030303030303030303030303000000000000000000000000000000000000000000000000000000000000000000000000000000000000000000000000000000
310
00000000000000000000000000000000000000000000000000000000000000000000000000000000000000000000000000000000000000000000000000000000000000000000000000000000000000000000000000000000000000000000000000000000000000000000000000000000000000000000000000000000000000
310
0401
  0
ENDSEC
  0
EOF
