  0
SECTION
  2
HEADER
  9
$ACADVER
  1
AC1015
  9
$ACADMAINTVER
 70
     6
  9
$DWGCODEPAGE
  3
ANSI_1252
  9
$INSBASE
 10
0.0
 20
0.0
 30
0.0
  9
$EXTMIN
 10
3535.025
 20
-91.229
 30
0.0
  9
$EXTMAX
 10
4555.026
 20
3714.645
 30
0.0
  9
$LIMMIN
 10
-3835.349858
 20
-6068.667358
  9
$LIMMAX
 10
11925.400858
 20
9692.083358
  9
$ORTHOMODE
 70
     0
  9
$REGENMODE
 70
     1
  9
$FILLMODE
 70
     1
  9
$QTEXTMODE
 70
     0
  9
$MIRRTEXT
 70
     1
  9
$LTSCALE
 40
1.0
  9
$ATTMODE
 70
     1
  9
$TEXTSIZE
 40
100.0
  9
$TRACEWID
 40
0.05
  9
$TEXTSTYLE
  7
Standard
  9
$CLAYER
  8
Level 8
  9
$CELTYPE
  6
Continuous
  9
$CECOLOR
 62
    98
  9
$CELTSCALE
 40
1.0
  9
$DISPSILH
 70
     0
  9
$DIMSCALE
 40
1.0
  9
$DIMASZ
 40
100.0
  9
$DIMEXO
 40
50.0
  9
$DIMDLI
 40
0.0
  9
$DIMRND
 40
0.0
  9
$DIMDLE
 40
0.0
  9
$DIMEXE
 40
50.0
  9
$DIMTP
 40
0.0
  9
$DIMTM
 40
0.0
  9
$DIMTXT
 40
100.0
  9
$DIMCEN
 40
0.09
  9
$DIMTSZ
 40
0.0
  9
$DIMTOL
 70
     0
  9
$DIMLIM
 70
     0
  9
$DIMTIH
 70
     0
  9
$DIMTOH
 70
     0
  9
$DIMSE1
 70
     0
  9
$DIMSE2
 70
     0
  9
$DIMTAD
 70
     1
  9
$DIMZIN
 70
    11
  9
$DIMBLK
  1
TerminatorOpen_0.5
  9
$DIMASO
 70
     1
  9
$DIMSHO
 70
     1
  9
$DIMPOST
  1

  9
$DIMAPOST
  1

  9
$DIMALT
 70
     0
  9
$DIMALTD
 70
     4
  9
$DIMALTF
 40
25.4
  9
$DIMLFAC
 40
1.0
  9
$DIMTOFL
 70
     0
  9
$DIMTVP
 40
0.0
  9
$DIMTIX
 70
     0
  9
$DIMSOXD
 70
     0
  9
$DIMSAH
 70
     0
  9
$DIMBLK1
  1

  9
$DIMBLK2
  1

  9
$DIMSTYLE
  2
Standard
  9
$DIMCLRD
 70
     0
  9
$DIMCLRE
 70
     0
  9
$DIMCLRT
 70
     0
  9
$DIMTFAC
 40
1.0
  9
$DIMGAP
 40
50.0
  9
$DIMJUST
 70
     0
  9
$DIMSD1
 70
     0
  9
$DIMSD2
 70
     0
  9
$DIMTOLJ
 70
     0
  9
$DIMTZIN
 70
    11
  9
$DIMALTZ
 70
    15
  9
$DIMALTTZ
 70
    15
  9
$DIMUPT
 70
     0
  9
$DIMDEC
 70
     0
  9
$DIMTDEC
 70
     0
  9
$DIMALTU
 70
     2
  9
$DIMALTTD
 70
     4
  9
$DIMTXSTY
  7
Style-ENGINEERING
  9
$DIMAUNIT
 70
     0
  9
$DIMADEC
 70
     0
  9
$DIMALTRND
 40
0.0
  9
$DIMAZIN
 70
     3
  9
$DIMDSEP
 70
    46
  9
$DIMATFIT
 70
     3
  9
$DIMFRAC
 70
     2
  9
$DIMLDRBLK
  1
TerminatorOpen_0.5
  9
$DIMLUNIT
 70
     2
  9
$DIMLWD
 70
    -2
  9
$DIMLWE
 70
    -2
  9
$DIMTMOVE
 70
     0
  9
$LUNITS
 70
     2
  9
$LUPREC
 70
     0
  9
$SKETCHINC
 40
0.1
  9
$FILLETRAD
 40
0.5
  9
$AUNITS
 70
     0
  9
$AUPREC
 70
     0
  9
$MENU
  1
.
  9
$ELEVATION
 40
0.0
  9
$PELEVATION
 40
0.0
  9
$THICKNESS
 40
0.0
  9
$LIMCHECK
 70
     0
  9
$CHAMFERA
 40
0.5
  9
$CHAMFERB
 40
0.5
  9
$CHAMFERC
 40
1.0
  9
$CHAMFERD
 40
0.0
  9
$SKPOLY
 70
     0
  9
$TDCREATE
 40
2451789.870802037
  9
$TDUCREATE
 40
2451789.537468704
  9
$TDUPDATE
 40
2451789.87089463
  9
$TDUUPDATE
 40
2451789.537561297
  9
$TDINDWG
 40
0.0000927662
  9
$TDUSRTIMER
 40
0.0000925926
  9
$USRTIMER
 70
     1
  9
$ANGBASE
 50
0.0
  9
$ANGDIR
 70
     0
  9
$PDMODE
 70
     0
  9
$PDSIZE
 40
0.0
  9
$PLINEWID
 40
0.0
  9
$SPLFRAME
 70
     0
  9
$SPLINETYPE
 70
     6
  9
$SPLINESEGS
 70
     8
  9
$HANDSEED
  5
7E134
  9
$SURFTAB1
 70
     6
  9
$SURFTAB2
 70
     6
  9
$SURFTYPE
 70
     6
  9
$SURFU
 70
     6
  9
$SURFV
 70
     6
  9
$UCSBASE
  2

  9
$UCSNAME
  2

  9
$UCSORG
 10
0.0
 20
0.0
 30
0.0
  9
$UCSXDIR
 10
1.0
 20
0.0
 30
0.0
  9
$UCSYDIR
 10
0.0
 20
1.0
 30
0.0
  9
$UCSORTHOREF
  2

  9
$UCSORTHOVIEW
 70
     0
  9
$UCSORGTOP
 10
0.0
 20
0.0
 30
0.0
  9
$UCSORGBOTTOM
 10
0.0
 20
0.0
 30
0.0
  9
$UCSORGLEFT
 10
0.0
 20
0.0
 30
0.0
  9
$UCSORGRIGHT
 10
0.0
 20
0.0
 30
0.0
  9
$UCSORGFRONT
 10
0.0
 20
0.0
 30
0.0
  9
$UCSORGBACK
 10
0.0
 20
0.0
 30
0.0
  9
$PUCSBASE
  2

  9
$PUCSNAME
  2

  9
$PUCSORG
 10
0.0
 20
0.0
 30
0.0
  9
$PUCSXDIR
 10
1.0
 20
0.0
 30
0.0
  9
$PUCSYDIR
 10
0.0
 20
1.0
 30
0.0
  9
$PUCSORTHOREF
  2

  9
$PUCSORTHOVIEW
 70
     0
  9
$PUCSORGTOP
 10
0.0
 20
0.0
 30
0.0
  9
$PUCSORGBOTTOM
 10
0.0
 20
0.0
 30
0.0
  9
$PUCSORGLEFT
 10
0.0
 20
0.0
 30
0.0
  9
$PUCSORGRIGHT
 10
0.0
 20
0.0
 30
0.0
  9
$PUCSORGFRONT
 10
0.0
 20
0.0
 30
0.0
  9
$PUCSORGBACK
 10
0.0
 20
0.0
 30
0.0
  9
$USERI1
 70
     0
  9
$USERI2
 70
     0
  9
$USERI3
 70
     0
  9
$USERI4
 70
     0
  9
$USERI5
 70
     0
  9
$USERR1
 40
0.0
  9
$USERR2
 40
0.0
  9
$USERR3
 40
0.0
  9
$USERR4
 40
0.0
  9
$USERR5
 40
0.0
  9
$WORLDVIEW
 70
     1
  9
$SHADEDGE
 70
     3
  9
$SHADEDIF
 70
    70
  9
$TILEMODE
 70
     1
  9
$MAXACTVP
 70
    64
  9
$PINSBASE
 10
0.0
 20
0.0
 30
0.0
  9
$PLIMCHECK
 70
     0
  9
$PEXTMIN
 10
1.000000E+20
 20
1.000000E+20
 30
1.000000E+20
  9
$PEXTMAX
 10
-1.000000E+20
 20
-1.000000E+20
 30
-1.000000E+20
  9
$PLIMMIN
 10
0.0
 20
0.0
  9
$PLIMMAX
 10
12.0
 20
9.0
  9
$UNITMODE
 70
     0
  9
$VISRETAIN
 70
     1
  9
$PLINEGEN
 70
     0
  9
$PSLTSCALE
 70
     0
  9
$TREEDEPTH
 70
  3020
  9
$CMLSTYLE
  2
Standard
  9
$CMLJUST
 70
     0
  9
$CMLSCALE
 40
1.0
  9
$PROXYGRAPHICS
 70
     1
  9
$MEASUREMENT
 70
     0
  9
$CELWEIGHT
370
     0
  9
$ENDCAPS
280
     0
  9
$JOINSTYLE
280
     0
  9
$LWDISPLAY
290
     1
  9
$INSUNITS
 70
     4
  9
$HYPERLINKBASE
  1

  9
$STYLESHEET
  1

  9
$XEDIT
290
     1
  9
$CEPSNTYPE
380
     0
  9
$PSTYLEMODE
290
     1
  9
$FINGERPRINTGUID
  2
{FDEAD576-A652-11D2-9A35-0060089B3A3F}
  9
$VERSIONGUID
  2
{A257D680-BC79-11D2-9A46-0060089B3A3F}
  9
$EXTNAMES
290
     1
  9
$PSVPSCALE
 40
0.0
  9
$OLESTARTUP
290
     0
  0
ENDSEC
  0
SECTION
  2
CLASSES
  0
CLASS
  1
ACDBDICTIONARYWDFLT
  2
AcDbDictionaryWithDefault
  3
ObjectDBX Classes
 90
        0
280
     0
281
     0
  0
CLASS
  1
ACDBPLACEHOLDER
  2
AcDbPlaceHolder
  3
ObjectDBX Classes
 90
        0
280
     0
281
     0
  0
CLASS
  1
LAYOUT
  2
AcDbLayout
  3
ObjectDBX Classes
 90
        0
280
     0
281
     0
  0
ENDSEC
  0
SECTION
  2
TABLES
  0
TABLE
  2
VPORT
  5
7E020
330
0
100
AcDbSymbolTable
 70
     3
  0
VPORT
  5
4B
330
7E020
100
AcDbSymbolTableRecord
100
AcDbViewportTableRecord
  2
*ACTIVE
 70
     0
 10
0.0
 20
0.0
 11
1.0
 21
1.0
 12
3506.755707
 22
2003.030962
 13
0.0
 23
0.0
 14
1.0
 24
1.0
 15
1.0
 25
1.0
 16
0.0
 26
0.0
 36
1.0
 17
0.0
 27
0.0
 37
0.0
 40
2718.31664
 41
2.064189
 42
50.0
 43
0.0
 44
0.0
 50
0.0
 51
0.0
 71
     0
 72
   100
 73
     1
 74
     2
 75
     0
 76
     0
 77
     0
 78
     1
281
     0
 65
     1
110
0.0
120
0.0
130
0.0
111
1.0
121
0.0
131
0.0
112
0.0
122
1.0
132
0.0
 79
     0
146
0.0
  0
ENDTAB
  0
TABLE
  2
LTYPE
  5
7E01C
330
0
100
AcDbSymbolTable
 70
     2
  0
LTYPE
  5
7E01D
330
7E01C
100
AcDbSymbolTableRecord
100
AcDbLinetypeTableRecord
  2
ByBlock
 70
     0
  3

 72
    65
 73
     0
 40
0.0
  0
LTYPE
  5
7E00E
330
7E01C
100
AcDbSymbolTableRecord
100
AcDbLinetypeTableRecord
  2
ByLayer
 70
     0
  3

 72
    65
 73
     0
 40
0.0
  0
LTYPE
  5
7E00C
330
7E01C
100
AcDbSymbolTableRecord
100
AcDbLinetypeTableRecord
  2
Continuous
 70
     0
  3
Solid line
 72
    65
 73
     0
 40
0.0
  0
LTYPE
  5
4E1B6
330
7E01C
100
AcDbSymbolTableRecord
100
AcDbLinetypeTableRecord
  2
Continuous_1
 70
     0
  3

 72
    65
 73
     0
 40
0.0
  0
ENDTAB
  0
TABLE
  2
LAYER
  5
7E01A
102
{ACAD_XDICTIONARY
360
7E02B
102
}
330
0
100
AcDbSymbolTable
 70
    65
  0
LAYER
  5
7E00A
330
7E01A
100
AcDbSymbolTableRecord
100
AcDbLayerTableRecord
  2
0
 70
     0
 62
     7
  6
Continuous
370
    -3
390
7E00B
  0
LAYER
  5
7
330
7E01A
100
AcDbSymbolTableRecord
100
AcDbLayerTableRecord
  2
Level 1
 70
     0
 62
     7
  6
Continuous
370
     0
390
7E00B
  0
LAYER
  5
8
330
7E01A
100
AcDbSymbolTableRecord
100
AcDbLayerTableRecord
  2
Level 2
 70
     0
 62
     7
  6
Continuous
370
     0
390
7E00B
  0
LAYER
  5
9
330
7E01A
100
AcDbSymbolTableRecord
100
AcDbLayerTableRecord
  2
Level 3
 70
     0
 62
     7
  6
Continuous
370
     0
390
7E00B
  0
LAYER
  5
A
330
7E01A
100
AcDbSymbolTableRecord
100
AcDbLayerTableRecord
  2
Level 4
 70
     0
 62
     7
  6
Continuous
370
     0
390
7E00B
  0
LAYER
  5
B
330
7E01A
100
AcDbSymbolTableRecord
100
AcDbLayerTableRecord
  2
Level 5
 70
     0
 62
     7
  6
Continuous
370
     0
390
7E00B
  0
LAYER
  5
C
330
7E01A
100
AcDbSymbolTableRecord
100
AcDbLayerTableRecord
  2
Level 6
 70
     0
 62
     7
  6
Continuous
370
     0
390
7E00B
  0
LAYER
  5
D
330
7E01A
100
AcDbSymbolTableRecord
100
AcDbLayerTableRecord
  2
Level 7
 70
     0
 62
     7
  6
Continuous
370
     0
390
7E00B
  0
LAYER
  5
E
330
7E01A
100
AcDbSymbolTableRecord
100
AcDbLayerTableRecord
  2
Level 8
 70
     0
 62
     7
  6
Continuous
370
     0
390
7E00B
  0
LAYER
  5
F
330
7E01A
100
AcDbSymbolTableRecord
100
AcDbLayerTableRecord
  2
Level 9
 70
     0
 62
     7
  6
Continuous
370
     0
390
7E00B
  0
LAYER
  5
10
330
7E01A
100
AcDbSymbolTableRecord
100
AcDbLayerTableRecord
  2
Level 10
 70
     0
 62
     7
  6
Continuous
370
     0
390
7E00B
  0
LAYER
  5
11
330
7E01A
100
AcDbSymbolTableRecord
100
AcDbLayerTableRecord
  2
Level 11
 70
     0
 62
     7
  6
Continuous
370
     0
390
7E00B
  0
LAYER
  5
12
330
7E01A
100
AcDbSymbolTableRecord
100
AcDbLayerTableRecord
  2
Level 12
 70
     0
 62
     7
  6
Continuous
370
     0
390
7E00B
  0
LAYER
  5
13
330
7E01A
100
AcDbSymbolTableRecord
100
AcDbLayerTableRecord
  2
Level 13
 70
     0
 62
     7
  6
Continuous
370
     0
390
7E00B
  0
LAYER
  5
14
330
7E01A
100
AcDbSymbolTableRecord
100
AcDbLayerTableRecord
  2
Level 14
 70
     0
 62
     7
  6
Continuous
370
     0
390
7E00B
  0
LAYER
  5
15
330
7E01A
100
AcDbSymbolTableRecord
100
AcDbLayerTableRecord
  2
Level 15
 70
     0
 62
     7
  6
Continuous
370
     0
390
7E00B
  0
LAYER
  5
16
330
7E01A
100
AcDbSymbolTableRecord
100
AcDbLayerTableRecord
  2
Level 16
 70
     0
 62
     7
  6
Continuous
370
     0
390
7E00B
  0
LAYER
  5
17
330
7E01A
100
AcDbSymbolTableRecord
100
AcDbLayerTableRecord
  2
Level 17
 70
     0
 62
     7
  6
Continuous
370
     0
390
7E00B
  0
LAYER
  5
18
330
7E01A
100
AcDbSymbolTableRecord
100
AcDbLayerTableRecord
  2
Level 18
 70
     0
 62
     7
  6
Continuous
370
     0
390
7E00B
  0
LAYER
  5
19
330
7E01A
100
AcDbSymbolTableRecord
100
AcDbLayerTableRecord
  2
Level 19
 70
     0
 62
     7
  6
Continuous
370
     0
390
7E00B
  0
LAYER
  5
1A
330
7E01A
100
AcDbSymbolTableRecord
100
AcDbLayerTableRecord
  2
Level 20
 70
     0
 62
     7
  6
Continuous
370
     0
390
7E00B
  0
LAYER
  5
1B
330
7E01A
100
AcDbSymbolTableRecord
100
AcDbLayerTableRecord
  2
Level 21
 70
     0
 62
     7
  6
Continuous
370
     0
390
7E00B
  0
LAYER
  5
1C
330
7E01A
100
AcDbSymbolTableRecord
100
AcDbLayerTableRecord
  2
Level 22
 70
     0
 62
     7
  6
Continuous
370
     0
390
7E00B
  0
LAYER
  5
1D
330
7E01A
100
AcDbSymbolTableRecord
100
AcDbLayerTableRecord
  2
Level 23
 70
     0
 62
     7
  6
Continuous
370
     0
390
7E00B
  0
LAYER
  5
1E
330
7E01A
100
AcDbSymbolTableRecord
100
AcDbLayerTableRecord
  2
Level 24
 70
     0
 62
     7
  6
Continuous
370
     0
390
7E00B
  0
LAYER
  5
1F
330
7E01A
100
AcDbSymbolTableRecord
100
AcDbLayerTableRecord
  2
Level 25
 70
     0
 62
     7
  6
Continuous
370
     0
390
7E00B
  0
LAYER
  5
20
330
7E01A
100
AcDbSymbolTableRecord
100
AcDbLayerTableRecord
  2
Level 26
 70
     0
 62
     7
  6
Continuous
370
     0
390
7E00B
  0
LAYER
  5
21
330
7E01A
100
AcDbSymbolTableRecord
100
AcDbLayerTableRecord
  2
Level 27
 70
     0
 62
     7
  6
Continuous
370
     0
390
7E00B
  0
LAYER
  5
22
330
7E01A
100
AcDbSymbolTableRecord
100
AcDbLayerTableRecord
  2
Level 28
 70
     0
 62
     7
  6
Continuous
370
     0
390
7E00B
  0
LAYER
  5
23
330
7E01A
100
AcDbSymbolTableRecord
100
AcDbLayerTableRecord
  2
Level 29
 70
     0
 62
     7
  6
Continuous
370
     0
390
7E00B
  0
LAYER
  5
24
330
7E01A
100
AcDbSymbolTableRecord
100
AcDbLayerTableRecord
  2
Level 30
 70
     0
 62
     7
  6
Continuous
370
     0
390
7E00B
  0
LAYER
  5
25
330
7E01A
100
AcDbSymbolTableRecord
100
AcDbLayerTableRecord
  2
Level 31
 70
     0
 62
     7
  6
Continuous
370
     0
390
7E00B
  0
LAYER
  5
26
330
7E01A
100
AcDbSymbolTableRecord
100
AcDbLayerTableRecord
  2
Level 32
 70
     0
 62
     7
  6
Continuous
370
     0
390
7E00B
  0
LAYER
  5
27
330
7E01A
100
AcDbSymbolTableRecord
100
AcDbLayerTableRecord
  2
Level 33
 70
     0
 62
     7
  6
Continuous
370
     0
390
7E00B
  0
LAYER
  5
28
330
7E01A
100
AcDbSymbolTableRecord
100
AcDbLayerTableRecord
  2
Level 34
 70
     0
 62
     7
  6
Continuous
370
     0
390
7E00B
  0
LAYER
  5
29
330
7E01A
100
AcDbSymbolTableRecord
100
AcDbLayerTableRecord
  2
Level 35
 70
     0
 62
     7
  6
Continuous
370
     0
390
7E00B
  0
LAYER
  5
2A
330
7E01A
100
AcDbSymbolTableRecord
100
AcDbLayerTableRecord
  2
Level 36
 70
     0
 62
     7
  6
Continuous
370
     0
390
7E00B
  0
LAYER
  5
2B
330
7E01A
100
AcDbSymbolTableRecord
100
AcDbLayerTableRecord
  2
Level 37
 70
     0
 62
     7
  6
Continuous
370
     0
390
7E00B
  0
LAYER
  5
2C
330
7E01A
100
AcDbSymbolTableRecord
100
AcDbLayerTableRecord
  2
Level 38
 70
     0
 62
     7
  6
Continuous
370
     0
390
7E00B
  0
LAYER
  5
2D
330
7E01A
100
AcDbSymbolTableRecord
100
AcDbLayerTableRecord
  2
Level 39
 70
     0
 62
     7
  6
Continuous
370
     0
390
7E00B
  0
LAYER
  5
2E
330
7E01A
100
AcDbSymbolTableRecord
100
AcDbLayerTableRecord
  2
Level 40
 70
     0
 62
     7
  6
Continuous
370
     0
390
7E00B
  0
LAYER
  5
2F
330
7E01A
100
AcDbSymbolTableRecord
100
AcDbLayerTableRecord
  2
Level 41
 70
     0
 62
     7
  6
Continuous
370
     0
390
7E00B
  0
LAYER
  5
30
330
7E01A
100
AcDbSymbolTableRecord
100
AcDbLayerTableRecord
  2
Level 42
 70
     0
 62
     7
  6
Continuous
370
     0
390
7E00B
  0
LAYER
  5
31
330
7E01A
100
AcDbSymbolTableRecord
100
AcDbLayerTableRecord
  2
Level 43
 70
     0
 62
     7
  6
Continuous
370
     0
390
7E00B
  0
LAYER
  5
32
330
7E01A
100
AcDbSymbolTableRecord
100
AcDbLayerTableRecord
  2
Level 44
 70
     0
 62
     7
  6
Continuous
370
     0
390
7E00B
  0
LAYER
  5
33
330
7E01A
100
AcDbSymbolTableRecord
100
AcDbLayerTableRecord
  2
Level 45
 70
     0
 62
     7
  6
Continuous
370
     0
390
7E00B
  0
LAYER
  5
34
330
7E01A
100
AcDbSymbolTableRecord
100
AcDbLayerTableRecord
  2
Level 46
 70
     0
 62
     7
  6
Continuous
370
     0
390
7E00B
  0
LAYER
  5
35
330
7E01A
100
AcDbSymbolTableRecord
100
AcDbLayerTableRecord
  2
Level 47
 70
     0
 62
     7
  6
Continuous
370
     0
390
7E00B
  0
LAYER
  5
36
330
7E01A
100
AcDbSymbolTableRecord
100
AcDbLayerTableRecord
  2
Level 48
 70
     0
 62
     7
  6
Continuous
370
     0
390
7E00B
  0
LAYER
  5
37
330
7E01A
100
AcDbSymbolTableRecord
100
AcDbLayerTableRecord
  2
Level 49
 70
     0
 62
     7
  6
Continuous
370
     0
390
7E00B
  0
LAYER
  5
38
330
7E01A
100
AcDbSymbolTableRecord
100
AcDbLayerTableRecord
  2
Level 50
 70
     0
 62
     7
  6
Continuous
370
     0
390
7E00B
  0
LAYER
  5
39
330
7E01A
100
AcDbSymbolTableRecord
100
AcDbLayerTableRecord
  2
Level 51
 70
     0
 62
     7
  6
Continuous
370
     0
390
7E00B
  0
LAYER
  5
3A
330
7E01A
100
AcDbSymbolTableRecord
100
AcDbLayerTableRecord
  2
Level 52
 70
     0
 62
     7
  6
Continuous
370
     0
390
7E00B
  0
LAYER
  5
3B
330
7E01A
100
AcDbSymbolTableRecord
100
AcDbLayerTableRecord
  2
Level 53
 70
     0
 62
     7
  6
Continuous
370
     0
390
7E00B
  0
LAYER
  5
3C
330
7E01A
100
AcDbSymbolTableRecord
100
AcDbLayerTableRecord
  2
Level 54
 70
     0
 62
     7
  6
Continuous
370
     0
390
7E00B
  0
LAYER
  5
3D
330
7E01A
100
AcDbSymbolTableRecord
100
AcDbLayerTableRecord
  2
Level 55
 70
     0
 62
     7
  6
Continuous
370
     0
390
7E00B
  0
LAYER
  5
3E
330
7E01A
100
AcDbSymbolTableRecord
100
AcDbLayerTableRecord
  2
Level 56
 70
     0
 62
     7
  6
Continuous
370
     0
390
7E00B
  0
LAYER
  5
3F
330
7E01A
100
AcDbSymbolTableRecord
100
AcDbLayerTableRecord
  2
Level 57
 70
     0
 62
     7
  6
Continuous
370
     0
390
7E00B
  0
LAYER
  5
40
330
7E01A
100
AcDbSymbolTableRecord
100
AcDbLayerTableRecord
  2
Level 58
 70
     0
 62
     7
  6
Continuous
370
     0
390
7E00B
  0
LAYER
  5
41
330
7E01A
100
AcDbSymbolTableRecord
100
AcDbLayerTableRecord
  2
Level 59
 70
     0
 62
     7
  6
Continuous
370
     0
390
7E00B
  0
LAYER
  5
42
330
7E01A
100
AcDbSymbolTableRecord
100
AcDbLayerTableRecord
  2
Level 60
 70
     0
 62
     7
  6
Continuous
370
     0
390
7E00B
  0
LAYER
  5
43
330
7E01A
100
AcDbSymbolTableRecord
100
AcDbLayerTableRecord
  2
Level 61
 70
     0
 62
     7
  6
Continuous
370
     0
390
7E00B
  0
LAYER
  5
44
330
7E01A
100
AcDbSymbolTableRecord
100
AcDbLayerTableRecord
  2
Level 62
 70
     0
 62
     7
  6
Continuous
370
     0
390
7E00B
  0
LAYER
  5
45
330
7E01A
100
AcDbSymbolTableRecord
100
AcDbLayerTableRecord
  2
Level 63
 70
     0
 62
     7
  6
Continuous
370
     0
390
7E00B
  0
LAYER
  5
50CA0
330
7E01A
100
AcDbSymbolTableRecord
100
AcDbLayerTableRecord
  2
25
 70
     0
 62
     7
  6
Continuous
370
     0
390
7E00B
  0
ENDTAB
  0
TABLE
  2
STYLE
  5
7E01B
330
0
100
AcDbSymbolTable
 70
     2
  0
STYLE
  5
7E00D
330
7E01B
100
AcDbSymbolTableRecord
100
AcDbTextStyleTableRecord
  2
Standard
 70
     0
 40
0.0
 41
1.0
 50
0.0
 71
     0
 42
100.0
  3
txt
  4

  0
STYLE
  5
7E02D
330
7E01B
100
AcDbSymbolTableRecord
100
AcDbTextStyleTableRecord
  2
Style-ENGINEERING
 70
     0
 40
0.0
 41
1.0
 50
0.0
 71
     0
 42
0.2
  3
ENGINEERING.shx
  4

  0
ENDTAB
  0
TABLE
  2
VIEW
  5
7E01E
330
0
100
AcDbSymbolTable
 70
     0
  0
ENDTAB
  0
TABLE
  2
UCS
  5
7E01F
330
0
100
AcDbSymbolTable
 70
     0
  0
ENDTAB
  0
TABLE
  2
APPID
  5
7E021
330
0
100
AcDbSymbolTable
 70
     1
  0
APPID
  5
7E029
330
7E021
100
AcDbSymbolTableRecord
100
AcDbRegAppTableRecord
  2
ACAD
 70
     0
  0
ENDTAB
  0
TABLE
  2
DIMSTYLE
  5
7E022
330
0
100
AcDbSymbolTable
 70
     1
100
AcDbDimStyleTable
  0
DIMSTYLE
105
7E00F
330
7E022
100
AcDbSymbolTableRecord
100
AcDbDimStyleTableRecord
  2
Standard
 70
     0
340
7E00D
  0
ENDTAB
  0
TABLE
  2
BLOCK_RECORD
  5
7E011
330
0
100
AcDbSymbolTable
 70
    73
  0
BLOCK_RECORD
  5
7E012
330
7E011
100
AcDbSymbolTableRecord
100
AcDbBlockTableRecord
  2
*Model_Space
340
7E015
  0
BLOCK_RECORD
  5
7E016
330
7E011
100
AcDbSymbolTableRecord
100
AcDbBlockTableRecord
  2
*Paper_Space
340
7E019
  0
BLOCK_RECORD
  5
7E02E
330
7E011
100
AcDbSymbolTableRecord
100
AcDbBlockTableRecord
  2
TerminatorOpen_0.5
340
0
  0
BLOCK_RECORD
  5
7E035
330
7E011
100
AcDbSymbolTableRecord
100
AcDbBlockTableRecord
  2
FS39
340
0
102
{BLKREFS
331
7DA8F
102
}
  0
BLOCK_RECORD
  5
7E038
330
7E011
100
AcDbSymbolTableRecord
100
AcDbBlockTableRecord
  2
From Surface
340
0
102
{BLKREFS
331
7DFD8
102
}
  0
BLOCK_RECORD
  5
7E03B
330
7E011
100
AcDbSymbolTableRecord
100
AcDbBlockTableRecord
  2
From Surface_1
340
0
102
{BLKREFS
331
7DFD9
102
}
  0
BLOCK_RECORD
  5
7E03E
330
7E011
100
AcDbSymbolTableRecord
100
AcDbBlockTableRecord
  2
From Surface_2
340
0
102
{BLKREFS
331
7DFDA
102
}
  0
BLOCK_RECORD
  5
7E041
330
7E011
100
AcDbSymbolTableRecord
100
AcDbBlockTableRecord
  2
From Surface_3
340
0
102
{BLKREFS
331
7DFDB
102
}
  0
BLOCK_RECORD
  5
7E044
330
7E011
100
AcDbSymbolTableRecord
100
AcDbBlockTableRecord
  2
Smart Solid
340
0
102
{BLKREFS
331
7DAC8
102
}
  0
BLOCK_RECORD
  5
7E047
330
7E011
100
AcDbSymbolTableRecord
100
AcDbBlockTableRecord
  2
Smart Solid_1
340
0
102
{BLKREFS
331
7DAD6
102
}
  0
BLOCK_RECORD
  5
7E04A
330
7E011
100
AcDbSymbolTableRecord
100
AcDbBlockTableRecord
  2
Smart Solid_2
340
0
102
{BLKREFS
331
7DAE4
102
}
  0
BLOCK_RECORD
  5
7E04D
330
7E011
100
AcDbSymbolTableRecord
100
AcDbBlockTableRecord
  2
Smart Solid_3
340
0
102
{BLKREFS
331
7DAF2
102
}
  0
BLOCK_RECORD
  5
7E050
330
7E011
100
AcDbSymbolTableRecord
100
AcDbBlockTableRecord
  2
Smart Solid_4
340
0
102
{BLKREFS
331
7DB00
102
}
  0
BLOCK_RECORD
  5
7E053
330
7E011
100
AcDbSymbolTableRecord
100
AcDbBlockTableRecord
  2
Smart Solid_5
340
0
102
{BLKREFS
331
7DB0E
102
}
  0
BLOCK_RECORD
  5
7E056
330
7E011
100
AcDbSymbolTableRecord
100
AcDbBlockTableRecord
  2
Smart Solid_6
340
0
102
{BLKREFS
331
7DB1C
102
}
  0
BLOCK_RECORD
  5
7E059
330
7E011
100
AcDbSymbolTableRecord
100
AcDbBlockTableRecord
  2
Smart Solid_7
340
0
102
{BLKREFS
331
7DB2A
102
}
  0
BLOCK_RECORD
  5
7E05C
330
7E011
100
AcDbSymbolTableRecord
100
AcDbBlockTableRecord
  2
Smart Solid_8
340
0
102
{BLKREFS
331
7DB38
102
}
  0
BLOCK_RECORD
  5
7E05F
330
7E011
100
AcDbSymbolTableRecord
100
AcDbBlockTableRecord
  2
Smart Solid_9
340
0
102
{BLKREFS
331
7DB46
102
}
  0
BLOCK_RECORD
  5
7E062
330
7E011
100
AcDbSymbolTableRecord
100
AcDbBlockTableRecord
  2
Smart Solid_10
340
0
102
{BLKREFS
331
7DB60
102
}
  0
BLOCK_RECORD
  5
7E065
330
7E011
100
AcDbSymbolTableRecord
100
AcDbBlockTableRecord
  2
From Surface_4
340
0
102
{BLKREFS
331
7DFDC
102
}
  0
BLOCK_RECORD
  5
7E068
330
7E011
100
AcDbSymbolTableRecord
100
AcDbBlockTableRecord
  2
From Surface_5
340
0
102
{BLKREFS
331
7DFDD
102
}
  0
BLOCK_RECORD
  5
7E06B
330
7E011
100
AcDbSymbolTableRecord
100
AcDbBlockTableRecord
  2
From Surface_6
340
0
102
{BLKREFS
331
7DFDE
102
}
  0
BLOCK_RECORD
  5
7E06E
330
7E011
100
AcDbSymbolTableRecord
100
AcDbBlockTableRecord
  2
From Surface_7
340
0
102
{BLKREFS
331
7DFDF
102
}
  0
BLOCK_RECORD
  5
7E071
330
7E011
100
AcDbSymbolTableRecord
100
AcDbBlockTableRecord
  2
Smart Solid_11
340
0
102
{BLKREFS
331
7DC01
102
}
  0
BLOCK_RECORD
  5
7E074
330
7E011
100
AcDbSymbolTableRecord
100
AcDbBlockTableRecord
  2
Smart Solid_12
340
0
102
{BLKREFS
331
7DC0F
102
}
  0
BLOCK_RECORD
  5
7E077
330
7E011
100
AcDbSymbolTableRecord
100
AcDbBlockTableRecord
  2
Smart Solid_13
340
0
102
{BLKREFS
331
7DC1D
102
}
  0
BLOCK_RECORD
  5
7E07A
330
7E011
100
AcDbSymbolTableRecord
100
AcDbBlockTableRecord
  2
Smart Solid_14
340
0
102
{BLKREFS
331
7DC2B
102
}
  0
BLOCK_RECORD
  5
7E07D
330
7E011
100
AcDbSymbolTableRecord
100
AcDbBlockTableRecord
  2
Smart Solid_15
340
0
102
{BLKREFS
331
7DC39
102
}
  0
BLOCK_RECORD
  5
7E080
330
7E011
100
AcDbSymbolTableRecord
100
AcDbBlockTableRecord
  2
Smart Solid_16
340
0
102
{BLKREFS
331
7DC47
102
}
  0
BLOCK_RECORD
  5
7E083
330
7E011
100
AcDbSymbolTableRecord
100
AcDbBlockTableRecord
  2
Smart Solid_17
340
0
102
{BLKREFS
331
7DC55
102
}
  0
BLOCK_RECORD
  5
7E086
330
7E011
100
AcDbSymbolTableRecord
100
AcDbBlockTableRecord
  2
Smart Solid_18
340
0
102
{BLKREFS
331
7DC63
102
}
  0
BLOCK_RECORD
  5
7E089
330
7E011
100
AcDbSymbolTableRecord
100
AcDbBlockTableRecord
  2
Smart Solid_19
340
0
102
{BLKREFS
331
7DC71
102
}
  0
BLOCK_RECORD
  5
7E08C
330
7E011
100
AcDbSymbolTableRecord
100
AcDbBlockTableRecord
  2
Smart Solid_20
340
0
102
{BLKREFS
331
7DC7F
102
}
  0
BLOCK_RECORD
  5
7E08F
330
7E011
100
AcDbSymbolTableRecord
100
AcDbBlockTableRecord
  2
Smart Solid_21
340
0
102
{BLKREFS
331
7DC99
102
}
  0
BLOCK_RECORD
  5
7E092
330
7E011
100
AcDbSymbolTableRecord
100
AcDbBlockTableRecord
  2
From Surface_8
340
0
102
{BLKREFS
331
7DFE0
102
}
  0
BLOCK_RECORD
  5
7E095
330
7E011
100
AcDbSymbolTableRecord
100
AcDbBlockTableRecord
  2
From Surface_9
340
0
102
{BLKREFS
331
7DFE1
102
}
  0
BLOCK_RECORD
  5
7E098
330
7E011
100
AcDbSymbolTableRecord
100
AcDbBlockTableRecord
  2
From Surface_10
340
0
102
{BLKREFS
331
7DFE2
102
}
  0
BLOCK_RECORD
  5
7E09B
330
7E011
100
AcDbSymbolTableRecord
100
AcDbBlockTableRecord
  2
From Surface_11
340
0
102
{BLKREFS
331
7DFE3
102
}
  0
BLOCK_RECORD
  5
7E09E
330
7E011
100
AcDbSymbolTableRecord
100
AcDbBlockTableRecord
  2
From Surface_12
340
0
102
{BLKREFS
331
7DFE4
102
}
  0
BLOCK_RECORD
  5
7E0A1
330
7E011
100
AcDbSymbolTableRecord
100
AcDbBlockTableRecord
  2
From Surface_13
340
0
102
{BLKREFS
331
7DFE5
102
}
  0
BLOCK_RECORD
  5
7E0A4
330
7E011
100
AcDbSymbolTableRecord
100
AcDbBlockTableRecord
  2
From Surface_14
340
0
102
{BLKREFS
331
7DFE6
102
}
  0
BLOCK_RECORD
  5
7E0A7
330
7E011
100
AcDbSymbolTableRecord
100
AcDbBlockTableRecord
  2
From Surface_15
340
0
102
{BLKREFS
331
7DFE7
102
}
  0
BLOCK_RECORD
  5
7E0AA
330
7E011
100
AcDbSymbolTableRecord
100
AcDbBlockTableRecord
  2
From Surface_16
340
0
102
{BLKREFS
331
7DFE8
102
}
  0
BLOCK_RECORD
  5
7E0AD
330
7E011
100
AcDbSymbolTableRecord
100
AcDbBlockTableRecord
  2
From Surface_17
340
0
102
{BLKREFS
331
7DFE9
102
}
  0
BLOCK_RECORD
  5
7E0B0
330
7E011
100
AcDbSymbolTableRecord
100
AcDbBlockTableRecord
  2
From Surface_18
340
0
102
{BLKREFS
331
7DFEA
102
}
  0
BLOCK_RECORD
  5
7E0B3
330
7E011
100
AcDbSymbolTableRecord
100
AcDbBlockTableRecord
  2
From Surface_19
340
0
102
{BLKREFS
331
7DFEB
102
}
  0
BLOCK_RECORD
  5
7E0B6
330
7E011
100
AcDbSymbolTableRecord
100
AcDbBlockTableRecord
  2
From Surface_20
340
0
102
{BLKREFS
331
7DFEC
102
}
  0
BLOCK_RECORD
  5
7E0B9
330
7E011
100
AcDbSymbolTableRecord
100
AcDbBlockTableRecord
  2
From Surface_21
340
0
102
{BLKREFS
331
7DFED
102
}
  0
BLOCK_RECORD
  5
7E0BC
330
7E011
100
AcDbSymbolTableRecord
100
AcDbBlockTableRecord
  2
From Surface_22
340
0
102
{BLKREFS
331
7DFEE
102
}
  0
BLOCK_RECORD
  5
7E0BF
330
7E011
100
AcDbSymbolTableRecord
100
AcDbBlockTableRecord
  2
From Surface_23
340
0
102
{BLKREFS
331
7DFEF
102
}
  0
BLOCK_RECORD
  5
7E0C2
330
7E011
100
AcDbSymbolTableRecord
100
AcDbBlockTableRecord
  2
From Surface_24
340
0
102
{BLKREFS
331
7DFF0
102
}
  0
BLOCK_RECORD
  5
7E0C5
330
7E011
100
AcDbSymbolTableRecord
100
AcDbBlockTableRecord
  2
From Surface_25
340
0
102
{BLKREFS
331
7DFF1
102
}
  0
BLOCK_RECORD
  5
7E0C8
330
7E011
100
AcDbSymbolTableRecord
100
AcDbBlockTableRecord
  2
From Solid
340
0
102
{BLKREFS
331
7DFF2
102
}
  0
BLOCK_RECORD
  5
7E0CB
330
7E011
100
AcDbSymbolTableRecord
100
AcDbBlockTableRecord
  2
From Solid_1
340
0
102
{BLKREFS
331
7DFF3
102
}
  0
BLOCK_RECORD
  5
7E0CE
330
7E011
100
AcDbSymbolTableRecord
100
AcDbBlockTableRecord
  2
From Surface_26
340
0
102
{BLKREFS
331
7DFF4
102
}
  0
BLOCK_RECORD
  5
7E0D1
330
7E011
100
AcDbSymbolTableRecord
100
AcDbBlockTableRecord
  2
From Surface_27
340
0
102
{BLKREFS
331
7DFF5
102
}
  0
BLOCK_RECORD
  5
7E0D4
330
7E011
100
AcDbSymbolTableRecord
100
AcDbBlockTableRecord
  2
From Surface_28
340
0
102
{BLKREFS
331
7DFF6
102
}
  0
BLOCK_RECORD
  5
7E0D7
330
7E011
100
AcDbSymbolTableRecord
100
AcDbBlockTableRecord
  2
From Surface_29
340
0
102
{BLKREFS
331
7DFF7
102
}
  0
BLOCK_RECORD
  5
7E0DA
330
7E011
100
AcDbSymbolTableRecord
100
AcDbBlockTableRecord
  2
From Surface_30
340
0
102
{BLKREFS
331
7DFF8
102
}
  0
BLOCK_RECORD
  5
7E0DD
330
7E011
100
AcDbSymbolTableRecord
100
AcDbBlockTableRecord
  2
From Surface_31
340
0
102
{BLKREFS
331
7DFF9
102
}
  0
BLOCK_RECORD
  5
7E0E0
330
7E011
100
AcDbSymbolTableRecord
100
AcDbBlockTableRecord
  2
From Surface_32
340
0
102
{BLKREFS
331
7DFFA
102
}
  0
BLOCK_RECORD
  5
7E0E3
330
7E011
100
AcDbSymbolTableRecord
100
AcDbBlockTableRecord
  2
From Surface_33
340
0
102
{BLKREFS
331
7DFFB
102
}
  0
BLOCK_RECORD
  5
7E0E6
330
7E011
100
AcDbSymbolTableRecord
100
AcDbBlockTableRecord
  2
From Surface_34
340
0
102
{BLKREFS
331
7DFFC
102
}
  0
BLOCK_RECORD
  5
7E0E9
330
7E011
100
AcDbSymbolTableRecord
100
AcDbBlockTableRecord
  2
From Surface_35
340
0
102
{BLKREFS
331
7DFFD
102
}
  0
BLOCK_RECORD
  5
7E0EC
330
7E011
100
AcDbSymbolTableRecord
100
AcDbBlockTableRecord
  2
From Surface_36
340
0
102
{BLKREFS
331
7DFFE
102
}
  0
BLOCK_RECORD
  5
7E0EF
330
7E011
100
AcDbSymbolTableRecord
100
AcDbBlockTableRecord
  2
From Surface_37
340
0
102
{BLKREFS
331
7DFFF
102
}
  0
BLOCK_RECORD
  5
7E0F2
330
7E011
100
AcDbSymbolTableRecord
100
AcDbBlockTableRecord
  2
From Surface_38
340
0
102
{BLKREFS
331
7E000
102
}
  0
BLOCK_RECORD
  5
7E0F5
330
7E011
100
AcDbSymbolTableRecord
100
AcDbBlockTableRecord
  2
From Surface_39
340
0
102
{BLKREFS
331
7E001
102
}
  0
BLOCK_RECORD
  5
7E0F8
330
7E011
100
AcDbSymbolTableRecord
100
AcDbBlockTableRecord
  2
From Surface_40
340
0
102
{BLKREFS
331
7E002
102
}
  0
BLOCK_RECORD
  5
7E0FB
330
7E011
100
AcDbSymbolTableRecord
100
AcDbBlockTableRecord
  2
From Surface_41
340
0
102
{BLKREFS
331
7E003
102
}
  0
BLOCK_RECORD
  5
7E0FE
330
7E011
100
AcDbSymbolTableRecord
100
AcDbBlockTableRecord
  2
From Surface_42
340
0
102
{BLKREFS
331
7E004
102
}
  0
BLOCK_RECORD
  5
7E101
330
7E011
100
AcDbSymbolTableRecord
100
AcDbBlockTableRecord
  2
From Surface_43
340
0
102
{BLKREFS
331
7E005
102
}
  0
BLOCK_RECORD
  5
7E104
330
7E011
100
AcDbSymbolTableRecord
100
AcDbBlockTableRecord
  2
From Solid_2
340
0
102
{BLKREFS
331
7E006
102
}
  0
BLOCK_RECORD
  5
7E107
330
7E011
100
AcDbSymbolTableRecord
100
AcDbBlockTableRecord
  2
From Solid_3
340
0
102
{BLKREFS
331
7E007
102
}
  0
BLOCK_RECORD
  5
7E10A
330
7E011
100
AcDbSymbolTableRecord
100
AcDbBlockTableRecord
  2
From Solid_4
340
0
102
{BLKREFS
331
7E008
102
}
  0
ENDTAB
  0
ENDSEC
  0
SECTION
  2
BLOCKS
  0
BLOCK
  5
7E013
330
7E012
100
AcDbEntity
  8
0
100
AcDbBlockBegin
  2
*Model_Space
 70
     0
 71
     0
 10
0.0
 20
0.0
 30
0.0
  3
*Model_Space
  1

  0
ENDBLK
  5
7E014
330
7E012
100
AcDbEntity
  8
0
100
AcDbBlockEnd
  0
BLOCK
  5
7E017
330
7E016
100
AcDbEntity
 67
     1
  8
0
100
AcDbBlockBegin
  2
*Paper_Space
 70
     0
 71
     0
 10
0.0
 20
0.0
 30
0.0
  3
*Paper_Space
  1

  0
ENDBLK
  5
7E018
330
7E016
100
AcDbEntity
 67
     1
  8
0
100
AcDbBlockEnd
  0
BLOCK
  5
7E032
330
7E02E
100
AcDbEntity
  8
0
100
AcDbBlockBegin
  2
TerminatorOpen_0.5
 70
     0
 71
     0
 10
0.0
 20
0.0
 30
0.0
  3
TerminatorOpen_0.5
  1

  0
LINE
  5
7E02F
330
7E02E
100
AcDbEntity
  8
0
  6
ByBlock
 62
     0
370
    -2
100
AcDbLine
 10
0.0
 20
0.0
 30
0.0
 11
-1.0
 21
0.0
 31
0.0
  0
LINE
  5
7E030
330
7E02E
100
AcDbEntity
  8
0
  6
ByBlock
 62
     0
370
    -2
100
AcDbLine
 10
0.0
 20
0.0
 30
0.0
 11
-1.0
 21
0.25
 31
0.0
  0
LINE
  5
7E031
330
7E02E
100
AcDbEntity
  8
0
  6
ByBlock
 62
     0
370
    -2
100
AcDbLine
 10
0.0
 20
0.0
 30
0.0
 11
-1.0
 21
-0.25
 31
0.0
  0
ENDBLK
  5
7E033
330
7E02E
100
AcDbEntity
  8
0
100
AcDbBlockEnd
  0
BLOCK
  5
7E036
330
7E035
100
AcDbEntity
  8
0
100
AcDbBlockBegin
  2
FS39
 70
     0
 71
     0
 10
0.0
 20
0.0
 30
0.0
  3
FS39
  1

  0
INSERT
  5
7DFD8
330
7E035
100
AcDbEntity
  8
Level 27
  6
Continuous
 62
    40
370
    13
100
AcDbBlockReference
  2
From Surface
 10
-4045.025751
 20
-1811.707727
 30
0.0
  0
INSERT
  5
7DFD9
330
7E035
100
AcDbEntity
  8
Level 27
  6
Continuous
 62
    40
370
    13
100
AcDbBlockReference
  2
From Surface_1
 10
-4045.025751
 20
-1811.707727
 30
0.0
  0
INSERT
  5
7DFDA
330
7E035
100
AcDbEntity
  8
Level 27
  6
Continuous
 62
    40
370
    13
100
AcDbBlockReference
  2
From Surface_2
 10
-4045.025751
 20
-1811.707727
 30
0.0
  0
LWPOLYLINE
  5
7DA9F
330
7E035
100
AcDbEntity
  8
Level 27
  6
Continuous
 62
    40
370
    13
100
AcDbPolyline
 90
        4
 70
   129
 43
0.0
 10
-470.0
 20
-37.5
 10
-470.0
 20
-907.5
 10
-470.0
 20
-907.5
 10
-470.0
 20
-37.5
  0
LWPOLYLINE
  5
7DAA4
330
7E035
100
AcDbEntity
  8
Level 27
  6
Continuous
 62
    40
370
    13
100
AcDbPolyline
 90
        4
 70
   129
 43
0.0
 10
435.0
 20
-2.5
 10
-435.0
 20
-2.5
 10
-435.0
 20
-2.5
 10
435.0
 20
-2.5
  0
LWPOLYLINE
  5
7DAA9
330
7E035
100
AcDbEntity
  8
Level 27
  6
Continuous
 62
    40
370
    13
100
AcDbPolyline
 90
        4
 70
   129
 43
0.0
 10
470.0
 20
-907.5
 10
470.0
 20
-37.5
 10
470.0
 20
-37.5
 10
470.0
 20
-907.5
  0
LWPOLYLINE
  5
7DAAE
330
7E035
100
AcDbEntity
  8
Level 27
  6
Continuous
 62
    40
370
    13
100
AcDbPolyline
 90
        4
 70
   129
 43
0.0
 10
-435.0
 20
-942.5
 10
435.0
 20
-942.5
 10
435.0
 20
-942.5
 10
-435.0
 20
-942.5
  0
INSERT
  5
7DFDB
330
7E035
100
AcDbEntity
  8
Level 27
  6
Continuous
 62
    40
370
    13
100
AcDbBlockReference
  2
From Surface_3
 10
-4045.025751
 20
-1811.707727
 30
0.0
  0
LINE
  5
7DAB8
330
7E035
100
AcDbEntity
  8
Level 27
  6
Continuous
 62
    40
370
    13
100
AcDbLine
 10
-435.0
 20
-937.5
 30
0.0
 11
435.0
 21
-937.5
 31
0.0
  0
LINE
  5
7DAB9
330
7E035
100
AcDbEntity
  8
Level 27
  6
Continuous
 62
    40
370
    13
100
AcDbLine
 10
435.0
 20
-937.5
 30
0.0
 11
435.0
 21
-907.5
 31
0.0
  0
LINE
  5
7DABA
330
7E035
100
AcDbEntity
  8
Level 27
  6
Continuous
 62
    40
370
    13
100
AcDbLine
 10
435.0
 20
-907.5
 30
0.0
 11
465.0
 21
-907.5
 31
0.0
  0
LINE
  5
7DABB
330
7E035
100
AcDbEntity
  8
Level 27
  6
Continuous
 62
    40
370
    13
100
AcDbLine
 10
465.0
 20
-907.5
 30
0.0
 11
465.0
 21
-37.5
 31
0.0
  0
LINE
  5
7DABC
330
7E035
100
AcDbEntity
  8
Level 27
  6
Continuous
 62
    40
370
    13
100
AcDbLine
 10
465.0
 20
-37.5
 30
0.0
 11
435.0
 21
-37.5
 31
0.0
  0
LINE
  5
7DABD
330
7E035
100
AcDbEntity
  8
Level 27
  6
Continuous
 62
    40
370
    13
100
AcDbLine
 10
435.0
 20
-37.5
 30
0.0
 11
435.0
 21
-7.5
 31
0.0
  0
LINE
  5
7DABE
330
7E035
100
AcDbEntity
  8
Level 27
  6
Continuous
 62
    40
370
    13
100
AcDbLine
 10
435.0
 20
-7.5
 30
0.0
 11
-435.0
 21
-7.5
 31
0.0
  0
LINE
  5
7DABF
330
7E035
100
AcDbEntity
  8
Level 27
  6
Continuous
 62
    40
370
    13
100
AcDbLine
 10
-435.0
 20
-7.5
 30
0.0
 11
-435.0
 21
-37.5
 31
0.0
  0
LINE
  5
7DAC0
330
7E035
100
AcDbEntity
  8
Level 27
  6
Continuous
 62
    40
370
    13
100
AcDbLine
 10
-435.0
 20
-37.5
 30
0.0
 11
-465.0
 21
-37.5
 31
0.0
  0
LINE
  5
7DAC1
330
7E035
100
AcDbEntity
  8
Level 27
  6
Continuous
 62
    40
370
    13
100
AcDbLine
 10
-465.0
 20
-37.5
 30
0.0
 11
-465.0
 21
-907.5
 31
0.0
  0
LINE
  5
7DAC2
330
7E035
100
AcDbEntity
  8
Level 27
  6
Continuous
 62
    40
370
    13
100
AcDbLine
 10
-465.0
 20
-907.5
 30
0.0
 11
-435.0
 21
-907.5
 31
0.0
  0
LINE
  5
7DAC3
330
7E035
100
AcDbEntity
  8
Level 27
  6
Continuous
 62
    40
370
    13
100
AcDbLine
 10
-435.0
 20
-907.5
 30
0.0
 11
-435.0
 21
-937.5
 31
0.0
  0
LWPOLYLINE
  5
7DAC4
330
7E035
100
AcDbEntity
  8
Level 27
  6
Continuous
 62
    40
370
    13
100
AcDbPolyline
 90
        4
 70
   129
 43
0.0
 10
435.0
 20
-7.5
 10
435.0
 20
-37.5
 10
-435.0
 20
-37.5
 10
-435.0
 20
-7.5
  0
LWPOLYLINE
  5
7DAC5
330
7E035
100
AcDbEntity
  8
Level 27
  6
Continuous
 62
    40
370
    13
100
AcDbPolyline
 90
        4
 70
   129
 43
0.0
 10
-435.0
 20
-37.5
 10
-435.0
 20
-907.5
 10
-465.0
 20
-907.5
 10
-465.0
 20
-37.5
  0
LWPOLYLINE
  5
7DAC6
330
7E035
100
AcDbEntity
  8
Level 27
  6
Continuous
 62
    40
370
    13
100
AcDbPolyline
 90
        4
 70
   129
 43
0.0
 10
-435.0
 20
-937.5
 10
-435.0
 20
-907.5
 10
435.0
 20
-907.5
 10
435.0
 20
-937.5
  0
LWPOLYLINE
  5
7DAC7
330
7E035
100
AcDbEntity
  8
Level 27
  6
Continuous
 62
    40
370
    13
100
AcDbPolyline
 90
        4
 70
   129
 43
0.0
 10
435.0
 20
-907.5
 10
435.0
 20
-37.5
 10
465.0
 20
-37.5
 10
465.0
 20
-907.5
  0
INSERT
  5
7DAC8
330
7E035
100
AcDbEntity
  8
Level 26
  6
Continuous
 62
    25
370
    13
100
AcDbBlockReference
  2
Smart Solid
 10
-0.0005
 20
-132.5005
 30
0.0
  0
INSERT
  5
7DAD6
330
7E035
100
AcDbEntity
  8
Level 26
  6
Continuous
 62
    25
370
    13
100
AcDbBlockReference
  2
Smart Solid_1
 10
-0.0005
 20
-217.5005
 30
0.0
  0
INSERT
  5
7DAE4
330
7E035
100
AcDbEntity
  8
Level 26
  6
Continuous
 62
    25
370
    13
100
AcDbBlockReference
  2
Smart Solid_2
 10
-0.0005
 20
-302.5005
 30
0.0
  0
INSERT
  5
7DAF2
330
7E035
100
AcDbEntity
  8
Level 26
  6
Continuous
 62
    25
370
    13
100
AcDbBlockReference
  2
Smart Solid_3
 10
-0.0005
 20
-387.5005
 30
0.0
  0
INSERT
  5
7DB00
330
7E035
100
AcDbEntity
  8
Level 26
  6
Continuous
 62
    25
370
    13
100
AcDbBlockReference
  2
Smart Solid_4
 10
-0.0005
 20
-472.5005
 30
0.0
  0
INSERT
  5
7DB0E
330
7E035
100
AcDbEntity
  8
Level 26
  6
Continuous
 62
    25
370
    13
100
AcDbBlockReference
  2
Smart Solid_5
 10
-0.0005
 20
-557.5005
 30
0.0
  0
INSERT
  5
7DB1C
330
7E035
100
AcDbEntity
  8
Level 26
  6
Continuous
 62
    25
370
    13
100
AcDbBlockReference
  2
Smart Solid_6
 10
-0.0005
 20
-642.5005
 30
0.0
  0
INSERT
  5
7DB2A
330
7E035
100
AcDbEntity
  8
Level 26
  6
Continuous
 62
    25
370
    13
100
AcDbBlockReference
  2
Smart Solid_7
 10
-0.0005
 20
-727.5005
 30
0.0
  0
INSERT
  5
7DB38
330
7E035
100
AcDbEntity
  8
Level 26
  6
Continuous
 62
    25
370
    13
100
AcDbBlockReference
  2
Smart Solid_8
 10
-0.0005
 20
-812.5005
 30
0.0
  0
INSERT
  5
7DB46
330
7E035
100
AcDbEntity
  8
Level 26
  6
Continuous
 62
    25
370
    13
100
AcDbBlockReference
  2
Smart Solid_9
 10
-0.0005
 20
-897.5005
 30
0.0
  0
INSERT
  5
7DB60
330
7E035
100
AcDbEntity
  8
Level 26
  6
Continuous
 62
    25
370
    13
100
AcDbBlockReference
  2
Smart Solid_10
 10
-0.0005
 20
-47.5005
 30
0.0
  0
LWPOLYLINE
  5
7DB7A
330
7E035
100
AcDbEntity
  8
Level 27
  6
Continuous
 62
    40
370
    13
100
AcDbPolyline
 90
        4
 70
   129
 43
0.0
 10
25.0
 20
-37.5
 10
25.0
 20
-907.5
 10
-25.0
 20
-907.5
 10
-25.0
 20
-37.5
  0
LWPOLYLINE
  5
7DB7B
330
7E035
100
AcDbEntity
  8
Level 25
  6
Continuous
 62
   174
370
    13
100
AcDbPolyline
 90
        4
 70
   129
 43
0.0
 10
435.0
 20
-982.5
 10
510.0
 20
-982.5
 10
510.0
 20
-982.5
 10
435.0
 20
-982.5
  0
LWPOLYLINE
  5
7DB7C
330
7E035
100
AcDbEntity
  8
Level 25
  6
Continuous
 62
   174
370
    13
100
AcDbPolyline
 90
        4
 70
   129
 43
0.0
 10
510.0
 20
-982.5
 10
510.0
 20
-907.5
 10
510.0
 20
-907.5
 10
510.0
 20
-982.5
  0
LWPOLYLINE
  5
7DB7D
330
7E035
100
AcDbEntity
  8
Level 25
  6
Continuous
 62
   174
370
    13
100
AcDbPolyline
 90
        4
 70
   129
 43
0.0
 10
435.0
 20
-907.5
 10
435.0
 20
-982.5
 10
435.0
 20
-982.5
 10
435.0
 20
-907.5
  0
LWPOLYLINE
  5
7DB7E
330
7E035
100
AcDbEntity
  8
Level 25
  6
Continuous
 62
   174
370
    13
100
AcDbPolyline
 90
        4
 70
   129
 43
0.0
 10
510.0
 20
-907.5
 10
435.0
 20
-907.5
 10
435.0
 20
-907.5
 10
510.0
 20
-907.5
  0
LWPOLYLINE
  5
7DB7F
330
7E035
100
AcDbEntity
  8
Level 26
  6
Continuous
 62
   163
370
    13
100
AcDbPolyline
 90
        4
 70
   129
 43
0.0
 10
510.0
 20
-907.5
 10
435.0
 20
-907.5
 10
435.0
 20
-907.5
 10
510.0
 20
-907.5
  0
LWPOLYLINE
  5
7DB80
330
7E035
100
AcDbEntity
  8
Level 26
  6
Continuous
 62
   163
370
    13
100
AcDbPolyline
 90
        4
 70
   129
 43
0.0
 10
510.0
 20
-982.5
 10
510.0
 20
-907.5
 10
510.0
 20
-907.5
 10
510.0
 20
-982.5
  0
LWPOLYLINE
  5
7DB81
330
7E035
100
AcDbEntity
  8
Level 26
  6
Continuous
 62
   163
370
    13
100
AcDbPolyline
 90
        4
 70
   129
 43
0.0
 10
435.0
 20
-982.5
 10
510.0
 20
-982.5
 10
510.0
 20
-982.5
 10
435.0
 20
-982.5
  0
LWPOLYLINE
  5
7DB82
330
7E035
100
AcDbEntity
  8
Level 26
  6
Continuous
 62
   163
370
    13
100
AcDbPolyline
 90
        4
 70
   129
 43
0.0
 10
435.0
 20
-907.5
 10
435.0
 20
-982.5
 10
435.0
 20
-982.5
 10
435.0
 20
-907.5
  0
LWPOLYLINE
  5
7DB83
330
7E035
100
AcDbEntity
  8
Level 26
  6
Continuous
 62
   163
370
    13
100
AcDbPolyline
 90
        4
 70
   129
 43
0.0
 10
510.0
 20
-907.5
 10
435.0
 20
-907.5
 10
435.0
 20
-982.5
 10
510.0
 20
-982.5
  0
LWPOLYLINE
  5
7DB88
330
7E035
100
AcDbEntity
  8
Level 25
  6
Continuous
 62
   174
370
    13
100
AcDbPolyline
 90
        4
 70
   129
 43
0.0
 10
-510.0
 20
-982.5
 10
-435.0
 20
-982.5
 10
-435.0
 20
-982.5
 10
-510.0
 20
-982.5
  0
LWPOLYLINE
  5
7DB89
330
7E035
100
AcDbEntity
  8
Level 25
  6
Continuous
 62
   174
370
    13
100
AcDbPolyline
 90
        4
 70
   129
 43
0.0
 10
-435.0
 20
-982.5
 10
-435.0
 20
-907.5
 10
-435.0
 20
-907.5
 10
-435.0
 20
-982.5
  0
LWPOLYLINE
  5
7DB8A
330
7E035
100
AcDbEntity
  8
Level 25
  6
Continuous
 62
   174
370
    13
100
AcDbPolyline
 90
        4
 70
   129
 43
0.0
 10
-510.0
 20
-907.5
 10
-510.0
 20
-982.5
 10
-510.0
 20
-982.5
 10
-510.0
 20
-907.5
  0
LWPOLYLINE
  5
7DB8B
330
7E035
100
AcDbEntity
  8
Level 25
  6
Continuous
 62
   174
370
    13
100
AcDbPolyline
 90
        4
 70
   129
 43
0.0
 10
-435.0
 20
-907.5
 10
-510.0
 20
-907.5
 10
-510.0
 20
-907.5
 10
-435.0
 20
-907.5
  0
LWPOLYLINE
  5
7DB8C
330
7E035
100
AcDbEntity
  8
Level 26
  6
Continuous
 62
   163
370
    13
100
AcDbPolyline
 90
        4
 70
   129
 43
0.0
 10
-435.0
 20
-907.5
 10
-510.0
 20
-907.5
 10
-510.0
 20
-907.5
 10
-435.0
 20
-907.5
  0
LWPOLYLINE
  5
7DB8D
330
7E035
100
AcDbEntity
  8
Level 26
  6
Continuous
 62
   163
370
    13
100
AcDbPolyline
 90
        4
 70
   129
 43
0.0
 10
-435.0
 20
-982.5
 10
-435.0
 20
-907.5
 10
-435.0
 20
-907.5
 10
-435.0
 20
-982.5
  0
LWPOLYLINE
  5
7DB8E
330
7E035
100
AcDbEntity
  8
Level 26
  6
Continuous
 62
   163
370
    13
100
AcDbPolyline
 90
        4
 70
   129
 43
0.0
 10
-510.0
 20
-982.5
 10
-435.0
 20
-982.5
 10
-435.0
 20
-982.5
 10
-510.0
 20
-982.5
  0
LWPOLYLINE
  5
7DB8F
330
7E035
100
AcDbEntity
  8
Level 26
  6
Continuous
 62
   163
370
    13
100
AcDbPolyline
 90
        4
 70
   129
 43
0.0
 10
-510.0
 20
-907.5
 10
-510.0
 20
-982.5
 10
-510.0
 20
-982.5
 10
-510.0
 20
-907.5
  0
LWPOLYLINE
  5
7DB90
330
7E035
100
AcDbEntity
  8
Level 26
  6
Continuous
 62
   163
370
    13
100
AcDbPolyline
 90
        4
 70
   129
 43
0.0
 10
-435.0
 20
-907.5
 10
-510.0
 20
-907.5
 10
-510.0
 20
-982.5
 10
-435.0
 20
-982.5
  0
LWPOLYLINE
  5
7DB95
330
7E035
100
AcDbEntity
  8
Level 25
  6
Continuous
 62
   174
370
    13
100
AcDbPolyline
 90
        4
 70
   129
 43
0.0
 10
-510.0
 20
-37.5
 10
-435.0
 20
-37.5
 10
-435.0
 20
-37.5
 10
-510.0
 20
-37.5
  0
LWPOLYLINE
  5
7DB96
330
7E035
100
AcDbEntity
  8
Level 25
  6
Continuous
 62
   174
370
    13
100
AcDbPolyline
 90
        4
 70
   129
 43
0.0
 10
-435.0
 20
-37.5
 10
-435.0
 20
37.5
 10
-435.0
 20
37.5
 10
-435.0
 20
-37.5
  0
LWPOLYLINE
  5
7DB97
330
7E035
100
AcDbEntity
  8
Level 25
  6
Continuous
 62
   174
370
    13
100
AcDbPolyline
 90
        4
 70
   129
 43
0.0
 10
-510.0
 20
37.5
 10
-510.0
 20
-37.5
 10
-510.0
 20
-37.5
 10
-510.0
 20
37.5
  0
LWPOLYLINE
  5
7DB98
330
7E035
100
AcDbEntity
  8
Level 25
  6
Continuous
 62
   174
370
    13
100
AcDbPolyline
 90
        4
 70
   129
 43
0.0
 10
-435.0
 20
37.5
 10
-510.0
 20
37.5
 10
-510.0
 20
37.5
 10
-435.0
 20
37.5
  0
LWPOLYLINE
  5
7DB99
330
7E035
100
AcDbEntity
  8
Level 26
  6
Continuous
 62
   163
370
    13
100
AcDbPolyline
 90
        4
 70
   129
 43
0.0
 10
-435.0
 20
37.5
 10
-510.0
 20
37.5
 10
-510.0
 20
37.5
 10
-435.0
 20
37.5
  0
LWPOLYLINE
  5
7DB9A
330
7E035
100
AcDbEntity
  8
Level 26
  6
Continuous
 62
   163
370
    13
100
AcDbPolyline
 90
        4
 70
   129
 43
0.0
 10
-435.0
 20
-37.5
 10
-435.0
 20
37.5
 10
-435.0
 20
37.5
 10
-435.0
 20
-37.5
  0
LWPOLYLINE
  5
7DB9B
330
7E035
100
AcDbEntity
  8
Level 26
  6
Continuous
 62
   163
370
    13
100
AcDbPolyline
 90
        4
 70
   129
 43
0.0
 10
-510.0
 20
-37.5
 10
-435.0
 20
-37.5
 10
-435.0
 20
-37.5
 10
-510.0
 20
-37.5
  0
LWPOLYLINE
  5
7DB9C
330
7E035
100
AcDbEntity
  8
Level 26
  6
Continuous
 62
   163
370
    13
100
AcDbPolyline
 90
        4
 70
   129
 43
0.0
 10
-510.0
 20
37.5
 10
-510.0
 20
-37.5
 10
-510.0
 20
-37.5
 10
-510.0
 20
37.5
  0
LWPOLYLINE
  5
7DB9D
330
7E035
100
AcDbEntity
  8
Level 26
  6
Continuous
 62
   163
370
    13
100
AcDbPolyline
 90
        4
 70
   129
 43
0.0
 10
-435.0
 20
37.5
 10
-510.0
 20
37.5
 10
-510.0
 20
-37.5
 10
-435.0
 20
-37.5
  0
LWPOLYLINE
  5
7DBA2
330
7E035
100
AcDbEntity
  8
Level 25
  6
Continuous
 62
   174
370
    13
100
AcDbPolyline
 90
        4
 70
   129
 43
0.0
 10
435.0
 20
-37.5
 10
510.0
 20
-37.5
 10
510.0
 20
-37.5
 10
435.0
 20
-37.5
  0
LWPOLYLINE
  5
7DBA3
330
7E035
100
AcDbEntity
  8
Level 25
  6
Continuous
 62
   174
370
    13
100
AcDbPolyline
 90
        4
 70
   129
 43
0.0
 10
510.0
 20
-37.5
 10
510.0
 20
37.5
 10
510.0
 20
37.5
 10
510.0
 20
-37.5
  0
LWPOLYLINE
  5
7DBA4
330
7E035
100
AcDbEntity
  8
Level 25
  6
Continuous
 62
   174
370
    13
100
AcDbPolyline
 90
        4
 70
   129
 43
0.0
 10
435.0
 20
37.5
 10
435.0
 20
-37.5
 10
435.0
 20
-37.5
 10
435.0
 20
37.5
  0
LWPOLYLINE
  5
7DBA5
330
7E035
100
AcDbEntity
  8
Level 25
  6
Continuous
 62
   174
370
    13
100
AcDbPolyline
 90
        4
 70
   129
 43
0.0
 10
510.0
 20
37.5
 10
435.0
 20
37.5
 10
435.0
 20
37.5
 10
510.0
 20
37.5
  0
LWPOLYLINE
  5
7DBA6
330
7E035
100
AcDbEntity
  8
Level 26
  6
Continuous
 62
   163
370
    13
100
AcDbPolyline
 90
        4
 70
   129
 43
0.0
 10
510.0
 20
37.5
 10
435.0
 20
37.5
 10
435.0
 20
37.5
 10
510.0
 20
37.5
  0
LWPOLYLINE
  5
7DBA7
330
7E035
100
AcDbEntity
  8
Level 26
  6
Continuous
 62
   163
370
    13
100
AcDbPolyline
 90
        4
 70
   129
 43
0.0
 10
510.0
 20
-37.5
 10
510.0
 20
37.5
 10
510.0
 20
37.5
 10
510.0
 20
-37.5
  0
LWPOLYLINE
  5
7DBA8
330
7E035
100
AcDbEntity
  8
Level 26
  6
Continuous
 62
   163
370
    13
100
AcDbPolyline
 90
        4
 70
   129
 43
0.0
 10
435.0
 20
-37.5
 10
510.0
 20
-37.5
 10
510.0
 20
-37.5
 10
435.0
 20
-37.5
  0
LWPOLYLINE
  5
7DBA9
330
7E035
100
AcDbEntity
  8
Level 26
  6
Continuous
 62
   163
370
    13
100
AcDbPolyline
 90
        4
 70
   129
 43
0.0
 10
435.0
 20
37.5
 10
435.0
 20
-37.5
 10
435.0
 20
-37.5
 10
435.0
 20
37.5
  0
LWPOLYLINE
  5
7DBAA
330
7E035
100
AcDbEntity
  8
Level 26
  6
Continuous
 62
   163
370
    13
100
AcDbPolyline
 90
        4
 70
   129
 43
0.0
 10
510.0
 20
37.5
 10
435.0
 20
37.5
 10
435.0
 20
-37.5
 10
510.0
 20
-37.5
  0
LWPOLYLINE
  5
7DBAF
330
7E035
100
AcDbEntity
  8
Level 25
  6
Continuous
 62
   174
370
    13
100
AcDbPolyline
 90
        4
 70
   129
 43
0.0
 10
435.0
 20
907.5
 10
510.0
 20
907.5
 10
510.0
 20
907.5
 10
435.0
 20
907.5
  0
LWPOLYLINE
  5
7DBB0
330
7E035
100
AcDbEntity
  8
Level 25
  6
Continuous
 62
   174
370
    13
100
AcDbPolyline
 90
        4
 70
   129
 43
0.0
 10
510.0
 20
907.5
 10
510.0
 20
982.5
 10
510.0
 20
982.5
 10
510.0
 20
907.5
  0
LWPOLYLINE
  5
7DBB1
330
7E035
100
AcDbEntity
  8
Level 25
  6
Continuous
 62
   174
370
    13
100
AcDbPolyline
 90
        4
 70
   129
 43
0.0
 10
435.0
 20
982.5
 10
435.0
 20
907.5
 10
435.0
 20
907.5
 10
435.0
 20
982.5
  0
LWPOLYLINE
  5
7DBB2
330
7E035
100
AcDbEntity
  8
Level 25
  6
Continuous
 62
   174
370
    13
100
AcDbPolyline
 90
        4
 70
   129
 43
0.0
 10
510.0
 20
982.5
 10
435.0
 20
982.5
 10
435.0
 20
982.5
 10
510.0
 20
982.5
  0
LWPOLYLINE
  5
7DBB3
330
7E035
100
AcDbEntity
  8
Level 26
  6
Continuous
 62
   163
370
    13
100
AcDbPolyline
 90
        4
 70
   129
 43
0.0
 10
510.0
 20
982.5
 10
435.0
 20
982.5
 10
435.0
 20
982.5
 10
510.0
 20
982.5
  0
LWPOLYLINE
  5
7DBB4
330
7E035
100
AcDbEntity
  8
Level 26
  6
Continuous
 62
   163
370
    13
100
AcDbPolyline
 90
        4
 70
   129
 43
0.0
 10
510.0
 20
907.5
 10
510.0
 20
982.5
 10
510.0
 20
982.5
 10
510.0
 20
907.5
  0
LWPOLYLINE
  5
7DBB5
330
7E035
100
AcDbEntity
  8
Level 26
  6
Continuous
 62
   163
370
    13
100
AcDbPolyline
 90
        4
 70
   129
 43
0.0
 10
435.0
 20
907.5
 10
510.0
 20
907.5
 10
510.0
 20
907.5
 10
435.0
 20
907.5
  0
LWPOLYLINE
  5
7DBB6
330
7E035
100
AcDbEntity
  8
Level 26
  6
Continuous
 62
   163
370
    13
100
AcDbPolyline
 90
        4
 70
   129
 43
0.0
 10
435.0
 20
982.5
 10
435.0
 20
907.5
 10
435.0
 20
907.5
 10
435.0
 20
982.5
  0
LWPOLYLINE
  5
7DBB7
330
7E035
100
AcDbEntity
  8
Level 26
  6
Continuous
 62
   163
370
    13
100
AcDbPolyline
 90
        4
 70
   129
 43
0.0
 10
510.0
 20
982.5
 10
435.0
 20
982.5
 10
435.0
 20
907.5
 10
510.0
 20
907.5
  0
LWPOLYLINE
  5
7DBBC
330
7E035
100
AcDbEntity
  8
Level 25
  6
Continuous
 62
   174
370
    13
100
AcDbPolyline
 90
        4
 70
   129
 43
0.0
 10
-510.0
 20
907.5
 10
-435.0
 20
907.5
 10
-435.0
 20
907.5
 10
-510.0
 20
907.5
  0
LWPOLYLINE
  5
7DBBD
330
7E035
100
AcDbEntity
  8
Level 25
  6
Continuous
 62
   174
370
    13
100
AcDbPolyline
 90
        4
 70
   129
 43
0.0
 10
-435.0
 20
907.5
 10
-435.0
 20
982.5
 10
-435.0
 20
982.5
 10
-435.0
 20
907.5
  0
LWPOLYLINE
  5
7DBBE
330
7E035
100
AcDbEntity
  8
Level 25
  6
Continuous
 62
   174
370
    13
100
AcDbPolyline
 90
        4
 70
   129
 43
0.0
 10
-510.0
 20
982.5
 10
-510.0
 20
907.5
 10
-510.0
 20
907.5
 10
-510.0
 20
982.5
  0
LWPOLYLINE
  5
7DBBF
330
7E035
100
AcDbEntity
  8
Level 25
  6
Continuous
 62
   174
370
    13
100
AcDbPolyline
 90
        4
 70
   129
 43
0.0
 10
-435.0
 20
982.5
 10
-510.0
 20
982.5
 10
-510.0
 20
982.5
 10
-435.0
 20
982.5
  0
LWPOLYLINE
  5
7DBC0
330
7E035
100
AcDbEntity
  8
Level 26
  6
Continuous
 62
   163
370
    13
100
AcDbPolyline
 90
        4
 70
   129
 43
0.0
 10
-435.0
 20
982.5
 10
-510.0
 20
982.5
 10
-510.0
 20
982.5
 10
-435.0
 20
982.5
  0
LWPOLYLINE
  5
7DBC1
330
7E035
100
AcDbEntity
  8
Level 26
  6
Continuous
 62
   163
370
    13
100
AcDbPolyline
 90
        4
 70
   129
 43
0.0
 10
-435.0
 20
907.5
 10
-435.0
 20
982.5
 10
-435.0
 20
982.5
 10
-435.0
 20
907.5
  0
LWPOLYLINE
  5
7DBC2
330
7E035
100
AcDbEntity
  8
Level 26
  6
Continuous
 62
   163
370
    13
100
AcDbPolyline
 90
        4
 70
   129
 43
0.0
 10
-510.0
 20
907.5
 10
-435.0
 20
907.5
 10
-435.0
 20
907.5
 10
-510.0
 20
907.5
  0
LWPOLYLINE
  5
7DBC3
330
7E035
100
AcDbEntity
  8
Level 26
  6
Continuous
 62
   163
370
    13
100
AcDbPolyline
 90
        4
 70
   129
 43
0.0
 10
-510.0
 20
982.5
 10
-510.0
 20
907.5
 10
-510.0
 20
907.5
 10
-510.0
 20
982.5
  0
LWPOLYLINE
  5
7DBC4
330
7E035
100
AcDbEntity
  8
Level 26
  6
Continuous
 62
   163
370
    13
100
AcDbPolyline
 90
        4
 70
   129
 43
0.0
 10
-435.0
 20
982.5
 10
-510.0
 20
982.5
 10
-510.0
 20
907.5
 10
-435.0
 20
907.5
  0
INSERT
  5
7DFDC
330
7E035
100
AcDbEntity
  8
Level 27
  6
Continuous
 62
    40
370
    13
100
AcDbBlockReference
  2
From Surface_4
 10
-4045.025751
 20
-1811.707727
 30
0.0
  0
INSERT
  5
7DFDD
330
7E035
100
AcDbEntity
  8
Level 27
  6
Continuous
 62
    40
370
    13
100
AcDbBlockReference
  2
From Surface_5
 10
-4045.025751
 20
-1811.707727
 30
0.0
  0
INSERT
  5
7DFDE
330
7E035
100
AcDbEntity
  8
Level 27
  6
Continuous
 62
    40
370
    13
100
AcDbBlockReference
  2
From Surface_6
 10
-4045.025751
 20
-1811.707727
 30
0.0
  0
LWPOLYLINE
  5
7DBD8
330
7E035
100
AcDbEntity
  8
Level 27
  6
Continuous
 62
    40
370
    13
100
AcDbPolyline
 90
        4
 70
   129
 43
0.0
 10
-470.0
 20
907.5
 10
-470.0
 20
37.5
 10
-470.0
 20
37.5
 10
-470.0
 20
907.5
  0
LWPOLYLINE
  5
7DBDD
330
7E035
100
AcDbEntity
  8
Level 27
  6
Continuous
 62
    40
370
    13
100
AcDbPolyline
 90
        4
 70
   129
 43
0.0
 10
435.0
 20
942.5
 10
-435.0
 20
942.5
 10
-435.0
 20
942.5
 10
435.0
 20
942.5
  0
LWPOLYLINE
  5
7DBE2
330
7E035
100
AcDbEntity
  8
Level 27
  6
Continuous
 62
    40
370
    13
100
AcDbPolyline
 90
        4
 70
   129
 43
0.0
 10
470.0
 20
37.5
 10
470.0
 20
907.5
 10
470.0
 20
907.5
 10
470.0
 20
37.5
  0
LWPOLYLINE
  5
7DBE7
330
7E035
100
AcDbEntity
  8
Level 27
  6
Continuous
 62
    40
370
    13
100
AcDbPolyline
 90
        4
 70
   129
 43
0.0
 10
-435.0
 20
2.5
 10
435.0
 20
2.5
 10
435.0
 20
2.5
 10
-435.0
 20
2.5
  0
INSERT
  5
7DFDF
330
7E035
100
AcDbEntity
  8
Level 27
  6
Continuous
 62
    40
370
    13
100
AcDbBlockReference
  2
From Surface_7
 10
-4045.025751
 20
-1811.707727
 30
0.0
  0
LINE
  5
7DBF1
330
7E035
100
AcDbEntity
  8
Level 27
  6
Continuous
 62
    40
370
    13
100
AcDbLine
 10
-435.0
 20
7.5
 30
0.0
 11
435.0
 21
7.5
 31
0.0
  0
LINE
  5
7DBF2
330
7E035
100
AcDbEntity
  8
Level 27
  6
Continuous
 62
    40
370
    13
100
AcDbLine
 10
435.0
 20
7.5
 30
0.0
 11
435.0
 21
37.5
 31
0.0
  0
LINE
  5
7DBF3
330
7E035
100
AcDbEntity
  8
Level 27
  6
Continuous
 62
    40
370
    13
100
AcDbLine
 10
435.0
 20
37.5
 30
0.0
 11
465.0
 21
37.5
 31
0.0
  0
LINE
  5
7DBF4
330
7E035
100
AcDbEntity
  8
Level 27
  6
Continuous
 62
    40
370
    13
100
AcDbLine
 10
465.0
 20
37.5
 30
0.0
 11
465.0
 21
907.5
 31
0.0
  0
LINE
  5
7DBF5
330
7E035
100
AcDbEntity
  8
Level 27
  6
Continuous
 62
    40
370
    13
100
AcDbLine
 10
465.0
 20
907.5
 30
0.0
 11
435.0
 21
907.5
 31
0.0
  0
LINE
  5
7DBF6
330
7E035
100
AcDbEntity
  8
Level 27
  6
Continuous
 62
    40
370
    13
100
AcDbLine
 10
435.0
 20
907.5
 30
0.0
 11
435.0
 21
937.5
 31
0.0
  0
LINE
  5
7DBF7
330
7E035
100
AcDbEntity
  8
Level 27
  6
Continuous
 62
    40
370
    13
100
AcDbLine
 10
435.0
 20
937.5
 30
0.0
 11
-435.0
 21
937.5
 31
0.0
  0
LINE
  5
7DBF8
330
7E035
100
AcDbEntity
  8
Level 27
  6
Continuous
 62
    40
370
    13
100
AcDbLine
 10
-435.0
 20
937.5
 30
0.0
 11
-435.0
 21
907.5
 31
0.0
  0
LINE
  5
7DBF9
330
7E035
100
AcDbEntity
  8
Level 27
  6
Continuous
 62
    40
370
    13
100
AcDbLine
 10
-435.0
 20
907.5
 30
0.0
 11
-465.0
 21
907.5
 31
0.0
  0
LINE
  5
7DBFA
330
7E035
100
AcDbEntity
  8
Level 27
  6
Continuous
 62
    40
370
    13
100
AcDbLine
 10
-465.0
 20
907.5
 30
0.0
 11
-465.0
 21
37.5
 31
0.0
  0
LINE
  5
7DBFB
330
7E035
100
AcDbEntity
  8
Level 27
  6
Continuous
 62
    40
370
    13
100
AcDbLine
 10
-465.0
 20
37.5
 30
0.0
 11
-435.0
 21
37.5
 31
0.0
  0
LINE
  5
7DBFC
330
7E035
100
AcDbEntity
  8
Level 27
  6
Continuous
 62
    40
370
    13
100
AcDbLine
 10
-435.0
 20
37.5
 30
0.0
 11
-435.0
 21
7.5
 31
0.0
  0
LWPOLYLINE
  5
7DBFD
330
7E035
100
AcDbEntity
  8
Level 27
  6
Continuous
 62
    40
370
    13
100
AcDbPolyline
 90
        4
 70
   129
 43
0.0
 10
435.0
 20
937.5
 10
435.0
 20
907.5
 10
-435.0
 20
907.5
 10
-435.0
 20
937.5
  0
LWPOLYLINE
  5
7DBFE
330
7E035
100
AcDbEntity
  8
Level 27
  6
Continuous
 62
    40
370
    13
100
AcDbPolyline
 90
        4
 70
   129
 43
0.0
 10
-435.0
 20
907.5
 10
-435.0
 20
37.5
 10
-465.0
 20
37.5
 10
-465.0
 20
907.5
  0
LWPOLYLINE
  5
7DBFF
330
7E035
100
AcDbEntity
  8
Level 27
  6
Continuous
 62
    40
370
    13
100
AcDbPolyline
 90
        4
 70
   129
 43
0.0
 10
-435.0
 20
7.5
 10
-435.0
 20
37.5
 10
435.0
 20
37.5
 10
435.0
 20
7.5
  0
LWPOLYLINE
  5
7DC00
330
7E035
100
AcDbEntity
  8
Level 27
  6
Continuous
 62
    40
370
    13
100
AcDbPolyline
 90
        4
 70
   129
 43
0.0
 10
435.0
 20
37.5
 10
435.0
 20
907.5
 10
465.0
 20
907.5
 10
465.0
 20
37.5
  0
INSERT
  5
7DC01
330
7E035
100
AcDbEntity
  8
Level 26
  6
Continuous
 62
    25
370
    13
100
AcDbBlockReference
  2
Smart Solid_11
 10
-0.0005
 20
812.4995
 30
0.0
  0
INSERT
  5
7DC0F
330
7E035
100
AcDbEntity
  8
Level 26
  6
Continuous
 62
    25
370
    13
100
AcDbBlockReference
  2
Smart Solid_12
 10
-0.0005
 20
727.4995
 30
0.0
  0
INSERT
  5
7DC1D
330
7E035
100
AcDbEntity
  8
Level 26
  6
Continuous
 62
    25
370
    13
100
AcDbBlockReference
  2
Smart Solid_13
 10
-0.0005
 20
642.4995
 30
0.0
  0
INSERT
  5
7DC2B
330
7E035
100
AcDbEntity
  8
Level 26
  6
Continuous
 62
    25
370
    13
100
AcDbBlockReference
  2
Smart Solid_14
 10
-0.0005
 20
557.4995
 30
0.0
  0
INSERT
  5
7DC39
330
7E035
100
AcDbEntity
  8
Level 26
  6
Continuous
 62
    25
370
    13
100
AcDbBlockReference
  2
Smart Solid_15
 10
-0.0005
 20
472.4995
 30
0.0
  0
INSERT
  5
7DC47
330
7E035
100
AcDbEntity
  8
Level 26
  6
Continuous
 62
    25
370
    13
100
AcDbBlockReference
  2
Smart Solid_16
 10
-0.0005
 20
387.4995
 30
0.0
  0
INSERT
  5
7DC55
330
7E035
100
AcDbEntity
  8
Level 26
  6
Continuous
 62
    25
370
    13
100
AcDbBlockReference
  2
Smart Solid_17
 10
-0.0005
 20
302.4995
 30
0.0
  0
INSERT
  5
7DC63
330
7E035
100
AcDbEntity
  8
Level 26
  6
Continuous
 62
    25
370
    13
100
AcDbBlockReference
  2
Smart Solid_18
 10
-0.0005
 20
217.4995
 30
0.0
  0
INSERT
  5
7DC71
330
7E035
100
AcDbEntity
  8
Level 26
  6
Continuous
 62
    25
370
    13
100
AcDbBlockReference
  2
Smart Solid_19
 10
-0.0005
 20
132.4995
 30
0.0
  0
INSERT
  5
7DC7F
330
7E035
100
AcDbEntity
  8
Level 26
  6
Continuous
 62
    25
370
    13
100
AcDbBlockReference
  2
Smart Solid_20
 10
-0.0005
 20
47.4995
 30
0.0
  0
INSERT
  5
7DC99
330
7E035
100
AcDbEntity
  8
Level 26
  6
Continuous
 62
    25
370
    13
100
AcDbBlockReference
  2
Smart Solid_21
 10
-0.0005
 20
897.4995
 30
0.0
  0
LWPOLYLINE
  5
7DCB3
330
7E035
100
AcDbEntity
  8
Level 27
  6
Continuous
 62
    40
370
    13
100
AcDbPolyline
 90
        4
 70
   129
 43
0.0
 10
25.0
 20
907.5
 10
25.0
 20
37.5
 10
-25.0
 20
37.5
 10
-25.0
 20
907.5
  0
LWPOLYLINE
  5
7DCB4
330
7E035
100
AcDbEntity
  8
Level 26
  6
Continuous
 62
    25
370
     0
100
AcDbPolyline
 90
        4
 70
   129
 43
0.0
 10
420.0
 20
-1820.425646
 10
420.0
 20
-1811.254417
 10
-420.0
 20
-1811.254417
 10
-420.0
 20
-1820.425646
  0
LWPOLYLINE
  5
7DCB5
330
7E035
100
AcDbEntity
  8
Level 26
  6
Continuous
 62
    25
370
     0
100
AcDbPolyline
 90
        4
 70
   129
 43
0.0
 10
420.0
 20
-1728.71901
 10
420.0
 20
-1737.890239
 10
-420.0
 20
-1737.890239
 10
-420.0
 20
-1728.71901
  0
LWPOLYLINE
  5
7DCB6
330
7E035
100
AcDbEntity
  8
Level 26
  6
Continuous
 62
    25
370
     0
100
AcDbPolyline
 90
        4
 70
   129
 43
0.0
 10
420.0
 20
-1722.46077
 10
420.0
 20
-1713.289541
 10
-420.0
 20
-1713.289541
 10
-420.0
 20
-1722.46077
  0
LWPOLYLINE
  5
7DCB7
330
7E035
100
AcDbEntity
  8
Level 26
  6
Continuous
 62
    25
370
     0
100
AcDbPolyline
 90
        4
 70
   129
 43
0.0
 10
420.0
 20
-1630.754134
 10
420.0
 20
-1639.925363
 10
-420.0
 20
-1639.925363
 10
-420.0
 20
-1630.754134
  0
LWPOLYLINE
  5
7DCB8
330
7E035
100
AcDbEntity
  8
Level 26
  6
Continuous
 62
    25
370
     0
100
AcDbPolyline
 90
        4
 70
   129
 43
0.0
 10
420.0
 20
-1624.495894
 10
420.0
 20
-1615.324665
 10
-420.0
 20
-1615.324665
 10
-420.0
 20
-1624.495894
  0
LWPOLYLINE
  5
7DCB9
330
7E035
100
AcDbEntity
  8
Level 26
  6
Continuous
 62
    25
370
     0
100
AcDbPolyline
 90
        4
 70
   129
 43
0.0
 10
420.0
 20
-1532.789258
 10
420.0
 20
-1541.960487
 10
-420.0
 20
-1541.960487
 10
-420.0
 20
-1532.789258
  0
LWPOLYLINE
  5
7DCBA
330
7E035
100
AcDbEntity
  8
Level 26
  6
Continuous
 62
    25
370
     0
100
AcDbPolyline
 90
        4
 70
   129
 43
0.0
 10
420.0
 20
-1526.531017
 10
420.0
 20
-1517.359788
 10
-420.0
 20
-1517.359788
 10
-420.0
 20
-1526.531017
  0
LWPOLYLINE
  5
7DCBB
330
7E035
100
AcDbEntity
  8
Level 26
  6
Continuous
 62
    25
370
     0
100
AcDbPolyline
 90
        4
 70
   129
 43
0.0
 10
420.0
 20
-1434.824381
 10
420.0
 20
-1443.99561
 10
-420.0
 20
-1443.99561
 10
-420.0
 20
-1434.824381
  0
LWPOLYLINE
  5
7DCBC
330
7E035
100
AcDbEntity
  8
Level 26
  6
Continuous
 62
    25
370
     0
100
AcDbPolyline
 90
        4
 70
   129
 43
0.0
 10
420.0
 20
-1428.566141
 10
420.0
 20
-1419.394912
 10
-420.0
 20
-1419.394912
 10
-420.0
 20
-1428.566141
  0
LWPOLYLINE
  5
7DCBD
330
7E035
100
AcDbEntity
  8
Level 26
  6
Continuous
 62
    25
370
     0
100
AcDbPolyline
 90
        4
 70
   129
 43
0.0
 10
420.0
 20
-1336.859505
 10
420.0
 20
-1346.030734
 10
-420.0
 20
-1346.030734
 10
-420.0
 20
-1336.859505
  0
LWPOLYLINE
  5
7DCBE
330
7E035
100
AcDbEntity
  8
Level 26
  6
Continuous
 62
    25
370
     0
100
AcDbPolyline
 90
        4
 70
   129
 43
0.0
 10
420.0
 20
-1330.601265
 10
420.0
 20
-1321.430036
 10
-420.0
 20
-1321.430036
 10
-420.0
 20
-1330.601265
  0
LWPOLYLINE
  5
7DCBF
330
7E035
100
AcDbEntity
  8
Level 26
  6
Continuous
 62
    25
370
     0
100
AcDbPolyline
 90
        4
 70
   129
 43
0.0
 10
420.0
 20
-1238.894629
 10
420.0
 20
-1248.065858
 10
-420.0
 20
-1248.065858
 10
-420.0
 20
-1238.894629
  0
LWPOLYLINE
  5
7DCC0
330
7E035
100
AcDbEntity
  8
Level 26
  6
Continuous
 62
    25
370
     0
100
AcDbPolyline
 90
        4
 70
   129
 43
0.0
 10
420.0
 20
-1232.636389
 10
420.0
 20
-1223.46516
 10
-420.0
 20
-1223.46516
 10
-420.0
 20
-1232.636389
  0
LWPOLYLINE
  5
7DCC1
330
7E035
100
AcDbEntity
  8
Level 26
  6
Continuous
 62
    25
370
     0
100
AcDbPolyline
 90
        4
 70
   129
 43
0.0
 10
420.0
 20
-1140.929753
 10
420.0
 20
-1150.100982
 10
-420.0
 20
-1150.100982
 10
-420.0
 20
-1140.929753
  0
LWPOLYLINE
  5
7DCC2
330
7E035
100
AcDbEntity
  8
Level 26
  6
Continuous
 62
    25
370
     0
100
AcDbPolyline
 90
        4
 70
   129
 43
0.0
 10
420.0
 20
-1134.671512
 10
420.0
 20
-1125.500283
 10
-420.0
 20
-1125.500283
 10
-420.0
 20
-1134.671512
  0
LWPOLYLINE
  5
7DCC3
330
7E035
100
AcDbEntity
  8
Level 26
  6
Continuous
 62
    25
370
     0
100
AcDbPolyline
 90
        4
 70
   129
 43
0.0
 10
420.0
 20
-1042.964876
 10
420.0
 20
-1052.136105
 10
-420.0
 20
-1052.136105
 10
-420.0
 20
-1042.964876
  0
LWPOLYLINE
  5
7DCC4
330
7E035
100
AcDbEntity
  8
Level 26
  6
Continuous
 62
    25
370
     0
100
AcDbPolyline
 90
        4
 70
   129
 43
0.0
 10
420.0
 20
-1036.706636
 10
420.0
 20
-1027.535407
 10
-420.0
 20
-1027.535407
 10
-420.0
 20
-1036.706636
  0
LWPOLYLINE
  5
7DCC5
330
7E035
100
AcDbEntity
  8
Level 26
  6
Continuous
 62
    25
370
     0
100
AcDbPolyline
 90
        4
 70
   129
 43
0.0
 10
420.0
 20
-945.0
 10
420.0
 20
-954.171229
 10
-420.0
 20
-954.171229
 10
-420.0
 20
-945.0
  0
INSERT
  5
7DFE0
330
7E035
100
AcDbEntity
  8
Level 26
  6
Continuous
 62
    25
370
     0
100
AcDbBlockReference
  2
From Surface_8
 10
-4045.025751
 20
-1811.707727
 30
0.0
  0
INSERT
  5
7DFE1
330
7E035
100
AcDbEntity
  8
Level 26
  6
Continuous
 62
    25
370
     0
100
AcDbBlockReference
  2
From Surface_9
 10
-4045.025751
 20
-1811.707727
 30
0.0
  0
LWPOLYLINE
  5
7DCD0
330
7E035
100
AcDbEntity
  8
Level 26
  6
Continuous
 62
    25
370
     0
100
AcDbPolyline
 90
        4
 70
   129
 43
0.0
 10
-420.0
 20
-1814.205914
 10
420.0
 20
-1814.205914
 10
420.0
 20
-1753.679949
 10
-420.0
 20
-1753.679949
  0
LWPOLYLINE
  5
7DCD5
330
7E035
100
AcDbEntity
  8
Level 26
  6
Continuous
 62
    25
370
     0
100
AcDbPolyline
 90
        9
 70
   129
 43
0.0
 10
-420.0
 20
-1820.425646
 10
-420.0
 20
-1811.254417
 10
-420.0
 20
-1814.205914
 10
-420.0
 20
-1821.420925
 10
-420.0
 20
-1814.205914
 10
-420.0
 20
-1753.679949
 10
-420.0
 20
-1737.890239
 10
-420.0
 20
-1728.71901
 10
-420.0
 20
-1811.254417
  0
LWPOLYLINE
  5
7DCDC
330
7E035
100
AcDbEntity
  8
Level 26
  6
Continuous
 62
    25
370
     0
100
AcDbPolyline
 90
        9
 70
   129
 43
0.0
 10
420.0
 20
-1820.425646
 10
420.0
 20
-1811.254417
 10
420.0
 20
-1814.205914
 10
420.0
 20
-1821.420925
 10
420.0
 20
-1814.205914
 10
420.0
 20
-1753.679949
 10
420.0
 20
-1737.890239
 10
420.0
 20
-1728.71901
 10
420.0
 20
-1811.254417
  0
INSERT
  5
7DFE2
330
7E035
100
AcDbEntity
  8
Level 26
  6
Continuous
 62
    25
370
     0
100
AcDbBlockReference
  2
From Surface_10
 10
-4045.025751
 20
-1811.707727
 30
0.0
  0
INSERT
  5
7DFE3
330
7E035
100
AcDbEntity
  8
Level 26
  6
Continuous
 62
    25
370
     0
100
AcDbBlockReference
  2
From Surface_11
 10
-4045.025751
 20
-1811.707727
 30
0.0
  0
LWPOLYLINE
  5
7DCED
330
7E035
100
AcDbEntity
  8
Level 26
  6
Continuous
 62
    25
370
     0
100
AcDbPolyline
 90
        4
 70
   129
 43
0.0
 10
-420.0
 20
-1716.241038
 10
420.0
 20
-1716.241038
 10
420.0
 20
-1655.715073
 10
-420.0
 20
-1655.715073
  0
LWPOLYLINE
  5
7DCF2
330
7E035
100
AcDbEntity
  8
Level 26
  6
Continuous
 62
    25
370
     0
100
AcDbPolyline
 90
        9
 70
   129
 43
0.0
 10
-420.0
 20
-1722.46077
 10
-420.0
 20
-1713.289541
 10
-420.0
 20
-1716.241038
 10
-420.0
 20
-1723.456049
 10
-420.0
 20
-1716.241038
 10
-420.0
 20
-1655.715073
 10
-420.0
 20
-1639.925363
 10
-420.0
 20
-1630.754134
 10
-420.0
 20
-1713.289541
  0
LWPOLYLINE
  5
7DCF9
330
7E035
100
AcDbEntity
  8
Level 26
  6
Continuous
 62
    25
370
     0
100
AcDbPolyline
 90
        9
 70
   129
 43
0.0
 10
420.0
 20
-1722.46077
 10
420.0
 20
-1713.289541
 10
420.0
 20
-1716.241038
 10
420.0
 20
-1723.456049
 10
420.0
 20
-1716.241038
 10
420.0
 20
-1655.715073
 10
420.0
 20
-1639.925363
 10
420.0
 20
-1630.754134
 10
420.0
 20
-1713.289541
  0
INSERT
  5
7DFE4
330
7E035
100
AcDbEntity
  8
Level 26
  6
Continuous
 62
    25
370
     0
100
AcDbBlockReference
  2
From Surface_12
 10
-4045.025751
 20
-1811.707727
 30
0.0
  0
INSERT
  5
7DFE5
330
7E035
100
AcDbEntity
  8
Level 26
  6
Continuous
 62
    25
370
     0
100
AcDbBlockReference
  2
From Surface_13
 10
-4045.025751
 20
-1811.707727
 30
0.0
  0
LWPOLYLINE
  5
7DD0A
330
7E035
100
AcDbEntity
  8
Level 26
  6
Continuous
 62
    25
370
     0
100
AcDbPolyline
 90
        4
 70
   129
 43
0.0
 10
-420.0
 20
-1618.276162
 10
420.0
 20
-1618.276162
 10
420.0
 20
-1557.750197
 10
-420.0
 20
-1557.750197
  0
LWPOLYLINE
  5
7DD0F
330
7E035
100
AcDbEntity
  8
Level 26
  6
Continuous
 62
    25
370
     0
100
AcDbPolyline
 90
        9
 70
   129
 43
0.0
 10
-420.0
 20
-1624.495894
 10
-420.0
 20
-1615.324665
 10
-420.0
 20
-1618.276162
 10
-420.0
 20
-1625.491173
 10
-420.0
 20
-1618.276162
 10
-420.0
 20
-1557.750197
 10
-420.0
 20
-1541.960487
 10
-420.0
 20
-1532.789258
 10
-420.0
 20
-1615.324665
  0
LWPOLYLINE
  5
7DD16
330
7E035
100
AcDbEntity
  8
Level 26
  6
Continuous
 62
    25
370
     0
100
AcDbPolyline
 90
        9
 70
   129
 43
0.0
 10
420.0
 20
-1624.495894
 10
420.0
 20
-1615.324665
 10
420.0
 20
-1618.276162
 10
420.0
 20
-1625.491173
 10
420.0
 20
-1618.276162
 10
420.0
 20
-1557.750197
 10
420.0
 20
-1541.960487
 10
420.0
 20
-1532.789258
 10
420.0
 20
-1615.324665
  0
INSERT
  5
7DFE6
330
7E035
100
AcDbEntity
  8
Level 26
  6
Continuous
 62
    25
370
     0
100
AcDbBlockReference
  2
From Surface_14
 10
-4045.025751
 20
-1811.707727
 30
0.0
  0
INSERT
  5
7DFE7
330
7E035
100
AcDbEntity
  8
Level 26
  6
Continuous
 62
    25
370
     0
100
AcDbBlockReference
  2
From Surface_15
 10
-4045.025751
 20
-1811.707727
 30
0.0
  0
LWPOLYLINE
  5
7DD27
330
7E035
100
AcDbEntity
  8
Level 26
  6
Continuous
 62
    25
370
     0
100
AcDbPolyline
 90
        4
 70
   129
 43
0.0
 10
-420.0
 20
-1520.311285
 10
420.0
 20
-1520.311285
 10
420.0
 20
-1459.78532
 10
-420.0
 20
-1459.78532
  0
LWPOLYLINE
  5
7DD2C
330
7E035
100
AcDbEntity
  8
Level 26
  6
Continuous
 62
    25
370
     0
100
AcDbPolyline
 90
        9
 70
   129
 43
0.0
 10
-420.0
 20
-1526.531017
 10
-420.0
 20
-1517.359788
 10
-420.0
 20
-1520.311285
 10
-420.0
 20
-1527.526296
 10
-420.0
 20
-1520.311285
 10
-420.0
 20
-1459.78532
 10
-420.0
 20
-1443.99561
 10
-420.0
 20
-1434.824381
 10
-420.0
 20
-1517.359788
  0
LWPOLYLINE
  5
7DD33
330
7E035
100
AcDbEntity
  8
Level 26
  6
Continuous
 62
    25
370
     0
100
AcDbPolyline
 90
        9
 70
   129
 43
0.0
 10
420.0
 20
-1526.531017
 10
420.0
 20
-1517.359788
 10
420.0
 20
-1520.311285
 10
420.0
 20
-1527.526296
 10
420.0
 20
-1520.311285
 10
420.0
 20
-1459.78532
 10
420.0
 20
-1443.99561
 10
420.0
 20
-1434.824381
 10
420.0
 20
-1517.359788
  0
INSERT
  5
7DFE8
330
7E035
100
AcDbEntity
  8
Level 26
  6
Continuous
 62
    25
370
     0
100
AcDbBlockReference
  2
From Surface_16
 10
-4045.025751
 20
-1811.707727
 30
0.0
  0
INSERT
  5
7DFE9
330
7E035
100
AcDbEntity
  8
Level 26
  6
Continuous
 62
    25
370
     0
100
AcDbBlockReference
  2
From Surface_17
 10
-4045.025751
 20
-1811.707727
 30
0.0
  0
LWPOLYLINE
  5
7DD44
330
7E035
100
AcDbEntity
  8
Level 26
  6
Continuous
 62
    25
370
     0
100
AcDbPolyline
 90
        4
 70
   129
 43
0.0
 10
-420.0
 20
-1422.346409
 10
420.0
 20
-1422.346409
 10
420.0
 20
-1361.820444
 10
-420.0
 20
-1361.820444
  0
LWPOLYLINE
  5
7DD49
330
7E035
100
AcDbEntity
  8
Level 26
  6
Continuous
 62
    25
370
     0
100
AcDbPolyline
 90
        9
 70
   129
 43
0.0
 10
-420.0
 20
-1428.566141
 10
-420.0
 20
-1419.394912
 10
-420.0
 20
-1422.346409
 10
-420.0
 20
-1429.56142
 10
-420.0
 20
-1422.346409
 10
-420.0
 20
-1361.820444
 10
-420.0
 20
-1346.030734
 10
-420.0
 20
-1336.859505
 10
-420.0
 20
-1419.394912
  0
LWPOLYLINE
  5
7DD50
330
7E035
100
AcDbEntity
  8
Level 26
  6
Continuous
 62
    25
370
     0
100
AcDbPolyline
 90
        9
 70
   129
 43
0.0
 10
420.0
 20
-1428.566141
 10
420.0
 20
-1419.394912
 10
420.0
 20
-1422.346409
 10
420.0
 20
-1429.56142
 10
420.0
 20
-1422.346409
 10
420.0
 20
-1361.820444
 10
420.0
 20
-1346.030734
 10
420.0
 20
-1336.859505
 10
420.0
 20
-1419.394912
  0
INSERT
  5
7DFEA
330
7E035
100
AcDbEntity
  8
Level 26
  6
Continuous
 62
    25
370
     0
100
AcDbBlockReference
  2
From Surface_18
 10
-4045.025751
 20
-1811.707727
 30
0.0
  0
INSERT
  5
7DFEB
330
7E035
100
AcDbEntity
  8
Level 26
  6
Continuous
 62
    25
370
     0
100
AcDbBlockReference
  2
From Surface_19
 10
-4045.025751
 20
-1811.707727
 30
0.0
  0
LWPOLYLINE
  5
7DD61
330
7E035
100
AcDbEntity
  8
Level 26
  6
Continuous
 62
    25
370
     0
100
AcDbPolyline
 90
        4
 70
   129
 43
0.0
 10
-420.0
 20
-1324.381533
 10
420.0
 20
-1324.381533
 10
420.0
 20
-1263.855568
 10
-420.0
 20
-1263.855568
  0
LWPOLYLINE
  5
7DD66
330
7E035
100
AcDbEntity
  8
Level 26
  6
Continuous
 62
    25
370
     0
100
AcDbPolyline
 90
        9
 70
   129
 43
0.0
 10
-420.0
 20
-1330.601265
 10
-420.0
 20
-1321.430036
 10
-420.0
 20
-1324.381533
 10
-420.0
 20
-1331.596544
 10
-420.0
 20
-1324.381533
 10
-420.0
 20
-1263.855568
 10
-420.0
 20
-1248.065858
 10
-420.0
 20
-1238.894629
 10
-420.0
 20
-1321.430036
  0
LWPOLYLINE
  5
7DD6D
330
7E035
100
AcDbEntity
  8
Level 26
  6
Continuous
 62
    25
370
     0
100
AcDbPolyline
 90
        9
 70
   129
 43
0.0
 10
420.0
 20
-1330.601265
 10
420.0
 20
-1321.430036
 10
420.0
 20
-1324.381533
 10
420.0
 20
-1331.596544
 10
420.0
 20
-1324.381533
 10
420.0
 20
-1263.855568
 10
420.0
 20
-1248.065858
 10
420.0
 20
-1238.894629
 10
420.0
 20
-1321.430036
  0
INSERT
  5
7DFEC
330
7E035
100
AcDbEntity
  8
Level 26
  6
Continuous
 62
    25
370
     0
100
AcDbBlockReference
  2
From Surface_20
 10
-4045.025751
 20
-1811.707727
 30
0.0
  0
INSERT
  5
7DFED
330
7E035
100
AcDbEntity
  8
Level 26
  6
Continuous
 62
    25
370
     0
100
AcDbBlockReference
  2
From Surface_21
 10
-4045.025751
 20
-1811.707727
 30
0.0
  0
LWPOLYLINE
  5
7DD7E
330
7E035
100
AcDbEntity
  8
Level 26
  6
Continuous
 62
    25
370
     0
100
AcDbPolyline
 90
        4
 70
   129
 43
0.0
 10
-420.0
 20
-1226.416657
 10
420.0
 20
-1226.416657
 10
420.0
 20
-1165.890692
 10
-420.0
 20
-1165.890692
  0
LWPOLYLINE
  5
7DD83
330
7E035
100
AcDbEntity
  8
Level 26
  6
Continuous
 62
    25
370
     0
100
AcDbPolyline
 90
        9
 70
   129
 43
0.0
 10
-420.0
 20
-1232.636389
 10
-420.0
 20
-1223.46516
 10
-420.0
 20
-1226.416657
 10
-420.0
 20
-1233.631668
 10
-420.0
 20
-1226.416657
 10
-420.0
 20
-1165.890692
 10
-420.0
 20
-1150.100982
 10
-420.0
 20
-1140.929753
 10
-420.0
 20
-1223.46516
  0
LWPOLYLINE
  5
7DD8A
330
7E035
100
AcDbEntity
  8
Level 26
  6
Continuous
 62
    25
370
     0
100
AcDbPolyline
 90
        9
 70
   129
 43
0.0
 10
420.0
 20
-1232.636389
 10
420.0
 20
-1223.46516
 10
420.0
 20
-1226.416657
 10
420.0
 20
-1233.631668
 10
420.0
 20
-1226.416657
 10
420.0
 20
-1165.890692
 10
420.0
 20
-1150.100982
 10
420.0
 20
-1140.929753
 10
420.0
 20
-1223.46516
  0
INSERT
  5
7DFEE
330
7E035
100
AcDbEntity
  8
Level 26
  6
Continuous
 62
    25
370
     0
100
AcDbBlockReference
  2
From Surface_22
 10
-4045.025751
 20
-1811.707727
 30
0.0
  0
INSERT
  5
7DFEF
330
7E035
100
AcDbEntity
  8
Level 26
  6
Continuous
 62
    25
370
     0
100
AcDbBlockReference
  2
From Surface_23
 10
-4045.025751
 20
-1811.707727
 30
0.0
  0
LWPOLYLINE
  5
7DD9B
330
7E035
100
AcDbEntity
  8
Level 26
  6
Continuous
 62
    25
370
     0
100
AcDbPolyline
 90
        4
 70
   129
 43
0.0
 10
-420.0
 20
-1128.45178
 10
420.0
 20
-1128.45178
 10
420.0
 20
-1067.925815
 10
-420.0
 20
-1067.925815
  0
LWPOLYLINE
  5
7DDA0
330
7E035
100
AcDbEntity
  8
Level 26
  6
Continuous
 62
    25
370
     0
100
AcDbPolyline
 90
        9
 70
   129
 43
0.0
 10
-420.0
 20
-1134.671512
 10
-420.0
 20
-1125.500283
 10
-420.0
 20
-1128.45178
 10
-420.0
 20
-1135.666791
 10
-420.0
 20
-1128.45178
 10
-420.0
 20
-1067.925815
 10
-420.0
 20
-1052.136105
 10
-420.0
 20
-1042.964876
 10
-420.0
 20
-1125.500283
  0
LWPOLYLINE
  5
7DDA7
330
7E035
100
AcDbEntity
  8
Level 26
  6
Continuous
 62
    25
370
     0
100
AcDbPolyline
 90
        9
 70
   129
 43
0.0
 10
420.0
 20
-1134.671512
 10
420.0
 20
-1125.500283
 10
420.0
 20
-1128.45178
 10
420.0
 20
-1135.666791
 10
420.0
 20
-1128.45178
 10
420.0
 20
-1067.925815
 10
420.0
 20
-1052.136105
 10
420.0
 20
-1042.964876
 10
420.0
 20
-1125.500283
  0
INSERT
  5
7DFF0
330
7E035
100
AcDbEntity
  8
Level 26
  6
Continuous
 62
    25
370
     0
100
AcDbBlockReference
  2
From Surface_24
 10
-4045.025751
 20
-1811.707727
 30
0.0
  0
INSERT
  5
7DFF1
330
7E035
100
AcDbEntity
  8
Level 26
  6
Continuous
 62
    25
370
     0
100
AcDbBlockReference
  2
From Surface_25
 10
-4045.025751
 20
-1811.707727
 30
0.0
  0
LWPOLYLINE
  5
7DDB8
330
7E035
100
AcDbEntity
  8
Level 26
  6
Continuous
 62
    25
370
     0
100
AcDbPolyline
 90
        4
 70
   129
 43
0.0
 10
-420.0
 20
-1030.486904
 10
420.0
 20
-1030.486904
 10
420.0
 20
-969.960939
 10
-420.0
 20
-969.960939
  0
LWPOLYLINE
  5
7DDBD
330
7E035
100
AcDbEntity
  8
Level 26
  6
Continuous
 62
    25
370
     0
100
AcDbPolyline
 90
        9
 70
   129
 43
0.0
 10
-420.0
 20
-1036.706636
 10
-420.0
 20
-1027.535407
 10
-420.0
 20
-1030.486904
 10
-420.0
 20
-1037.701915
 10
-420.0
 20
-1030.486904
 10
-420.0
 20
-969.960939
 10
-420.0
 20
-954.171229
 10
-420.0
 20
-945.0
 10
-420.0
 20
-1027.535407
  0
LWPOLYLINE
  5
7DDC4
330
7E035
100
AcDbEntity
  8
Level 26
  6
Continuous
 62
    25
370
     0
100
AcDbPolyline
 90
        9
 70
   129
 43
0.0
 10
420.0
 20
-1036.706636
 10
420.0
 20
-1027.535407
 10
420.0
 20
-1030.486904
 10
420.0
 20
-1037.701915
 10
420.0
 20
-1030.486904
 10
420.0
 20
-969.960939
 10
420.0
 20
-954.171229
 10
420.0
 20
-945.0
 10
420.0
 20
-1027.535407
  0
LWPOLYLINE
  5
7DDCB
330
7E035
100
AcDbEntity
  8
Level 26
  6
Continuous
 62
   254
370
    13
100
AcDbPolyline
 90
        4
 70
   129
 43
0.0
 10
429.0
 20
-1864.936631
 10
429.0
 20
-1902.936631
 10
-429.0
 20
-1902.936631
 10
-429.0
 20
-1864.936631
  0
LWPOLYLINE
  5
7DDCC
330
7E035
100
AcDbEntity
  8
Level 26
  6
Continuous
 62
   254
370
    13
100
AcDbPolyline
 90
        4
 70
   129
 43
0.0
 10
429.0
 20
-1864.936631
 10
429.0
 20
-1864.936631
 10
-429.0
 20
-1864.936631
 10
-429.0
 20
-1864.936631
  0
LWPOLYLINE
  5
7DDCD
330
7E035
100
AcDbEntity
  8
Level 26
  6
Continuous
 62
   254
370
    13
100
AcDbPolyline
 90
        4
 70
   129
 43
0.0
 10
429.0
 20
-1902.936631
 10
429.0
 20
-1864.936631
 10
-429.0
 20
-1864.936631
 10
-429.0
 20
-1902.936631
  0
LWPOLYLINE
  5
7DDCE
330
7E035
100
AcDbEntity
  8
Level 26
  6
Continuous
 62
   254
370
    13
100
AcDbPolyline
 90
        4
 70
   129
 43
0.0
 10
429.0
 20
-1902.936631
 10
429.0
 20
-1902.936631
 10
-429.0
 20
-1902.936631
 10
-429.0
 20
-1902.936631
  0
INSERT
  5
7DFF2
330
7E035
100
AcDbEntity
  8
Level 26
  6
Continuous
 62
   254
370
    13
100
AcDbBlockReference
  2
From Solid
 10
-4045.025751
 20
-1811.707727
 30
0.0
  0
INSERT
  5
7DFF3
330
7E035
100
AcDbEntity
  8
Level 26
  6
Continuous
 62
   254
370
    13
100
AcDbBlockReference
  2
From Solid_1
 10
-4045.025751
 20
-1811.707727
 30
0.0
  0
LWPOLYLINE
  5
7DE19
330
7E035
100
AcDbEntity
  8
Level 26
  6
Continuous
 62
    25
370
     0
100
AcDbPolyline
 90
        4
 70
   129
 43
0.0
 10
420.0
 20
1820.425646
 10
420.0
 20
1811.254417
 10
-420.0
 20
1811.254417
 10
-420.0
 20
1820.425646
  0
LWPOLYLINE
  5
7DE1A
330
7E035
100
AcDbEntity
  8
Level 26
  6
Continuous
 62
    25
370
     0
100
AcDbPolyline
 90
        4
 70
   129
 43
0.0
 10
420.0
 20
1728.71901
 10
420.0
 20
1737.890239
 10
-420.0
 20
1737.890239
 10
-420.0
 20
1728.71901
  0
LWPOLYLINE
  5
7DE1B
330
7E035
100
AcDbEntity
  8
Level 26
  6
Continuous
 62
    25
370
     0
100
AcDbPolyline
 90
        4
 70
   129
 43
0.0
 10
420.0
 20
1722.46077
 10
420.0
 20
1713.289541
 10
-420.0
 20
1713.289541
 10
-420.0
 20
1722.46077
  0
LWPOLYLINE
  5
7DE1C
330
7E035
100
AcDbEntity
  8
Level 26
  6
Continuous
 62
    25
370
     0
100
AcDbPolyline
 90
        4
 70
   129
 43
0.0
 10
420.0
 20
1630.754134
 10
420.0
 20
1639.925363
 10
-420.0
 20
1639.925363
 10
-420.0
 20
1630.754134
  0
LWPOLYLINE
  5
7DE1D
330
7E035
100
AcDbEntity
  8
Level 26
  6
Continuous
 62
    25
370
     0
100
AcDbPolyline
 90
        4
 70
   129
 43
0.0
 10
420.0
 20
1624.495894
 10
420.0
 20
1615.324665
 10
-420.0
 20
1615.324665
 10
-420.0
 20
1624.495894
  0
LWPOLYLINE
  5
7DE1E
330
7E035
100
AcDbEntity
  8
Level 26
  6
Continuous
 62
    25
370
     0
100
AcDbPolyline
 90
        4
 70
   129
 43
0.0
 10
420.0
 20
1532.789258
 10
420.0
 20
1541.960487
 10
-420.0
 20
1541.960487
 10
-420.0
 20
1532.789258
  0
LWPOLYLINE
  5
7DE1F
330
7E035
100
AcDbEntity
  8
Level 26
  6
Continuous
 62
    25
370
     0
100
AcDbPolyline
 90
        4
 70
   129
 43
0.0
 10
420.0
 20
1526.531017
 10
420.0
 20
1517.359788
 10
-420.0
 20
1517.359788
 10
-420.0
 20
1526.531017
  0
LWPOLYLINE
  5
7DE20
330
7E035
100
AcDbEntity
  8
Level 26
  6
Continuous
 62
    25
370
     0
100
AcDbPolyline
 90
        4
 70
   129
 43
0.0
 10
420.0
 20
1434.824381
 10
420.0
 20
1443.99561
 10
-420.0
 20
1443.99561
 10
-420.0
 20
1434.824381
  0
LWPOLYLINE
  5
7DE21
330
7E035
100
AcDbEntity
  8
Level 26
  6
Continuous
 62
    25
370
     0
100
AcDbPolyline
 90
        4
 70
   129
 43
0.0
 10
420.0
 20
1428.566141
 10
420.0
 20
1419.394912
 10
-420.0
 20
1419.394912
 10
-420.0
 20
1428.566141
  0
LWPOLYLINE
  5
7DE22
330
7E035
100
AcDbEntity
  8
Level 26
  6
Continuous
 62
    25
370
     0
100
AcDbPolyline
 90
        4
 70
   129
 43
0.0
 10
420.0
 20
1336.859505
 10
420.0
 20
1346.030734
 10
-420.0
 20
1346.030734
 10
-420.0
 20
1336.859505
  0
LWPOLYLINE
  5
7DE23
330
7E035
100
AcDbEntity
  8
Level 26
  6
Continuous
 62
    25
370
     0
100
AcDbPolyline
 90
        4
 70
   129
 43
0.0
 10
420.0
 20
1330.601265
 10
420.0
 20
1321.430036
 10
-420.0
 20
1321.430036
 10
-420.0
 20
1330.601265
  0
LWPOLYLINE
  5
7DE24
330
7E035
100
AcDbEntity
  8
Level 26
  6
Continuous
 62
    25
370
     0
100
AcDbPolyline
 90
        4
 70
   129
 43
0.0
 10
420.0
 20
1238.894629
 10
420.0
 20
1248.065858
 10
-420.0
 20
1248.065858
 10
-420.0
 20
1238.894629
  0
LWPOLYLINE
  5
7DE25
330
7E035
100
AcDbEntity
  8
Level 26
  6
Continuous
 62
    25
370
     0
100
AcDbPolyline
 90
        4
 70
   129
 43
0.0
 10
420.0
 20
1232.636389
 10
420.0
 20
1223.46516
 10
-420.0
 20
1223.46516
 10
-420.0
 20
1232.636389
  0
LWPOLYLINE
  5
7DE26
330
7E035
100
AcDbEntity
  8
Level 26
  6
Continuous
 62
    25
370
     0
100
AcDbPolyline
 90
        4
 70
   129
 43
0.0
 10
420.0
 20
1140.929753
 10
420.0
 20
1150.100982
 10
-420.0
 20
1150.100982
 10
-420.0
 20
1140.929753
  0
LWPOLYLINE
  5
7DE27
330
7E035
100
AcDbEntity
  8
Level 26
  6
Continuous
 62
    25
370
     0
100
AcDbPolyline
 90
        4
 70
   129
 43
0.0
 10
420.0
 20
1134.671512
 10
420.0
 20
1125.500283
 10
-420.0
 20
1125.500283
 10
-420.0
 20
1134.671512
  0
LWPOLYLINE
  5
7DE28
330
7E035
100
AcDbEntity
  8
Level 26
  6
Continuous
 62
    25
370
     0
100
AcDbPolyline
 90
        4
 70
   129
 43
0.0
 10
420.0
 20
1042.964876
 10
420.0
 20
1052.136105
 10
-420.0
 20
1052.136105
 10
-420.0
 20
1042.964876
  0
LWPOLYLINE
  5
7DE29
330
7E035
100
AcDbEntity
  8
Level 26
  6
Continuous
 62
    25
370
     0
100
AcDbPolyline
 90
        4
 70
   129
 43
0.0
 10
420.0
 20
1036.706636
 10
420.0
 20
1027.535407
 10
-420.0
 20
1027.535407
 10
-420.0
 20
1036.706636
  0
LWPOLYLINE
  5
7DE2A
330
7E035
100
AcDbEntity
  8
Level 26
  6
Continuous
 62
    25
370
     0
100
AcDbPolyline
 90
        4
 70
   129
 43
0.0
 10
420.0
 20
945.0
 10
420.0
 20
954.171229
 10
-420.0
 20
954.171229
 10
-420.0
 20
945.0
  0
INSERT
  5
7DFF4
330
7E035
100
AcDbEntity
  8
Level 26
  6
Continuous
 62
    25
370
     0
100
AcDbBlockReference
  2
From Surface_26
 10
-4045.025751
 20
-1811.707727
 30
0.0
  0
INSERT
  5
7DFF5
330
7E035
100
AcDbEntity
  8
Level 26
  6
Continuous
 62
    25
370
     0
100
AcDbBlockReference
  2
From Surface_27
 10
-4045.025751
 20
-1811.707727
 30
0.0
  0
LWPOLYLINE
  5
7DE35
330
7E035
100
AcDbEntity
  8
Level 26
  6
Continuous
 62
    25
370
     0
100
AcDbPolyline
 90
        4
 70
   129
 43
0.0
 10
-420.0
 20
1814.205914
 10
420.0
 20
1814.205914
 10
420.0
 20
1753.679949
 10
-420.0
 20
1753.679949
  0
LWPOLYLINE
  5
7DE3A
330
7E035
100
AcDbEntity
  8
Level 26
  6
Continuous
 62
    25
370
     0
100
AcDbPolyline
 90
        9
 70
   129
 43
0.0
 10
-420.0
 20
1820.425646
 10
-420.0
 20
1811.254417
 10
-420.0
 20
1814.205914
 10
-420.0
 20
1821.420925
 10
-420.0
 20
1814.205914
 10
-420.0
 20
1753.679949
 10
-420.0
 20
1737.890239
 10
-420.0
 20
1728.71901
 10
-420.0
 20
1811.254417
  0
LWPOLYLINE
  5
7DE41
330
7E035
100
AcDbEntity
  8
Level 26
  6
Continuous
 62
    25
370
     0
100
AcDbPolyline
 90
        9
 70
   129
 43
0.0
 10
420.0
 20
1820.425646
 10
420.0
 20
1811.254417
 10
420.0
 20
1814.205914
 10
420.0
 20
1821.420925
 10
420.0
 20
1814.205914
 10
420.0
 20
1753.679949
 10
420.0
 20
1737.890239
 10
420.0
 20
1728.71901
 10
420.0
 20
1811.254417
  0
INSERT
  5
7DFF6
330
7E035
100
AcDbEntity
  8
Level 26
  6
Continuous
 62
    25
370
     0
100
AcDbBlockReference
  2
From Surface_28
 10
-4045.025751
 20
-1811.707727
 30
0.0
  0
INSERT
  5
7DFF7
330
7E035
100
AcDbEntity
  8
Level 26
  6
Continuous
 62
    25
370
     0
100
AcDbBlockReference
  2
From Surface_29
 10
-4045.025751
 20
-1811.707727
 30
0.0
  0
LWPOLYLINE
  5
7DE52
330
7E035
100
AcDbEntity
  8
Level 26
  6
Continuous
 62
    25
370
     0
100
AcDbPolyline
 90
        4
 70
   129
 43
0.0
 10
-420.0
 20
1716.241038
 10
420.0
 20
1716.241038
 10
420.0
 20
1655.715073
 10
-420.0
 20
1655.715073
  0
LWPOLYLINE
  5
7DE57
330
7E035
100
AcDbEntity
  8
Level 26
  6
Continuous
 62
    25
370
     0
100
AcDbPolyline
 90
        9
 70
   129
 43
0.0
 10
-420.0
 20
1722.46077
 10
-420.0
 20
1713.289541
 10
-420.0
 20
1716.241038
 10
-420.0
 20
1723.456049
 10
-420.0
 20
1716.241038
 10
-420.0
 20
1655.715073
 10
-420.0
 20
1639.925363
 10
-420.0
 20
1630.754134
 10
-420.0
 20
1713.289541
  0
LWPOLYLINE
  5
7DE5E
330
7E035
100
AcDbEntity
  8
Level 26
  6
Continuous
 62
    25
370
     0
100
AcDbPolyline
 90
        9
 70
   129
 43
0.0
 10
420.0
 20
1722.46077
 10
420.0
 20
1713.289541
 10
420.0
 20
1716.241038
 10
420.0
 20
1723.456049
 10
420.0
 20
1716.241038
 10
420.0
 20
1655.715073
 10
420.0
 20
1639.925363
 10
420.0
 20
1630.754134
 10
420.0
 20
1713.289541
  0
INSERT
  5
7DFF8
330
7E035
100
AcDbEntity
  8
Level 26
  6
Continuous
 62
    25
370
     0
100
AcDbBlockReference
  2
From Surface_30
 10
-4045.025751
 20
-1811.707727
 30
0.0
  0
INSERT
  5
7DFF9
330
7E035
100
AcDbEntity
  8
Level 26
  6
Continuous
 62
    25
370
     0
100
AcDbBlockReference
  2
From Surface_31
 10
-4045.025751
 20
-1811.707727
 30
0.0
  0
LWPOLYLINE
  5
7DE6F
330
7E035
100
AcDbEntity
  8
Level 26
  6
Continuous
 62
    25
370
     0
100
AcDbPolyline
 90
        4
 70
   129
 43
0.0
 10
-420.0
 20
1618.276162
 10
420.0
 20
1618.276162
 10
420.0
 20
1557.750197
 10
-420.0
 20
1557.750197
  0
LWPOLYLINE
  5
7DE74
330
7E035
100
AcDbEntity
  8
Level 26
  6
Continuous
 62
    25
370
     0
100
AcDbPolyline
 90
        9
 70
   129
 43
0.0
 10
-420.0
 20
1624.495894
 10
-420.0
 20
1615.324665
 10
-420.0
 20
1618.276162
 10
-420.0
 20
1625.491173
 10
-420.0
 20
1618.276162
 10
-420.0
 20
1557.750197
 10
-420.0
 20
1541.960487
 10
-420.0
 20
1532.789258
 10
-420.0
 20
1615.324665
  0
LWPOLYLINE
  5
7DE7B
330
7E035
100
AcDbEntity
  8
Level 26
  6
Continuous
 62
    25
370
     0
100
AcDbPolyline
 90
        9
 70
   129
 43
0.0
 10
420.0
 20
1624.495894
 10
420.0
 20
1615.324665
 10
420.0
 20
1618.276162
 10
420.0
 20
1625.491173
 10
420.0
 20
1618.276162
 10
420.0
 20
1557.750197
 10
420.0
 20
1541.960487
 10
420.0
 20
1532.789258
 10
420.0
 20
1615.324665
  0
INSERT
  5
7DFFA
330
7E035
100
AcDbEntity
  8
Level 26
  6
Continuous
 62
    25
370
     0
100
AcDbBlockReference
  2
From Surface_32
 10
-4045.025751
 20
-1811.707727
 30
0.0
  0
INSERT
  5
7DFFB
330
7E035
100
AcDbEntity
  8
Level 26
  6
Continuous
 62
    25
370
     0
100
AcDbBlockReference
  2
From Surface_33
 10
-4045.025751
 20
-1811.707727
 30
0.0
  0
LWPOLYLINE
  5
7DE8C
330
7E035
100
AcDbEntity
  8
Level 26
  6
Continuous
 62
    25
370
     0
100
AcDbPolyline
 90
        4
 70
   129
 43
0.0
 10
-420.0
 20
1520.311285
 10
420.0
 20
1520.311285
 10
420.0
 20
1459.78532
 10
-420.0
 20
1459.78532
  0
LWPOLYLINE
  5
7DE91
330
7E035
100
AcDbEntity
  8
Level 26
  6
Continuous
 62
    25
370
     0
100
AcDbPolyline
 90
        9
 70
   129
 43
0.0
 10
-420.0
 20
1526.531017
 10
-420.0
 20
1517.359788
 10
-420.0
 20
1520.311285
 10
-420.0
 20
1527.526296
 10
-420.0
 20
1520.311285
 10
-420.0
 20
1459.78532
 10
-420.0
 20
1443.99561
 10
-420.0
 20
1434.824381
 10
-420.0
 20
1517.359788
  0
LWPOLYLINE
  5
7DE98
330
7E035
100
AcDbEntity
  8
Level 26
  6
Continuous
 62
    25
370
     0
100
AcDbPolyline
 90
        9
 70
   129
 43
0.0
 10
420.0
 20
1526.531017
 10
420.0
 20
1517.359788
 10
420.0
 20
1520.311285
 10
420.0
 20
1527.526296
 10
420.0
 20
1520.311285
 10
420.0
 20
1459.78532
 10
420.0
 20
1443.99561
 10
420.0
 20
1434.824381
 10
420.0
 20
1517.359788
  0
INSERT
  5
7DFFC
330
7E035
100
AcDbEntity
  8
Level 26
  6
Continuous
 62
    25
370
     0
100
AcDbBlockReference
  2
From Surface_34
 10
-4045.025751
 20
-1811.707727
 30
0.0
  0
INSERT
  5
7DFFD
330
7E035
100
AcDbEntity
  8
Level 26
  6
Continuous
 62
    25
370
     0
100
AcDbBlockReference
  2
From Surface_35
 10
-4045.025751
 20
-1811.707727
 30
0.0
  0
LWPOLYLINE
  5
7DEA9
330
7E035
100
AcDbEntity
  8
Level 26
  6
Continuous
 62
    25
370
     0
100
AcDbPolyline
 90
        4
 70
   129
 43
0.0
 10
-420.0
 20
1422.346409
 10
420.0
 20
1422.346409
 10
420.0
 20
1361.820444
 10
-420.0
 20
1361.820444
  0
LWPOLYLINE
  5
7DEAE
330
7E035
100
AcDbEntity
  8
Level 26
  6
Continuous
 62
    25
370
     0
100
AcDbPolyline
 90
        9
 70
   129
 43
0.0
 10
-420.0
 20
1428.566141
 10
-420.0
 20
1419.394912
 10
-420.0
 20
1422.346409
 10
-420.0
 20
1429.56142
 10
-420.0
 20
1422.346409
 10
-420.0
 20
1361.820444
 10
-420.0
 20
1346.030734
 10
-420.0
 20
1336.859505
 10
-420.0
 20
1419.394912
  0
LWPOLYLINE
  5
7DEB5
330
7E035
100
AcDbEntity
  8
Level 26
  6
Continuous
 62
    25
370
     0
100
AcDbPolyline
 90
        9
 70
   129
 43
0.0
 10
420.0
 20
1428.566141
 10
420.0
 20
1419.394912
 10
420.0
 20
1422.346409
 10
420.0
 20
1429.56142
 10
420.0
 20
1422.346409
 10
420.0
 20
1361.820444
 10
420.0
 20
1346.030734
 10
420.0
 20
1336.859505
 10
420.0
 20
1419.394912
  0
INSERT
  5
7DFFE
330
7E035
100
AcDbEntity
  8
Level 26
  6
Continuous
 62
    25
370
     0
100
AcDbBlockReference
  2
From Surface_36
 10
-4045.025751
 20
-1811.707727
 30
0.0
  0
INSERT
  5
7DFFF
330
7E035
100
AcDbEntity
  8
Level 26
  6
Continuous
 62
    25
370
     0
100
AcDbBlockReference
  2
From Surface_37
 10
-4045.025751
 20
-1811.707727
 30
0.0
  0
LWPOLYLINE
  5
7DEC6
330
7E035
100
AcDbEntity
  8
Level 26
  6
Continuous
 62
    25
370
     0
100
AcDbPolyline
 90
        4
 70
   129
 43
0.0
 10
-420.0
 20
1324.381533
 10
420.0
 20
1324.381533
 10
420.0
 20
1263.855568
 10
-420.0
 20
1263.855568
  0
LWPOLYLINE
  5
7DECB
330
7E035
100
AcDbEntity
  8
Level 26
  6
Continuous
 62
    25
370
     0
100
AcDbPolyline
 90
        9
 70
   129
 43
0.0
 10
-420.0
 20
1330.601265
 10
-420.0
 20
1321.430036
 10
-420.0
 20
1324.381533
 10
-420.0
 20
1331.596544
 10
-420.0
 20
1324.381533
 10
-420.0
 20
1263.855568
 10
-420.0
 20
1248.065858
 10
-420.0
 20
1238.894629
 10
-420.0
 20
1321.430036
  0
LWPOLYLINE
  5
7DED2
330
7E035
100
AcDbEntity
  8
Level 26
  6
Continuous
 62
    25
370
     0
100
AcDbPolyline
 90
        9
 70
   129
 43
0.0
 10
420.0
 20
1330.601265
 10
420.0
 20
1321.430036
 10
420.0
 20
1324.381533
 10
420.0
 20
1331.596544
 10
420.0
 20
1324.381533
 10
420.0
 20
1263.855568
 10
420.0
 20
1248.065858
 10
420.0
 20
1238.894629
 10
420.0
 20
1321.430036
  0
INSERT
  5
7E000
330
7E035
100
AcDbEntity
  8
Level 26
  6
Continuous
 62
    25
370
     0
100
AcDbBlockReference
  2
From Surface_38
 10
-4045.025751
 20
-1811.707727
 30
0.0
  0
INSERT
  5
7E001
330
7E035
100
AcDbEntity
  8
Level 26
  6
Continuous
 62
    25
370
     0
100
AcDbBlockReference
  2
From Surface_39
 10
-4045.025751
 20
-1811.707727
 30
0.0
  0
LWPOLYLINE
  5
7DEE3
330
7E035
100
AcDbEntity
  8
Level 26
  6
Continuous
 62
    25
370
     0
100
AcDbPolyline
 90
        4
 70
   129
 43
0.0
 10
-420.0
 20
1226.416657
 10
420.0
 20
1226.416657
 10
420.0
 20
1165.890692
 10
-420.0
 20
1165.890692
  0
LWPOLYLINE
  5
7DEE8
330
7E035
100
AcDbEntity
  8
Level 26
  6
Continuous
 62
    25
370
     0
100
AcDbPolyline
 90
        9
 70
   129
 43
0.0
 10
-420.0
 20
1232.636389
 10
-420.0
 20
1223.46516
 10
-420.0
 20
1226.416657
 10
-420.0
 20
1233.631668
 10
-420.0
 20
1226.416657
 10
-420.0
 20
1165.890692
 10
-420.0
 20
1150.100982
 10
-420.0
 20
1140.929753
 10
-420.0
 20
1223.46516
  0
LWPOLYLINE
  5
7DEEF
330
7E035
100
AcDbEntity
  8
Level 26
  6
Continuous
 62
    25
370
     0
100
AcDbPolyline
 90
        9
 70
   129
 43
0.0
 10
420.0
 20
1232.636389
 10
420.0
 20
1223.46516
 10
420.0
 20
1226.416657
 10
420.0
 20
1233.631668
 10
420.0
 20
1226.416657
 10
420.0
 20
1165.890692
 10
420.0
 20
1150.100982
 10
420.0
 20
1140.929753
 10
420.0
 20
1223.46516
  0
INSERT
  5
7E002
330
7E035
100
AcDbEntity
  8
Level 26
  6
Continuous
 62
    25
370
     0
100
AcDbBlockReference
  2
From Surface_40
 10
-4045.025751
 20
-1811.707727
 30
0.0
  0
INSERT
  5
7E003
330
7E035
100
AcDbEntity
  8
Level 26
  6
Continuous
 62
    25
370
     0
100
AcDbBlockReference
  2
From Surface_41
 10
-4045.025751
 20
-1811.707727
 30
0.0
  0
LWPOLYLINE
  5
7DF00
330
7E035
100
AcDbEntity
  8
Level 26
  6
Continuous
 62
    25
370
     0
100
AcDbPolyline
 90
        4
 70
   129
 43
0.0
 10
-420.0
 20
1128.45178
 10
420.0
 20
1128.45178
 10
420.0
 20
1067.925815
 10
-420.0
 20
1067.925815
  0
LWPOLYLINE
  5
7DF05
330
7E035
100
AcDbEntity
  8
Level 26
  6
Continuous
 62
    25
370
     0
100
AcDbPolyline
 90
        9
 70
   129
 43
0.0
 10
-420.0
 20
1134.671512
 10
-420.0
 20
1125.500283
 10
-420.0
 20
1128.45178
 10
-420.0
 20
1135.666791
 10
-420.0
 20
1128.45178
 10
-420.0
 20
1067.925815
 10
-420.0
 20
1052.136105
 10
-420.0
 20
1042.964876
 10
-420.0
 20
1125.500283
  0
LWPOLYLINE
  5
7DF0C
330
7E035
100
AcDbEntity
  8
Level 26
  6
Continuous
 62
    25
370
     0
100
AcDbPolyline
 90
        9
 70
   129
 43
0.0
 10
420.0
 20
1134.671512
 10
420.0
 20
1125.500283
 10
420.0
 20
1128.45178
 10
420.0
 20
1135.666791
 10
420.0
 20
1128.45178
 10
420.0
 20
1067.925815
 10
420.0
 20
1052.136105
 10
420.0
 20
1042.964876
 10
420.0
 20
1125.500283
  0
INSERT
  5
7E004
330
7E035
100
AcDbEntity
  8
Level 26
  6
Continuous
 62
    25
370
     0
100
AcDbBlockReference
  2
From Surface_42
 10
-4045.025751
 20
-1811.707727
 30
0.0
  0
INSERT
  5
7E005
330
7E035
100
AcDbEntity
  8
Level 26
  6
Continuous
 62
    25
370
     0
100
AcDbBlockReference
  2
From Surface_43
 10
-4045.025751
 20
-1811.707727
 30
0.0
  0
LWPOLYLINE
  5
7DF1D
330
7E035
100
AcDbEntity
  8
Level 26
  6
Continuous
 62
    25
370
     0
100
AcDbPolyline
 90
        4
 70
   129
 43
0.0
 10
-420.0
 20
1030.486904
 10
420.0
 20
1030.486904
 10
420.0
 20
969.960939
 10
-420.0
 20
969.960939
  0
LWPOLYLINE
  5
7DF22
330
7E035
100
AcDbEntity
  8
Level 26
  6
Continuous
 62
    25
370
     0
100
AcDbPolyline
 90
        9
 70
   129
 43
0.0
 10
-420.0
 20
1036.706636
 10
-420.0
 20
1027.535407
 10
-420.0
 20
1030.486904
 10
-420.0
 20
1037.701915
 10
-420.0
 20
1030.486904
 10
-420.0
 20
969.960939
 10
-420.0
 20
954.171229
 10
-420.0
 20
945.0
 10
-420.0
 20
1027.535407
  0
LWPOLYLINE
  5
7DF29
330
7E035
100
AcDbEntity
  8
Level 26
  6
Continuous
 62
    25
370
     0
100
AcDbPolyline
 90
        9
 70
   129
 43
0.0
 10
420.0
 20
1036.706636
 10
420.0
 20
1027.535407
 10
420.0
 20
1030.486904
 10
420.0
 20
1037.701915
 10
420.0
 20
1030.486904
 10
420.0
 20
969.960939
 10
420.0
 20
954.171229
 10
420.0
 20
945.0
 10
420.0
 20
1027.535407
  0
LWPOLYLINE
  5
7DF30
330
7E035
100
AcDbEntity
  8
Level 26
  6
Continuous
 62
   254
370
    13
100
AcDbPolyline
 90
        4
 70
   129
 43
0.0
 10
429.0
 20
1864.936631
 10
429.0
 20
1902.936631
 10
-429.0
 20
1902.936631
 10
-429.0
 20
1864.936631
  0
LWPOLYLINE
  5
7DF31
330
7E035
100
AcDbEntity
  8
Level 26
  6
Continuous
 62
   254
370
    13
100
AcDbPolyline
 90
        4
 70
   129
 43
0.0
 10
429.0
 20
1864.936631
 10
429.0
 20
1864.936631
 10
-429.0
 20
1864.936631
 10
-429.0
 20
1864.936631
  0
LWPOLYLINE
  5
7DF32
330
7E035
100
AcDbEntity
  8
Level 26
  6
Continuous
 62
   254
370
    13
100
AcDbPolyline
 90
        4
 70
   129
 43
0.0
 10
429.0
 20
1902.936631
 10
429.0
 20
1864.936631
 10
-429.0
 20
1864.936631
 10
-429.0
 20
1902.936631
  0
LWPOLYLINE
  5
7DF33
330
7E035
100
AcDbEntity
  8
Level 26
  6
Continuous
 62
   254
370
    13
100
AcDbPolyline
 90
        4
 70
   129
 43
0.0
 10
429.0
 20
1902.936631
 10
429.0
 20
1902.936631
 10
-429.0
 20
1902.936631
 10
-429.0
 20
1902.936631
  0
INSERT
  5
7E006
330
7E035
100
AcDbEntity
  8
Level 26
  6
Continuous
 62
   254
370
    13
100
AcDbBlockReference
  2
From Solid_2
 10
-4045.025751
 20
-1811.707727
 30
0.0
  0
INSERT
  5
7E007
330
7E035
100
AcDbEntity
  8
Level 26
  6
Continuous
 62
   254
370
    13
100
AcDbBlockReference
  2
From Solid_3
 10
-4045.025751
 20
-1811.707727
 30
0.0
  0
LWPOLYLINE
  5
7DF7E
330
7E035
100
AcDbEntity
  8
Level 25
  6
Continuous
 62
   174
370
    13
100
AcDbPolyline
 90
        4
 70
   129
 43
0.0
 10
-510.0
 20
-1894.936631
 10
-435.0
 20
-1894.936631
 10
-435.0
 20
-1894.936631
 10
-510.0
 20
-1894.936631
  0
LWPOLYLINE
  5
7DF7F
330
7E035
100
AcDbEntity
  8
Level 25
  6
Continuous
 62
   174
370
    13
100
AcDbPolyline
 90
        4
 70
   129
 43
0.0
 10
-435.0
 20
-1894.936631
 10
-435.0
 20
-1819.936631
 10
-435.0
 20
-1819.936631
 10
-435.0
 20
-1894.936631
  0
LWPOLYLINE
  5
7DF80
330
7E035
100
AcDbEntity
  8
Level 25
  6
Continuous
 62
   174
370
    13
100
AcDbPolyline
 90
        4
 70
   129
 43
0.0
 10
-510.0
 20
-1819.936631
 10
-510.0
 20
-1894.936631
 10
-510.0
 20
-1894.936631
 10
-510.0
 20
-1819.936631
  0
LWPOLYLINE
  5
7DF81
330
7E035
100
AcDbEntity
  8
Level 25
  6
Continuous
 62
   174
370
    13
100
AcDbPolyline
 90
        4
 70
   129
 43
0.0
 10
-435.0
 20
-1819.936631
 10
-510.0
 20
-1819.936631
 10
-510.0
 20
-1819.936631
 10
-435.0
 20
-1819.936631
  0
LWPOLYLINE
  5
7DF82
330
7E035
100
AcDbEntity
  8
Level 26
  6
Continuous
 62
   163
370
    13
100
AcDbPolyline
 90
        4
 70
   129
 43
0.0
 10
-435.0
 20
-1819.936631
 10
-510.0
 20
-1819.936631
 10
-510.0
 20
-1819.936631
 10
-435.0
 20
-1819.936631
  0
LWPOLYLINE
  5
7DF83
330
7E035
100
AcDbEntity
  8
Level 26
  6
Continuous
 62
   163
370
    13
100
AcDbPolyline
 90
        4
 70
   129
 43
0.0
 10
-435.0
 20
-1894.936631
 10
-435.0
 20
-1819.936631
 10
-435.0
 20
-1819.936631
 10
-435.0
 20
-1894.936631
  0
LWPOLYLINE
  5
7DF84
330
7E035
100
AcDbEntity
  8
Level 26
  6
Continuous
 62
   163
370
    13
100
AcDbPolyline
 90
        4
 70
   129
 43
0.0
 10
-510.0
 20
-1894.936631
 10
-435.0
 20
-1894.936631
 10
-435.0
 20
-1894.936631
 10
-510.0
 20
-1894.936631
  0
LWPOLYLINE
  5
7DF85
330
7E035
100
AcDbEntity
  8
Level 26
  6
Continuous
 62
   163
370
    13
100
AcDbPolyline
 90
        4
 70
   129
 43
0.0
 10
-510.0
 20
-1819.936631
 10
-510.0
 20
-1894.936631
 10
-510.0
 20
-1894.936631
 10
-510.0
 20
-1819.936631
  0
LWPOLYLINE
  5
7DF86
330
7E035
100
AcDbEntity
  8
Level 26
  6
Continuous
 62
   163
370
    13
100
AcDbPolyline
 90
        4
 70
   129
 43
0.0
 10
-435.0
 20
-1819.936631
 10
-510.0
 20
-1819.936631
 10
-510.0
 20
-1894.936631
 10
-435.0
 20
-1894.936631
  0
LWPOLYLINE
  5
7DF8B
330
7E035
100
AcDbEntity
  8
Level 25
  6
Continuous
 62
   174
370
    13
100
AcDbPolyline
 90
        4
 70
   129
 43
0.0
 10
435.0
 20
-1894.936631
 10
510.0
 20
-1894.936631
 10
510.0
 20
-1894.936631
 10
435.0
 20
-1894.936631
  0
LWPOLYLINE
  5
7DF8C
330
7E035
100
AcDbEntity
  8
Level 25
  6
Continuous
 62
   174
370
    13
100
AcDbPolyline
 90
        4
 70
   129
 43
0.0
 10
510.0
 20
-1894.936631
 10
510.0
 20
-1819.936631
 10
510.0
 20
-1819.936631
 10
510.0
 20
-1894.936631
  0
LWPOLYLINE
  5
7DF8D
330
7E035
100
AcDbEntity
  8
Level 25
  6
Continuous
 62
   174
370
    13
100
AcDbPolyline
 90
        4
 70
   129
 43
0.0
 10
435.0
 20
-1819.936631
 10
435.0
 20
-1894.936631
 10
435.0
 20
-1894.936631
 10
435.0
 20
-1819.936631
  0
LWPOLYLINE
  5
7DF8E
330
7E035
100
AcDbEntity
  8
Level 25
  6
Continuous
 62
   174
370
    13
100
AcDbPolyline
 90
        4
 70
   129
 43
0.0
 10
510.0
 20
-1819.936631
 10
435.0
 20
-1819.936631
 10
435.0
 20
-1819.936631
 10
510.0
 20
-1819.936631
  0
LWPOLYLINE
  5
7DF8F
330
7E035
100
AcDbEntity
  8
Level 26
  6
Continuous
 62
   163
370
    13
100
AcDbPolyline
 90
        4
 70
   129
 43
0.0
 10
510.0
 20
-1819.936631
 10
435.0
 20
-1819.936631
 10
435.0
 20
-1819.936631
 10
510.0
 20
-1819.936631
  0
LWPOLYLINE
  5
7DF90
330
7E035
100
AcDbEntity
  8
Level 26
  6
Continuous
 62
   163
370
    13
100
AcDbPolyline
 90
        4
 70
   129
 43
0.0
 10
510.0
 20
-1894.936631
 10
510.0
 20
-1819.936631
 10
510.0
 20
-1819.936631
 10
510.0
 20
-1894.936631
  0
LWPOLYLINE
  5
7DF91
330
7E035
100
AcDbEntity
  8
Level 26
  6
Continuous
 62
   163
370
    13
100
AcDbPolyline
 90
        4
 70
   129
 43
0.0
 10
435.0
 20
-1894.936631
 10
510.0
 20
-1894.936631
 10
510.0
 20
-1894.936631
 10
435.0
 20
-1894.936631
  0
LWPOLYLINE
  5
7DF92
330
7E035
100
AcDbEntity
  8
Level 26
  6
Continuous
 62
   163
370
    13
100
AcDbPolyline
 90
        4
 70
   129
 43
0.0
 10
435.0
 20
-1819.936631
 10
435.0
 20
-1894.936631
 10
435.0
 20
-1894.936631
 10
435.0
 20
-1819.936631
  0
LWPOLYLINE
  5
7DF93
330
7E035
100
AcDbEntity
  8
Level 26
  6
Continuous
 62
   163
370
    13
100
AcDbPolyline
 90
        4
 70
   129
 43
0.0
 10
510.0
 20
-1819.936631
 10
435.0
 20
-1819.936631
 10
435.0
 20
-1894.936631
 10
510.0
 20
-1894.936631
  0
LWPOLYLINE
  5
7DF98
330
7E035
100
AcDbEntity
  8
Level 25
  6
Continuous
 62
   174
370
    13
100
AcDbPolyline
 90
        4
 70
   129
 43
0.0
 10
-510.0
 20
1894.936631
 10
-435.0
 20
1894.936631
 10
-435.0
 20
1894.936631
 10
-510.0
 20
1894.936631
  0
LWPOLYLINE
  5
7DF99
330
7E035
100
AcDbEntity
  8
Level 25
  6
Continuous
 62
   174
370
    13
100
AcDbPolyline
 90
        4
 70
   129
 43
0.0
 10
-435.0
 20
1894.936631
 10
-435.0
 20
1819.936631
 10
-435.0
 20
1819.936631
 10
-435.0
 20
1894.936631
  0
LWPOLYLINE
  5
7DF9A
330
7E035
100
AcDbEntity
  8
Level 25
  6
Continuous
 62
   174
370
    13
100
AcDbPolyline
 90
        4
 70
   129
 43
0.0
 10
-510.0
 20
1819.936631
 10
-510.0
 20
1894.936631
 10
-510.0
 20
1894.936631
 10
-510.0
 20
1819.936631
  0
LWPOLYLINE
  5
7DF9B
330
7E035
100
AcDbEntity
  8
Level 25
  6
Continuous
 62
   174
370
    13
100
AcDbPolyline
 90
        4
 70
   129
 43
0.0
 10
-435.0
 20
1819.936631
 10
-510.0
 20
1819.936631
 10
-510.0
 20
1819.936631
 10
-435.0
 20
1819.936631
  0
LWPOLYLINE
  5
7DF9C
330
7E035
100
AcDbEntity
  8
Level 26
  6
Continuous
 62
   163
370
    13
100
AcDbPolyline
 90
        4
 70
   129
 43
0.0
 10
-435.0
 20
1819.936631
 10
-510.0
 20
1819.936631
 10
-510.0
 20
1819.936631
 10
-435.0
 20
1819.936631
  0
LWPOLYLINE
  5
7DF9D
330
7E035
100
AcDbEntity
  8
Level 26
  6
Continuous
 62
   163
370
    13
100
AcDbPolyline
 90
        4
 70
   129
 43
0.0
 10
-435.0
 20
1894.936631
 10
-435.0
 20
1819.936631
 10
-435.0
 20
1819.936631
 10
-435.0
 20
1894.936631
  0
LWPOLYLINE
  5
7DF9E
330
7E035
100
AcDbEntity
  8
Level 26
  6
Continuous
 62
   163
370
    13
100
AcDbPolyline
 90
        4
 70
   129
 43
0.0
 10
-510.0
 20
1894.936631
 10
-435.0
 20
1894.936631
 10
-435.0
 20
1894.936631
 10
-510.0
 20
1894.936631
  0
LWPOLYLINE
  5
7DF9F
330
7E035
100
AcDbEntity
  8
Level 26
  6
Continuous
 62
   163
370
    13
100
AcDbPolyline
 90
        4
 70
   129
 43
0.0
 10
-510.0
 20
1819.936631
 10
-510.0
 20
1894.936631
 10
-510.0
 20
1894.936631
 10
-510.0
 20
1819.936631
  0
LWPOLYLINE
  5
7DFA0
330
7E035
100
AcDbEntity
  8
Level 26
  6
Continuous
 62
   163
370
    13
100
AcDbPolyline
 90
        4
 70
   129
 43
0.0
 10
-435.0
 20
1819.936631
 10
-510.0
 20
1819.936631
 10
-510.0
 20
1894.936631
 10
-435.0
 20
1894.936631
  0
INSERT
  5
7E008
330
7E035
100
AcDbEntity
  8
Level 26
  6
Continuous
 62
   254
370
    13
100
AcDbBlockReference
  2
From Solid_4
 10
-4045.025751
 20
-1811.707727
 30
0.0
  0
LWPOLYLINE
  5
7DFCA
330
7E035
100
AcDbEntity
  8
Level 25
  6
Continuous
 62
   174
370
    13
100
AcDbPolyline
 90
        4
 70
   129
 43
0.0
 10
435.0
 20
1894.936631
 10
510.0
 20
1894.936631
 10
510.0
 20
1894.936631
 10
435.0
 20
1894.936631
  0
LWPOLYLINE
  5
7DFCB
330
7E035
100
AcDbEntity
  8
Level 25
  6
Continuous
 62
   174
370
    13
100
AcDbPolyline
 90
        4
 70
   129
 43
0.0
 10
510.0
 20
1894.936631
 10
510.0
 20
1819.936631
 10
510.0
 20
1819.936631
 10
510.0
 20
1894.936631
  0
LWPOLYLINE
  5
7DFCC
330
7E035
100
AcDbEntity
  8
Level 25
  6
Continuous
 62
   174
370
    13
100
AcDbPolyline
 90
        4
 70
   129
 43
0.0
 10
435.0
 20
1819.936631
 10
435.0
 20
1894.936631
 10
435.0
 20
1894.936631
 10
435.0
 20
1819.936631
  0
LWPOLYLINE
  5
7DFCD
330
7E035
100
AcDbEntity
  8
Level 25
  6
Continuous
 62
   174
370
    13
100
AcDbPolyline
 90
        4
 70
   129
 43
0.0
 10
510.0
 20
1819.936631
 10
435.0
 20
1819.936631
 10
435.0
 20
1819.936631
 10
510.0
 20
1819.936631
  0
LWPOLYLINE
  5
7DFCE
330
7E035
100
AcDbEntity
  8
Level 26
  6
Continuous
 62
   163
370
    13
100
AcDbPolyline
 90
        4
 70
   129
 43
0.0
 10
510.0
 20
1819.936631
 10
435.0
 20
1819.936631
 10
435.0
 20
1819.936631
 10
510.0
 20
1819.936631
  0
LWPOLYLINE
  5
7DFCF
330
7E035
100
AcDbEntity
  8
Level 26
  6
Continuous
 62
   163
370
    13
100
AcDbPolyline
 90
        4
 70
   129
 43
0.0
 10
510.0
 20
1894.936631
 10
510.0
 20
1819.936631
 10
510.0
 20
1819.936631
 10
510.0
 20
1894.936631
  0
LWPOLYLINE
  5
7DFD0
330
7E035
100
AcDbEntity
  8
Level 26
  6
Continuous
 62
   163
370
    13
100
AcDbPolyline
 90
        4
 70
   129
 43
0.0
 10
435.0
 20
1894.936631
 10
510.0
 20
1894.936631
 10
510.0
 20
1894.936631
 10
435.0
 20
1894.936631
  0
LWPOLYLINE
  5
7DFD1
330
7E035
100
AcDbEntity
  8
Level 26
  6
Continuous
 62
   163
370
    13
100
AcDbPolyline
 90
        4
 70
   129
 43
0.0
 10
435.0
 20
1819.936631
 10
435.0
 20
1894.936631
 10
435.0
 20
1894.936631
 10
435.0
 20
1819.936631
  0
LWPOLYLINE
  5
7DFD2
330
7E035
100
AcDbEntity
  8
Level 26
  6
Continuous
 62
   163
370
    13
100
AcDbPolyline
 90
        4
 70
   129
 43
0.0
 10
510.0
 20
1819.936631
 10
435.0
 20
1819.936631
 10
435.0
 20
1894.936631
 10
510.0
 20
1894.936631
  0
ENDBLK
  5
7E037
330
7E035
100
AcDbEntity
  8
0
100
AcDbBlockEnd
  0
BLOCK
  5
7E039
330
7E038
100
AcDbEntity
  8
0
100
AcDbBlockBegin
  2
From Surface
 70
     0
 71
     0
 10
0.0
 20
0.0
 30
0.0
  3
From Surface
  1

  0
LINE
  5
7DA91
330
7E038
100
AcDbEntity
  8
Level 27
  6
Continuous
 62
    40
370
    13
100
AcDbLine
 10
3580.025751
 20
904.207727
 30
0.0
 11
3575.025751
 21
904.207727
 31
0.0
  0
LINE
  5
7DA92
330
7E038
100
AcDbEntity
  8
Level 27
  6
Continuous
 62
    40
370
    13
100
AcDbLine
 10
3580.025751
 20
1774.207727
 30
0.0
 11
3575.025751
 21
1774.207727
 31
0.0
  0
LINE
  5
7DA93
330
7E038
100
AcDbEntity
  8
Level 27
  6
Continuous
 62
    40
370
    13
100
AcDbLine
 10
3575.025751
 20
904.207727
 30
0.0
 11
3575.025751
 21
1774.207727
 31
0.0
  0
LINE
  5
7DA94
330
7E038
100
AcDbEntity
  8
Level 27
  6
Continuous
 62
    40
370
    13
100
AcDbLine
 10
3580.025751
 20
904.207727
 30
0.0
 11
3580.025751
 21
1774.207727
 31
0.0
  0
ENDBLK
  5
7E03A
330
7E038
100
AcDbEntity
  8
0
100
AcDbBlockEnd
  0
BLOCK
  5
7E03C
330
7E03B
100
AcDbEntity
  8
0
100
AcDbBlockBegin
  2
From Surface_1
 70
     0
 71
     0
 10
0.0
 20
0.0
 30
0.0
  3
From Surface_1
  1

  0
LINE
  5
7DA96
330
7E03B
100
AcDbEntity
  8
Level 27
  6
Continuous
 62
    40
370
    13
100
AcDbLine
 10
4480.025751
 20
874.207727
 30
0.0
 11
4480.025751
 21
869.207727
 31
0.0
  0
LINE
  5
7DA97
330
7E03B
100
AcDbEntity
  8
Level 27
  6
Continuous
 62
    40
370
    13
100
AcDbLine
 10
3610.025751
 20
874.207727
 30
0.0
 11
3610.025751
 21
869.207727
 31
0.0
  0
LINE
  5
7DA98
330
7E03B
100
AcDbEntity
  8
Level 27
  6
Continuous
 62
    40
370
    13
100
AcDbLine
 10
4480.025751
 20
869.207727
 30
0.0
 11
3610.025751
 21
869.207727
 31
0.0
  0
LINE
  5
7DA99
330
7E03B
100
AcDbEntity
  8
Level 27
  6
Continuous
 62
    40
370
    13
100
AcDbLine
 10
4480.025751
 20
874.207727
 30
0.0
 11
3610.025751
 21
874.207727
 31
0.0
  0
ENDBLK
  5
7E03D
330
7E03B
100
AcDbEntity
  8
0
100
AcDbBlockEnd
  0
BLOCK
  5
7E03F
330
7E03E
100
AcDbEntity
  8
0
100
AcDbBlockBegin
  2
From Surface_2
 70
     0
 71
     0
 10
0.0
 20
0.0
 30
0.0
  3
From Surface_2
  1

  0
LINE
  5
7DA9B
330
7E03E
100
AcDbEntity
  8
Level 27
  6
Continuous
 62
    40
370
    13
100
AcDbLine
 10
4510.025751
 20
1774.207727
 30
0.0
 11
4515.025751
 21
1774.207727
 31
0.0
  0
LINE
  5
7DA9C
330
7E03E
100
AcDbEntity
  8
Level 27
  6
Continuous
 62
    40
370
    13
100
AcDbLine
 10
4510.025751
 20
904.207727
 30
0.0
 11
4515.025751
 21
904.207727
 31
0.0
  0
LINE
  5
7DA9D
330
7E03E
100
AcDbEntity
  8
Level 27
  6
Continuous
 62
    40
370
    13
100
AcDbLine
 10
4515.025751
 20
1774.207727
 30
0.0
 11
4515.025751
 21
904.207727
 31
0.0
  0
LINE
  5
7DA9E
330
7E03E
100
AcDbEntity
  8
Level 27
  6
Continuous
 62
    40
370
    13
100
AcDbLine
 10
4510.025751
 20
1774.207727
 30
0.0
 11
4510.025751
 21
904.207727
 31
0.0
  0
ENDBLK
  5
7E040
330
7E03E
100
AcDbEntity
  8
0
100
AcDbBlockEnd
  0
BLOCK
  5
7E042
330
7E041
100
AcDbEntity
  8
0
100
AcDbBlockBegin
  2
From Surface_3
 70
     0
 71
     0
 10
0.0
 20
0.0
 30
0.0
  3
From Surface_3
  1

  0
LINE
  5
7DAB4
330
7E041
100
AcDbEntity
  8
Level 27
  6
Continuous
 62
    40
370
    13
100
AcDbLine
 10
3610.025751
 20
1804.207727
 30
0.0
 11
3610.025751
 21
1809.207727
 31
0.0
  0
LINE
  5
7DAB5
330
7E041
100
AcDbEntity
  8
Level 27
  6
Continuous
 62
    40
370
    13
100
AcDbLine
 10
4480.025751
 20
1804.207727
 30
0.0
 11
4480.025751
 21
1809.207727
 31
0.0
  0
LINE
  5
7DAB6
330
7E041
100
AcDbEntity
  8
Level 27
  6
Continuous
 62
    40
370
    13
100
AcDbLine
 10
3610.025751
 20
1809.207727
 30
0.0
 11
4480.025751
 21
1809.207727
 31
0.0
  0
LINE
  5
7DAB7
330
7E041
100
AcDbEntity
  8
Level 27
  6
Continuous
 62
    40
370
    13
100
AcDbLine
 10
3610.025751
 20
1804.207727
 30
0.0
 11
4480.025751
 21
1804.207727
 31
0.0
  0
ENDBLK
  5
7E043
330
7E041
100
AcDbEntity
  8
0
100
AcDbBlockEnd
  0
BLOCK
  5
7E045
330
7E044
100
AcDbEntity
  8
0
100
AcDbBlockBegin
  2
Smart Solid
 70
     0
 71
     0
 10
0.0
 20
0.0
 30
0.0
  3
Smart Solid
  1

  0
LINE
  5
7DAC9
330
7E044
100
AcDbEntity
  8
Level 26
  6
Continuous
 62
    25
370
    13
100
AcDbLine
 10
465.0005
 20
-39.9995
 30
0.0
 11
-464.9995
 21
-39.9995
 31
0.0
  0
LINE
  5
7DACA
330
7E044
100
AcDbEntity
  8
Level 26
  6
Continuous
 62
    25
370
    13
100
AcDbLine
 10
465.0005
 20
-39.9995
 30
0.0
 11
-464.9995
 21
-39.9995
 31
0.0
  0
LINE
  5
7DACB
330
7E044
100
AcDbEntity
  8
Level 26
  6
Continuous
 62
    25
370
    13
100
AcDbLine
 10
465.0005
 20
40.0005
 30
0.0
 11
-464.9995
 21
40.0005
 31
0.0
  0
LINE
  5
7DACC
330
7E044
100
AcDbEntity
  8
Level 26
  6
Continuous
 62
    25
370
    13
100
AcDbLine
 10
465.0005
 20
40.0005
 30
0.0
 11
-464.9995
 21
40.0005
 31
0.0
  0
POINT
  5
7DACD
330
7E044
100
AcDbEntity
  8
Level 26
  6
Continuous
 62
    25
370
    13
100
AcDbPoint
 10
465.0005
 20
40.0005
 30
0.0
  0
LINE
  5
7DACE
330
7E044
100
AcDbEntity
  8
Level 26
  6
Continuous
 62
    25
370
    13
100
AcDbLine
 10
465.0005
 20
-39.9995
 30
0.0
 11
465.0005
 21
40.0005
 31
0.0
  0
POINT
  5
7DACF
330
7E044
100
AcDbEntity
  8
Level 26
  6
Continuous
 62
    25
370
    13
100
AcDbPoint
 10
465.0005
 20
-39.9995
 30
0.0
  0
LINE
  5
7DAD0
330
7E044
100
AcDbEntity
  8
Level 26
  6
Continuous
 62
    25
370
    13
100
AcDbLine
 10
465.0005
 20
40.0005
 30
0.0
 11
465.0005
 21
-39.9995
 31
0.0
  0
POINT
  5
7DAD1
330
7E044
100
AcDbEntity
  8
Level 26
  6
Continuous
 62
    25
370
    13
100
AcDbPoint
 10
-464.9995
 20
40.0005
 30
0.0
  0
LINE
  5
7DAD2
330
7E044
100
AcDbEntity
  8
Level 26
  6
Continuous
 62
    25
370
    13
100
AcDbLine
 10
-464.9995
 20
-39.9995
 30
0.0
 11
-464.9995
 21
40.0005
 31
0.0
  0
POINT
  5
7DAD3
330
7E044
100
AcDbEntity
  8
Level 26
  6
Continuous
 62
    25
370
    13
100
AcDbPoint
 10
-464.9995
 20
-39.9995
 30
0.0
  0
LINE
  5
7DAD4
330
7E044
100
AcDbEntity
  8
Level 26
  6
Continuous
 62
    25
370
    13
100
AcDbLine
 10
-464.9995
 20
40.0005
 30
0.0
 11
-464.9995
 21
-39.9995
 31
0.0
  0
ENDBLK
  5
7E046
330
7E044
100
AcDbEntity
  8
0
100
AcDbBlockEnd
  0
BLOCK
  5
7E048
330
7E047
100
AcDbEntity
  8
0
100
AcDbBlockBegin
  2
Smart Solid_1
 70
     0
 71
     0
 10
0.0
 20
0.0
 30
0.0
  3
Smart Solid_1
  1

  0
LINE
  5
7DAD7
330
7E047
100
AcDbEntity
  8
Level 26
  6
Continuous
 62
    25
370
    13
100
AcDbLine
 10
465.0005
 20
-39.9995
 30
0.0
 11
-464.9995
 21
-39.9995
 31
0.0
  0
LINE
  5
7DAD8
330
7E047
100
AcDbEntity
  8
Level 26
  6
Continuous
 62
    25
370
    13
100
AcDbLine
 10
465.0005
 20
-39.9995
 30
0.0
 11
-464.9995
 21
-39.9995
 31
0.0
  0
LINE
  5
7DAD9
330
7E047
100
AcDbEntity
  8
Level 26
  6
Continuous
 62
    25
370
    13
100
AcDbLine
 10
465.0005
 20
40.0005
 30
0.0
 11
-464.9995
 21
40.0005
 31
0.0
  0
LINE
  5
7DADA
330
7E047
100
AcDbEntity
  8
Level 26
  6
Continuous
 62
    25
370
    13
100
AcDbLine
 10
465.0005
 20
40.0005
 30
0.0
 11
-464.9995
 21
40.0005
 31
0.0
  0
POINT
  5
7DADB
330
7E047
100
AcDbEntity
  8
Level 26
  6
Continuous
 62
    25
370
    13
100
AcDbPoint
 10
465.0005
 20
40.0005
 30
0.0
  0
LINE
  5
7DADC
330
7E047
100
AcDbEntity
  8
Level 26
  6
Continuous
 62
    25
370
    13
100
AcDbLine
 10
465.0005
 20
-39.9995
 30
0.0
 11
465.0005
 21
40.0005
 31
0.0
  0
POINT
  5
7DADD
330
7E047
100
AcDbEntity
  8
Level 26
  6
Continuous
 62
    25
370
    13
100
AcDbPoint
 10
465.0005
 20
-39.9995
 30
0.0
  0
LINE
  5
7DADE
330
7E047
100
AcDbEntity
  8
Level 26
  6
Continuous
 62
    25
370
    13
100
AcDbLine
 10
465.0005
 20
40.0005
 30
0.0
 11
465.0005
 21
-39.9995
 31
0.0
  0
POINT
  5
7DADF
330
7E047
100
AcDbEntity
  8
Level 26
  6
Continuous
 62
    25
370
    13
100
AcDbPoint
 10
-464.9995
 20
40.0005
 30
0.0
  0
LINE
  5
7DAE0
330
7E047
100
AcDbEntity
  8
Level 26
  6
Continuous
 62
    25
370
    13
100
AcDbLine
 10
-464.9995
 20
-39.9995
 30
0.0
 11
-464.9995
 21
40.0005
 31
0.0
  0
POINT
  5
7DAE1
330
7E047
100
AcDbEntity
  8
Level 26
  6
Continuous
 62
    25
370
    13
100
AcDbPoint
 10
-464.9995
 20
-39.9995
 30
0.0
  0
LINE
  5
7DAE2
330
7E047
100
AcDbEntity
  8
Level 26
  6
Continuous
 62
    25
370
    13
100
AcDbLine
 10
-464.9995
 20
40.0005
 30
0.0
 11
-464.9995
 21
-39.9995
 31
0.0
  0
ENDBLK
  5
7E049
330
7E047
100
AcDbEntity
  8
0
100
AcDbBlockEnd
  0
BLOCK
  5
7E04B
330
7E04A
100
AcDbEntity
  8
0
100
AcDbBlockBegin
  2
Smart Solid_2
 70
     0
 71
     0
 10
0.0
 20
0.0
 30
0.0
  3
Smart Solid_2
  1

  0
LINE
  5
7DAE5
330
7E04A
100
AcDbEntity
  8
Level 26
  6
Continuous
 62
    25
370
    13
100
AcDbLine
 10
465.0005
 20
-39.9995
 30
0.0
 11
-464.9995
 21
-39.9995
 31
0.0
  0
LINE
  5
7DAE6
330
7E04A
100
AcDbEntity
  8
Level 26
  6
Continuous
 62
    25
370
    13
100
AcDbLine
 10
465.0005
 20
-39.9995
 30
0.0
 11
-464.9995
 21
-39.9995
 31
0.0
  0
LINE
  5
7DAE7
330
7E04A
100
AcDbEntity
  8
Level 26
  6
Continuous
 62
    25
370
    13
100
AcDbLine
 10
465.0005
 20
40.0005
 30
0.0
 11
-464.9995
 21
40.0005
 31
0.0
  0
LINE
  5
7DAE8
330
7E04A
100
AcDbEntity
  8
Level 26
  6
Continuous
 62
    25
370
    13
100
AcDbLine
 10
465.0005
 20
40.0005
 30
0.0
 11
-464.9995
 21
40.0005
 31
0.0
  0
POINT
  5
7DAE9
330
7E04A
100
AcDbEntity
  8
Level 26
  6
Continuous
 62
    25
370
    13
100
AcDbPoint
 10
465.0005
 20
40.0005
 30
0.0
  0
LINE
  5
7DAEA
330
7E04A
100
AcDbEntity
  8
Level 26
  6
Continuous
 62
    25
370
    13
100
AcDbLine
 10
465.0005
 20
-39.9995
 30
0.0
 11
465.0005
 21
40.0005
 31
0.0
  0
POINT
  5
7DAEB
330
7E04A
100
AcDbEntity
  8
Level 26
  6
Continuous
 62
    25
370
    13
100
AcDbPoint
 10
465.0005
 20
-39.9995
 30
0.0
  0
LINE
  5
7DAEC
330
7E04A
100
AcDbEntity
  8
Level 26
  6
Continuous
 62
    25
370
    13
100
AcDbLine
 10
465.0005
 20
40.0005
 30
0.0
 11
465.0005
 21
-39.9995
 31
0.0
  0
POINT
  5
7DAED
330
7E04A
100
AcDbEntity
  8
Level 26
  6
Continuous
 62
    25
370
    13
100
AcDbPoint
 10
-464.9995
 20
40.0005
 30
0.0
  0
LINE
  5
7DAEE
330
7E04A
100
AcDbEntity
  8
Level 26
  6
Continuous
 62
    25
370
    13
100
AcDbLine
 10
-464.9995
 20
-39.9995
 30
0.0
 11
-464.9995
 21
40.0005
 31
0.0
  0
POINT
  5
7DAEF
330
7E04A
100
AcDbEntity
  8
Level 26
  6
Continuous
 62
    25
370
    13
100
AcDbPoint
 10
-464.9995
 20
-39.9995
 30
0.0
  0
LINE
  5
7DAF0
330
7E04A
100
AcDbEntity
  8
Level 26
  6
Continuous
 62
    25
370
    13
100
AcDbLine
 10
-464.9995
 20
40.0005
 30
0.0
 11
-464.9995
 21
-39.9995
 31
0.0
  0
ENDBLK
  5
7E04C
330
7E04A
100
AcDbEntity
  8
0
100
AcDbBlockEnd
  0
BLOCK
  5
7E04E
330
7E04D
100
AcDbEntity
  8
0
100
AcDbBlockBegin
  2
Smart Solid_3
 70
     0
 71
     0
 10
0.0
 20
0.0
 30
0.0
  3
Smart Solid_3
  1

  0
LINE
  5
7DAF3
330
7E04D
100
AcDbEntity
  8
Level 26
  6
Continuous
 62
    25
370
    13
100
AcDbLine
 10
465.0005
 20
-39.9995
 30
0.0
 11
-464.9995
 21
-39.9995
 31
0.0
  0
LINE
  5
7DAF4
330
7E04D
100
AcDbEntity
  8
Level 26
  6
Continuous
 62
    25
370
    13
100
AcDbLine
 10
465.0005
 20
-39.9995
 30
0.0
 11
-464.9995
 21
-39.9995
 31
0.0
  0
LINE
  5
7DAF5
330
7E04D
100
AcDbEntity
  8
Level 26
  6
Continuous
 62
    25
370
    13
100
AcDbLine
 10
465.0005
 20
40.0005
 30
0.0
 11
-464.9995
 21
40.0005
 31
0.0
  0
LINE
  5
7DAF6
330
7E04D
100
AcDbEntity
  8
Level 26
  6
Continuous
 62
    25
370
    13
100
AcDbLine
 10
465.0005
 20
40.0005
 30
0.0
 11
-464.9995
 21
40.0005
 31
0.0
  0
POINT
  5
7DAF7
330
7E04D
100
AcDbEntity
  8
Level 26
  6
Continuous
 62
    25
370
    13
100
AcDbPoint
 10
465.0005
 20
40.0005
 30
0.0
  0
LINE
  5
7DAF8
330
7E04D
100
AcDbEntity
  8
Level 26
  6
Continuous
 62
    25
370
    13
100
AcDbLine
 10
465.0005
 20
-39.9995
 30
0.0
 11
465.0005
 21
40.0005
 31
0.0
  0
POINT
  5
7DAF9
330
7E04D
100
AcDbEntity
  8
Level 26
  6
Continuous
 62
    25
370
    13
100
AcDbPoint
 10
465.0005
 20
-39.9995
 30
0.0
  0
LINE
  5
7DAFA
330
7E04D
100
AcDbEntity
  8
Level 26
  6
Continuous
 62
    25
370
    13
100
AcDbLine
 10
465.0005
 20
40.0005
 30
0.0
 11
465.0005
 21
-39.9995
 31
0.0
  0
POINT
  5
7DAFB
330
7E04D
100
AcDbEntity
  8
Level 26
  6
Continuous
 62
    25
370
    13
100
AcDbPoint
 10
-464.9995
 20
40.0005
 30
0.0
  0
LINE
  5
7DAFC
330
7E04D
100
AcDbEntity
  8
Level 26
  6
Continuous
 62
    25
370
    13
100
AcDbLine
 10
-464.9995
 20
-39.9995
 30
0.0
 11
-464.9995
 21
40.0005
 31
0.0
  0
POINT
  5
7DAFD
330
7E04D
100
AcDbEntity
  8
Level 26
  6
Continuous
 62
    25
370
    13
100
AcDbPoint
 10
-464.9995
 20
-39.9995
 30
0.0
  0
LINE
  5
7DAFE
330
7E04D
100
AcDbEntity
  8
Level 26
  6
Continuous
 62
    25
370
    13
100
AcDbLine
 10
-464.9995
 20
40.0005
 30
0.0
 11
-464.9995
 21
-39.9995
 31
0.0
  0
ENDBLK
  5
7E04F
330
7E04D
100
AcDbEntity
  8
0
100
AcDbBlockEnd
  0
BLOCK
  5
7E051
330
7E050
100
AcDbEntity
  8
0
100
AcDbBlockBegin
  2
Smart Solid_4
 70
     0
 71
     0
 10
0.0
 20
0.0
 30
0.0
  3
Smart Solid_4
  1

  0
LINE
  5
7DB01
330
7E050
100
AcDbEntity
  8
Level 26
  6
Continuous
 62
    25
370
    13
100
AcDbLine
 10
465.0005
 20
-39.9995
 30
0.0
 11
-464.9995
 21
-39.9995
 31
0.0
  0
LINE
  5
7DB02
330
7E050
100
AcDbEntity
  8
Level 26
  6
Continuous
 62
    25
370
    13
100
AcDbLine
 10
465.0005
 20
-39.9995
 30
0.0
 11
-464.9995
 21
-39.9995
 31
0.0
  0
LINE
  5
7DB03
330
7E050
100
AcDbEntity
  8
Level 26
  6
Continuous
 62
    25
370
    13
100
AcDbLine
 10
465.0005
 20
40.0005
 30
0.0
 11
-464.9995
 21
40.0005
 31
0.0
  0
LINE
  5
7DB04
330
7E050
100
AcDbEntity
  8
Level 26
  6
Continuous
 62
    25
370
    13
100
AcDbLine
 10
465.0005
 20
40.0005
 30
0.0
 11
-464.9995
 21
40.0005
 31
0.0
  0
POINT
  5
7DB05
330
7E050
100
AcDbEntity
  8
Level 26
  6
Continuous
 62
    25
370
    13
100
AcDbPoint
 10
465.0005
 20
40.0005
 30
0.0
  0
LINE
  5
7DB06
330
7E050
100
AcDbEntity
  8
Level 26
  6
Continuous
 62
    25
370
    13
100
AcDbLine
 10
465.0005
 20
-39.9995
 30
0.0
 11
465.0005
 21
40.0005
 31
0.0
  0
POINT
  5
7DB07
330
7E050
100
AcDbEntity
  8
Level 26
  6
Continuous
 62
    25
370
    13
100
AcDbPoint
 10
465.0005
 20
-39.9995
 30
0.0
  0
LINE
  5
7DB08
330
7E050
100
AcDbEntity
  8
Level 26
  6
Continuous
 62
    25
370
    13
100
AcDbLine
 10
465.0005
 20
40.0005
 30
0.0
 11
465.0005
 21
-39.9995
 31
0.0
  0
POINT
  5
7DB09
330
7E050
100
AcDbEntity
  8
Level 26
  6
Continuous
 62
    25
370
    13
100
AcDbPoint
 10
-464.9995
 20
40.0005
 30
0.0
  0
LINE
  5
7DB0A
330
7E050
100
AcDbEntity
  8
Level 26
  6
Continuous
 62
    25
370
    13
100
AcDbLine
 10
-464.9995
 20
-39.9995
 30
0.0
 11
-464.9995
 21
40.0005
 31
0.0
  0
POINT
  5
7DB0B
330
7E050
100
AcDbEntity
  8
Level 26
  6
Continuous
 62
    25
370
    13
100
AcDbPoint
 10
-464.9995
 20
-39.9995
 30
0.0
  0
LINE
  5
7DB0C
330
7E050
100
AcDbEntity
  8
Level 26
  6
Continuous
 62
    25
370
    13
100
AcDbLine
 10
-464.9995
 20
40.0005
 30
0.0
 11
-464.9995
 21
-39.9995
 31
0.0
  0
ENDBLK
  5
7E052
330
7E050
100
AcDbEntity
  8
0
100
AcDbBlockEnd
  0
BLOCK
  5
7E054
330
7E053
100
AcDbEntity
  8
0
100
AcDbBlockBegin
  2
Smart Solid_5
 70
     0
 71
     0
 10
0.0
 20
0.0
 30
0.0
  3
Smart Solid_5
  1

  0
LINE
  5
7DB0F
330
7E053
100
AcDbEntity
  8
Level 26
  6
Continuous
 62
    25
370
    13
100
AcDbLine
 10
465.0005
 20
-39.9995
 30
0.0
 11
-464.9995
 21
-39.9995
 31
0.0
  0
LINE
  5
7DB10
330
7E053
100
AcDbEntity
  8
Level 26
  6
Continuous
 62
    25
370
    13
100
AcDbLine
 10
465.0005
 20
-39.9995
 30
0.0
 11
-464.9995
 21
-39.9995
 31
0.0
  0
LINE
  5
7DB11
330
7E053
100
AcDbEntity
  8
Level 26
  6
Continuous
 62
    25
370
    13
100
AcDbLine
 10
465.0005
 20
40.0005
 30
0.0
 11
-464.9995
 21
40.0005
 31
0.0
  0
LINE
  5
7DB12
330
7E053
100
AcDbEntity
  8
Level 26
  6
Continuous
 62
    25
370
    13
100
AcDbLine
 10
465.0005
 20
40.0005
 30
0.0
 11
-464.9995
 21
40.0005
 31
0.0
  0
POINT
  5
7DB13
330
7E053
100
AcDbEntity
  8
Level 26
  6
Continuous
 62
    25
370
    13
100
AcDbPoint
 10
465.0005
 20
40.0005
 30
0.0
  0
LINE
  5
7DB14
330
7E053
100
AcDbEntity
  8
Level 26
  6
Continuous
 62
    25
370
    13
100
AcDbLine
 10
465.0005
 20
-39.9995
 30
0.0
 11
465.0005
 21
40.0005
 31
0.0
  0
POINT
  5
7DB15
330
7E053
100
AcDbEntity
  8
Level 26
  6
Continuous
 62
    25
370
    13
100
AcDbPoint
 10
465.0005
 20
-39.9995
 30
0.0
  0
LINE
  5
7DB16
330
7E053
100
AcDbEntity
  8
Level 26
  6
Continuous
 62
    25
370
    13
100
AcDbLine
 10
465.0005
 20
40.0005
 30
0.0
 11
465.0005
 21
-39.9995
 31
0.0
  0
POINT
  5
7DB17
330
7E053
100
AcDbEntity
  8
Level 26
  6
Continuous
 62
    25
370
    13
100
AcDbPoint
 10
-464.9995
 20
40.0005
 30
0.0
  0
LINE
  5
7DB18
330
7E053
100
AcDbEntity
  8
Level 26
  6
Continuous
 62
    25
370
    13
100
AcDbLine
 10
-464.9995
 20
-39.9995
 30
0.0
 11
-464.9995
 21
40.0005
 31
0.0
  0
POINT
  5
7DB19
330
7E053
100
AcDbEntity
  8
Level 26
  6
Continuous
 62
    25
370
    13
100
AcDbPoint
 10
-464.9995
 20
-39.9995
 30
0.0
  0
LINE
  5
7DB1A
330
7E053
100
AcDbEntity
  8
Level 26
  6
Continuous
 62
    25
370
    13
100
AcDbLine
 10
-464.9995
 20
40.0005
 30
0.0
 11
-464.9995
 21
-39.9995
 31
0.0
  0
ENDBLK
  5
7E055
330
7E053
100
AcDbEntity
  8
0
100
AcDbBlockEnd
  0
BLOCK
  5
7E057
330
7E056
100
AcDbEntity
  8
0
100
AcDbBlockBegin
  2
Smart Solid_6
 70
     0
 71
     0
 10
0.0
 20
0.0
 30
0.0
  3
Smart Solid_6
  1

  0
LINE
  5
7DB1D
330
7E056
100
AcDbEntity
  8
Level 26
  6
Continuous
 62
    25
370
    13
100
AcDbLine
 10
465.0005
 20
-39.9995
 30
0.0
 11
-464.9995
 21
-39.9995
 31
0.0
  0
LINE
  5
7DB1E
330
7E056
100
AcDbEntity
  8
Level 26
  6
Continuous
 62
    25
370
    13
100
AcDbLine
 10
465.0005
 20
-39.9995
 30
0.0
 11
-464.9995
 21
-39.9995
 31
0.0
  0
LINE
  5
7DB1F
330
7E056
100
AcDbEntity
  8
Level 26
  6
Continuous
 62
    25
370
    13
100
AcDbLine
 10
465.0005
 20
40.0005
 30
0.0
 11
-464.9995
 21
40.0005
 31
0.0
  0
LINE
  5
7DB20
330
7E056
100
AcDbEntity
  8
Level 26
  6
Continuous
 62
    25
370
    13
100
AcDbLine
 10
465.0005
 20
40.0005
 30
0.0
 11
-464.9995
 21
40.0005
 31
0.0
  0
POINT
  5
7DB21
330
7E056
100
AcDbEntity
  8
Level 26
  6
Continuous
 62
    25
370
    13
100
AcDbPoint
 10
465.0005
 20
40.0005
 30
0.0
  0
LINE
  5
7DB22
330
7E056
100
AcDbEntity
  8
Level 26
  6
Continuous
 62
    25
370
    13
100
AcDbLine
 10
465.0005
 20
-39.9995
 30
0.0
 11
465.0005
 21
40.0005
 31
0.0
  0
POINT
  5
7DB23
330
7E056
100
AcDbEntity
  8
Level 26
  6
Continuous
 62
    25
370
    13
100
AcDbPoint
 10
465.0005
 20
-39.9995
 30
0.0
  0
LINE
  5
7DB24
330
7E056
100
AcDbEntity
  8
Level 26
  6
Continuous
 62
    25
370
    13
100
AcDbLine
 10
465.0005
 20
40.0005
 30
0.0
 11
465.0005
 21
-39.9995
 31
0.0
  0
POINT
  5
7DB25
330
7E056
100
AcDbEntity
  8
Level 26
  6
Continuous
 62
    25
370
    13
100
AcDbPoint
 10
-464.9995
 20
40.0005
 30
0.0
  0
LINE
  5
7DB26
330
7E056
100
AcDbEntity
  8
Level 26
  6
Continuous
 62
    25
370
    13
100
AcDbLine
 10
-464.9995
 20
-39.9995
 30
0.0
 11
-464.9995
 21
40.0005
 31
0.0
  0
POINT
  5
7DB27
330
7E056
100
AcDbEntity
  8
Level 26
  6
Continuous
 62
    25
370
    13
100
AcDbPoint
 10
-464.9995
 20
-39.9995
 30
0.0
  0
LINE
  5
7DB28
330
7E056
100
AcDbEntity
  8
Level 26
  6
Continuous
 62
    25
370
    13
100
AcDbLine
 10
-464.9995
 20
40.0005
 30
0.0
 11
-464.9995
 21
-39.9995
 31
0.0
  0
ENDBLK
  5
7E058
330
7E056
100
AcDbEntity
  8
0
100
AcDbBlockEnd
  0
BLOCK
  5
7E05A
330
7E059
100
AcDbEntity
  8
0
100
AcDbBlockBegin
  2
Smart Solid_7
 70
     0
 71
     0
 10
0.0
 20
0.0
 30
0.0
  3
Smart Solid_7
  1

  0
LINE
  5
7DB2B
330
7E059
100
AcDbEntity
  8
Level 26
  6
Continuous
 62
    25
370
    13
100
AcDbLine
 10
465.0005
 20
-39.9995
 30
0.0
 11
-464.9995
 21
-39.9995
 31
0.0
  0
LINE
  5
7DB2C
330
7E059
100
AcDbEntity
  8
Level 26
  6
Continuous
 62
    25
370
    13
100
AcDbLine
 10
465.0005
 20
-39.9995
 30
0.0
 11
-464.9995
 21
-39.9995
 31
0.0
  0
LINE
  5
7DB2D
330
7E059
100
AcDbEntity
  8
Level 26
  6
Continuous
 62
    25
370
    13
100
AcDbLine
 10
465.0005
 20
40.0005
 30
0.0
 11
-464.9995
 21
40.0005
 31
0.0
  0
LINE
  5
7DB2E
330
7E059
100
AcDbEntity
  8
Level 26
  6
Continuous
 62
    25
370
    13
100
AcDbLine
 10
465.0005
 20
40.0005
 30
0.0
 11
-464.9995
 21
40.0005
 31
0.0
  0
POINT
  5
7DB2F
330
7E059
100
AcDbEntity
  8
Level 26
  6
Continuous
 62
    25
370
    13
100
AcDbPoint
 10
465.0005
 20
40.0005
 30
0.0
  0
LINE
  5
7DB30
330
7E059
100
AcDbEntity
  8
Level 26
  6
Continuous
 62
    25
370
    13
100
AcDbLine
 10
465.0005
 20
-39.9995
 30
0.0
 11
465.0005
 21
40.0005
 31
0.0
  0
POINT
  5
7DB31
330
7E059
100
AcDbEntity
  8
Level 26
  6
Continuous
 62
    25
370
    13
100
AcDbPoint
 10
465.0005
 20
-39.9995
 30
0.0
  0
LINE
  5
7DB32
330
7E059
100
AcDbEntity
  8
Level 26
  6
Continuous
 62
    25
370
    13
100
AcDbLine
 10
465.0005
 20
40.0005
 30
0.0
 11
465.0005
 21
-39.9995
 31
0.0
  0
POINT
  5
7DB33
330
7E059
100
AcDbEntity
  8
Level 26
  6
Continuous
 62
    25
370
    13
100
AcDbPoint
 10
-464.9995
 20
40.0005
 30
0.0
  0
LINE
  5
7DB34
330
7E059
100
AcDbEntity
  8
Level 26
  6
Continuous
 62
    25
370
    13
100
AcDbLine
 10
-464.9995
 20
-39.9995
 30
0.0
 11
-464.9995
 21
40.0005
 31
0.0
  0
POINT
  5
7DB35
330
7E059
100
AcDbEntity
  8
Level 26
  6
Continuous
 62
    25
370
    13
100
AcDbPoint
 10
-464.9995
 20
-39.9995
 30
0.0
  0
LINE
  5
7DB36
330
7E059
100
AcDbEntity
  8
Level 26
  6
Continuous
 62
    25
370
    13
100
AcDbLine
 10
-464.9995
 20
40.0005
 30
0.0
 11
-464.9995
 21
-39.9995
 31
0.0
  0
ENDBLK
  5
7E05B
330
7E059
100
AcDbEntity
  8
0
100
AcDbBlockEnd
  0
BLOCK
  5
7E05D
330
7E05C
100
AcDbEntity
  8
0
100
AcDbBlockBegin
  2
Smart Solid_8
 70
     0
 71
     0
 10
0.0
 20
0.0
 30
0.0
  3
Smart Solid_8
  1

  0
LINE
  5
7DB39
330
7E05C
100
AcDbEntity
  8
Level 26
  6
Continuous
 62
    25
370
    13
100
AcDbLine
 10
465.0005
 20
-39.9995
 30
0.0
 11
-464.9995
 21
-39.9995
 31
0.0
  0
LINE
  5
7DB3A
330
7E05C
100
AcDbEntity
  8
Level 26
  6
Continuous
 62
    25
370
    13
100
AcDbLine
 10
465.0005
 20
-39.9995
 30
0.0
 11
-464.9995
 21
-39.9995
 31
0.0
  0
LINE
  5
7DB3B
330
7E05C
100
AcDbEntity
  8
Level 26
  6
Continuous
 62
    25
370
    13
100
AcDbLine
 10
465.0005
 20
40.0005
 30
0.0
 11
-464.9995
 21
40.0005
 31
0.0
  0
LINE
  5
7DB3C
330
7E05C
100
AcDbEntity
  8
Level 26
  6
Continuous
 62
    25
370
    13
100
AcDbLine
 10
465.0005
 20
40.0005
 30
0.0
 11
-464.9995
 21
40.0005
 31
0.0
  0
POINT
  5
7DB3D
330
7E05C
100
AcDbEntity
  8
Level 26
  6
Continuous
 62
    25
370
    13
100
AcDbPoint
 10
465.0005
 20
40.0005
 30
0.0
  0
LINE
  5
7DB3E
330
7E05C
100
AcDbEntity
  8
Level 26
  6
Continuous
 62
    25
370
    13
100
AcDbLine
 10
465.0005
 20
-39.9995
 30
0.0
 11
465.0005
 21
40.0005
 31
0.0
  0
POINT
  5
7DB3F
330
7E05C
100
AcDbEntity
  8
Level 26
  6
Continuous
 62
    25
370
    13
100
AcDbPoint
 10
465.0005
 20
-39.9995
 30
0.0
  0
LINE
  5
7DB40
330
7E05C
100
AcDbEntity
  8
Level 26
  6
Continuous
 62
    25
370
    13
100
AcDbLine
 10
465.0005
 20
40.0005
 30
0.0
 11
465.0005
 21
-39.9995
 31
0.0
  0
POINT
  5
7DB41
330
7E05C
100
AcDbEntity
  8
Level 26
  6
Continuous
 62
    25
370
    13
100
AcDbPoint
 10
-464.9995
 20
40.0005
 30
0.0
  0
LINE
  5
7DB42
330
7E05C
100
AcDbEntity
  8
Level 26
  6
Continuous
 62
    25
370
    13
100
AcDbLine
 10
-464.9995
 20
-39.9995
 30
0.0
 11
-464.9995
 21
40.0005
 31
0.0
  0
POINT
  5
7DB43
330
7E05C
100
AcDbEntity
  8
Level 26
  6
Continuous
 62
    25
370
    13
100
AcDbPoint
 10
-464.9995
 20
-39.9995
 30
0.0
  0
LINE
  5
7DB44
330
7E05C
100
AcDbEntity
  8
Level 26
  6
Continuous
 62
    25
370
    13
100
AcDbLine
 10
-464.9995
 20
40.0005
 30
0.0
 11
-464.9995
 21
-39.9995
 31
0.0
  0
ENDBLK
  5
7E05E
330
7E05C
100
AcDbEntity
  8
0
100
AcDbBlockEnd
  0
BLOCK
  5
7E060
330
7E05F
100
AcDbEntity
  8
0
100
AcDbBlockBegin
  2
Smart Solid_9
 70
     0
 71
     0
 10
0.0
 20
0.0
 30
0.0
  3
Smart Solid_9
  1

  0
LINE
  5
7DB47
330
7E05F
100
AcDbEntity
  8
Level 26
  6
Continuous
 62
    25
370
    13
100
AcDbLine
 10
-429.9995
 20
-4.9995
 30
0.0
 11
-429.9995
 21
-39.9995
 31
0.0
  0
POINT
  5
7DB48
330
7E05F
100
AcDbEntity
  8
Level 26
  6
Continuous
 62
    25
370
    13
100
AcDbPoint
 10
-464.9995
 20
-4.9995
 30
0.0
  0
LINE
  5
7DB49
330
7E05F
100
AcDbEntity
  8
Level 26
  6
Continuous
 62
    25
370
    13
100
AcDbLine
 10
430.0005
 20
-39.9995
 30
0.0
 11
430.0005
 21
-4.9995
 31
0.0
  0
POINT
  5
7DB4A
330
7E05F
100
AcDbEntity
  8
Level 26
  6
Continuous
 62
    25
370
    13
100
AcDbPoint
 10
465.0005
 20
-4.9995
 30
0.0
  0
LINE
  5
7DB4B
330
7E05F
100
AcDbEntity
  8
Level 26
  6
Continuous
 62
    25
370
    13
100
AcDbLine
 10
430.0005
 20
-39.9995
 30
0.0
 11
-429.9995
 21
-39.9995
 31
0.0
  0
LINE
  5
7DB4C
330
7E05F
100
AcDbEntity
  8
Level 26
  6
Continuous
 62
    25
370
    13
100
AcDbLine
 10
430.0005
 20
-39.9995
 30
0.0
 11
-429.9995
 21
-39.9995
 31
0.0
  0
LINE
  5
7DB4D
330
7E05F
100
AcDbEntity
  8
Level 26
  6
Continuous
 62
    25
370
    13
100
AcDbLine
 10
465.0005
 20
40.0005
 30
0.0
 11
-464.9995
 21
40.0005
 31
0.0
  0
LINE
  5
7DB4E
330
7E05F
100
AcDbEntity
  8
Level 26
  6
Continuous
 62
    25
370
    13
100
AcDbLine
 10
465.0005
 20
40.0005
 30
0.0
 11
-464.9995
 21
40.0005
 31
0.0
  0
POINT
  5
7DB4F
330
7E05F
100
AcDbEntity
  8
Level 26
  6
Continuous
 62
    25
370
    13
100
AcDbPoint
 10
465.0005
 20
40.0005
 30
0.0
  0
LINE
  5
7DB50
330
7E05F
100
AcDbEntity
  8
Level 26
  6
Continuous
 62
    25
370
    13
100
AcDbLine
 10
465.0005
 20
-4.9995
 30
0.0
 11
465.0005
 21
40.0005
 31
0.0
  0
LINE
  5
7DB51
330
7E05F
100
AcDbEntity
  8
Level 26
  6
Continuous
 62
    25
370
    13
100
AcDbLine
 10
465.0005
 20
40.0005
 30
0.0
 11
465.0005
 21
-4.9995
 31
0.0
  0
POINT
  5
7DB52
330
7E05F
100
AcDbEntity
  8
Level 26
  6
Continuous
 62
    25
370
    13
100
AcDbPoint
 10
-464.9995
 20
40.0005
 30
0.0
  0
LINE
  5
7DB53
330
7E05F
100
AcDbEntity
  8
Level 26
  6
Continuous
 62
    25
370
    13
100
AcDbLine
 10
-464.9995
 20
-4.9995
 30
0.0
 11
-464.9995
 21
40.0005
 31
0.0
  0
LINE
  5
7DB54
330
7E05F
100
AcDbEntity
  8
Level 26
  6
Continuous
 62
    25
370
    13
100
AcDbLine
 10
-464.9995
 20
40.0005
 30
0.0
 11
-464.9995
 21
-4.9995
 31
0.0
  0
LINE
  5
7DB55
330
7E05F
100
AcDbEntity
  8
Level 26
  6
Continuous
 62
    25
370
    13
100
AcDbLine
 10
430.0005
 20
-4.9995
 30
0.0
 11
430.0005
 21
-39.9995
 31
0.0
  0
POINT
  5
7DB56
330
7E05F
100
AcDbEntity
  8
Level 26
  6
Continuous
 62
    25
370
    13
100
AcDbPoint
 10
430.0005
 20
-39.9995
 30
0.0
  0
LINE
  5
7DB57
330
7E05F
100
AcDbEntity
  8
Level 26
  6
Continuous
 62
    25
370
    13
100
AcDbLine
 10
465.0005
 20
-4.9995
 30
0.0
 11
430.0005
 21
-4.9995
 31
0.0
  0
LINE
  5
7DB58
330
7E05F
100
AcDbEntity
  8
Level 26
  6
Continuous
 62
    25
370
    13
100
AcDbLine
 10
430.0005
 20
-4.9995
 30
0.0
 11
465.0005
 21
-4.9995
 31
0.0
  0
POINT
  5
7DB59
330
7E05F
100
AcDbEntity
  8
Level 26
  6
Continuous
 62
    25
370
    13
100
AcDbPoint
 10
430.0005
 20
-4.9995
 30
0.0
  0
LINE
  5
7DB5A
330
7E05F
100
AcDbEntity
  8
Level 26
  6
Continuous
 62
    25
370
    13
100
AcDbLine
 10
-429.9995
 20
-39.9995
 30
0.0
 11
-429.9995
 21
-4.9995
 31
0.0
  0
POINT
  5
7DB5B
330
7E05F
100
AcDbEntity
  8
Level 26
  6
Continuous
 62
    25
370
    13
100
AcDbPoint
 10
-429.9995
 20
-39.9995
 30
0.0
  0
LINE
  5
7DB5C
330
7E05F
100
AcDbEntity
  8
Level 26
  6
Continuous
 62
    25
370
    13
100
AcDbLine
 10
-429.9995
 20
-4.9995
 30
0.0
 11
-464.9995
 21
-4.9995
 31
0.0
  0
LINE
  5
7DB5D
330
7E05F
100
AcDbEntity
  8
Level 26
  6
Continuous
 62
    25
370
    13
100
AcDbLine
 10
-464.9995
 20
-4.9995
 30
0.0
 11
-429.9995
 21
-4.9995
 31
0.0
  0
POINT
  5
7DB5E
330
7E05F
100
AcDbEntity
  8
Level 26
  6
Continuous
 62
    25
370
    13
100
AcDbPoint
 10
-429.9995
 20
-4.9995
 30
0.0
  0
ENDBLK
  5
7E061
330
7E05F
100
AcDbEntity
  8
0
100
AcDbBlockEnd
  0
BLOCK
  5
7E063
330
7E062
100
AcDbEntity
  8
0
100
AcDbBlockBegin
  2
Smart Solid_10
 70
     0
 71
     0
 10
0.0
 20
0.0
 30
0.0
  3
Smart Solid_10
  1

  0
POINT
  5
7DB61
330
7E062
100
AcDbEntity
  8
Level 26
  6
Continuous
 62
    25
370
    13
100
AcDbPoint
 10
-429.9995
 20
40.0005
 30
0.0
  0
POINT
  5
7DB62
330
7E062
100
AcDbEntity
  8
Level 26
  6
Continuous
 62
    25
370
    13
100
AcDbPoint
 10
-464.9995
 20
5.0005
 30
0.0
  0
POINT
  5
7DB63
330
7E062
100
AcDbEntity
  8
Level 26
  6
Continuous
 62
    25
370
    13
100
AcDbPoint
 10
430.0005
 20
40.0005
 30
0.0
  0
POINT
  5
7DB64
330
7E062
100
AcDbEntity
  8
Level 26
  6
Continuous
 62
    25
370
    13
100
AcDbPoint
 10
465.0005
 20
5.0005
 30
0.0
  0
LINE
  5
7DB65
330
7E062
100
AcDbEntity
  8
Level 26
  6
Continuous
 62
    25
370
    13
100
AcDbLine
 10
465.0005
 20
-39.9995
 30
0.0
 11
-464.9995
 21
-39.9995
 31
0.0
  0
LINE
  5
7DB66
330
7E062
100
AcDbEntity
  8
Level 26
  6
Continuous
 62
    25
370
    13
100
AcDbLine
 10
465.0005
 20
-39.9995
 30
0.0
 11
-464.9995
 21
-39.9995
 31
0.0
  0
LINE
  5
7DB67
330
7E062
100
AcDbEntity
  8
Level 26
  6
Continuous
 62
    25
370
    13
100
AcDbLine
 10
430.0005
 20
40.0005
 30
0.0
 11
-429.9995
 21
40.0005
 31
0.0
  0
LINE
  5
7DB68
330
7E062
100
AcDbEntity
  8
Level 26
  6
Continuous
 62
    25
370
    13
100
AcDbLine
 10
430.0005
 20
40.0005
 30
0.0
 11
-429.9995
 21
40.0005
 31
0.0
  0
LINE
  5
7DB69
330
7E062
100
AcDbEntity
  8
Level 26
  6
Continuous
 62
    25
370
    13
100
AcDbLine
 10
465.0005
 20
-39.9995
 30
0.0
 11
465.0005
 21
5.0005
 31
0.0
  0
POINT
  5
7DB6A
330
7E062
100
AcDbEntity
  8
Level 26
  6
Continuous
 62
    25
370
    13
100
AcDbPoint
 10
465.0005
 20
-39.9995
 30
0.0
  0
LINE
  5
7DB6B
330
7E062
100
AcDbEntity
  8
Level 26
  6
Continuous
 62
    25
370
    13
100
AcDbLine
 10
465.0005
 20
5.0005
 30
0.0
 11
465.0005
 21
-39.9995
 31
0.0
  0
LINE
  5
7DB6C
330
7E062
100
AcDbEntity
  8
Level 26
  6
Continuous
 62
    25
370
    13
100
AcDbLine
 10
-464.9995
 20
-39.9995
 30
0.0
 11
-464.9995
 21
5.0005
 31
0.0
  0
POINT
  5
7DB6D
330
7E062
100
AcDbEntity
  8
Level 26
  6
Continuous
 62
    25
370
    13
100
AcDbPoint
 10
-464.9995
 20
-39.9995
 30
0.0
  0
LINE
  5
7DB6E
330
7E062
100
AcDbEntity
  8
Level 26
  6
Continuous
 62
    25
370
    13
100
AcDbLine
 10
-464.9995
 20
5.0005
 30
0.0
 11
-464.9995
 21
-39.9995
 31
0.0
  0
LINE
  5
7DB6F
330
7E062
100
AcDbEntity
  8
Level 26
  6
Continuous
 62
    25
370
    13
100
AcDbLine
 10
430.0005
 20
40.0005
 30
0.0
 11
430.0005
 21
5.0005
 31
0.0
  0
LINE
  5
7DB70
330
7E062
100
AcDbEntity
  8
Level 26
  6
Continuous
 62
    25
370
    13
100
AcDbLine
 10
430.0005
 20
5.0005
 30
0.0
 11
430.0005
 21
40.0005
 31
0.0
  0
LINE
  5
7DB71
330
7E062
100
AcDbEntity
  8
Level 26
  6
Continuous
 62
    25
370
    13
100
AcDbLine
 10
430.0005
 20
5.0005
 30
0.0
 11
465.0005
 21
5.0005
 31
0.0
  0
LINE
  5
7DB72
330
7E062
100
AcDbEntity
  8
Level 26
  6
Continuous
 62
    25
370
    13
100
AcDbLine
 10
465.0005
 20
5.0005
 30
0.0
 11
430.0005
 21
5.0005
 31
0.0
  0
POINT
  5
7DB73
330
7E062
100
AcDbEntity
  8
Level 26
  6
Continuous
 62
    25
370
    13
100
AcDbPoint
 10
430.0005
 20
5.0005
 30
0.0
  0
LINE
  5
7DB74
330
7E062
100
AcDbEntity
  8
Level 26
  6
Continuous
 62
    25
370
    13
100
AcDbLine
 10
-429.9995
 20
5.0005
 30
0.0
 11
-429.9995
 21
40.0005
 31
0.0
  0
LINE
  5
7DB75
330
7E062
100
AcDbEntity
  8
Level 26
  6
Continuous
 62
    25
370
    13
100
AcDbLine
 10
-429.9995
 20
40.0005
 30
0.0
 11
-429.9995
 21
5.0005
 31
0.0
  0
LINE
  5
7DB76
330
7E062
100
AcDbEntity
  8
Level 26
  6
Continuous
 62
    25
370
    13
100
AcDbLine
 10
-464.9995
 20
5.0005
 30
0.0
 11
-429.9995
 21
5.0005
 31
0.0
  0
LINE
  5
7DB77
330
7E062
100
AcDbEntity
  8
Level 26
  6
Continuous
 62
    25
370
    13
100
AcDbLine
 10
-429.9995
 20
5.0005
 30
0.0
 11
-464.9995
 21
5.0005
 31
0.0
  0
POINT
  5
7DB78
330
7E062
100
AcDbEntity
  8
Level 26
  6
Continuous
 62
    25
370
    13
100
AcDbPoint
 10
-429.9995
 20
5.0005
 30
0.0
  0
ENDBLK
  5
7E064
330
7E062
100
AcDbEntity
  8
0
100
AcDbBlockEnd
  0
BLOCK
  5
7E066
330
7E065
100
AcDbEntity
  8
0
100
AcDbBlockBegin
  2
From Surface_4
 70
     0
 71
     0
 10
0.0
 20
0.0
 30
0.0
  3
From Surface_4
  1

  0
LINE
  5
7DBCA
330
7E065
100
AcDbEntity
  8
Level 27
  6
Continuous
 62
    40
370
    13
100
AcDbLine
 10
3580.025751
 20
1849.207727
 30
0.0
 11
3575.025751
 21
1849.207727
 31
0.0
  0
LINE
  5
7DBCB
330
7E065
100
AcDbEntity
  8
Level 27
  6
Continuous
 62
    40
370
    13
100
AcDbLine
 10
3580.025751
 20
2719.207727
 30
0.0
 11
3575.025751
 21
2719.207727
 31
0.0
  0
LINE
  5
7DBCC
330
7E065
100
AcDbEntity
  8
Level 27
  6
Continuous
 62
    40
370
    13
100
AcDbLine
 10
3575.025751
 20
1849.207727
 30
0.0
 11
3575.025751
 21
2719.207727
 31
0.0
  0
LINE
  5
7DBCD
330
7E065
100
AcDbEntity
  8
Level 27
  6
Continuous
 62
    40
370
    13
100
AcDbLine
 10
3580.025751
 20
1849.207727
 30
0.0
 11
3580.025751
 21
2719.207727
 31
0.0
  0
ENDBLK
  5
7E067
330
7E065
100
AcDbEntity
  8
0
100
AcDbBlockEnd
  0
BLOCK
  5
7E069
330
7E068
100
AcDbEntity
  8
0
100
AcDbBlockBegin
  2
From Surface_5
 70
     0
 71
     0
 10
0.0
 20
0.0
 30
0.0
  3
From Surface_5
  1

  0
LINE
  5
7DBCF
330
7E068
100
AcDbEntity
  8
Level 27
  6
Continuous
 62
    40
370
    13
100
AcDbLine
 10
4480.025751
 20
1819.207727
 30
0.0
 11
4480.025751
 21
1814.207727
 31
0.0
  0
LINE
  5
7DBD0
330
7E068
100
AcDbEntity
  8
Level 27
  6
Continuous
 62
    40
370
    13
100
AcDbLine
 10
3610.025751
 20
1819.207727
 30
0.0
 11
3610.025751
 21
1814.207727
 31
0.0
  0
LINE
  5
7DBD1
330
7E068
100
AcDbEntity
  8
Level 27
  6
Continuous
 62
    40
370
    13
100
AcDbLine
 10
4480.025751
 20
1814.207727
 30
0.0
 11
3610.025751
 21
1814.207727
 31
0.0
  0
LINE
  5
7DBD2
330
7E068
100
AcDbEntity
  8
Level 27
  6
Continuous
 62
    40
370
    13
100
AcDbLine
 10
4480.025751
 20
1819.207727
 30
0.0
 11
3610.025751
 21
1819.207727
 31
0.0
  0
ENDBLK
  5
7E06A
330
7E068
100
AcDbEntity
  8
0
100
AcDbBlockEnd
  0
BLOCK
  5
7E06C
330
7E06B
100
AcDbEntity
  8
0
100
AcDbBlockBegin
  2
From Surface_6
 70
     0
 71
     0
 10
0.0
 20
0.0
 30
0.0
  3
From Surface_6
  1

  0
LINE
  5
7DBD4
330
7E06B
100
AcDbEntity
  8
Level 27
  6
Continuous
 62
    40
370
    13
100
AcDbLine
 10
4510.025751
 20
2719.207727
 30
0.0
 11
4515.025751
 21
2719.207727
 31
0.0
  0
LINE
  5
7DBD5
330
7E06B
100
AcDbEntity
  8
Level 27
  6
Continuous
 62
    40
370
    13
100
AcDbLine
 10
4510.025751
 20
1849.207727
 30
0.0
 11
4515.025751
 21
1849.207727
 31
0.0
  0
LINE
  5
7DBD6
330
7E06B
100
AcDbEntity
  8
Level 27
  6
Continuous
 62
    40
370
    13
100
AcDbLine
 10
4515.025751
 20
2719.207727
 30
0.0
 11
4515.025751
 21
1849.207727
 31
0.0
  0
LINE
  5
7DBD7
330
7E06B
100
AcDbEntity
  8
Level 27
  6
Continuous
 62
    40
370
    13
100
AcDbLine
 10
4510.025751
 20
2719.207727
 30
0.0
 11
4510.025751
 21
1849.207727
 31
0.0
  0
ENDBLK
  5
7E06D
330
7E06B
100
AcDbEntity
  8
0
100
AcDbBlockEnd
  0
BLOCK
  5
7E06F
330
7E06E
100
AcDbEntity
  8
0
100
AcDbBlockBegin
  2
From Surface_7
 70
     0
 71
     0
 10
0.0
 20
0.0
 30
0.0
  3
From Surface_7
  1

  0
LINE
  5
7DBED
330
7E06E
100
AcDbEntity
  8
Level 27
  6
Continuous
 62
    40
370
    13
100
AcDbLine
 10
3610.025751
 20
2749.207727
 30
0.0
 11
3610.025751
 21
2754.207727
 31
0.0
  0
LINE
  5
7DBEE
330
7E06E
100
AcDbEntity
  8
Level 27
  6
Continuous
 62
    40
370
    13
100
AcDbLine
 10
4480.025751
 20
2749.207727
 30
0.0
 11
4480.025751
 21
2754.207727
 31
0.0
  0
LINE
  5
7DBEF
330
7E06E
100
AcDbEntity
  8
Level 27
  6
Continuous
 62
    40
370
    13
100
AcDbLine
 10
3610.025751
 20
2754.207727
 30
0.0
 11
4480.025751
 21
2754.207727
 31
0.0
  0
LINE
  5
7DBF0
330
7E06E
100
AcDbEntity
  8
Level 27
  6
Continuous
 62
    40
370
    13
100
AcDbLine
 10
3610.025751
 20
2749.207727
 30
0.0
 11
4480.025751
 21
2749.207727
 31
0.0
  0
ENDBLK
  5
7E070
330
7E06E
100
AcDbEntity
  8
0
100
AcDbBlockEnd
  0
BLOCK
  5
7E072
330
7E071
100
AcDbEntity
  8
0
100
AcDbBlockBegin
  2
Smart Solid_11
 70
     0
 71
     0
 10
0.0
 20
0.0
 30
0.0
  3
Smart Solid_11
  1

  0
LINE
  5
7DC02
330
7E071
100
AcDbEntity
  8
Level 26
  6
Continuous
 62
    25
370
    13
100
AcDbLine
 10
465.0005
 20
-39.9995
 30
0.0
 11
-464.9995
 21
-39.9995
 31
0.0
  0
LINE
  5
7DC03
330
7E071
100
AcDbEntity
  8
Level 26
  6
Continuous
 62
    25
370
    13
100
AcDbLine
 10
465.0005
 20
-39.9995
 30
0.0
 11
-464.9995
 21
-39.9995
 31
0.0
  0
LINE
  5
7DC04
330
7E071
100
AcDbEntity
  8
Level 26
  6
Continuous
 62
    25
370
    13
100
AcDbLine
 10
465.0005
 20
40.0005
 30
0.0
 11
-464.9995
 21
40.0005
 31
0.0
  0
LINE
  5
7DC05
330
7E071
100
AcDbEntity
  8
Level 26
  6
Continuous
 62
    25
370
    13
100
AcDbLine
 10
465.0005
 20
40.0005
 30
0.0
 11
-464.9995
 21
40.0005
 31
0.0
  0
POINT
  5
7DC06
330
7E071
100
AcDbEntity
  8
Level 26
  6
Continuous
 62
    25
370
    13
100
AcDbPoint
 10
465.0005
 20
40.0005
 30
0.0
  0
LINE
  5
7DC07
330
7E071
100
AcDbEntity
  8
Level 26
  6
Continuous
 62
    25
370
    13
100
AcDbLine
 10
465.0005
 20
-39.9995
 30
0.0
 11
465.0005
 21
40.0005
 31
0.0
  0
POINT
  5
7DC08
330
7E071
100
AcDbEntity
  8
Level 26
  6
Continuous
 62
    25
370
    13
100
AcDbPoint
 10
465.0005
 20
-39.9995
 30
0.0
  0
LINE
  5
7DC09
330
7E071
100
AcDbEntity
  8
Level 26
  6
Continuous
 62
    25
370
    13
100
AcDbLine
 10
465.0005
 20
40.0005
 30
0.0
 11
465.0005
 21
-39.9995
 31
0.0
  0
POINT
  5
7DC0A
330
7E071
100
AcDbEntity
  8
Level 26
  6
Continuous
 62
    25
370
    13
100
AcDbPoint
 10
-464.9995
 20
40.0005
 30
0.0
  0
LINE
  5
7DC0B
330
7E071
100
AcDbEntity
  8
Level 26
  6
Continuous
 62
    25
370
    13
100
AcDbLine
 10
-464.9995
 20
-39.9995
 30
0.0
 11
-464.9995
 21
40.0005
 31
0.0
  0
POINT
  5
7DC0C
330
7E071
100
AcDbEntity
  8
Level 26
  6
Continuous
 62
    25
370
    13
100
AcDbPoint
 10
-464.9995
 20
-39.9995
 30
0.0
  0
LINE
  5
7DC0D
330
7E071
100
AcDbEntity
  8
Level 26
  6
Continuous
 62
    25
370
    13
100
AcDbLine
 10
-464.9995
 20
40.0005
 30
0.0
 11
-464.9995
 21
-39.9995
 31
0.0
  0
ENDBLK
  5
7E073
330
7E071
100
AcDbEntity
  8
0
100
AcDbBlockEnd
  0
BLOCK
  5
7E075
330
7E074
100
AcDbEntity
  8
0
100
AcDbBlockBegin
  2
Smart Solid_12
 70
     0
 71
     0
 10
0.0
 20
0.0
 30
0.0
  3
Smart Solid_12
  1

  0
LINE
  5
7DC10
330
7E074
100
AcDbEntity
  8
Level 26
  6
Continuous
 62
    25
370
    13
100
AcDbLine
 10
465.0005
 20
-39.9995
 30
0.0
 11
-464.9995
 21
-39.9995
 31
0.0
  0
LINE
  5
7DC11
330
7E074
100
AcDbEntity
  8
Level 26
  6
Continuous
 62
    25
370
    13
100
AcDbLine
 10
465.0005
 20
-39.9995
 30
0.0
 11
-464.9995
 21
-39.9995
 31
0.0
  0
LINE
  5
7DC12
330
7E074
100
AcDbEntity
  8
Level 26
  6
Continuous
 62
    25
370
    13
100
AcDbLine
 10
465.0005
 20
40.0005
 30
0.0
 11
-464.9995
 21
40.0005
 31
0.0
  0
LINE
  5
7DC13
330
7E074
100
AcDbEntity
  8
Level 26
  6
Continuous
 62
    25
370
    13
100
AcDbLine
 10
465.0005
 20
40.0005
 30
0.0
 11
-464.9995
 21
40.0005
 31
0.0
  0
POINT
  5
7DC14
330
7E074
100
AcDbEntity
  8
Level 26
  6
Continuous
 62
    25
370
    13
100
AcDbPoint
 10
465.0005
 20
40.0005
 30
0.0
  0
LINE
  5
7DC15
330
7E074
100
AcDbEntity
  8
Level 26
  6
Continuous
 62
    25
370
    13
100
AcDbLine
 10
465.0005
 20
-39.9995
 30
0.0
 11
465.0005
 21
40.0005
 31
0.0
  0
POINT
  5
7DC16
330
7E074
100
AcDbEntity
  8
Level 26
  6
Continuous
 62
    25
370
    13
100
AcDbPoint
 10
465.0005
 20
-39.9995
 30
0.0
  0
LINE
  5
7DC17
330
7E074
100
AcDbEntity
  8
Level 26
  6
Continuous
 62
    25
370
    13
100
AcDbLine
 10
465.0005
 20
40.0005
 30
0.0
 11
465.0005
 21
-39.9995
 31
0.0
  0
POINT
  5
7DC18
330
7E074
100
AcDbEntity
  8
Level 26
  6
Continuous
 62
    25
370
    13
100
AcDbPoint
 10
-464.9995
 20
40.0005
 30
0.0
  0
LINE
  5
7DC19
330
7E074
100
AcDbEntity
  8
Level 26
  6
Continuous
 62
    25
370
    13
100
AcDbLine
 10
-464.9995
 20
-39.9995
 30
0.0
 11
-464.9995
 21
40.0005
 31
0.0
  0
POINT
  5
7DC1A
330
7E074
100
AcDbEntity
  8
Level 26
  6
Continuous
 62
    25
370
    13
100
AcDbPoint
 10
-464.9995
 20
-39.9995
 30
0.0
  0
LINE
  5
7DC1B
330
7E074
100
AcDbEntity
  8
Level 26
  6
Continuous
 62
    25
370
    13
100
AcDbLine
 10
-464.9995
 20
40.0005
 30
0.0
 11
-464.9995
 21
-39.9995
 31
0.0
  0
ENDBLK
  5
7E076
330
7E074
100
AcDbEntity
  8
0
100
AcDbBlockEnd
  0
BLOCK
  5
7E078
330
7E077
100
AcDbEntity
  8
0
100
AcDbBlockBegin
  2
Smart Solid_13
 70
     0
 71
     0
 10
0.0
 20
0.0
 30
0.0
  3
Smart Solid_13
  1

  0
LINE
  5
7DC1E
330
7E077
100
AcDbEntity
  8
Level 26
  6
Continuous
 62
    25
370
    13
100
AcDbLine
 10
465.0005
 20
-39.9995
 30
0.0
 11
-464.9995
 21
-39.9995
 31
0.0
  0
LINE
  5
7DC1F
330
7E077
100
AcDbEntity
  8
Level 26
  6
Continuous
 62
    25
370
    13
100
AcDbLine
 10
465.0005
 20
-39.9995
 30
0.0
 11
-464.9995
 21
-39.9995
 31
0.0
  0
LINE
  5
7DC20
330
7E077
100
AcDbEntity
  8
Level 26
  6
Continuous
 62
    25
370
    13
100
AcDbLine
 10
465.0005
 20
40.0005
 30
0.0
 11
-464.9995
 21
40.0005
 31
0.0
  0
LINE
  5
7DC21
330
7E077
100
AcDbEntity
  8
Level 26
  6
Continuous
 62
    25
370
    13
100
AcDbLine
 10
465.0005
 20
40.0005
 30
0.0
 11
-464.9995
 21
40.0005
 31
0.0
  0
POINT
  5
7DC22
330
7E077
100
AcDbEntity
  8
Level 26
  6
Continuous
 62
    25
370
    13
100
AcDbPoint
 10
465.0005
 20
40.0005
 30
0.0
  0
LINE
  5
7DC23
330
7E077
100
AcDbEntity
  8
Level 26
  6
Continuous
 62
    25
370
    13
100
AcDbLine
 10
465.0005
 20
-39.9995
 30
0.0
 11
465.0005
 21
40.0005
 31
0.0
  0
POINT
  5
7DC24
330
7E077
100
AcDbEntity
  8
Level 26
  6
Continuous
 62
    25
370
    13
100
AcDbPoint
 10
465.0005
 20
-39.9995
 30
0.0
  0
LINE
  5
7DC25
330
7E077
100
AcDbEntity
  8
Level 26
  6
Continuous
 62
    25
370
    13
100
AcDbLine
 10
465.0005
 20
40.0005
 30
0.0
 11
465.0005
 21
-39.9995
 31
0.0
  0
POINT
  5
7DC26
330
7E077
100
AcDbEntity
  8
Level 26
  6
Continuous
 62
    25
370
    13
100
AcDbPoint
 10
-464.9995
 20
40.0005
 30
0.0
  0
LINE
  5
7DC27
330
7E077
100
AcDbEntity
  8
Level 26
  6
Continuous
 62
    25
370
    13
100
AcDbLine
 10
-464.9995
 20
-39.9995
 30
0.0
 11
-464.9995
 21
40.0005
 31
0.0
  0
POINT
  5
7DC28
330
7E077
100
AcDbEntity
  8
Level 26
  6
Continuous
 62
    25
370
    13
100
AcDbPoint
 10
-464.9995
 20
-39.9995
 30
0.0
  0
LINE
  5
7DC29
330
7E077
100
AcDbEntity
  8
Level 26
  6
Continuous
 62
    25
370
    13
100
AcDbLine
 10
-464.9995
 20
40.0005
 30
0.0
 11
-464.9995
 21
-39.9995
 31
0.0
  0
ENDBLK
  5
7E079
330
7E077
100
AcDbEntity
  8
0
100
AcDbBlockEnd
  0
BLOCK
  5
7E07B
330
7E07A
100
AcDbEntity
  8
0
100
AcDbBlockBegin
  2
Smart Solid_14
 70
     0
 71
     0
 10
0.0
 20
0.0
 30
0.0
  3
Smart Solid_14
  1

  0
LINE
  5
7DC2C
330
7E07A
100
AcDbEntity
  8
Level 26
  6
Continuous
 62
    25
370
    13
100
AcDbLine
 10
465.0005
 20
-39.9995
 30
0.0
 11
-464.9995
 21
-39.9995
 31
0.0
  0
LINE
  5
7DC2D
330
7E07A
100
AcDbEntity
  8
Level 26
  6
Continuous
 62
    25
370
    13
100
AcDbLine
 10
465.0005
 20
-39.9995
 30
0.0
 11
-464.9995
 21
-39.9995
 31
0.0
  0
LINE
  5
7DC2E
330
7E07A
100
AcDbEntity
  8
Level 26
  6
Continuous
 62
    25
370
    13
100
AcDbLine
 10
465.0005
 20
40.0005
 30
0.0
 11
-464.9995
 21
40.0005
 31
0.0
  0
LINE
  5
7DC2F
330
7E07A
100
AcDbEntity
  8
Level 26
  6
Continuous
 62
    25
370
    13
100
AcDbLine
 10
465.0005
 20
40.0005
 30
0.0
 11
-464.9995
 21
40.0005
 31
0.0
  0
POINT
  5
7DC30
330
7E07A
100
AcDbEntity
  8
Level 26
  6
Continuous
 62
    25
370
    13
100
AcDbPoint
 10
465.0005
 20
40.0005
 30
0.0
  0
LINE
  5
7DC31
330
7E07A
100
AcDbEntity
  8
Level 26
  6
Continuous
 62
    25
370
    13
100
AcDbLine
 10
465.0005
 20
-39.9995
 30
0.0
 11
465.0005
 21
40.0005
 31
0.0
  0
POINT
  5
7DC32
330
7E07A
100
AcDbEntity
  8
Level 26
  6
Continuous
 62
    25
370
    13
100
AcDbPoint
 10
465.0005
 20
-39.9995
 30
0.0
  0
LINE
  5
7DC33
330
7E07A
100
AcDbEntity
  8
Level 26
  6
Continuous
 62
    25
370
    13
100
AcDbLine
 10
465.0005
 20
40.0005
 30
0.0
 11
465.0005
 21
-39.9995
 31
0.0
  0
POINT
  5
7DC34
330
7E07A
100
AcDbEntity
  8
Level 26
  6
Continuous
 62
    25
370
    13
100
AcDbPoint
 10
-464.9995
 20
40.0005
 30
0.0
  0
LINE
  5
7DC35
330
7E07A
100
AcDbEntity
  8
Level 26
  6
Continuous
 62
    25
370
    13
100
AcDbLine
 10
-464.9995
 20
-39.9995
 30
0.0
 11
-464.9995
 21
40.0005
 31
0.0
  0
POINT
  5
7DC36
330
7E07A
100
AcDbEntity
  8
Level 26
  6
Continuous
 62
    25
370
    13
100
AcDbPoint
 10
-464.9995
 20
-39.9995
 30
0.0
  0
LINE
  5
7DC37
330
7E07A
100
AcDbEntity
  8
Level 26
  6
Continuous
 62
    25
370
    13
100
AcDbLine
 10
-464.9995
 20
40.0005
 30
0.0
 11
-464.9995
 21
-39.9995
 31
0.0
  0
ENDBLK
  5
7E07C
330
7E07A
100
AcDbEntity
  8
0
100
AcDbBlockEnd
  0
BLOCK
  5
7E07E
330
7E07D
100
AcDbEntity
  8
0
100
AcDbBlockBegin
  2
Smart Solid_15
 70
     0
 71
     0
 10
0.0
 20
0.0
 30
0.0
  3
Smart Solid_15
  1

  0
LINE
  5
7DC3A
330
7E07D
100
AcDbEntity
  8
Level 26
  6
Continuous
 62
    25
370
    13
100
AcDbLine
 10
465.0005
 20
-39.9995
 30
0.0
 11
-464.9995
 21
-39.9995
 31
0.0
  0
LINE
  5
7DC3B
330
7E07D
100
AcDbEntity
  8
Level 26
  6
Continuous
 62
    25
370
    13
100
AcDbLine
 10
465.0005
 20
-39.9995
 30
0.0
 11
-464.9995
 21
-39.9995
 31
0.0
  0
LINE
  5
7DC3C
330
7E07D
100
AcDbEntity
  8
Level 26
  6
Continuous
 62
    25
370
    13
100
AcDbLine
 10
465.0005
 20
40.0005
 30
0.0
 11
-464.9995
 21
40.0005
 31
0.0
  0
LINE
  5
7DC3D
330
7E07D
100
AcDbEntity
  8
Level 26
  6
Continuous
 62
    25
370
    13
100
AcDbLine
 10
465.0005
 20
40.0005
 30
0.0
 11
-464.9995
 21
40.0005
 31
0.0
  0
POINT
  5
7DC3E
330
7E07D
100
AcDbEntity
  8
Level 26
  6
Continuous
 62
    25
370
    13
100
AcDbPoint
 10
465.0005
 20
40.0005
 30
0.0
  0
LINE
  5
7DC3F
330
7E07D
100
AcDbEntity
  8
Level 26
  6
Continuous
 62
    25
370
    13
100
AcDbLine
 10
465.0005
 20
-39.9995
 30
0.0
 11
465.0005
 21
40.0005
 31
0.0
  0
POINT
  5
7DC40
330
7E07D
100
AcDbEntity
  8
Level 26
  6
Continuous
 62
    25
370
    13
100
AcDbPoint
 10
465.0005
 20
-39.9995
 30
0.0
  0
LINE
  5
7DC41
330
7E07D
100
AcDbEntity
  8
Level 26
  6
Continuous
 62
    25
370
    13
100
AcDbLine
 10
465.0005
 20
40.0005
 30
0.0
 11
465.0005
 21
-39.9995
 31
0.0
  0
POINT
  5
7DC42
330
7E07D
100
AcDbEntity
  8
Level 26
  6
Continuous
 62
    25
370
    13
100
AcDbPoint
 10
-464.9995
 20
40.0005
 30
0.0
  0
LINE
  5
7DC43
330
7E07D
100
AcDbEntity
  8
Level 26
  6
Continuous
 62
    25
370
    13
100
AcDbLine
 10
-464.9995
 20
-39.9995
 30
0.0
 11
-464.9995
 21
40.0005
 31
0.0
  0
POINT
  5
7DC44
330
7E07D
100
AcDbEntity
  8
Level 26
  6
Continuous
 62
    25
370
    13
100
AcDbPoint
 10
-464.9995
 20
-39.9995
 30
0.0
  0
LINE
  5
7DC45
330
7E07D
100
AcDbEntity
  8
Level 26
  6
Continuous
 62
    25
370
    13
100
AcDbLine
 10
-464.9995
 20
40.0005
 30
0.0
 11
-464.9995
 21
-39.9995
 31
0.0
  0
ENDBLK
  5
7E07F
330
7E07D
100
AcDbEntity
  8
0
100
AcDbBlockEnd
  0
BLOCK
  5
7E081
330
7E080
100
AcDbEntity
  8
0
100
AcDbBlockBegin
  2
Smart Solid_16
 70
     0
 71
     0
 10
0.0
 20
0.0
 30
0.0
  3
Smart Solid_16
  1

  0
LINE
  5
7DC48
330
7E080
100
AcDbEntity
  8
Level 26
  6
Continuous
 62
    25
370
    13
100
AcDbLine
 10
465.0005
 20
-39.9995
 30
0.0
 11
-464.9995
 21
-39.9995
 31
0.0
  0
LINE
  5
7DC49
330
7E080
100
AcDbEntity
  8
Level 26
  6
Continuous
 62
    25
370
    13
100
AcDbLine
 10
465.0005
 20
-39.9995
 30
0.0
 11
-464.9995
 21
-39.9995
 31
0.0
  0
LINE
  5
7DC4A
330
7E080
100
AcDbEntity
  8
Level 26
  6
Continuous
 62
    25
370
    13
100
AcDbLine
 10
465.0005
 20
40.0005
 30
0.0
 11
-464.9995
 21
40.0005
 31
0.0
  0
LINE
  5
7DC4B
330
7E080
100
AcDbEntity
  8
Level 26
  6
Continuous
 62
    25
370
    13
100
AcDbLine
 10
465.0005
 20
40.0005
 30
0.0
 11
-464.9995
 21
40.0005
 31
0.0
  0
POINT
  5
7DC4C
330
7E080
100
AcDbEntity
  8
Level 26
  6
Continuous
 62
    25
370
    13
100
AcDbPoint
 10
465.0005
 20
40.0005
 30
0.0
  0
LINE
  5
7DC4D
330
7E080
100
AcDbEntity
  8
Level 26
  6
Continuous
 62
    25
370
    13
100
AcDbLine
 10
465.0005
 20
-39.9995
 30
0.0
 11
465.0005
 21
40.0005
 31
0.0
  0
POINT
  5
7DC4E
330
7E080
100
AcDbEntity
  8
Level 26
  6
Continuous
 62
    25
370
    13
100
AcDbPoint
 10
465.0005
 20
-39.9995
 30
0.0
  0
LINE
  5
7DC4F
330
7E080
100
AcDbEntity
  8
Level 26
  6
Continuous
 62
    25
370
    13
100
AcDbLine
 10
465.0005
 20
40.0005
 30
0.0
 11
465.0005
 21
-39.9995
 31
0.0
  0
POINT
  5
7DC50
330
7E080
100
AcDbEntity
  8
Level 26
  6
Continuous
 62
    25
370
    13
100
AcDbPoint
 10
-464.9995
 20
40.0005
 30
0.0
  0
LINE
  5
7DC51
330
7E080
100
AcDbEntity
  8
Level 26
  6
Continuous
 62
    25
370
    13
100
AcDbLine
 10
-464.9995
 20
-39.9995
 30
0.0
 11
-464.9995
 21
40.0005
 31
0.0
  0
POINT
  5
7DC52
330
7E080
100
AcDbEntity
  8
Level 26
  6
Continuous
 62
    25
370
    13
100
AcDbPoint
 10
-464.9995
 20
-39.9995
 30
0.0
  0
LINE
  5
7DC53
330
7E080
100
AcDbEntity
  8
Level 26
  6
Continuous
 62
    25
370
    13
100
AcDbLine
 10
-464.9995
 20
40.0005
 30
0.0
 11
-464.9995
 21
-39.9995
 31
0.0
  0
ENDBLK
  5
7E082
330
7E080
100
AcDbEntity
  8
0
100
AcDbBlockEnd
  0
BLOCK
  5
7E084
330
7E083
100
AcDbEntity
  8
0
100
AcDbBlockBegin
  2
Smart Solid_17
 70
     0
 71
     0
 10
0.0
 20
0.0
 30
0.0
  3
Smart Solid_17
  1

  0
LINE
  5
7DC56
330
7E083
100
AcDbEntity
  8
Level 26
  6
Continuous
 62
    25
370
    13
100
AcDbLine
 10
465.0005
 20
-39.9995
 30
0.0
 11
-464.9995
 21
-39.9995
 31
0.0
  0
LINE
  5
7DC57
330
7E083
100
AcDbEntity
  8
Level 26
  6
Continuous
 62
    25
370
    13
100
AcDbLine
 10
465.0005
 20
-39.9995
 30
0.0
 11
-464.9995
 21
-39.9995
 31
0.0
  0
LINE
  5
7DC58
330
7E083
100
AcDbEntity
  8
Level 26
  6
Continuous
 62
    25
370
    13
100
AcDbLine
 10
465.0005
 20
40.0005
 30
0.0
 11
-464.9995
 21
40.0005
 31
0.0
  0
LINE
  5
7DC59
330
7E083
100
AcDbEntity
  8
Level 26
  6
Continuous
 62
    25
370
    13
100
AcDbLine
 10
465.0005
 20
40.0005
 30
0.0
 11
-464.9995
 21
40.0005
 31
0.0
  0
POINT
  5
7DC5A
330
7E083
100
AcDbEntity
  8
Level 26
  6
Continuous
 62
    25
370
    13
100
AcDbPoint
 10
465.0005
 20
40.0005
 30
0.0
  0
LINE
  5
7DC5B
330
7E083
100
AcDbEntity
  8
Level 26
  6
Continuous
 62
    25
370
    13
100
AcDbLine
 10
465.0005
 20
-39.9995
 30
0.0
 11
465.0005
 21
40.0005
 31
0.0
  0
POINT
  5
7DC5C
330
7E083
100
AcDbEntity
  8
Level 26
  6
Continuous
 62
    25
370
    13
100
AcDbPoint
 10
465.0005
 20
-39.9995
 30
0.0
  0
LINE
  5
7DC5D
330
7E083
100
AcDbEntity
  8
Level 26
  6
Continuous
 62
    25
370
    13
100
AcDbLine
 10
465.0005
 20
40.0005
 30
0.0
 11
465.0005
 21
-39.9995
 31
0.0
  0
POINT
  5
7DC5E
330
7E083
100
AcDbEntity
  8
Level 26
  6
Continuous
 62
    25
370
    13
100
AcDbPoint
 10
-464.9995
 20
40.0005
 30
0.0
  0
LINE
  5
7DC5F
330
7E083
100
AcDbEntity
  8
Level 26
  6
Continuous
 62
    25
370
    13
100
AcDbLine
 10
-464.9995
 20
-39.9995
 30
0.0
 11
-464.9995
 21
40.0005
 31
0.0
  0
POINT
  5
7DC60
330
7E083
100
AcDbEntity
  8
Level 26
  6
Continuous
 62
    25
370
    13
100
AcDbPoint
 10
-464.9995
 20
-39.9995
 30
0.0
  0
LINE
  5
7DC61
330
7E083
100
AcDbEntity
  8
Level 26
  6
Continuous
 62
    25
370
    13
100
AcDbLine
 10
-464.9995
 20
40.0005
 30
0.0
 11
-464.9995
 21
-39.9995
 31
0.0
  0
ENDBLK
  5
7E085
330
7E083
100
AcDbEntity
  8
0
100
AcDbBlockEnd
  0
BLOCK
  5
7E087
330
7E086
100
AcDbEntity
  8
0
100
AcDbBlockBegin
  2
Smart Solid_18
 70
     0
 71
     0
 10
0.0
 20
0.0
 30
0.0
  3
Smart Solid_18
  1

  0
LINE
  5
7DC64
330
7E086
100
AcDbEntity
  8
Level 26
  6
Continuous
 62
    25
370
    13
100
AcDbLine
 10
465.0005
 20
-39.9995
 30
0.0
 11
-464.9995
 21
-39.9995
 31
0.0
  0
LINE
  5
7DC65
330
7E086
100
AcDbEntity
  8
Level 26
  6
Continuous
 62
    25
370
    13
100
AcDbLine
 10
465.0005
 20
-39.9995
 30
0.0
 11
-464.9995
 21
-39.9995
 31
0.0
  0
LINE
  5
7DC66
330
7E086
100
AcDbEntity
  8
Level 26
  6
Continuous
 62
    25
370
    13
100
AcDbLine
 10
465.0005
 20
40.0005
 30
0.0
 11
-464.9995
 21
40.0005
 31
0.0
  0
LINE
  5
7DC67
330
7E086
100
AcDbEntity
  8
Level 26
  6
Continuous
 62
    25
370
    13
100
AcDbLine
 10
465.0005
 20
40.0005
 30
0.0
 11
-464.9995
 21
40.0005
 31
0.0
  0
POINT
  5
7DC68
330
7E086
100
AcDbEntity
  8
Level 26
  6
Continuous
 62
    25
370
    13
100
AcDbPoint
 10
465.0005
 20
40.0005
 30
0.0
  0
LINE
  5
7DC69
330
7E086
100
AcDbEntity
  8
Level 26
  6
Continuous
 62
    25
370
    13
100
AcDbLine
 10
465.0005
 20
-39.9995
 30
0.0
 11
465.0005
 21
40.0005
 31
0.0
  0
POINT
  5
7DC6A
330
7E086
100
AcDbEntity
  8
Level 26
  6
Continuous
 62
    25
370
    13
100
AcDbPoint
 10
465.0005
 20
-39.9995
 30
0.0
  0
LINE
  5
7DC6B
330
7E086
100
AcDbEntity
  8
Level 26
  6
Continuous
 62
    25
370
    13
100
AcDbLine
 10
465.0005
 20
40.0005
 30
0.0
 11
465.0005
 21
-39.9995
 31
0.0
  0
POINT
  5
7DC6C
330
7E086
100
AcDbEntity
  8
Level 26
  6
Continuous
 62
    25
370
    13
100
AcDbPoint
 10
-464.9995
 20
40.0005
 30
0.0
  0
LINE
  5
7DC6D
330
7E086
100
AcDbEntity
  8
Level 26
  6
Continuous
 62
    25
370
    13
100
AcDbLine
 10
-464.9995
 20
-39.9995
 30
0.0
 11
-464.9995
 21
40.0005
 31
0.0
  0
POINT
  5
7DC6E
330
7E086
100
AcDbEntity
  8
Level 26
  6
Continuous
 62
    25
370
    13
100
AcDbPoint
 10
-464.9995
 20
-39.9995
 30
0.0
  0
LINE
  5
7DC6F
330
7E086
100
AcDbEntity
  8
Level 26
  6
Continuous
 62
    25
370
    13
100
AcDbLine
 10
-464.9995
 20
40.0005
 30
0.0
 11
-464.9995
 21
-39.9995
 31
0.0
  0
ENDBLK
  5
7E088
330
7E086
100
AcDbEntity
  8
0
100
AcDbBlockEnd
  0
BLOCK
  5
7E08A
330
7E089
100
AcDbEntity
  8
0
100
AcDbBlockBegin
  2
Smart Solid_19
 70
     0
 71
     0
 10
0.0
 20
0.0
 30
0.0
  3
Smart Solid_19
  1

  0
LINE
  5
7DC72
330
7E089
100
AcDbEntity
  8
Level 26
  6
Continuous
 62
    25
370
    13
100
AcDbLine
 10
465.0005
 20
-39.9995
 30
0.0
 11
-464.9995
 21
-39.9995
 31
0.0
  0
LINE
  5
7DC73
330
7E089
100
AcDbEntity
  8
Level 26
  6
Continuous
 62
    25
370
    13
100
AcDbLine
 10
465.0005
 20
-39.9995
 30
0.0
 11
-464.9995
 21
-39.9995
 31
0.0
  0
LINE
  5
7DC74
330
7E089
100
AcDbEntity
  8
Level 26
  6
Continuous
 62
    25
370
    13
100
AcDbLine
 10
465.0005
 20
40.0005
 30
0.0
 11
-464.9995
 21
40.0005
 31
0.0
  0
LINE
  5
7DC75
330
7E089
100
AcDbEntity
  8
Level 26
  6
Continuous
 62
    25
370
    13
100
AcDbLine
 10
465.0005
 20
40.0005
 30
0.0
 11
-464.9995
 21
40.0005
 31
0.0
  0
POINT
  5
7DC76
330
7E089
100
AcDbEntity
  8
Level 26
  6
Continuous
 62
    25
370
    13
100
AcDbPoint
 10
465.0005
 20
40.0005
 30
0.0
  0
LINE
  5
7DC77
330
7E089
100
AcDbEntity
  8
Level 26
  6
Continuous
 62
    25
370
    13
100
AcDbLine
 10
465.0005
 20
-39.9995
 30
0.0
 11
465.0005
 21
40.0005
 31
0.0
  0
POINT
  5
7DC78
330
7E089
100
AcDbEntity
  8
Level 26
  6
Continuous
 62
    25
370
    13
100
AcDbPoint
 10
465.0005
 20
-39.9995
 30
0.0
  0
LINE
  5
7DC79
330
7E089
100
AcDbEntity
  8
Level 26
  6
Continuous
 62
    25
370
    13
100
AcDbLine
 10
465.0005
 20
40.0005
 30
0.0
 11
465.0005
 21
-39.9995
 31
0.0
  0
POINT
  5
7DC7A
330
7E089
100
AcDbEntity
  8
Level 26
  6
Continuous
 62
    25
370
    13
100
AcDbPoint
 10
-464.9995
 20
40.0005
 30
0.0
  0
LINE
  5
7DC7B
330
7E089
100
AcDbEntity
  8
Level 26
  6
Continuous
 62
    25
370
    13
100
AcDbLine
 10
-464.9995
 20
-39.9995
 30
0.0
 11
-464.9995
 21
40.0005
 31
0.0
  0
POINT
  5
7DC7C
330
7E089
100
AcDbEntity
  8
Level 26
  6
Continuous
 62
    25
370
    13
100
AcDbPoint
 10
-464.9995
 20
-39.9995
 30
0.0
  0
LINE
  5
7DC7D
330
7E089
100
AcDbEntity
  8
Level 26
  6
Continuous
 62
    25
370
    13
100
AcDbLine
 10
-464.9995
 20
40.0005
 30
0.0
 11
-464.9995
 21
-39.9995
 31
0.0
  0
ENDBLK
  5
7E08B
330
7E089
100
AcDbEntity
  8
0
100
AcDbBlockEnd
  0
BLOCK
  5
7E08D
330
7E08C
100
AcDbEntity
  8
0
100
AcDbBlockBegin
  2
Smart Solid_20
 70
     0
 71
     0
 10
0.0
 20
0.0
 30
0.0
  3
Smart Solid_20
  1

  0
LINE
  5
7DC80
330
7E08C
100
AcDbEntity
  8
Level 26
  6
Continuous
 62
    25
370
    13
100
AcDbLine
 10
-429.9995
 20
-4.9995
 30
0.0
 11
-429.9995
 21
-39.9995
 31
0.0
  0
POINT
  5
7DC81
330
7E08C
100
AcDbEntity
  8
Level 26
  6
Continuous
 62
    25
370
    13
100
AcDbPoint
 10
-464.9995
 20
-4.9995
 30
0.0
  0
LINE
  5
7DC82
330
7E08C
100
AcDbEntity
  8
Level 26
  6
Continuous
 62
    25
370
    13
100
AcDbLine
 10
430.0005
 20
-39.9995
 30
0.0
 11
430.0005
 21
-4.9995
 31
0.0
  0
POINT
  5
7DC83
330
7E08C
100
AcDbEntity
  8
Level 26
  6
Continuous
 62
    25
370
    13
100
AcDbPoint
 10
465.0005
 20
-4.9995
 30
0.0
  0
LINE
  5
7DC84
330
7E08C
100
AcDbEntity
  8
Level 26
  6
Continuous
 62
    25
370
    13
100
AcDbLine
 10
430.0005
 20
-39.9995
 30
0.0
 11
-429.9995
 21
-39.9995
 31
0.0
  0
LINE
  5
7DC85
330
7E08C
100
AcDbEntity
  8
Level 26
  6
Continuous
 62
    25
370
    13
100
AcDbLine
 10
430.0005
 20
-39.9995
 30
0.0
 11
-429.9995
 21
-39.9995
 31
0.0
  0
LINE
  5
7DC86
330
7E08C
100
AcDbEntity
  8
Level 26
  6
Continuous
 62
    25
370
    13
100
AcDbLine
 10
465.0005
 20
40.0005
 30
0.0
 11
-464.9995
 21
40.0005
 31
0.0
  0
LINE
  5
7DC87
330
7E08C
100
AcDbEntity
  8
Level 26
  6
Continuous
 62
    25
370
    13
100
AcDbLine
 10
465.0005
 20
40.0005
 30
0.0
 11
-464.9995
 21
40.0005
 31
0.0
  0
POINT
  5
7DC88
330
7E08C
100
AcDbEntity
  8
Level 26
  6
Continuous
 62
    25
370
    13
100
AcDbPoint
 10
465.0005
 20
40.0005
 30
0.0
  0
LINE
  5
7DC89
330
7E08C
100
AcDbEntity
  8
Level 26
  6
Continuous
 62
    25
370
    13
100
AcDbLine
 10
465.0005
 20
-4.9995
 30
0.0
 11
465.0005
 21
40.0005
 31
0.0
  0
LINE
  5
7DC8A
330
7E08C
100
AcDbEntity
  8
Level 26
  6
Continuous
 62
    25
370
    13
100
AcDbLine
 10
465.0005
 20
40.0005
 30
0.0
 11
465.0005
 21
-4.9995
 31
0.0
  0
POINT
  5
7DC8B
330
7E08C
100
AcDbEntity
  8
Level 26
  6
Continuous
 62
    25
370
    13
100
AcDbPoint
 10
-464.9995
 20
40.0005
 30
0.0
  0
LINE
  5
7DC8C
330
7E08C
100
AcDbEntity
  8
Level 26
  6
Continuous
 62
    25
370
    13
100
AcDbLine
 10
-464.9995
 20
-4.9995
 30
0.0
 11
-464.9995
 21
40.0005
 31
0.0
  0
LINE
  5
7DC8D
330
7E08C
100
AcDbEntity
  8
Level 26
  6
Continuous
 62
    25
370
    13
100
AcDbLine
 10
-464.9995
 20
40.0005
 30
0.0
 11
-464.9995
 21
-4.9995
 31
0.0
  0
LINE
  5
7DC8E
330
7E08C
100
AcDbEntity
  8
Level 26
  6
Continuous
 62
    25
370
    13
100
AcDbLine
 10
430.0005
 20
-4.9995
 30
0.0
 11
430.0005
 21
-39.9995
 31
0.0
  0
POINT
  5
7DC8F
330
7E08C
100
AcDbEntity
  8
Level 26
  6
Continuous
 62
    25
370
    13
100
AcDbPoint
 10
430.0005
 20
-39.9995
 30
0.0
  0
LINE
  5
7DC90
330
7E08C
100
AcDbEntity
  8
Level 26
  6
Continuous
 62
    25
370
    13
100
AcDbLine
 10
465.0005
 20
-4.9995
 30
0.0
 11
430.0005
 21
-4.9995
 31
0.0
  0
LINE
  5
7DC91
330
7E08C
100
AcDbEntity
  8
Level 26
  6
Continuous
 62
    25
370
    13
100
AcDbLine
 10
430.0005
 20
-4.9995
 30
0.0
 11
465.0005
 21
-4.9995
 31
0.0
  0
POINT
  5
7DC92
330
7E08C
100
AcDbEntity
  8
Level 26
  6
Continuous
 62
    25
370
    13
100
AcDbPoint
 10
430.0005
 20
-4.9995
 30
0.0
  0
LINE
  5
7DC93
330
7E08C
100
AcDbEntity
  8
Level 26
  6
Continuous
 62
    25
370
    13
100
AcDbLine
 10
-429.9995
 20
-39.9995
 30
0.0
 11
-429.9995
 21
-4.9995
 31
0.0
  0
POINT
  5
7DC94
330
7E08C
100
AcDbEntity
  8
Level 26
  6
Continuous
 62
    25
370
    13
100
AcDbPoint
 10
-429.9995
 20
-39.9995
 30
0.0
  0
LINE
  5
7DC95
330
7E08C
100
AcDbEntity
  8
Level 26
  6
Continuous
 62
    25
370
    13
100
AcDbLine
 10
-429.9995
 20
-4.9995
 30
0.0
 11
-464.9995
 21
-4.9995
 31
0.0
  0
LINE
  5
7DC96
330
7E08C
100
AcDbEntity
  8
Level 26
  6
Continuous
 62
    25
370
    13
100
AcDbLine
 10
-464.9995
 20
-4.9995
 30
0.0
 11
-429.9995
 21
-4.9995
 31
0.0
  0
POINT
  5
7DC97
330
7E08C
100
AcDbEntity
  8
Level 26
  6
Continuous
 62
    25
370
    13
100
AcDbPoint
 10
-429.9995
 20
-4.9995
 30
0.0
  0
ENDBLK
  5
7E08E
330
7E08C
100
AcDbEntity
  8
0
100
AcDbBlockEnd
  0
BLOCK
  5
7E090
330
7E08F
100
AcDbEntity
  8
0
100
AcDbBlockBegin
  2
Smart Solid_21
 70
     0
 71
     0
 10
0.0
 20
0.0
 30
0.0
  3
Smart Solid_21
  1

  0
POINT
  5
7DC9A
330
7E08F
100
AcDbEntity
  8
Level 26
  6
Continuous
 62
    25
370
    13
100
AcDbPoint
 10
-429.9995
 20
40.0005
 30
0.0
  0
POINT
  5
7DC9B
330
7E08F
100
AcDbEntity
  8
Level 26
  6
Continuous
 62
    25
370
    13
100
AcDbPoint
 10
-464.9995
 20
5.0005
 30
0.0
  0
POINT
  5
7DC9C
330
7E08F
100
AcDbEntity
  8
Level 26
  6
Continuous
 62
    25
370
    13
100
AcDbPoint
 10
430.0005
 20
40.0005
 30
0.0
  0
POINT
  5
7DC9D
330
7E08F
100
AcDbEntity
  8
Level 26
  6
Continuous
 62
    25
370
    13
100
AcDbPoint
 10
465.0005
 20
5.0005
 30
0.0
  0
LINE
  5
7DC9E
330
7E08F
100
AcDbEntity
  8
Level 26
  6
Continuous
 62
    25
370
    13
100
AcDbLine
 10
465.0005
 20
-39.9995
 30
0.0
 11
-464.9995
 21
-39.9995
 31
0.0
  0
LINE
  5
7DC9F
330
7E08F
100
AcDbEntity
  8
Level 26
  6
Continuous
 62
    25
370
    13
100
AcDbLine
 10
465.0005
 20
-39.9995
 30
0.0
 11
-464.9995
 21
-39.9995
 31
0.0
  0
LINE
  5
7DCA0
330
7E08F
100
AcDbEntity
  8
Level 26
  6
Continuous
 62
    25
370
    13
100
AcDbLine
 10
430.0005
 20
40.0005
 30
0.0
 11
-429.9995
 21
40.0005
 31
0.0
  0
LINE
  5
7DCA1
330
7E08F
100
AcDbEntity
  8
Level 26
  6
Continuous
 62
    25
370
    13
100
AcDbLine
 10
430.0005
 20
40.0005
 30
0.0
 11
-429.9995
 21
40.0005
 31
0.0
  0
LINE
  5
7DCA2
330
7E08F
100
AcDbEntity
  8
Level 26
  6
Continuous
 62
    25
370
    13
100
AcDbLine
 10
465.0005
 20
-39.9995
 30
0.0
 11
465.0005
 21
5.0005
 31
0.0
  0
POINT
  5
7DCA3
330
7E08F
100
AcDbEntity
  8
Level 26
  6
Continuous
 62
    25
370
    13
100
AcDbPoint
 10
465.0005
 20
-39.9995
 30
0.0
  0
LINE
  5
7DCA4
330
7E08F
100
AcDbEntity
  8
Level 26
  6
Continuous
 62
    25
370
    13
100
AcDbLine
 10
465.0005
 20
5.0005
 30
0.0
 11
465.0005
 21
-39.9995
 31
0.0
  0
LINE
  5
7DCA5
330
7E08F
100
AcDbEntity
  8
Level 26
  6
Continuous
 62
    25
370
    13
100
AcDbLine
 10
-464.9995
 20
-39.9995
 30
0.0
 11
-464.9995
 21
5.0005
 31
0.0
  0
POINT
  5
7DCA6
330
7E08F
100
AcDbEntity
  8
Level 26
  6
Continuous
 62
    25
370
    13
100
AcDbPoint
 10
-464.9995
 20
-39.9995
 30
0.0
  0
LINE
  5
7DCA7
330
7E08F
100
AcDbEntity
  8
Level 26
  6
Continuous
 62
    25
370
    13
100
AcDbLine
 10
-464.9995
 20
5.0005
 30
0.0
 11
-464.9995
 21
-39.9995
 31
0.0
  0
LINE
  5
7DCA8
330
7E08F
100
AcDbEntity
  8
Level 26
  6
Continuous
 62
    25
370
    13
100
AcDbLine
 10
430.0005
 20
40.0005
 30
0.0
 11
430.0005
 21
5.0005
 31
0.0
  0
LINE
  5
7DCA9
330
7E08F
100
AcDbEntity
  8
Level 26
  6
Continuous
 62
    25
370
    13
100
AcDbLine
 10
430.0005
 20
5.0005
 30
0.0
 11
430.0005
 21
40.0005
 31
0.0
  0
LINE
  5
7DCAA
330
7E08F
100
AcDbEntity
  8
Level 26
  6
Continuous
 62
    25
370
    13
100
AcDbLine
 10
430.0005
 20
5.0005
 30
0.0
 11
465.0005
 21
5.0005
 31
0.0
  0
LINE
  5
7DCAB
330
7E08F
100
AcDbEntity
  8
Level 26
  6
Continuous
 62
    25
370
    13
100
AcDbLine
 10
465.0005
 20
5.0005
 30
0.0
 11
430.0005
 21
5.0005
 31
0.0
  0
POINT
  5
7DCAC
330
7E08F
100
AcDbEntity
  8
Level 26
  6
Continuous
 62
    25
370
    13
100
AcDbPoint
 10
430.0005
 20
5.0005
 30
0.0
  0
LINE
  5
7DCAD
330
7E08F
100
AcDbEntity
  8
Level 26
  6
Continuous
 62
    25
370
    13
100
AcDbLine
 10
-429.9995
 20
5.0005
 30
0.0
 11
-429.9995
 21
40.0005
 31
0.0
  0
LINE
  5
7DCAE
330
7E08F
100
AcDbEntity
  8
Level 26
  6
Continuous
 62
    25
370
    13
100
AcDbLine
 10
-429.9995
 20
40.0005
 30
0.0
 11
-429.9995
 21
5.0005
 31
0.0
  0
LINE
  5
7DCAF
330
7E08F
100
AcDbEntity
  8
Level 26
  6
Continuous
 62
    25
370
    13
100
AcDbLine
 10
-464.9995
 20
5.0005
 30
0.0
 11
-429.9995
 21
5.0005
 31
0.0
  0
LINE
  5
7DCB0
330
7E08F
100
AcDbEntity
  8
Level 26
  6
Continuous
 62
    25
370
    13
100
AcDbLine
 10
-429.9995
 20
5.0005
 30
0.0
 11
-464.9995
 21
5.0005
 31
0.0
  0
POINT
  5
7DCB1
330
7E08F
100
AcDbEntity
  8
Level 26
  6
Continuous
 62
    25
370
    13
100
AcDbPoint
 10
-429.9995
 20
5.0005
 30
0.0
  0
ENDBLK
  5
7E091
330
7E08F
100
AcDbEntity
  8
0
100
AcDbBlockEnd
  0
BLOCK
  5
7E093
330
7E092
100
AcDbEntity
  8
0
100
AcDbBlockBegin
  2
From Surface_8
 70
     0
 71
     0
 10
0.0
 20
0.0
 30
0.0
  3
From Surface_8
  1

  0
LINE
  5
7DCC7
330
7E092
100
AcDbEntity
  8
Level 26
  6
Continuous
 62
    25
370
     0
100
AcDbLine
 10
4465.025751
 20
-2.498187
 30
0.0
 11
4465.025751
 21
-9.713197
 31
0.0
  0
LINE
  5
7DCC8
330
7E092
100
AcDbEntity
  8
Level 26
  6
Continuous
 62
    25
370
     0
100
AcDbLine
 10
3625.025751
 20
-2.498187
 30
0.0
 11
3625.025751
 21
-9.713197
 31
0.0
  0
LINE
  5
7DCC9
330
7E092
100
AcDbEntity
  8
Level 26
  6
Continuous
 62
    25
370
     0
100
AcDbLine
 10
4465.025751
 20
-2.498187
 30
0.0
 11
3625.025751
 21
-2.498187
 31
0.0
  0
LINE
  5
7DCCA
330
7E092
100
AcDbEntity
  8
Level 26
  6
Continuous
 62
    25
370
     0
100
AcDbLine
 10
4465.025751
 20
-8.717919
 30
0.0
 11
3625.025751
 21
-8.717919
 31
0.0
  0
ENDBLK
  5
7E094
330
7E092
100
AcDbEntity
  8
0
100
AcDbBlockEnd
  0
BLOCK
  5
7E096
330
7E095
100
AcDbEntity
  8
0
100
AcDbBlockBegin
  2
From Surface_9
 70
     0
 71
     0
 10
0.0
 20
0.0
 30
0.0
  3
From Surface_9
  1

  0
LINE
  5
7DCCC
330
7E095
100
AcDbEntity
  8
Level 26
  6
Continuous
 62
    25
370
     0
100
AcDbLine
 10
4465.025751
 20
58.027778
 30
0.0
 11
4465.025751
 21
73.817488
 31
0.0
  0
LINE
  5
7DCCD
330
7E095
100
AcDbEntity
  8
Level 26
  6
Continuous
 62
    25
370
     0
100
AcDbLine
 10
3625.025751
 20
58.027778
 30
0.0
 11
3625.025751
 21
73.817488
 31
0.0
  0
LINE
  5
7DCCE
330
7E095
100
AcDbEntity
  8
Level 26
  6
Continuous
 62
    25
370
     0
100
AcDbLine
 10
4465.025751
 20
73.817488
 30
0.0
 11
3625.025751
 21
73.817488
 31
0.0
  0
LINE
  5
7DCCF
330
7E095
100
AcDbEntity
  8
Level 26
  6
Continuous
 62
    25
370
     0
100
AcDbLine
 10
4465.025751
 20
58.027778
 30
0.0
 11
3625.025751
 21
58.027778
 31
0.0
  0
ENDBLK
  5
7E097
330
7E095
100
AcDbEntity
  8
0
100
AcDbBlockEnd
  0
BLOCK
  5
7E099
330
7E098
100
AcDbEntity
  8
0
100
AcDbBlockBegin
  2
From Surface_10
 70
     0
 71
     0
 10
0.0
 20
0.0
 30
0.0
  3
From Surface_10
  1

  0
LINE
  5
7DCE4
330
7E098
100
AcDbEntity
  8
Level 26
  6
Continuous
 62
    25
370
     0
100
AcDbLine
 10
4465.025751
 20
95.466689
 30
0.0
 11
4465.025751
 21
88.251678
 31
0.0
  0
LINE
  5
7DCE5
330
7E098
100
AcDbEntity
  8
Level 26
  6
Continuous
 62
    25
370
     0
100
AcDbLine
 10
3625.025751
 20
95.466689
 30
0.0
 11
3625.025751
 21
88.251678
 31
0.0
  0
LINE
  5
7DCE6
330
7E098
100
AcDbEntity
  8
Level 26
  6
Continuous
 62
    25
370
     0
100
AcDbLine
 10
4465.025751
 20
95.466689
 30
0.0
 11
3625.025751
 21
95.466689
 31
0.0
  0
LINE
  5
7DCE7
330
7E098
100
AcDbEntity
  8
Level 26
  6
Continuous
 62
    25
370
     0
100
AcDbLine
 10
4465.025751
 20
89.246957
 30
0.0
 11
3625.025751
 21
89.246957
 31
0.0
  0
ENDBLK
  5
7E09A
330
7E098
100
AcDbEntity
  8
0
100
AcDbBlockEnd
  0
BLOCK
  5
7E09C
330
7E09B
100
AcDbEntity
  8
0
100
AcDbBlockBegin
  2
From Surface_11
 70
     0
 71
     0
 10
0.0
 20
0.0
 30
0.0
  3
From Surface_11
  1

  0
LINE
  5
7DCE9
330
7E09B
100
AcDbEntity
  8
Level 26
  6
Continuous
 62
    25
370
     0
100
AcDbLine
 10
4465.025751
 20
155.992654
 30
0.0
 11
4465.025751
 21
171.782364
 31
0.0
  0
LINE
  5
7DCEA
330
7E09B
100
AcDbEntity
  8
Level 26
  6
Continuous
 62
    25
370
     0
100
AcDbLine
 10
3625.025751
 20
155.992654
 30
0.0
 11
3625.025751
 21
171.782364
 31
0.0
  0
LINE
  5
7DCEB
330
7E09B
100
AcDbEntity
  8
Level 26
  6
Continuous
 62
    25
370
     0
100
AcDbLine
 10
4465.025751
 20
171.782364
 30
0.0
 11
3625.025751
 21
171.782364
 31
0.0
  0
LINE
  5
7DCEC
330
7E09B
100
AcDbEntity
  8
Level 26
  6
Continuous
 62
    25
370
     0
100
AcDbLine
 10
4465.025751
 20
155.992654
 30
0.0
 11
3625.025751
 21
155.992654
 31
0.0
  0
ENDBLK
  5
7E09D
330
7E09B
100
AcDbEntity
  8
0
100
AcDbBlockEnd
  0
BLOCK
  5
7E09F
330
7E09E
100
AcDbEntity
  8
0
100
AcDbBlockBegin
  2
From Surface_12
 70
     0
 71
     0
 10
0.0
 20
0.0
 30
0.0
  3
From Surface_12
  1

  0
LINE
  5
7DD01
330
7E09E
100
AcDbEntity
  8
Level 26
  6
Continuous
 62
    25
370
     0
100
AcDbLine
 10
4465.025751
 20
193.431565
 30
0.0
 11
4465.025751
 21
186.216554
 31
0.0
  0
LINE
  5
7DD02
330
7E09E
100
AcDbEntity
  8
Level 26
  6
Continuous
 62
    25
370
     0
100
AcDbLine
 10
3625.025751
 20
193.431565
 30
0.0
 11
3625.025751
 21
186.216554
 31
0.0
  0
LINE
  5
7DD03
330
7E09E
100
AcDbEntity
  8
Level 26
  6
Continuous
 62
    25
370
     0
100
AcDbLine
 10
4465.025751
 20
193.431565
 30
0.0
 11
3625.025751
 21
193.431565
 31
0.0
  0
LINE
  5
7DD04
330
7E09E
100
AcDbEntity
  8
Level 26
  6
Continuous
 62
    25
370
     0
100
AcDbLine
 10
4465.025751
 20
187.211833
 30
0.0
 11
3625.025751
 21
187.211833
 31
0.0
  0
ENDBLK
  5
7E0A0
330
7E09E
100
AcDbEntity
  8
0
100
AcDbBlockEnd
  0
BLOCK
  5
7E0A2
330
7E0A1
100
AcDbEntity
  8
0
100
AcDbBlockBegin
  2
From Surface_13
 70
     0
 71
     0
 10
0.0
 20
0.0
 30
0.0
  3
From Surface_13
  1

  0
LINE
  5
7DD06
330
7E0A1
100
AcDbEntity
  8
Level 26
  6
Continuous
 62
    25
370
     0
100
AcDbLine
 10
4465.025751
 20
253.95753
 30
0.0
 11
4465.025751
 21
269.74724
 31
0.0
  0
LINE
  5
7DD07
330
7E0A1
100
AcDbEntity
  8
Level 26
  6
Continuous
 62
    25
370
     0
100
AcDbLine
 10
3625.025751
 20
253.95753
 30
0.0
 11
3625.025751
 21
269.74724
 31
0.0
  0
LINE
  5
7DD08
330
7E0A1
100
AcDbEntity
  8
Level 26
  6
Continuous
 62
    25
370
     0
100
AcDbLine
 10
4465.025751
 20
269.74724
 30
0.0
 11
3625.025751
 21
269.74724
 31
0.0
  0
LINE
  5
7DD09
330
7E0A1
100
AcDbEntity
  8
Level 26
  6
Continuous
 62
    25
370
     0
100
AcDbLine
 10
4465.025751
 20
253.95753
 30
0.0
 11
3625.025751
 21
253.95753
 31
0.0
  0
ENDBLK
  5
7E0A3
330
7E0A1
100
AcDbEntity
  8
0
100
AcDbBlockEnd
  0
BLOCK
  5
7E0A5
330
7E0A4
100
AcDbEntity
  8
0
100
AcDbBlockBegin
  2
From Surface_14
 70
     0
 71
     0
 10
0.0
 20
0.0
 30
0.0
  3
From Surface_14
  1

  0
LINE
  5
7DD1E
330
7E0A4
100
AcDbEntity
  8
Level 26
  6
Continuous
 62
    25
370
     0
100
AcDbLine
 10
4465.025751
 20
291.396442
 30
0.0
 11
4465.025751
 21
284.181432
 31
0.0
  0
LINE
  5
7DD1F
330
7E0A4
100
AcDbEntity
  8
Level 26
  6
Continuous
 62
    25
370
     0
100
AcDbLine
 10
3625.025751
 20
291.396442
 30
0.0
 11
3625.025751
 21
284.181432
 31
0.0
  0
LINE
  5
7DD20
330
7E0A4
100
AcDbEntity
  8
Level 26
  6
Continuous
 62
    25
370
     0
100
AcDbLine
 10
4465.025751
 20
291.396442
 30
0.0
 11
3625.025751
 21
291.396442
 31
0.0
  0
LINE
  5
7DD21
330
7E0A4
100
AcDbEntity
  8
Level 26
  6
Continuous
 62
    25
370
     0
100
AcDbLine
 10
4465.025751
 20
285.17671
 30
0.0
 11
3625.025751
 21
285.17671
 31
0.0
  0
ENDBLK
  5
7E0A6
330
7E0A4
100
AcDbEntity
  8
0
100
AcDbBlockEnd
  0
BLOCK
  5
7E0A8
330
7E0A7
100
AcDbEntity
  8
0
100
AcDbBlockBegin
  2
From Surface_15
 70
     0
 71
     0
 10
0.0
 20
0.0
 30
0.0
  3
From Surface_15
  1

  0
LINE
  5
7DD23
330
7E0A7
100
AcDbEntity
  8
Level 26
  6
Continuous
 62
    25
370
     0
100
AcDbLine
 10
4465.025751
 20
351.922407
 30
0.0
 11
4465.025751
 21
367.712117
 31
0.0
  0
LINE
  5
7DD24
330
7E0A7
100
AcDbEntity
  8
Level 26
  6
Continuous
 62
    25
370
     0
100
AcDbLine
 10
3625.025751
 20
351.922407
 30
0.0
 11
3625.025751
 21
367.712117
 31
0.0
  0
LINE
  5
7DD25
330
7E0A7
100
AcDbEntity
  8
Level 26
  6
Continuous
 62
    25
370
     0
100
AcDbLine
 10
4465.025751
 20
367.712117
 30
0.0
 11
3625.025751
 21
367.712117
 31
0.0
  0
LINE
  5
7DD26
330
7E0A7
100
AcDbEntity
  8
Level 26
  6
Continuous
 62
    25
370
     0
100
AcDbLine
 10
4465.025751
 20
351.922407
 30
0.0
 11
3625.025751
 21
351.922407
 31
0.0
  0
ENDBLK
  5
7E0A9
330
7E0A7
100
AcDbEntity
  8
0
100
AcDbBlockEnd
  0
BLOCK
  5
7E0AB
330
7E0AA
100
AcDbEntity
  8
0
100
AcDbBlockBegin
  2
From Surface_16
 70
     0
 71
     0
 10
0.0
 20
0.0
 30
0.0
  3
From Surface_16
  1

  0
LINE
  5
7DD3B
330
7E0AA
100
AcDbEntity
  8
Level 26
  6
Continuous
 62
    25
370
     0
100
AcDbLine
 10
4465.025751
 20
389.361318
 30
0.0
 11
4465.025751
 21
382.146307
 31
0.0
  0
LINE
  5
7DD3C
330
7E0AA
100
AcDbEntity
  8
Level 26
  6
Continuous
 62
    25
370
     0
100
AcDbLine
 10
3625.025751
 20
389.361318
 30
0.0
 11
3625.025751
 21
382.146307
 31
0.0
  0
LINE
  5
7DD3D
330
7E0AA
100
AcDbEntity
  8
Level 26
  6
Continuous
 62
    25
370
     0
100
AcDbLine
 10
4465.025751
 20
389.361318
 30
0.0
 11
3625.025751
 21
389.361318
 31
0.0
  0
LINE
  5
7DD3E
330
7E0AA
100
AcDbEntity
  8
Level 26
  6
Continuous
 62
    25
370
     0
100
AcDbLine
 10
4465.025751
 20
383.141586
 30
0.0
 11
3625.025751
 21
383.141586
 31
0.0
  0
ENDBLK
  5
7E0AC
330
7E0AA
100
AcDbEntity
  8
0
100
AcDbBlockEnd
  0
BLOCK
  5
7E0AE
330
7E0AD
100
AcDbEntity
  8
0
100
AcDbBlockBegin
  2
From Surface_17
 70
     0
 71
     0
 10
0.0
 20
0.0
 30
0.0
  3
From Surface_17
  1

  0
LINE
  5
7DD40
330
7E0AD
100
AcDbEntity
  8
Level 26
  6
Continuous
 62
    25
370
     0
100
AcDbLine
 10
4465.025751
 20
449.887283
 30
0.0
 11
4465.025751
 21
465.676993
 31
0.0
  0
LINE
  5
7DD41
330
7E0AD
100
AcDbEntity
  8
Level 26
  6
Continuous
 62
    25
370
     0
100
AcDbLine
 10
3625.025751
 20
449.887283
 30
0.0
 11
3625.025751
 21
465.676993
 31
0.0
  0
LINE
  5
7DD42
330
7E0AD
100
AcDbEntity
  8
Level 26
  6
Continuous
 62
    25
370
     0
100
AcDbLine
 10
4465.025751
 20
465.676993
 30
0.0
 11
3625.025751
 21
465.676993
 31
0.0
  0
LINE
  5
7DD43
330
7E0AD
100
AcDbEntity
  8
Level 26
  6
Continuous
 62
    25
370
     0
100
AcDbLine
 10
4465.025751
 20
449.887283
 30
0.0
 11
3625.025751
 21
449.887283
 31
0.0
  0
ENDBLK
  5
7E0AF
330
7E0AD
100
AcDbEntity
  8
0
100
AcDbBlockEnd
  0
BLOCK
  5
7E0B1
330
7E0B0
100
AcDbEntity
  8
0
100
AcDbBlockBegin
  2
From Surface_18
 70
     0
 71
     0
 10
0.0
 20
0.0
 30
0.0
  3
From Surface_18
  1

  0
LINE
  5
7DD58
330
7E0B0
100
AcDbEntity
  8
Level 26
  6
Continuous
 62
    25
370
     0
100
AcDbLine
 10
4465.025751
 20
487.326194
 30
0.0
 11
4465.025751
 21
480.111183
 31
0.0
  0
LINE
  5
7DD59
330
7E0B0
100
AcDbEntity
  8
Level 26
  6
Continuous
 62
    25
370
     0
100
AcDbLine
 10
3625.025751
 20
487.326194
 30
0.0
 11
3625.025751
 21
480.111183
 31
0.0
  0
LINE
  5
7DD5A
330
7E0B0
100
AcDbEntity
  8
Level 26
  6
Continuous
 62
    25
370
     0
100
AcDbLine
 10
4465.025751
 20
487.326194
 30
0.0
 11
3625.025751
 21
487.326194
 31
0.0
  0
LINE
  5
7DD5B
330
7E0B0
100
AcDbEntity
  8
Level 26
  6
Continuous
 62
    25
370
     0
100
AcDbLine
 10
4465.025751
 20
481.106462
 30
0.0
 11
3625.025751
 21
481.106462
 31
0.0
  0
ENDBLK
  5
7E0B2
330
7E0B0
100
AcDbEntity
  8
0
100
AcDbBlockEnd
  0
BLOCK
  5
7E0B4
330
7E0B3
100
AcDbEntity
  8
0
100
AcDbBlockBegin
  2
From Surface_19
 70
     0
 71
     0
 10
0.0
 20
0.0
 30
0.0
  3
From Surface_19
  1

  0
LINE
  5
7DD5D
330
7E0B3
100
AcDbEntity
  8
Level 26
  6
Continuous
 62
    25
370
     0
100
AcDbLine
 10
4465.025751
 20
547.852159
 30
0.0
 11
4465.025751
 21
563.641869
 31
0.0
  0
LINE
  5
7DD5E
330
7E0B3
100
AcDbEntity
  8
Level 26
  6
Continuous
 62
    25
370
     0
100
AcDbLine
 10
3625.025751
 20
547.852159
 30
0.0
 11
3625.025751
 21
563.641869
 31
0.0
  0
LINE
  5
7DD5F
330
7E0B3
100
AcDbEntity
  8
Level 26
  6
Continuous
 62
    25
370
     0
100
AcDbLine
 10
4465.025751
 20
563.641869
 30
0.0
 11
3625.025751
 21
563.641869
 31
0.0
  0
LINE
  5
7DD60
330
7E0B3
100
AcDbEntity
  8
Level 26
  6
Continuous
 62
    25
370
     0
100
AcDbLine
 10
4465.025751
 20
547.852159
 30
0.0
 11
3625.025751
 21
547.852159
 31
0.0
  0
ENDBLK
  5
7E0B5
330
7E0B3
100
AcDbEntity
  8
0
100
AcDbBlockEnd
  0
BLOCK
  5
7E0B7
330
7E0B6
100
AcDbEntity
  8
0
100
AcDbBlockBegin
  2
From Surface_20
 70
     0
 71
     0
 10
0.0
 20
0.0
 30
0.0
  3
From Surface_20
  1

  0
LINE
  5
7DD75
330
7E0B6
100
AcDbEntity
  8
Level 26
  6
Continuous
 62
    25
370
     0
100
AcDbLine
 10
4465.025751
 20
585.29107
 30
0.0
 11
4465.025751
 21
578.07606
 31
0.0
  0
LINE
  5
7DD76
330
7E0B6
100
AcDbEntity
  8
Level 26
  6
Continuous
 62
    25
370
     0
100
AcDbLine
 10
3625.025751
 20
585.29107
 30
0.0
 11
3625.025751
 21
578.07606
 31
0.0
  0
LINE
  5
7DD77
330
7E0B6
100
AcDbEntity
  8
Level 26
  6
Continuous
 62
    25
370
     0
100
AcDbLine
 10
4465.025751
 20
585.29107
 30
0.0
 11
3625.025751
 21
585.29107
 31
0.0
  0
LINE
  5
7DD78
330
7E0B6
100
AcDbEntity
  8
Level 26
  6
Continuous
 62
    25
370
     0
100
AcDbLine
 10
4465.025751
 20
579.071338
 30
0.0
 11
3625.025751
 21
579.071338
 31
0.0
  0
ENDBLK
  5
7E0B8
330
7E0B6
100
AcDbEntity
  8
0
100
AcDbBlockEnd
  0
BLOCK
  5
7E0BA
330
7E0B9
100
AcDbEntity
  8
0
100
AcDbBlockBegin
  2
From Surface_21
 70
     0
 71
     0
 10
0.0
 20
0.0
 30
0.0
  3
From Surface_21
  1

  0
LINE
  5
7DD7A
330
7E0B9
100
AcDbEntity
  8
Level 26
  6
Continuous
 62
    25
370
     0
100
AcDbLine
 10
4465.025751
 20
645.817035
 30
0.0
 11
4465.025751
 21
661.606745
 31
0.0
  0
LINE
  5
7DD7B
330
7E0B9
100
AcDbEntity
  8
Level 26
  6
Continuous
 62
    25
370
     0
100
AcDbLine
 10
3625.025751
 20
645.817035
 30
0.0
 11
3625.025751
 21
661.606745
 31
0.0
  0
LINE
  5
7DD7C
330
7E0B9
100
AcDbEntity
  8
Level 26
  6
Continuous
 62
    25
370
     0
100
AcDbLine
 10
4465.025751
 20
661.606745
 30
0.0
 11
3625.025751
 21
661.606745
 31
0.0
  0
LINE
  5
7DD7D
330
7E0B9
100
AcDbEntity
  8
Level 26
  6
Continuous
 62
    25
370
     0
100
AcDbLine
 10
4465.025751
 20
645.817035
 30
0.0
 11
3625.025751
 21
645.817035
 31
0.0
  0
ENDBLK
  5
7E0BB
330
7E0B9
100
AcDbEntity
  8
0
100
AcDbBlockEnd
  0
BLOCK
  5
7E0BD
330
7E0BC
100
AcDbEntity
  8
0
100
AcDbBlockBegin
  2
From Surface_22
 70
     0
 71
     0
 10
0.0
 20
0.0
 30
0.0
  3
From Surface_22
  1

  0
LINE
  5
7DD92
330
7E0BC
100
AcDbEntity
  8
Level 26
  6
Continuous
 62
    25
370
     0
100
AcDbLine
 10
4465.025751
 20
683.255947
 30
0.0
 11
4465.025751
 21
676.040936
 31
0.0
  0
LINE
  5
7DD93
330
7E0BC
100
AcDbEntity
  8
Level 26
  6
Continuous
 62
    25
370
     0
100
AcDbLine
 10
3625.025751
 20
683.255947
 30
0.0
 11
3625.025751
 21
676.040936
 31
0.0
  0
LINE
  5
7DD94
330
7E0BC
100
AcDbEntity
  8
Level 26
  6
Continuous
 62
    25
370
     0
100
AcDbLine
 10
4465.025751
 20
683.255947
 30
0.0
 11
3625.025751
 21
683.255947
 31
0.0
  0
LINE
  5
7DD95
330
7E0BC
100
AcDbEntity
  8
Level 26
  6
Continuous
 62
    25
370
     0
100
AcDbLine
 10
4465.025751
 20
677.036215
 30
0.0
 11
3625.025751
 21
677.036215
 31
0.0
  0
ENDBLK
  5
7E0BE
330
7E0BC
100
AcDbEntity
  8
0
100
AcDbBlockEnd
  0
BLOCK
  5
7E0C0
330
7E0BF
100
AcDbEntity
  8
0
100
AcDbBlockBegin
  2
From Surface_23
 70
     0
 71
     0
 10
0.0
 20
0.0
 30
0.0
  3
From Surface_23
  1

  0
LINE
  5
7DD97
330
7E0BF
100
AcDbEntity
  8
Level 26
  6
Continuous
 62
    25
370
     0
100
AcDbLine
 10
4465.025751
 20
743.781912
 30
0.0
 11
4465.025751
 21
759.571622
 31
0.0
  0
LINE
  5
7DD98
330
7E0BF
100
AcDbEntity
  8
Level 26
  6
Continuous
 62
    25
370
     0
100
AcDbLine
 10
3625.025751
 20
743.781912
 30
0.0
 11
3625.025751
 21
759.571622
 31
0.0
  0
LINE
  5
7DD99
330
7E0BF
100
AcDbEntity
  8
Level 26
  6
Continuous
 62
    25
370
     0
100
AcDbLine
 10
4465.025751
 20
759.571622
 30
0.0
 11
3625.025751
 21
759.571622
 31
0.0
  0
LINE
  5
7DD9A
330
7E0BF
100
AcDbEntity
  8
Level 26
  6
Continuous
 62
    25
370
     0
100
AcDbLine
 10
4465.025751
 20
743.781912
 30
0.0
 11
3625.025751
 21
743.781912
 31
0.0
  0
ENDBLK
  5
7E0C1
330
7E0BF
100
AcDbEntity
  8
0
100
AcDbBlockEnd
  0
BLOCK
  5
7E0C3
330
7E0C2
100
AcDbEntity
  8
0
100
AcDbBlockBegin
  2
From Surface_24
 70
     0
 71
     0
 10
0.0
 20
0.0
 30
0.0
  3
From Surface_24
  1

  0
LINE
  5
7DDAF
330
7E0C2
100
AcDbEntity
  8
Level 26
  6
Continuous
 62
    25
370
     0
100
AcDbLine
 10
4465.025751
 20
781.220823
 30
0.0
 11
4465.025751
 21
774.005812
 31
0.0
  0
LINE
  5
7DDB0
330
7E0C2
100
AcDbEntity
  8
Level 26
  6
Continuous
 62
    25
370
     0
100
AcDbLine
 10
3625.025751
 20
781.220823
 30
0.0
 11
3625.025751
 21
774.005812
 31
0.0
  0
LINE
  5
7DDB1
330
7E0C2
100
AcDbEntity
  8
Level 26
  6
Continuous
 62
    25
370
     0
100
AcDbLine
 10
4465.025751
 20
781.220823
 30
0.0
 11
3625.025751
 21
781.220823
 31
0.0
  0
LINE
  5
7DDB2
330
7E0C2
100
AcDbEntity
  8
Level 26
  6
Continuous
 62
    25
370
     0
100
AcDbLine
 10
4465.025751
 20
775.001091
 30
0.0
 11
3625.025751
 21
775.001091
 31
0.0
  0
ENDBLK
  5
7E0C4
330
7E0C2
100
AcDbEntity
  8
0
100
AcDbBlockEnd
  0
BLOCK
  5
7E0C6
330
7E0C5
100
AcDbEntity
  8
0
100
AcDbBlockBegin
  2
From Surface_25
 70
     0
 71
     0
 10
0.0
 20
0.0
 30
0.0
  3
From Surface_25
  1

  0
LINE
  5
7DDB4
330
7E0C5
100
AcDbEntity
  8
Level 26
  6
Continuous
 62
    25
370
     0
100
AcDbLine
 10
4465.025751
 20
841.746788
 30
0.0
 11
4465.025751
 21
857.536498
 31
0.0
  0
LINE
  5
7DDB5
330
7E0C5
100
AcDbEntity
  8
Level 26
  6
Continuous
 62
    25
370
     0
100
AcDbLine
 10
3625.025751
 20
841.746788
 30
0.0
 11
3625.025751
 21
857.536498
 31
0.0
  0
LINE
  5
7DDB6
330
7E0C5
100
AcDbEntity
  8
Level 26
  6
Continuous
 62
    25
370
     0
100
AcDbLine
 10
4465.025751
 20
857.536498
 30
0.0
 11
3625.025751
 21
857.536498
 31
0.0
  0
LINE
  5
7DDB7
330
7E0C5
100
AcDbEntity
  8
Level 26
  6
Continuous
 62
    25
370
     0
100
AcDbLine
 10
4465.025751
 20
841.746788
 30
0.0
 11
3625.025751
 21
841.746788
 31
0.0
  0
ENDBLK
  5
7E0C7
330
7E0C5
100
AcDbEntity
  8
0
100
AcDbBlockEnd
  0
BLOCK
  5
7E0C9
330
7E0C8
100
AcDbEntity
  8
0
100
AcDbBlockBegin
  2
From Solid
 70
     0
 71
     0
 10
0.0
 20
0.0
 30
0.0
  3
From Solid
  1

  0
POINT
  5
7DDD0
330
7E0C8
100
AcDbEntity
  8
Level 26
  6
Continuous
 62
   254
370
    13
100
AcDbPoint
 10
4474.025751
 20
-88.228904
 30
0.0
  0
LINE
  5
7DDD1
330
7E0C8
100
AcDbEntity
  8
Level 26
  6
Continuous
 62
   254
370
    13
100
AcDbLine
 10
4474.025751
 20
-88.228904
 30
0.0
 11
4474.025751
 21
-83.228904
 31
0.0
  0
LINE
  5
7DDD2
330
7E0C8
100
AcDbEntity
  8
Level 26
  6
Continuous
 62
   254
370
    13
100
AcDbLine
 10
4474.025751
 20
-83.228904
 30
0.0
 11
4474.025751
 21
-61.228904
 31
0.0
  0
LINE
  5
7DDD3
330
7E0C8
100
AcDbEntity
  8
Level 26
  6
Continuous
 62
   254
370
    13
100
AcDbLine
 10
4474.025751
 20
-61.228904
 30
0.0
 11
4474.025751
 21
-56.228904
 31
0.0
  0
POINT
  5
7DDD4
330
7E0C8
100
AcDbEntity
  8
Level 26
  6
Continuous
 62
   254
370
    13
100
AcDbPoint
 10
4474.025751
 20
-56.228904
 30
0.0
  0
LINE
  5
7DDD5
330
7E0C8
100
AcDbEntity
  8
Level 26
  6
Continuous
 62
   254
370
    13
100
AcDbLine
 10
4474.025751
 20
-56.228904
 30
0.0
 11
4474.025751
 21
-61.228904
 31
0.0
  0
LINE
  5
7DDD6
330
7E0C8
100
AcDbEntity
  8
Level 26
  6
Continuous
 62
   254
370
    13
100
AcDbLine
 10
4474.025751
 20
-61.228904
 30
0.0
 11
4474.025751
 21
-83.228904
 31
0.0
  0
LINE
  5
7DDD7
330
7E0C8
100
AcDbEntity
  8
Level 26
  6
Continuous
 62
   254
370
    13
100
AcDbLine
 10
4474.025751
 20
-83.228904
 30
0.0
 11
4474.025751
 21
-88.228904
 31
0.0
  0
LINE
  5
7DDD8
330
7E0C8
100
AcDbEntity
  8
Level 26
  6
Continuous
 62
   254
370
    13
100
AcDbLine
 10
4474.025751
 20
-65.728904
 30
0.0
 11
4474.025751
 21
-78.728904
 31
0.0
  0
LINE
  5
7DDD9
330
7E0C8
100
AcDbEntity
  8
Level 26
  6
Continuous
 62
   254
370
    13
100
AcDbLine
 10
4474.025751
 20
-78.728904
 30
0.0
 11
4474.025751
 21
-65.728904
 31
0.0
  0
POINT
  5
7DDDA
330
7E0C8
100
AcDbEntity
  8
Level 26
  6
Continuous
 62
   254
370
    13
100
AcDbPoint
 10
4480.025751
 20
-88.228904
 30
0.0
  0
LINE
  5
7DDDB
330
7E0C8
100
AcDbEntity
  8
Level 26
  6
Continuous
 62
   254
370
    13
100
AcDbLine
 10
4480.025751
 20
-88.228904
 30
0.0
 11
4480.025751
 21
-83.228904
 31
0.0
  0
LINE
  5
7DDDC
330
7E0C8
100
AcDbEntity
  8
Level 26
  6
Continuous
 62
   254
370
    13
100
AcDbLine
 10
4480.025751
 20
-83.228904
 30
0.0
 11
4480.025751
 21
-61.228904
 31
0.0
  0
LINE
  5
7DDDD
330
7E0C8
100
AcDbEntity
  8
Level 26
  6
Continuous
 62
   254
370
    13
100
AcDbLine
 10
4480.025751
 20
-61.228904
 30
0.0
 11
4480.025751
 21
-56.228904
 31
0.0
  0
POINT
  5
7DDDE
330
7E0C8
100
AcDbEntity
  8
Level 26
  6
Continuous
 62
   254
370
    13
100
AcDbPoint
 10
4480.025751
 20
-56.228904
 30
0.0
  0
LINE
  5
7DDDF
330
7E0C8
100
AcDbEntity
  8
Level 26
  6
Continuous
 62
   254
370
    13
100
AcDbLine
 10
4480.025751
 20
-56.228904
 30
0.0
 11
4480.025751
 21
-61.228904
 31
0.0
  0
LINE
  5
7DDE0
330
7E0C8
100
AcDbEntity
  8
Level 26
  6
Continuous
 62
   254
370
    13
100
AcDbLine
 10
4480.025751
 20
-61.228904
 30
0.0
 11
4480.025751
 21
-83.228904
 31
0.0
  0
LINE
  5
7DDE1
330
7E0C8
100
AcDbEntity
  8
Level 26
  6
Continuous
 62
   254
370
    13
100
AcDbLine
 10
4480.025751
 20
-83.228904
 30
0.0
 11
4480.025751
 21
-88.228904
 31
0.0
  0
LINE
  5
7DDE2
330
7E0C8
100
AcDbEntity
  8
Level 26
  6
Continuous
 62
   254
370
    13
100
AcDbLine
 10
4480.025751
 20
-65.728904
 30
0.0
 11
4480.025751
 21
-78.728904
 31
0.0
  0
LINE
  5
7DDE3
330
7E0C8
100
AcDbEntity
  8
Level 26
  6
Continuous
 62
   254
370
    13
100
AcDbLine
 10
4480.025751
 20
-78.728904
 30
0.0
 11
4480.025751
 21
-65.728904
 31
0.0
  0
LINE
  5
7DDE4
330
7E0C8
100
AcDbEntity
  8
Level 26
  6
Continuous
 62
   254
370
    13
100
AcDbLine
 10
4474.025751
 20
-88.228904
 30
0.0
 11
4480.025751
 21
-88.228904
 31
0.0
  0
LINE
  5
7DDE5
330
7E0C8
100
AcDbEntity
  8
Level 26
  6
Continuous
 62
   254
370
    13
100
AcDbLine
 10
4474.025751
 20
-88.228904
 30
0.0
 11
4480.025751
 21
-88.228904
 31
0.0
  0
LINE
  5
7DDE6
330
7E0C8
100
AcDbEntity
  8
Level 26
  6
Continuous
 62
   254
370
    13
100
AcDbLine
 10
4474.025751
 20
-83.228904
 30
0.0
 11
4480.025751
 21
-83.228904
 31
0.0
  0
LINE
  5
7DDE7
330
7E0C8
100
AcDbEntity
  8
Level 26
  6
Continuous
 62
   254
370
    13
100
AcDbLine
 10
4474.025751
 20
-61.228904
 30
0.0
 11
4480.025751
 21
-61.228904
 31
0.0
  0
LINE
  5
7DDE8
330
7E0C8
100
AcDbEntity
  8
Level 26
  6
Continuous
 62
   254
370
    13
100
AcDbLine
 10
4474.025751
 20
-56.228904
 30
0.0
 11
4480.025751
 21
-56.228904
 31
0.0
  0
LINE
  5
7DDE9
330
7E0C8
100
AcDbEntity
  8
Level 26
  6
Continuous
 62
   254
370
    13
100
AcDbLine
 10
4474.025751
 20
-56.228904
 30
0.0
 11
4480.025751
 21
-56.228904
 31
0.0
  0
LINE
  5
7DDEA
330
7E0C8
100
AcDbEntity
  8
Level 26
  6
Continuous
 62
   254
370
    13
100
AcDbLine
 10
4474.025751
 20
-61.228904
 30
0.0
 11
4480.025751
 21
-61.228904
 31
0.0
  0
LINE
  5
7DDEB
330
7E0C8
100
AcDbEntity
  8
Level 26
  6
Continuous
 62
   254
370
    13
100
AcDbLine
 10
4474.025751
 20
-83.228904
 30
0.0
 11
4480.025751
 21
-83.228904
 31
0.0
  0
LINE
  5
7DDEC
330
7E0C8
100
AcDbEntity
  8
Level 26
  6
Continuous
 62
   254
370
    13
100
AcDbLine
 10
4474.025751
 20
-72.228904
 30
0.0
 11
4480.025751
 21
-72.228904
 31
0.0
  0
LINE
  5
7DDED
330
7E0C8
100
AcDbEntity
  8
Level 26
  6
Continuous
 62
   254
370
    13
100
AcDbLine
 10
4474.025751
 20
-65.728904
 30
0.0
 11
4480.025751
 21
-65.728904
 31
0.0
  0
LINE
  5
7DDEE
330
7E0C8
100
AcDbEntity
  8
Level 26
  6
Continuous
 62
   254
370
    13
100
AcDbLine
 10
4474.025751
 20
-72.228904
 30
0.0
 11
4480.025751
 21
-72.228904
 31
0.0
  0
LINE
  5
7DDEF
330
7E0C8
100
AcDbEntity
  8
Level 26
  6
Continuous
 62
   254
370
    13
100
AcDbLine
 10
4474.025751
 20
-78.728904
 30
0.0
 11
4480.025751
 21
-78.728904
 31
0.0
  0
LINE
  5
7DDF0
330
7E0C8
100
AcDbEntity
  8
Level 26
  6
Continuous
 62
   254
370
    13
100
AcDbLine
 10
4474.025751
 20
-72.228904
 30
0.0
 11
4480.025751
 21
-72.228904
 31
0.0
  0
LINE
  5
7DDF1
330
7E0C8
100
AcDbEntity
  8
Level 26
  6
Continuous
 62
   254
370
    13
100
AcDbLine
 10
4474.025751
 20
-78.728904
 30
0.0
 11
4480.025751
 21
-78.728904
 31
0.0
  0
LINE
  5
7DDF2
330
7E0C8
100
AcDbEntity
  8
Level 26
  6
Continuous
 62
   254
370
    13
100
AcDbLine
 10
4474.025751
 20
-72.228904
 30
0.0
 11
4480.025751
 21
-72.228904
 31
0.0
  0
LINE
  5
7DDF3
330
7E0C8
100
AcDbEntity
  8
Level 26
  6
Continuous
 62
   254
370
    13
100
AcDbLine
 10
4474.025751
 20
-65.728904
 30
0.0
 11
4480.025751
 21
-65.728904
 31
0.0
  0
ENDBLK
  5
7E0CA
330
7E0C8
100
AcDbEntity
  8
0
100
AcDbBlockEnd
  0
BLOCK
  5
7E0CC
330
7E0CB
100
AcDbEntity
  8
0
100
AcDbBlockBegin
  2
From Solid_1
 70
     0
 71
     0
 10
0.0
 20
0.0
 30
0.0
  3
From Solid_1
  1

  0
POINT
  5
7DDF5
330
7E0CB
100
AcDbEntity
  8
Level 26
  6
Continuous
 62
   254
370
    13
100
AcDbPoint
 10
3610.025751
 20
-88.228904
 30
0.0
  0
LINE
  5
7DDF6
330
7E0CB
100
AcDbEntity
  8
Level 26
  6
Continuous
 62
   254
370
    13
100
AcDbLine
 10
3610.025751
 20
-88.228904
 30
0.0
 11
3610.025751
 21
-83.228904
 31
0.0
  0
LINE
  5
7DDF7
330
7E0CB
100
AcDbEntity
  8
Level 26
  6
Continuous
 62
   254
370
    13
100
AcDbLine
 10
3610.025751
 20
-83.228904
 30
0.0
 11
3610.025751
 21
-61.228904
 31
0.0
  0
LINE
  5
7DDF8
330
7E0CB
100
AcDbEntity
  8
Level 26
  6
Continuous
 62
   254
370
    13
100
AcDbLine
 10
3610.025751
 20
-61.228904
 30
0.0
 11
3610.025751
 21
-56.228904
 31
0.0
  0
POINT
  5
7DDF9
330
7E0CB
100
AcDbEntity
  8
Level 26
  6
Continuous
 62
   254
370
    13
100
AcDbPoint
 10
3610.025751
 20
-56.228904
 30
0.0
  0
LINE
  5
7DDFA
330
7E0CB
100
AcDbEntity
  8
Level 26
  6
Continuous
 62
   254
370
    13
100
AcDbLine
 10
3610.025751
 20
-56.228904
 30
0.0
 11
3610.025751
 21
-61.228904
 31
0.0
  0
LINE
  5
7DDFB
330
7E0CB
100
AcDbEntity
  8
Level 26
  6
Continuous
 62
   254
370
    13
100
AcDbLine
 10
3610.025751
 20
-61.228904
 30
0.0
 11
3610.025751
 21
-83.228904
 31
0.0
  0
LINE
  5
7DDFC
330
7E0CB
100
AcDbEntity
  8
Level 26
  6
Continuous
 62
   254
370
    13
100
AcDbLine
 10
3610.025751
 20
-83.228904
 30
0.0
 11
3610.025751
 21
-88.228904
 31
0.0
  0
LINE
  5
7DDFD
330
7E0CB
100
AcDbEntity
  8
Level 26
  6
Continuous
 62
   254
370
    13
100
AcDbLine
 10
3610.025751
 20
-65.728904
 30
0.0
 11
3610.025751
 21
-78.728904
 31
0.0
  0
LINE
  5
7DDFE
330
7E0CB
100
AcDbEntity
  8
Level 26
  6
Continuous
 62
   254
370
    13
100
AcDbLine
 10
3610.025751
 20
-78.728904
 30
0.0
 11
3610.025751
 21
-65.728904
 31
0.0
  0
POINT
  5
7DDFF
330
7E0CB
100
AcDbEntity
  8
Level 26
  6
Continuous
 62
   254
370
    13
100
AcDbPoint
 10
3616.025751
 20
-88.228904
 30
0.0
  0
LINE
  5
7DE00
330
7E0CB
100
AcDbEntity
  8
Level 26
  6
Continuous
 62
   254
370
    13
100
AcDbLine
 10
3616.025751
 20
-88.228904
 30
0.0
 11
3616.025751
 21
-83.228904
 31
0.0
  0
LINE
  5
7DE01
330
7E0CB
100
AcDbEntity
  8
Level 26
  6
Continuous
 62
   254
370
    13
100
AcDbLine
 10
3616.025751
 20
-83.228904
 30
0.0
 11
3616.025751
 21
-61.228904
 31
0.0
  0
LINE
  5
7DE02
330
7E0CB
100
AcDbEntity
  8
Level 26
  6
Continuous
 62
   254
370
    13
100
AcDbLine
 10
3616.025751
 20
-61.228904
 30
0.0
 11
3616.025751
 21
-56.228904
 31
0.0
  0
POINT
  5
7DE03
330
7E0CB
100
AcDbEntity
  8
Level 26
  6
Continuous
 62
   254
370
    13
100
AcDbPoint
 10
3616.025751
 20
-56.228904
 30
0.0
  0
LINE
  5
7DE04
330
7E0CB
100
AcDbEntity
  8
Level 26
  6
Continuous
 62
   254
370
    13
100
AcDbLine
 10
3616.025751
 20
-56.228904
 30
0.0
 11
3616.025751
 21
-61.228904
 31
0.0
  0
LINE
  5
7DE05
330
7E0CB
100
AcDbEntity
  8
Level 26
  6
Continuous
 62
   254
370
    13
100
AcDbLine
 10
3616.025751
 20
-61.228904
 30
0.0
 11
3616.025751
 21
-83.228904
 31
0.0
  0
LINE
  5
7DE06
330
7E0CB
100
AcDbEntity
  8
Level 26
  6
Continuous
 62
   254
370
    13
100
AcDbLine
 10
3616.025751
 20
-83.228904
 30
0.0
 11
3616.025751
 21
-88.228904
 31
0.0
  0
LINE
  5
7DE07
330
7E0CB
100
AcDbEntity
  8
Level 26
  6
Continuous
 62
   254
370
    13
100
AcDbLine
 10
3616.025751
 20
-65.728904
 30
0.0
 11
3616.025751
 21
-78.728904
 31
0.0
  0
LINE
  5
7DE08
330
7E0CB
100
AcDbEntity
  8
Level 26
  6
Continuous
 62
   254
370
    13
100
AcDbLine
 10
3616.025751
 20
-78.728904
 30
0.0
 11
3616.025751
 21
-65.728904
 31
0.0
  0
LINE
  5
7DE09
330
7E0CB
100
AcDbEntity
  8
Level 26
  6
Continuous
 62
   254
370
    13
100
AcDbLine
 10
3610.025751
 20
-88.228904
 30
0.0
 11
3616.025751
 21
-88.228904
 31
0.0
  0
LINE
  5
7DE0A
330
7E0CB
100
AcDbEntity
  8
Level 26
  6
Continuous
 62
   254
370
    13
100
AcDbLine
 10
3610.025751
 20
-88.228904
 30
0.0
 11
3616.025751
 21
-88.228904
 31
0.0
  0
LINE
  5
7DE0B
330
7E0CB
100
AcDbEntity
  8
Level 26
  6
Continuous
 62
   254
370
    13
100
AcDbLine
 10
3610.025751
 20
-83.228904
 30
0.0
 11
3616.025751
 21
-83.228904
 31
0.0
  0
LINE
  5
7DE0C
330
7E0CB
100
AcDbEntity
  8
Level 26
  6
Continuous
 62
   254
370
    13
100
AcDbLine
 10
3610.025751
 20
-61.228904
 30
0.0
 11
3616.025751
 21
-61.228904
 31
0.0
  0
LINE
  5
7DE0D
330
7E0CB
100
AcDbEntity
  8
Level 26
  6
Continuous
 62
   254
370
    13
100
AcDbLine
 10
3610.025751
 20
-56.228904
 30
0.0
 11
3616.025751
 21
-56.228904
 31
0.0
  0
LINE
  5
7DE0E
330
7E0CB
100
AcDbEntity
  8
Level 26
  6
Continuous
 62
   254
370
    13
100
AcDbLine
 10
3610.025751
 20
-56.228904
 30
0.0
 11
3616.025751
 21
-56.228904
 31
0.0
  0
LINE
  5
7DE0F
330
7E0CB
100
AcDbEntity
  8
Level 26
  6
Continuous
 62
   254
370
    13
100
AcDbLine
 10
3610.025751
 20
-61.228904
 30
0.0
 11
3616.025751
 21
-61.228904
 31
0.0
  0
LINE
  5
7DE10
330
7E0CB
100
AcDbEntity
  8
Level 26
  6
Continuous
 62
   254
370
    13
100
AcDbLine
 10
3610.025751
 20
-83.228904
 30
0.0
 11
3616.025751
 21
-83.228904
 31
0.0
  0
LINE
  5
7DE11
330
7E0CB
100
AcDbEntity
  8
Level 26
  6
Continuous
 62
   254
370
    13
100
AcDbLine
 10
3610.025751
 20
-72.228904
 30
0.0
 11
3616.025751
 21
-72.228904
 31
0.0
  0
LINE
  5
7DE12
330
7E0CB
100
AcDbEntity
  8
Level 26
  6
Continuous
 62
   254
370
    13
100
AcDbLine
 10
3610.025751
 20
-65.728904
 30
0.0
 11
3616.025751
 21
-65.728904
 31
0.0
  0
LINE
  5
7DE13
330
7E0CB
100
AcDbEntity
  8
Level 26
  6
Continuous
 62
   254
370
    13
100
AcDbLine
 10
3610.025751
 20
-72.228904
 30
0.0
 11
3616.025751
 21
-72.228904
 31
0.0
  0
LINE
  5
7DE14
330
7E0CB
100
AcDbEntity
  8
Level 26
  6
Continuous
 62
   254
370
    13
100
AcDbLine
 10
3610.025751
 20
-78.728904
 30
0.0
 11
3616.025751
 21
-78.728904
 31
0.0
  0
LINE
  5
7DE15
330
7E0CB
100
AcDbEntity
  8
Level 26
  6
Continuous
 62
   254
370
    13
100
AcDbLine
 10
3610.025751
 20
-72.228904
 30
0.0
 11
3616.025751
 21
-72.228904
 31
0.0
  0
LINE
  5
7DE16
330
7E0CB
100
AcDbEntity
  8
Level 26
  6
Continuous
 62
   254
370
    13
100
AcDbLine
 10
3610.025751
 20
-78.728904
 30
0.0
 11
3616.025751
 21
-78.728904
 31
0.0
  0
LINE
  5
7DE17
330
7E0CB
100
AcDbEntity
  8
Level 26
  6
Continuous
 62
   254
370
    13
100
AcDbLine
 10
3610.025751
 20
-72.228904
 30
0.0
 11
3616.025751
 21
-72.228904
 31
0.0
  0
LINE
  5
7DE18
330
7E0CB
100
AcDbEntity
  8
Level 26
  6
Continuous
 62
   254
370
    13
100
AcDbLine
 10
3610.025751
 20
-65.728904
 30
0.0
 11
3616.025751
 21
-65.728904
 31
0.0
  0
ENDBLK
  5
7E0CD
330
7E0CB
100
AcDbEntity
  8
0
100
AcDbBlockEnd
  0
BLOCK
  5
7E0CF
330
7E0CE
100
AcDbEntity
  8
0
100
AcDbBlockBegin
  2
From Surface_26
 70
     0
 71
     0
 10
0.0
 20
0.0
 30
0.0
  3
From Surface_26
  1

  0
LINE
  5
7DE2C
330
7E0CE
100
AcDbEntity
  8
Level 26
  6
Continuous
 62
    25
370
     0
100
AcDbLine
 10
4465.025751
 20
3625.913641
 30
0.0
 11
4465.025751
 21
3633.128652
 31
0.0
  0
LINE
  5
7DE2D
330
7E0CE
100
AcDbEntity
  8
Level 26
  6
Continuous
 62
    25
370
     0
100
AcDbLine
 10
3625.025751
 20
3625.913641
 30
0.0
 11
3625.025751
 21
3633.128652
 31
0.0
  0
LINE
  5
7DE2E
330
7E0CE
100
AcDbEntity
  8
Level 26
  6
Continuous
 62
    25
370
     0
100
AcDbLine
 10
4465.025751
 20
3625.913641
 30
0.0
 11
3625.025751
 21
3625.913641
 31
0.0
  0
LINE
  5
7DE2F
330
7E0CE
100
AcDbEntity
  8
Level 26
  6
Continuous
 62
    25
370
     0
100
AcDbLine
 10
4465.025751
 20
3632.133373
 30
0.0
 11
3625.025751
 21
3632.133373
 31
0.0
  0
ENDBLK
  5
7E0D0
330
7E0CE
100
AcDbEntity
  8
0
100
AcDbBlockEnd
  0
BLOCK
  5
7E0D2
330
7E0D1
100
AcDbEntity
  8
0
100
AcDbBlockBegin
  2
From Surface_27
 70
     0
 71
     0
 10
0.0
 20
0.0
 30
0.0
  3
From Surface_27
  1

  0
LINE
  5
7DE31
330
7E0D1
100
AcDbEntity
  8
Level 26
  6
Continuous
 62
    25
370
     0
100
AcDbLine
 10
4465.025751
 20
3565.387676
 30
0.0
 11
4465.025751
 21
3549.597966
 31
0.0
  0
LINE
  5
7DE32
330
7E0D1
100
AcDbEntity
  8
Level 26
  6
Continuous
 62
    25
370
     0
100
AcDbLine
 10
3625.025751
 20
3565.387676
 30
0.0
 11
3625.025751
 21
3549.597966
 31
0.0
  0
LINE
  5
7DE33
330
7E0D1
100
AcDbEntity
  8
Level 26
  6
Continuous
 62
    25
370
     0
100
AcDbLine
 10
4465.025751
 20
3549.597966
 30
0.0
 11
3625.025751
 21
3549.597966
 31
0.0
  0
LINE
  5
7DE34
330
7E0D1
100
AcDbEntity
  8
Level 26
  6
Continuous
 62
    25
370
     0
100
AcDbLine
 10
4465.025751
 20
3565.387676
 30
0.0
 11
3625.025751
 21
3565.387676
 31
0.0
  0
ENDBLK
  5
7E0D3
330
7E0D1
100
AcDbEntity
  8
0
100
AcDbBlockEnd
  0
BLOCK
  5
7E0D5
330
7E0D4
100
AcDbEntity
  8
0
100
AcDbBlockBegin
  2
From Surface_28
 70
     0
 71
     0
 10
0.0
 20
0.0
 30
0.0
  3
From Surface_28
  1

  0
LINE
  5
7DE49
330
7E0D4
100
AcDbEntity
  8
Level 26
  6
Continuous
 62
    25
370
     0
100
AcDbLine
 10
4465.025751
 20
3527.948765
 30
0.0
 11
4465.025751
 21
3535.163777
 31
0.0
  0
LINE
  5
7DE4A
330
7E0D4
100
AcDbEntity
  8
Level 26
  6
Continuous
 62
    25
370
     0
100
AcDbLine
 10
3625.025751
 20
3527.948765
 30
0.0
 11
3625.025751
 21
3535.163777
 31
0.0
  0
LINE
  5
7DE4B
330
7E0D4
100
AcDbEntity
  8
Level 26
  6
Continuous
 62
    25
370
     0
100
AcDbLine
 10
4465.025751
 20
3527.948765
 30
0.0
 11
3625.025751
 21
3527.948765
 31
0.0
  0
LINE
  5
7DE4C
330
7E0D4
100
AcDbEntity
  8
Level 26
  6
Continuous
 62
    25
370
     0
100
AcDbLine
 10
4465.025751
 20
3534.168497
 30
0.0
 11
3625.025751
 21
3534.168497
 31
0.0
  0
ENDBLK
  5
7E0D6
330
7E0D4
100
AcDbEntity
  8
0
100
AcDbBlockEnd
  0
BLOCK
  5
7E0D8
330
7E0D7
100
AcDbEntity
  8
0
100
AcDbBlockBegin
  2
From Surface_29
 70
     0
 71
     0
 10
0.0
 20
0.0
 30
0.0
  3
From Surface_29
  1

  0
LINE
  5
7DE4E
330
7E0D7
100
AcDbEntity
  8
Level 26
  6
Continuous
 62
    25
370
     0
100
AcDbLine
 10
4465.025751
 20
3467.4228
 30
0.0
 11
4465.025751
 21
3451.63309
 31
0.0
  0
LINE
  5
7DE4F
330
7E0D7
100
AcDbEntity
  8
Level 26
  6
Continuous
 62
    25
370
     0
100
AcDbLine
 10
3625.025751
 20
3467.4228
 30
0.0
 11
3625.025751
 21
3451.63309
 31
0.0
  0
LINE
  5
7DE50
330
7E0D7
100
AcDbEntity
  8
Level 26
  6
Continuous
 62
    25
370
     0
100
AcDbLine
 10
4465.025751
 20
3451.63309
 30
0.0
 11
3625.025751
 21
3451.63309
 31
0.0
  0
LINE
  5
7DE51
330
7E0D7
100
AcDbEntity
  8
Level 26
  6
Continuous
 62
    25
370
     0
100
AcDbLine
 10
4465.025751
 20
3467.4228
 30
0.0
 11
3625.025751
 21
3467.4228
 31
0.0
  0
ENDBLK
  5
7E0D9
330
7E0D7
100
AcDbEntity
  8
0
100
AcDbBlockEnd
  0
BLOCK
  5
7E0DB
330
7E0DA
100
AcDbEntity
  8
0
100
AcDbBlockBegin
  2
From Surface_30
 70
     0
 71
     0
 10
0.0
 20
0.0
 30
0.0
  3
From Surface_30
  1

  0
LINE
  5
7DE66
330
7E0DA
100
AcDbEntity
  8
Level 26
  6
Continuous
 62
    25
370
     0
100
AcDbLine
 10
4465.025751
 20
3429.983889
 30
0.0
 11
4465.025751
 21
3437.198901
 31
0.0
  0
LINE
  5
7DE67
330
7E0DA
100
AcDbEntity
  8
Level 26
  6
Continuous
 62
    25
370
     0
100
AcDbLine
 10
3625.025751
 20
3429.983889
 30
0.0
 11
3625.025751
 21
3437.198901
 31
0.0
  0
LINE
  5
7DE68
330
7E0DA
100
AcDbEntity
  8
Level 26
  6
Continuous
 62
    25
370
     0
100
AcDbLine
 10
4465.025751
 20
3429.983889
 30
0.0
 11
3625.025751
 21
3429.983889
 31
0.0
  0
LINE
  5
7DE69
330
7E0DA
100
AcDbEntity
  8
Level 26
  6
Continuous
 62
    25
370
     0
100
AcDbLine
 10
4465.025751
 20
3436.203621
 30
0.0
 11
3625.025751
 21
3436.203621
 31
0.0
  0
ENDBLK
  5
7E0DC
330
7E0DA
100
AcDbEntity
  8
0
100
AcDbBlockEnd
  0
BLOCK
  5
7E0DE
330
7E0DD
100
AcDbEntity
  8
0
100
AcDbBlockBegin
  2
From Surface_31
 70
     0
 71
     0
 10
0.0
 20
0.0
 30
0.0
  3
From Surface_31
  1

  0
LINE
  5
7DE6B
330
7E0DD
100
AcDbEntity
  8
Level 26
  6
Continuous
 62
    25
370
     0
100
AcDbLine
 10
4465.025751
 20
3369.457924
 30
0.0
 11
4465.025751
 21
3353.668214
 31
0.0
  0
LINE
  5
7DE6C
330
7E0DD
100
AcDbEntity
  8
Level 26
  6
Continuous
 62
    25
370
     0
100
AcDbLine
 10
3625.025751
 20
3369.457924
 30
0.0
 11
3625.025751
 21
3353.668214
 31
0.0
  0
LINE
  5
7DE6D
330
7E0DD
100
AcDbEntity
  8
Level 26
  6
Continuous
 62
    25
370
     0
100
AcDbLine
 10
4465.025751
 20
3353.668214
 30
0.0
 11
3625.025751
 21
3353.668214
 31
0.0
  0
LINE
  5
7DE6E
330
7E0DD
100
AcDbEntity
  8
Level 26
  6
Continuous
 62
    25
370
     0
100
AcDbLine
 10
4465.025751
 20
3369.457924
 30
0.0
 11
3625.025751
 21
3369.457924
 31
0.0
  0
ENDBLK
  5
7E0DF
330
7E0DD
100
AcDbEntity
  8
0
100
AcDbBlockEnd
  0
BLOCK
  5
7E0E1
330
7E0E0
100
AcDbEntity
  8
0
100
AcDbBlockBegin
  2
From Surface_32
 70
     0
 71
     0
 10
0.0
 20
0.0
 30
0.0
  3
From Surface_32
  1

  0
LINE
  5
7DE83
330
7E0E0
100
AcDbEntity
  8
Level 26
  6
Continuous
 62
    25
370
     0
100
AcDbLine
 10
4465.025751
 20
3332.019012
 30
0.0
 11
4465.025751
 21
3339.234023
 31
0.0
  0
LINE
  5
7DE84
330
7E0E0
100
AcDbEntity
  8
Level 26
  6
Continuous
 62
    25
370
     0
100
AcDbLine
 10
3625.025751
 20
3332.019012
 30
0.0
 11
3625.025751
 21
3339.234023
 31
0.0
  0
LINE
  5
7DE85
330
7E0E0
100
AcDbEntity
  8
Level 26
  6
Continuous
 62
    25
370
     0
100
AcDbLine
 10
4465.025751
 20
3332.019012
 30
0.0
 11
3625.025751
 21
3332.019012
 31
0.0
  0
LINE
  5
7DE86
330
7E0E0
100
AcDbEntity
  8
Level 26
  6
Continuous
 62
    25
370
     0
100
AcDbLine
 10
4465.025751
 20
3338.238744
 30
0.0
 11
3625.025751
 21
3338.238744
 31
0.0
  0
ENDBLK
  5
7E0E2
330
7E0E0
100
AcDbEntity
  8
0
100
AcDbBlockEnd
  0
BLOCK
  5
7E0E4
330
7E0E3
100
AcDbEntity
  8
0
100
AcDbBlockBegin
  2
From Surface_33
 70
     0
 71
     0
 10
0.0
 20
0.0
 30
0.0
  3
From Surface_33
  1

  0
LINE
  5
7DE88
330
7E0E3
100
AcDbEntity
  8
Level 26
  6
Continuous
 62
    25
370
     0
100
AcDbLine
 10
4465.025751
 20
3271.493047
 30
0.0
 11
4465.025751
 21
3255.703337
 31
0.0
  0
LINE
  5
7DE89
330
7E0E3
100
AcDbEntity
  8
Level 26
  6
Continuous
 62
    25
370
     0
100
AcDbLine
 10
3625.025751
 20
3271.493047
 30
0.0
 11
3625.025751
 21
3255.703337
 31
0.0
  0
LINE
  5
7DE8A
330
7E0E3
100
AcDbEntity
  8
Level 26
  6
Continuous
 62
    25
370
     0
100
AcDbLine
 10
4465.025751
 20
3255.703337
 30
0.0
 11
3625.025751
 21
3255.703337
 31
0.0
  0
LINE
  5
7DE8B
330
7E0E3
100
AcDbEntity
  8
Level 26
  6
Continuous
 62
    25
370
     0
100
AcDbLine
 10
4465.025751
 20
3271.493047
 30
0.0
 11
3625.025751
 21
3271.493047
 31
0.0
  0
ENDBLK
  5
7E0E5
330
7E0E3
100
AcDbEntity
  8
0
100
AcDbBlockEnd
  0
BLOCK
  5
7E0E7
330
7E0E6
100
AcDbEntity
  8
0
100
AcDbBlockBegin
  2
From Surface_34
 70
     0
 71
     0
 10
0.0
 20
0.0
 30
0.0
  3
From Surface_34
  1

  0
LINE
  5
7DEA0
330
7E0E6
100
AcDbEntity
  8
Level 26
  6
Continuous
 62
    25
370
     0
100
AcDbLine
 10
4465.025751
 20
3234.054136
 30
0.0
 11
4465.025751
 21
3241.269148
 31
0.0
  0
LINE
  5
7DEA1
330
7E0E6
100
AcDbEntity
  8
Level 26
  6
Continuous
 62
    25
370
     0
100
AcDbLine
 10
3625.025751
 20
3234.054136
 30
0.0
 11
3625.025751
 21
3241.269148
 31
0.0
  0
LINE
  5
7DEA2
330
7E0E6
100
AcDbEntity
  8
Level 26
  6
Continuous
 62
    25
370
     0
100
AcDbLine
 10
4465.025751
 20
3234.054136
 30
0.0
 11
3625.025751
 21
3234.054136
 31
0.0
  0
LINE
  5
7DEA3
330
7E0E6
100
AcDbEntity
  8
Level 26
  6
Continuous
 62
    25
370
     0
100
AcDbLine
 10
4465.025751
 20
3240.273868
 30
0.0
 11
3625.025751
 21
3240.273868
 31
0.0
  0
ENDBLK
  5
7E0E8
330
7E0E6
100
AcDbEntity
  8
0
100
AcDbBlockEnd
  0
BLOCK
  5
7E0EA
330
7E0E9
100
AcDbEntity
  8
0
100
AcDbBlockBegin
  2
From Surface_35
 70
     0
 71
     0
 10
0.0
 20
0.0
 30
0.0
  3
From Surface_35
  1

  0
LINE
  5
7DEA5
330
7E0E9
100
AcDbEntity
  8
Level 26
  6
Continuous
 62
    25
370
     0
100
AcDbLine
 10
4465.025751
 20
3173.528171
 30
0.0
 11
4465.025751
 21
3157.738461
 31
0.0
  0
LINE
  5
7DEA6
330
7E0E9
100
AcDbEntity
  8
Level 26
  6
Continuous
 62
    25
370
     0
100
AcDbLine
 10
3625.025751
 20
3173.528171
 30
0.0
 11
3625.025751
 21
3157.738461
 31
0.0
  0
LINE
  5
7DEA7
330
7E0E9
100
AcDbEntity
  8
Level 26
  6
Continuous
 62
    25
370
     0
100
AcDbLine
 10
4465.025751
 20
3157.738461
 30
0.0
 11
3625.025751
 21
3157.738461
 31
0.0
  0
LINE
  5
7DEA8
330
7E0E9
100
AcDbEntity
  8
Level 26
  6
Continuous
 62
    25
370
     0
100
AcDbLine
 10
4465.025751
 20
3173.528171
 30
0.0
 11
3625.025751
 21
3173.528171
 31
0.0
  0
ENDBLK
  5
7E0EB
330
7E0E9
100
AcDbEntity
  8
0
100
AcDbBlockEnd
  0
BLOCK
  5
7E0ED
330
7E0EC
100
AcDbEntity
  8
0
100
AcDbBlockBegin
  2
From Surface_36
 70
     0
 71
     0
 10
0.0
 20
0.0
 30
0.0
  3
From Surface_36
  1

  0
LINE
  5
7DEBD
330
7E0EC
100
AcDbEntity
  8
Level 26
  6
Continuous
 62
    25
370
     0
100
AcDbLine
 10
4465.025751
 20
3136.08926
 30
0.0
 11
4465.025751
 21
3143.304272
 31
0.0
  0
LINE
  5
7DEBE
330
7E0EC
100
AcDbEntity
  8
Level 26
  6
Continuous
 62
    25
370
     0
100
AcDbLine
 10
3625.025751
 20
3136.08926
 30
0.0
 11
3625.025751
 21
3143.304272
 31
0.0
  0
LINE
  5
7DEBF
330
7E0EC
100
AcDbEntity
  8
Level 26
  6
Continuous
 62
    25
370
     0
100
AcDbLine
 10
4465.025751
 20
3136.08926
 30
0.0
 11
3625.025751
 21
3136.08926
 31
0.0
  0
LINE
  5
7DEC0
330
7E0EC
100
AcDbEntity
  8
Level 26
  6
Continuous
 62
    25
370
     0
100
AcDbLine
 10
4465.025751
 20
3142.308992
 30
0.0
 11
3625.025751
 21
3142.308992
 31
0.0
  0
ENDBLK
  5
7E0EE
330
7E0EC
100
AcDbEntity
  8
0
100
AcDbBlockEnd
  0
BLOCK
  5
7E0F0
330
7E0EF
100
AcDbEntity
  8
0
100
AcDbBlockBegin
  2
From Surface_37
 70
     0
 71
     0
 10
0.0
 20
0.0
 30
0.0
  3
From Surface_37
  1

  0
LINE
  5
7DEC2
330
7E0EF
100
AcDbEntity
  8
Level 26
  6
Continuous
 62
    25
370
     0
100
AcDbLine
 10
4465.025751
 20
3075.563295
 30
0.0
 11
4465.025751
 21
3059.773585
 31
0.0
  0
LINE
  5
7DEC3
330
7E0EF
100
AcDbEntity
  8
Level 26
  6
Continuous
 62
    25
370
     0
100
AcDbLine
 10
3625.025751
 20
3075.563295
 30
0.0
 11
3625.025751
 21
3059.773585
 31
0.0
  0
LINE
  5
7DEC4
330
7E0EF
100
AcDbEntity
  8
Level 26
  6
Continuous
 62
    25
370
     0
100
AcDbLine
 10
4465.025751
 20
3059.773585
 30
0.0
 11
3625.025751
 21
3059.773585
 31
0.0
  0
LINE
  5
7DEC5
330
7E0EF
100
AcDbEntity
  8
Level 26
  6
Continuous
 62
    25
370
     0
100
AcDbLine
 10
4465.025751
 20
3075.563295
 30
0.0
 11
3625.025751
 21
3075.563295
 31
0.0
  0
ENDBLK
  5
7E0F1
330
7E0EF
100
AcDbEntity
  8
0
100
AcDbBlockEnd
  0
BLOCK
  5
7E0F3
330
7E0F2
100
AcDbEntity
  8
0
100
AcDbBlockBegin
  2
From Surface_38
 70
     0
 71
     0
 10
0.0
 20
0.0
 30
0.0
  3
From Surface_38
  1

  0
LINE
  5
7DEDA
330
7E0F2
100
AcDbEntity
  8
Level 26
  6
Continuous
 62
    25
370
     0
100
AcDbLine
 10
4465.025751
 20
3038.124384
 30
0.0
 11
4465.025751
 21
3045.339395
 31
0.0
  0
LINE
  5
7DEDB
330
7E0F2
100
AcDbEntity
  8
Level 26
  6
Continuous
 62
    25
370
     0
100
AcDbLine
 10
3625.025751
 20
3038.124384
 30
0.0
 11
3625.025751
 21
3045.339395
 31
0.0
  0
LINE
  5
7DEDC
330
7E0F2
100
AcDbEntity
  8
Level 26
  6
Continuous
 62
    25
370
     0
100
AcDbLine
 10
4465.025751
 20
3038.124384
 30
0.0
 11
3625.025751
 21
3038.124384
 31
0.0
  0
LINE
  5
7DEDD
330
7E0F2
100
AcDbEntity
  8
Level 26
  6
Continuous
 62
    25
370
     0
100
AcDbLine
 10
4465.025751
 20
3044.344116
 30
0.0
 11
3625.025751
 21
3044.344116
 31
0.0
  0
ENDBLK
  5
7E0F4
330
7E0F2
100
AcDbEntity
  8
0
100
AcDbBlockEnd
  0
BLOCK
  5
7E0F6
330
7E0F5
100
AcDbEntity
  8
0
100
AcDbBlockBegin
  2
From Surface_39
 70
     0
 71
     0
 10
0.0
 20
0.0
 30
0.0
  3
From Surface_39
  1

  0
LINE
  5
7DEDF
330
7E0F5
100
AcDbEntity
  8
Level 26
  6
Continuous
 62
    25
370
     0
100
AcDbLine
 10
4465.025751
 20
2977.598419
 30
0.0
 11
4465.025751
 21
2961.808709
 31
0.0
  0
LINE
  5
7DEE0
330
7E0F5
100
AcDbEntity
  8
Level 26
  6
Continuous
 62
    25
370
     0
100
AcDbLine
 10
3625.025751
 20
2977.598419
 30
0.0
 11
3625.025751
 21
2961.808709
 31
0.0
  0
LINE
  5
7DEE1
330
7E0F5
100
AcDbEntity
  8
Level 26
  6
Continuous
 62
    25
370
     0
100
AcDbLine
 10
4465.025751
 20
2961.808709
 30
0.0
 11
3625.025751
 21
2961.808709
 31
0.0
  0
LINE
  5
7DEE2
330
7E0F5
100
AcDbEntity
  8
Level 26
  6
Continuous
 62
    25
370
     0
100
AcDbLine
 10
4465.025751
 20
2977.598419
 30
0.0
 11
3625.025751
 21
2977.598419
 31
0.0
  0
ENDBLK
  5
7E0F7
330
7E0F5
100
AcDbEntity
  8
0
100
AcDbBlockEnd
  0
BLOCK
  5
7E0F9
330
7E0F8
100
AcDbEntity
  8
0
100
AcDbBlockBegin
  2
From Surface_40
 70
     0
 71
     0
 10
0.0
 20
0.0
 30
0.0
  3
From Surface_40
  1

  0
LINE
  5
7DEF7
330
7E0F8
100
AcDbEntity
  8
Level 26
  6
Continuous
 62
    25
370
     0
100
AcDbLine
 10
4465.025751
 20
2940.159507
 30
0.0
 11
4465.025751
 21
2947.374519
 31
0.0
  0
LINE
  5
7DEF8
330
7E0F8
100
AcDbEntity
  8
Level 26
  6
Continuous
 62
    25
370
     0
100
AcDbLine
 10
3625.025751
 20
2940.159507
 30
0.0
 11
3625.025751
 21
2947.374519
 31
0.0
  0
LINE
  5
7DEF9
330
7E0F8
100
AcDbEntity
  8
Level 26
  6
Continuous
 62
    25
370
     0
100
AcDbLine
 10
4465.025751
 20
2940.159507
 30
0.0
 11
3625.025751
 21
2940.159507
 31
0.0
  0
LINE
  5
7DEFA
330
7E0F8
100
AcDbEntity
  8
Level 26
  6
Continuous
 62
    25
370
     0
100
AcDbLine
 10
4465.025751
 20
2946.379239
 30
0.0
 11
3625.025751
 21
2946.379239
 31
0.0
  0
ENDBLK
  5
7E0FA
330
7E0F8
100
AcDbEntity
  8
0
100
AcDbBlockEnd
  0
BLOCK
  5
7E0FC
330
7E0FB
100
AcDbEntity
  8
0
100
AcDbBlockBegin
  2
From Surface_41
 70
     0
 71
     0
 10
0.0
 20
0.0
 30
0.0
  3
From Surface_41
  1

  0
LINE
  5
7DEFC
330
7E0FB
100
AcDbEntity
  8
Level 26
  6
Continuous
 62
    25
370
     0
100
AcDbLine
 10
4465.025751
 20
2879.633542
 30
0.0
 11
4465.025751
 21
2863.843832
 31
0.0
  0
LINE
  5
7DEFD
330
7E0FB
100
AcDbEntity
  8
Level 26
  6
Continuous
 62
    25
370
     0
100
AcDbLine
 10
3625.025751
 20
2879.633542
 30
0.0
 11
3625.025751
 21
2863.843832
 31
0.0
  0
LINE
  5
7DEFE
330
7E0FB
100
AcDbEntity
  8
Level 26
  6
Continuous
 62
    25
370
     0
100
AcDbLine
 10
4465.025751
 20
2863.843832
 30
0.0
 11
3625.025751
 21
2863.843832
 31
0.0
  0
LINE
  5
7DEFF
330
7E0FB
100
AcDbEntity
  8
Level 26
  6
Continuous
 62
    25
370
     0
100
AcDbLine
 10
4465.025751
 20
2879.633542
 30
0.0
 11
3625.025751
 21
2879.633542
 31
0.0
  0
ENDBLK
  5
7E0FD
330
7E0FB
100
AcDbEntity
  8
0
100
AcDbBlockEnd
  0
BLOCK
  5
7E0FF
330
7E0FE
100
AcDbEntity
  8
0
100
AcDbBlockBegin
  2
From Surface_42
 70
     0
 71
     0
 10
0.0
 20
0.0
 30
0.0
  3
From Surface_42
  1

  0
LINE
  5
7DF14
330
7E0FE
100
AcDbEntity
  8
Level 26
  6
Continuous
 62
    25
370
     0
100
AcDbLine
 10
4465.025751
 20
2842.194631
 30
0.0
 11
4465.025751
 21
2849.409643
 31
0.0
  0
LINE
  5
7DF15
330
7E0FE
100
AcDbEntity
  8
Level 26
  6
Continuous
 62
    25
370
     0
100
AcDbLine
 10
3625.025751
 20
2842.194631
 30
0.0
 11
3625.025751
 21
2849.409643
 31
0.0
  0
LINE
  5
7DF16
330
7E0FE
100
AcDbEntity
  8
Level 26
  6
Continuous
 62
    25
370
     0
100
AcDbLine
 10
4465.025751
 20
2842.194631
 30
0.0
 11
3625.025751
 21
2842.194631
 31
0.0
  0
LINE
  5
7DF17
330
7E0FE
100
AcDbEntity
  8
Level 26
  6
Continuous
 62
    25
370
     0
100
AcDbLine
 10
4465.025751
 20
2848.414363
 30
0.0
 11
3625.025751
 21
2848.414363
 31
0.0
  0
ENDBLK
  5
7E100
330
7E0FE
100
AcDbEntity
  8
0
100
AcDbBlockEnd
  0
BLOCK
  5
7E102
330
7E101
100
AcDbEntity
  8
0
100
AcDbBlockBegin
  2
From Surface_43
 70
     0
 71
     0
 10
0.0
 20
0.0
 30
0.0
  3
From Surface_43
  1

  0
LINE
  5
7DF19
330
7E101
100
AcDbEntity
  8
Level 26
  6
Continuous
 62
    25
370
     0
100
AcDbLine
 10
4465.025751
 20
2781.668666
 30
0.0
 11
4465.025751
 21
2765.878956
 31
0.0
  0
LINE
  5
7DF1A
330
7E101
100
AcDbEntity
  8
Level 26
  6
Continuous
 62
    25
370
     0
100
AcDbLine
 10
3625.025751
 20
2781.668666
 30
0.0
 11
3625.025751
 21
2765.878956
 31
0.0
  0
LINE
  5
7DF1B
330
7E101
100
AcDbEntity
  8
Level 26
  6
Continuous
 62
    25
370
     0
100
AcDbLine
 10
4465.025751
 20
2765.878956
 30
0.0
 11
3625.025751
 21
2765.878956
 31
0.0
  0
LINE
  5
7DF1C
330
7E101
100
AcDbEntity
  8
Level 26
  6
Continuous
 62
    25
370
     0
100
AcDbLine
 10
4465.025751
 20
2781.668666
 30
0.0
 11
3625.025751
 21
2781.668666
 31
0.0
  0
ENDBLK
  5
7E103
330
7E101
100
AcDbEntity
  8
0
100
AcDbBlockEnd
  0
BLOCK
  5
7E105
330
7E104
100
AcDbEntity
  8
0
100
AcDbBlockBegin
  2
From Solid_2
 70
     0
 71
     0
 10
0.0
 20
0.0
 30
0.0
  3
From Solid_2
  1

  0
POINT
  5
7DF35
330
7E104
100
AcDbEntity
  8
Level 26
  6
Continuous
 62
   254
370
    13
100
AcDbPoint
 10
4474.025751
 20
3711.644358
 30
0.0
  0
LINE
  5
7DF36
330
7E104
100
AcDbEntity
  8
Level 26
  6
Continuous
 62
   254
370
    13
100
AcDbLine
 10
4474.025751
 20
3711.644358
 30
0.0
 11
4474.025751
 21
3706.644358
 31
0.0
  0
LINE
  5
7DF37
330
7E104
100
AcDbEntity
  8
Level 26
  6
Continuous
 62
   254
370
    13
100
AcDbLine
 10
4474.025751
 20
3706.644358
 30
0.0
 11
4474.025751
 21
3684.644358
 31
0.0
  0
LINE
  5
7DF38
330
7E104
100
AcDbEntity
  8
Level 26
  6
Continuous
 62
   254
370
    13
100
AcDbLine
 10
4474.025751
 20
3684.644358
 30
0.0
 11
4474.025751
 21
3679.644358
 31
0.0
  0
POINT
  5
7DF39
330
7E104
100
AcDbEntity
  8
Level 26
  6
Continuous
 62
   254
370
    13
100
AcDbPoint
 10
4474.025751
 20
3679.644358
 30
0.0
  0
LINE
  5
7DF3A
330
7E104
100
AcDbEntity
  8
Level 26
  6
Continuous
 62
   254
370
    13
100
AcDbLine
 10
4474.025751
 20
3679.644358
 30
0.0
 11
4474.025751
 21
3684.644358
 31
0.0
  0
LINE
  5
7DF3B
330
7E104
100
AcDbEntity
  8
Level 26
  6
Continuous
 62
   254
370
    13
100
AcDbLine
 10
4474.025751
 20
3684.644358
 30
0.0
 11
4474.025751
 21
3706.644358
 31
0.0
  0
LINE
  5
7DF3C
330
7E104
100
AcDbEntity
  8
Level 26
  6
Continuous
 62
   254
370
    13
100
AcDbLine
 10
4474.025751
 20
3706.644358
 30
0.0
 11
4474.025751
 21
3711.644358
 31
0.0
  0
LINE
  5
7DF3D
330
7E104
100
AcDbEntity
  8
Level 26
  6
Continuous
 62
   254
370
    13
100
AcDbLine
 10
4474.025751
 20
3689.144358
 30
0.0
 11
4474.025751
 21
3702.144358
 31
0.0
  0
LINE
  5
7DF3E
330
7E104
100
AcDbEntity
  8
Level 26
  6
Continuous
 62
   254
370
    13
100
AcDbLine
 10
4474.025751
 20
3702.144358
 30
0.0
 11
4474.025751
 21
3689.144358
 31
0.0
  0
POINT
  5
7DF3F
330
7E104
100
AcDbEntity
  8
Level 26
  6
Continuous
 62
   254
370
    13
100
AcDbPoint
 10
4480.025751
 20
3711.644358
 30
0.0
  0
LINE
  5
7DF40
330
7E104
100
AcDbEntity
  8
Level 26
  6
Continuous
 62
   254
370
    13
100
AcDbLine
 10
4480.025751
 20
3711.644358
 30
0.0
 11
4480.025751
 21
3706.644358
 31
0.0
  0
LINE
  5
7DF41
330
7E104
100
AcDbEntity
  8
Level 26
  6
Continuous
 62
   254
370
    13
100
AcDbLine
 10
4480.025751
 20
3706.644358
 30
0.0
 11
4480.025751
 21
3684.644358
 31
0.0
  0
LINE
  5
7DF42
330
7E104
100
AcDbEntity
  8
Level 26
  6
Continuous
 62
   254
370
    13
100
AcDbLine
 10
4480.025751
 20
3684.644358
 30
0.0
 11
4480.025751
 21
3679.644358
 31
0.0
  0
POINT
  5
7DF43
330
7E104
100
AcDbEntity
  8
Level 26
  6
Continuous
 62
   254
370
    13
100
AcDbPoint
 10
4480.025751
 20
3679.644358
 30
0.0
  0
LINE
  5
7DF44
330
7E104
100
AcDbEntity
  8
Level 26
  6
Continuous
 62
   254
370
    13
100
AcDbLine
 10
4480.025751
 20
3679.644358
 30
0.0
 11
4480.025751
 21
3684.644358
 31
0.0
  0
LINE
  5
7DF45
330
7E104
100
AcDbEntity
  8
Level 26
  6
Continuous
 62
   254
370
    13
100
AcDbLine
 10
4480.025751
 20
3684.644358
 30
0.0
 11
4480.025751
 21
3706.644358
 31
0.0
  0
LINE
  5
7DF46
330
7E104
100
AcDbEntity
  8
Level 26
  6
Continuous
 62
   254
370
    13
100
AcDbLine
 10
4480.025751
 20
3706.644358
 30
0.0
 11
4480.025751
 21
3711.644358
 31
0.0
  0
LINE
  5
7DF47
330
7E104
100
AcDbEntity
  8
Level 26
  6
Continuous
 62
   254
370
    13
100
AcDbLine
 10
4480.025751
 20
3689.144358
 30
0.0
 11
4480.025751
 21
3702.144358
 31
0.0
  0
LINE
  5
7DF48
330
7E104
100
AcDbEntity
  8
Level 26
  6
Continuous
 62
   254
370
    13
100
AcDbLine
 10
4480.025751
 20
3702.144358
 30
0.0
 11
4480.025751
 21
3689.144358
 31
0.0
  0
LINE
  5
7DF49
330
7E104
100
AcDbEntity
  8
Level 26
  6
Continuous
 62
   254
370
    13
100
AcDbLine
 10
4474.025751
 20
3711.644358
 30
0.0
 11
4480.025751
 21
3711.644358
 31
0.0
  0
LINE
  5
7DF4A
330
7E104
100
AcDbEntity
  8
Level 26
  6
Continuous
 62
   254
370
    13
100
AcDbLine
 10
4474.025751
 20
3711.644358
 30
0.0
 11
4480.025751
 21
3711.644358
 31
0.0
  0
LINE
  5
7DF4B
330
7E104
100
AcDbEntity
  8
Level 26
  6
Continuous
 62
   254
370
    13
100
AcDbLine
 10
4474.025751
 20
3706.644358
 30
0.0
 11
4480.025751
 21
3706.644358
 31
0.0
  0
LINE
  5
7DF4C
330
7E104
100
AcDbEntity
  8
Level 26
  6
Continuous
 62
   254
370
    13
100
AcDbLine
 10
4474.025751
 20
3684.644358
 30
0.0
 11
4480.025751
 21
3684.644358
 31
0.0
  0
LINE
  5
7DF4D
330
7E104
100
AcDbEntity
  8
Level 26
  6
Continuous
 62
   254
370
    13
100
AcDbLine
 10
4474.025751
 20
3679.644358
 30
0.0
 11
4480.025751
 21
3679.644358
 31
0.0
  0
LINE
  5
7DF4E
330
7E104
100
AcDbEntity
  8
Level 26
  6
Continuous
 62
   254
370
    13
100
AcDbLine
 10
4474.025751
 20
3679.644358
 30
0.0
 11
4480.025751
 21
3679.644358
 31
0.0
  0
LINE
  5
7DF4F
330
7E104
100
AcDbEntity
  8
Level 26
  6
Continuous
 62
   254
370
    13
100
AcDbLine
 10
4474.025751
 20
3684.644358
 30
0.0
 11
4480.025751
 21
3684.644358
 31
0.0
  0
LINE
  5
7DF50
330
7E104
100
AcDbEntity
  8
Level 26
  6
Continuous
 62
   254
370
    13
100
AcDbLine
 10
4474.025751
 20
3706.644358
 30
0.0
 11
4480.025751
 21
3706.644358
 31
0.0
  0
LINE
  5
7DF51
330
7E104
100
AcDbEntity
  8
Level 26
  6
Continuous
 62
   254
370
    13
100
AcDbLine
 10
4474.025751
 20
3695.644358
 30
0.0
 11
4480.025751
 21
3695.644358
 31
0.0
  0
LINE
  5
7DF52
330
7E104
100
AcDbEntity
  8
Level 26
  6
Continuous
 62
   254
370
    13
100
AcDbLine
 10
4474.025751
 20
3689.144358
 30
0.0
 11
4480.025751
 21
3689.144358
 31
0.0
  0
LINE
  5
7DF53
330
7E104
100
AcDbEntity
  8
Level 26
  6
Continuous
 62
   254
370
    13
100
AcDbLine
 10
4474.025751
 20
3695.644358
 30
0.0
 11
4480.025751
 21
3695.644358
 31
0.0
  0
LINE
  5
7DF54
330
7E104
100
AcDbEntity
  8
Level 26
  6
Continuous
 62
   254
370
    13
100
AcDbLine
 10
4474.025751
 20
3702.144358
 30
0.0
 11
4480.025751
 21
3702.144358
 31
0.0
  0
LINE
  5
7DF55
330
7E104
100
AcDbEntity
  8
Level 26
  6
Continuous
 62
   254
370
    13
100
AcDbLine
 10
4474.025751
 20
3695.644358
 30
0.0
 11
4480.025751
 21
3695.644358
 31
0.0
  0
LINE
  5
7DF56
330
7E104
100
AcDbEntity
  8
Level 26
  6
Continuous
 62
   254
370
    13
100
AcDbLine
 10
4474.025751
 20
3702.144358
 30
0.0
 11
4480.025751
 21
3702.144358
 31
0.0
  0
LINE
  5
7DF57
330
7E104
100
AcDbEntity
  8
Level 26
  6
Continuous
 62
   254
370
    13
100
AcDbLine
 10
4474.025751
 20
3695.644358
 30
0.0
 11
4480.025751
 21
3695.644358
 31
0.0
  0
LINE
  5
7DF58
330
7E104
100
AcDbEntity
  8
Level 26
  6
Continuous
 62
   254
370
    13
100
AcDbLine
 10
4474.025751
 20
3689.144358
 30
0.0
 11
4480.025751
 21
3689.144358
 31
0.0
  0
ENDBLK
  5
7E106
330
7E104
100
AcDbEntity
  8
0
100
AcDbBlockEnd
  0
BLOCK
  5
7E108
330
7E107
100
AcDbEntity
  8
0
100
AcDbBlockBegin
  2
From Solid_3
 70
     0
 71
     0
 10
0.0
 20
0.0
 30
0.0
  3
From Solid_3
  1

  0
POINT
  5
7DF5A
330
7E107
100
AcDbEntity
  8
Level 26
  6
Continuous
 62
   254
370
    13
100
AcDbPoint
 10
3610.025751
 20
3711.644358
 30
0.0
  0
LINE
  5
7DF5B
330
7E107
100
AcDbEntity
  8
Level 26
  6
Continuous
 62
   254
370
    13
100
AcDbLine
 10
3610.025751
 20
3711.644358
 30
0.0
 11
3610.025751
 21
3706.644358
 31
0.0
  0
LINE
  5
7DF5C
330
7E107
100
AcDbEntity
  8
Level 26
  6
Continuous
 62
   254
370
    13
100
AcDbLine
 10
3610.025751
 20
3706.644358
 30
0.0
 11
3610.025751
 21
3684.644358
 31
0.0
  0
LINE
  5
7DF5D
330
7E107
100
AcDbEntity
  8
Level 26
  6
Continuous
 62
   254
370
    13
100
AcDbLine
 10
3610.025751
 20
3684.644358
 30
0.0
 11
3610.025751
 21
3679.644358
 31
0.0
  0
POINT
  5
7DF5E
330
7E107
100
AcDbEntity
  8
Level 26
  6
Continuous
 62
   254
370
    13
100
AcDbPoint
 10
3610.025751
 20
3679.644358
 30
0.0
  0
LINE
  5
7DF5F
330
7E107
100
AcDbEntity
  8
Level 26
  6
Continuous
 62
   254
370
    13
100
AcDbLine
 10
3610.025751
 20
3679.644358
 30
0.0
 11
3610.025751
 21
3684.644358
 31
0.0
  0
LINE
  5
7DF60
330
7E107
100
AcDbEntity
  8
Level 26
  6
Continuous
 62
   254
370
    13
100
AcDbLine
 10
3610.025751
 20
3684.644358
 30
0.0
 11
3610.025751
 21
3706.644358
 31
0.0
  0
LINE
  5
7DF61
330
7E107
100
AcDbEntity
  8
Level 26
  6
Continuous
 62
   254
370
    13
100
AcDbLine
 10
3610.025751
 20
3706.644358
 30
0.0
 11
3610.025751
 21
3711.644358
 31
0.0
  0
LINE
  5
7DF62
330
7E107
100
AcDbEntity
  8
Level 26
  6
Continuous
 62
   254
370
    13
100
AcDbLine
 10
3610.025751
 20
3689.144358
 30
0.0
 11
3610.025751
 21
3702.144358
 31
0.0
  0
LINE
  5
7DF63
330
7E107
100
AcDbEntity
  8
Level 26
  6
Continuous
 62
   254
370
    13
100
AcDbLine
 10
3610.025751
 20
3702.144358
 30
0.0
 11
3610.025751
 21
3689.144358
 31
0.0
  0
POINT
  5
7DF64
330
7E107
100
AcDbEntity
  8
Level 26
  6
Continuous
 62
   254
370
    13
100
AcDbPoint
 10
3616.025751
 20
3711.644358
 30
0.0
  0
LINE
  5
7DF65
330
7E107
100
AcDbEntity
  8
Level 26
  6
Continuous
 62
   254
370
    13
100
AcDbLine
 10
3616.025751
 20
3711.644358
 30
0.0
 11
3616.025751
 21
3706.644358
 31
0.0
  0
LINE
  5
7DF66
330
7E107
100
AcDbEntity
  8
Level 26
  6
Continuous
 62
   254
370
    13
100
AcDbLine
 10
3616.025751
 20
3706.644358
 30
0.0
 11
3616.025751
 21
3684.644358
 31
0.0
  0
LINE
  5
7DF67
330
7E107
100
AcDbEntity
  8
Level 26
  6
Continuous
 62
   254
370
    13
100
AcDbLine
 10
3616.025751
 20
3684.644358
 30
0.0
 11
3616.025751
 21
3679.644358
 31
0.0
  0
POINT
  5
7DF68
330
7E107
100
AcDbEntity
  8
Level 26
  6
Continuous
 62
   254
370
    13
100
AcDbPoint
 10
3616.025751
 20
3679.644358
 30
0.0
  0
LINE
  5
7DF69
330
7E107
100
AcDbEntity
  8
Level 26
  6
Continuous
 62
   254
370
    13
100
AcDbLine
 10
3616.025751
 20
3679.644358
 30
0.0
 11
3616.025751
 21
3684.644358
 31
0.0
  0
LINE
  5
7DF6A
330
7E107
100
AcDbEntity
  8
Level 26
  6
Continuous
 62
   254
370
    13
100
AcDbLine
 10
3616.025751
 20
3684.644358
 30
0.0
 11
3616.025751
 21
3706.644358
 31
0.0
  0
LINE
  5
7DF6B
330
7E107
100
AcDbEntity
  8
Level 26
  6
Continuous
 62
   254
370
    13
100
AcDbLine
 10
3616.025751
 20
3706.644358
 30
0.0
 11
3616.025751
 21
3711.644358
 31
0.0
  0
LINE
  5
7DF6C
330
7E107
100
AcDbEntity
  8
Level 26
  6
Continuous
 62
   254
370
    13
100
AcDbLine
 10
3616.025751
 20
3689.144358
 30
0.0
 11
3616.025751
 21
3702.144358
 31
0.0
  0
LINE
  5
7DF6D
330
7E107
100
AcDbEntity
  8
Level 26
  6
Continuous
 62
   254
370
    13
100
AcDbLine
 10
3616.025751
 20
3702.144358
 30
0.0
 11
3616.025751
 21
3689.144358
 31
0.0
  0
LINE
  5
7DF6E
330
7E107
100
AcDbEntity
  8
Level 26
  6
Continuous
 62
   254
370
    13
100
AcDbLine
 10
3610.025751
 20
3711.644358
 30
0.0
 11
3616.025751
 21
3711.644358
 31
0.0
  0
LINE
  5
7DF6F
330
7E107
100
AcDbEntity
  8
Level 26
  6
Continuous
 62
   254
370
    13
100
AcDbLine
 10
3610.025751
 20
3711.644358
 30
0.0
 11
3616.025751
 21
3711.644358
 31
0.0
  0
LINE
  5
7DF70
330
7E107
100
AcDbEntity
  8
Level 26
  6
Continuous
 62
   254
370
    13
100
AcDbLine
 10
3610.025751
 20
3706.644358
 30
0.0
 11
3616.025751
 21
3706.644358
 31
0.0
  0
LINE
  5
7DF71
330
7E107
100
AcDbEntity
  8
Level 26
  6
Continuous
 62
   254
370
    13
100
AcDbLine
 10
3610.025751
 20
3684.644358
 30
0.0
 11
3616.025751
 21
3684.644358
 31
0.0
  0
LINE
  5
7DF72
330
7E107
100
AcDbEntity
  8
Level 26
  6
Continuous
 62
   254
370
    13
100
AcDbLine
 10
3610.025751
 20
3679.644358
 30
0.0
 11
3616.025751
 21
3679.644358
 31
0.0
  0
LINE
  5
7DF73
330
7E107
100
AcDbEntity
  8
Level 26
  6
Continuous
 62
   254
370
    13
100
AcDbLine
 10
3610.025751
 20
3679.644358
 30
0.0
 11
3616.025751
 21
3679.644358
 31
0.0
  0
LINE
  5
7DF74
330
7E107
100
AcDbEntity
  8
Level 26
  6
Continuous
 62
   254
370
    13
100
AcDbLine
 10
3610.025751
 20
3684.644358
 30
0.0
 11
3616.025751
 21
3684.644358
 31
0.0
  0
LINE
  5
7DF75
330
7E107
100
AcDbEntity
  8
Level 26
  6
Continuous
 62
   254
370
    13
100
AcDbLine
 10
3610.025751
 20
3706.644358
 30
0.0
 11
3616.025751
 21
3706.644358
 31
0.0
  0
LINE
  5
7DF76
330
7E107
100
AcDbEntity
  8
Level 26
  6
Continuous
 62
   254
370
    13
100
AcDbLine
 10
3610.025751
 20
3695.644358
 30
0.0
 11
3616.025751
 21
3695.644358
 31
0.0
  0
LINE
  5
7DF77
330
7E107
100
AcDbEntity
  8
Level 26
  6
Continuous
 62
   254
370
    13
100
AcDbLine
 10
3610.025751
 20
3689.144358
 30
0.0
 11
3616.025751
 21
3689.144358
 31
0.0
  0
LINE
  5
7DF78
330
7E107
100
AcDbEntity
  8
Level 26
  6
Continuous
 62
   254
370
    13
100
AcDbLine
 10
3610.025751
 20
3695.644358
 30
0.0
 11
3616.025751
 21
3695.644358
 31
0.0
  0
LINE
  5
7DF79
330
7E107
100
AcDbEntity
  8
Level 26
  6
Continuous
 62
   254
370
    13
100
AcDbLine
 10
3610.025751
 20
3702.144358
 30
0.0
 11
3616.025751
 21
3702.144358
 31
0.0
  0
LINE
  5
7DF7A
330
7E107
100
AcDbEntity
  8
Level 26
  6
Continuous
 62
   254
370
    13
100
AcDbLine
 10
3610.025751
 20
3695.644358
 30
0.0
 11
3616.025751
 21
3695.644358
 31
0.0
  0
LINE
  5
7DF7B
330
7E107
100
AcDbEntity
  8
Level 26
  6
Continuous
 62
   254
370
    13
100
AcDbLine
 10
3610.025751
 20
3702.144358
 30
0.0
 11
3616.025751
 21
3702.144358
 31
0.0
  0
LINE
  5
7DF7C
330
7E107
100
AcDbEntity
  8
Level 26
  6
Continuous
 62
   254
370
    13
100
AcDbLine
 10
3610.025751
 20
3695.644358
 30
0.0
 11
3616.025751
 21
3695.644358
 31
0.0
  0
LINE
  5
7DF7D
330
7E107
100
AcDbEntity
  8
Level 26
  6
Continuous
 62
   254
370
    13
100
AcDbLine
 10
3610.025751
 20
3689.144358
 30
0.0
 11
3616.025751
 21
3689.144358
 31
0.0
  0
ENDBLK
  5
7E109
330
7E107
100
AcDbEntity
  8
0
100
AcDbBlockEnd
  0
BLOCK
  5
7E10B
330
7E10A
100
AcDbEntity
  8
0
100
AcDbBlockBegin
  2
From Solid_4
 70
     0
 71
     0
 10
0.0
 20
0.0
 30
0.0
  3
From Solid_4
  1

  0
POINT
  5
7DFA6
330
7E10A
100
AcDbEntity
  8
Level 26
  6
Continuous
 62
   254
370
    13
100
AcDbPoint
 10
4474.025751
 20
3711.644358
 30
0.0
  0
LINE
  5
7DFA7
330
7E10A
100
AcDbEntity
  8
Level 26
  6
Continuous
 62
   254
370
    13
100
AcDbLine
 10
4474.025751
 20
3711.644358
 30
0.0
 11
4474.025751
 21
3706.644358
 31
0.0
  0
LINE
  5
7DFA8
330
7E10A
100
AcDbEntity
  8
Level 26
  6
Continuous
 62
   254
370
    13
100
AcDbLine
 10
4474.025751
 20
3706.644358
 30
0.0
 11
4474.025751
 21
3684.644358
 31
0.0
  0
LINE
  5
7DFA9
330
7E10A
100
AcDbEntity
  8
Level 26
  6
Continuous
 62
   254
370
    13
100
AcDbLine
 10
4474.025751
 20
3684.644358
 30
0.0
 11
4474.025751
 21
3679.644358
 31
0.0
  0
POINT
  5
7DFAA
330
7E10A
100
AcDbEntity
  8
Level 26
  6
Continuous
 62
   254
370
    13
100
AcDbPoint
 10
4474.025751
 20
3679.644358
 30
0.0
  0
LINE
  5
7DFAB
330
7E10A
100
AcDbEntity
  8
Level 26
  6
Continuous
 62
   254
370
    13
100
AcDbLine
 10
4474.025751
 20
3679.644358
 30
0.0
 11
4474.025751
 21
3684.644358
 31
0.0
  0
LINE
  5
7DFAC
330
7E10A
100
AcDbEntity
  8
Level 26
  6
Continuous
 62
   254
370
    13
100
AcDbLine
 10
4474.025751
 20
3684.644358
 30
0.0
 11
4474.025751
 21
3706.644358
 31
0.0
  0
LINE
  5
7DFAD
330
7E10A
100
AcDbEntity
  8
Level 26
  6
Continuous
 62
   254
370
    13
100
AcDbLine
 10
4474.025751
 20
3706.644358
 30
0.0
 11
4474.025751
 21
3711.644358
 31
0.0
  0
LINE
  5
7DFAE
330
7E10A
100
AcDbEntity
  8
Level 26
  6
Continuous
 62
   254
370
    13
100
AcDbLine
 10
4474.025751
 20
3689.144358
 30
0.0
 11
4474.025751
 21
3702.144358
 31
0.0
  0
LINE
  5
7DFAF
330
7E10A
100
AcDbEntity
  8
Level 26
  6
Continuous
 62
   254
370
    13
100
AcDbLine
 10
4474.025751
 20
3702.144358
 30
0.0
 11
4474.025751
 21
3689.144358
 31
0.0
  0
POINT
  5
7DFB0
330
7E10A
100
AcDbEntity
  8
Level 26
  6
Continuous
 62
   254
370
    13
100
AcDbPoint
 10
4480.025751
 20
3711.644358
 30
0.0
  0
LINE
  5
7DFB1
330
7E10A
100
AcDbEntity
  8
Level 26
  6
Continuous
 62
   254
370
    13
100
AcDbLine
 10
4480.025751
 20
3711.644358
 30
0.0
 11
4480.025751
 21
3706.644358
 31
0.0
  0
LINE
  5
7DFB2
330
7E10A
100
AcDbEntity
  8
Level 26
  6
Continuous
 62
   254
370
    13
100
AcDbLine
 10
4480.025751
 20
3706.644358
 30
0.0
 11
4480.025751
 21
3684.644358
 31
0.0
  0
LINE
  5
7DFB3
330
7E10A
100
AcDbEntity
  8
Level 26
  6
Continuous
 62
   254
370
    13
100
AcDbLine
 10
4480.025751
 20
3684.644358
 30
0.0
 11
4480.025751
 21
3679.644358
 31
0.0
  0
POINT
  5
7DFB4
330
7E10A
100
AcDbEntity
  8
Level 26
  6
Continuous
 62
   254
370
    13
100
AcDbPoint
 10
4480.025751
 20
3679.644358
 30
0.0
  0
LINE
  5
7DFB5
330
7E10A
100
AcDbEntity
  8
Level 26
  6
Continuous
 62
   254
370
    13
100
AcDbLine
 10
4480.025751
 20
3679.644358
 30
0.0
 11
4480.025751
 21
3684.644358
 31
0.0
  0
LINE
  5
7DFB6
330
7E10A
100
AcDbEntity
  8
Level 26
  6
Continuous
 62
   254
370
    13
100
AcDbLine
 10
4480.025751
 20
3684.644358
 30
0.0
 11
4480.025751
 21
3706.644358
 31
0.0
  0
LINE
  5
7DFB7
330
7E10A
100
AcDbEntity
  8
Level 26
  6
Continuous
 62
   254
370
    13
100
AcDbLine
 10
4480.025751
 20
3706.644358
 30
0.0
 11
4480.025751
 21
3711.644358
 31
0.0
  0
LINE
  5
7DFB8
330
7E10A
100
AcDbEntity
  8
Level 26
  6
Continuous
 62
   254
370
    13
100
AcDbLine
 10
4480.025751
 20
3689.144358
 30
0.0
 11
4480.025751
 21
3702.144358
 31
0.0
  0
LINE
  5
7DFB9
330
7E10A
100
AcDbEntity
  8
Level 26
  6
Continuous
 62
   254
370
    13
100
AcDbLine
 10
4480.025751
 20
3702.144358
 30
0.0
 11
4480.025751
 21
3689.144358
 31
0.0
  0
LINE
  5
7DFBA
330
7E10A
100
AcDbEntity
  8
Level 26
  6
Continuous
 62
   254
370
    13
100
AcDbLine
 10
4474.025751
 20
3711.644358
 30
0.0
 11
4480.025751
 21
3711.644358
 31
0.0
  0
LINE
  5
7DFBB
330
7E10A
100
AcDbEntity
  8
Level 26
  6
Continuous
 62
   254
370
    13
100
AcDbLine
 10
4474.025751
 20
3711.644358
 30
0.0
 11
4480.025751
 21
3711.644358
 31
0.0
  0
LINE
  5
7DFBC
330
7E10A
100
AcDbEntity
  8
Level 26
  6
Continuous
 62
   254
370
    13
100
AcDbLine
 10
4474.025751
 20
3706.644358
 30
0.0
 11
4480.025751
 21
3706.644358
 31
0.0
  0
LINE
  5
7DFBD
330
7E10A
100
AcDbEntity
  8
Level 26
  6
Continuous
 62
   254
370
    13
100
AcDbLine
 10
4474.025751
 20
3684.644358
 30
0.0
 11
4480.025751
 21
3684.644358
 31
0.0
  0
LINE
  5
7DFBE
330
7E10A
100
AcDbEntity
  8
Level 26
  6
Continuous
 62
   254
370
    13
100
AcDbLine
 10
4474.025751
 20
3679.644358
 30
0.0
 11
4480.025751
 21
3679.644358
 31
0.0
  0
LINE
  5
7DFBF
330
7E10A
100
AcDbEntity
  8
Level 26
  6
Continuous
 62
   254
370
    13
100
AcDbLine
 10
4474.025751
 20
3679.644358
 30
0.0
 11
4480.025751
 21
3679.644358
 31
0.0
  0
LINE
  5
7DFC0
330
7E10A
100
AcDbEntity
  8
Level 26
  6
Continuous
 62
   254
370
    13
100
AcDbLine
 10
4474.025751
 20
3684.644358
 30
0.0
 11
4480.025751
 21
3684.644358
 31
0.0
  0
LINE
  5
7DFC1
330
7E10A
100
AcDbEntity
  8
Level 26
  6
Continuous
 62
   254
370
    13
100
AcDbLine
 10
4474.025751
 20
3706.644358
 30
0.0
 11
4480.025751
 21
3706.644358
 31
0.0
  0
LINE
  5
7DFC2
330
7E10A
100
AcDbEntity
  8
Level 26
  6
Continuous
 62
   254
370
    13
100
AcDbLine
 10
4474.025751
 20
3695.644358
 30
0.0
 11
4480.025751
 21
3695.644358
 31
0.0
  0
LINE
  5
7DFC3
330
7E10A
100
AcDbEntity
  8
Level 26
  6
Continuous
 62
   254
370
    13
100
AcDbLine
 10
4474.025751
 20
3689.144358
 30
0.0
 11
4480.025751
 21
3689.144358
 31
0.0
  0
LINE
  5
7DFC4
330
7E10A
100
AcDbEntity
  8
Level 26
  6
Continuous
 62
   254
370
    13
100
AcDbLine
 10
4474.025751
 20
3695.644358
 30
0.0
 11
4480.025751
 21
3695.644358
 31
0.0
  0
LINE
  5
7DFC5
330
7E10A
100
AcDbEntity
  8
Level 26
  6
Continuous
 62
   254
370
    13
100
AcDbLine
 10
4474.025751
 20
3702.144358
 30
0.0
 11
4480.025751
 21
3702.144358
 31
0.0
  0
LINE
  5
7DFC6
330
7E10A
100
AcDbEntity
  8
Level 26
  6
Continuous
 62
   254
370
    13
100
AcDbLine
 10
4474.025751
 20
3695.644358
 30
0.0
 11
4480.025751
 21
3695.644358
 31
0.0
  0
LINE
  5
7DFC7
330
7E10A
100
AcDbEntity
  8
Level 26
  6
Continuous
 62
   254
370
    13
100
AcDbLine
 10
4474.025751
 20
3702.144358
 30
0.0
 11
4480.025751
 21
3702.144358
 31
0.0
  0
LINE
  5
7DFC8
330
7E10A
100
AcDbEntity
  8
Level 26
  6
Continuous
 62
   254
370
    13
100
AcDbLine
 10
4474.025751
 20
3695.644358
 30
0.0
 11
4480.025751
 21
3695.644358
 31
0.0
  0
LINE
  5
7DFC9
330
7E10A
100
AcDbEntity
  8
Level 26
  6
Continuous
 62
   254
370
    13
100
AcDbLine
 10
4474.025751
 20
3689.144358
 30
0.0
 11
4480.025751
 21
3689.144358
 31
0.0
  0
ENDBLK
  5
7E10C
330
7E10A
100
AcDbEntity
  8
0
100
AcDbBlockEnd
  0
ENDSEC
  0
SECTION
  2
ENTITIES
  0
INSERT
  5
7DA8F
330
7E012
100
AcDbEntity
  8
Level 27
  6
Continuous
 62
    40
370
    13
100
AcDbBlockReference
  2
FS39
 10
4045.025751
 20
1811.707727
 30
0.0
  0
ENDSEC
  0
SECTION
  2
OBJECTS
  0
DICTIONARY
  5
7E025
330
0
100
AcDbDictionary
281
     1
  3
ACAD_GROUP
350
7E023
  3
ACAD_LAYOUT
350
7E026
  3
ACAD_MLINESTYLE
350
7E024
  3
ACAD_PLOTSETTINGS
350
7E027
  3
ACAD_PLOTSTYLENAME
350
7E028
  3
ACAD_TABLESTYLE
350
7E112
  3
AcadDim
350
7E034
  3
DWGPROPS
350
7E133
  0
DICTIONARY
  5
7E02B
330
7E01A
100
AcDbDictionary
280
     1
281
     1
  3
ACAD_LAYERFILTERS
360
7E02C
  0
DICTIONARY
  5
7E023
102
{ACAD_REACTORS
330
7E025
102
}
330
7E025
100
AcDbDictionary
281
     1
  0
DICTIONARY
  5
7E026
102
{ACAD_REACTORS
330
7E025
102
}
330
7E025
100
AcDbDictionary
281
     1
  3
Layout1
350
7E019
  3
Model
350
7E015
  0
DICTIONARY
  5
7E024
102
{ACAD_REACTORS
330
7E025
102
}
330
7E025
100
AcDbDictionary
281
     1
  3
Standard
350
7E010
  0
DICTIONARY
  5
7E027
102
{ACAD_REACTORS
330
7E025
102
}
330
7E025
100
AcDbDictionary
281
     1
  0
ACDBDICTIONARYWDFLT
  5
7E028
102
{ACAD_REACTORS
330
7E025
102
}
330
7E025
100
AcDbDictionary
281
     1
  3
Normal
350
7E00B
100
AcDbDictionaryWithDefault
340
7E00B
  0
DICTIONARY
  5
7E112
102
{ACAD_REACTORS
330
7E025
102
}
330
7E025
100
AcDbDictionary
281
     1
  0
XRECORD
  5
7E034
102
{ACAD_REACTORS
330
7E025
102
}
330
7E025
100
AcDbXrecord
280
     1
 90
   990106
  3
 
 60
     0
 61
     0
 62
     1
 63
     1
 64
     0
 65
     0
 66
     0
 67
     3
 68
     1
 69
     1
 70
     0
 71
     0
 72
     0
 40
0.0
170
     0
  0
XRECORD
  5
7E133
102
{ACAD_REACTORS
330
7E025
102
}
330
7E025
100
AcDbXrecord
280
     1
  1
DWGPROPS COOKIE
  2

  3

  4
WAEngineering1
  6

  7

  8

  9

300
=
301
=
302
=
303
=
304
=
305
=
306
=
307
=
308
=
309
=
 40
0.0
 41
2451789.537469
 42
2451789.537561
  1

 90
        0
  0
DICTIONARY
  5
7E02C
102
{ACAD_REACTORS
330
7E02B
102
}
330
7E02B
100
AcDbDictionary
281
     1
  0
LAYOUT
  5
7E019
102
{ACAD_REACTORS
330
7E026
330
7E026
102
}
330
7E026
100
AcDbPlotSettings
  1

  2

  4

  6

 40
0.0
 41
0.0
 42
0.0
 43
0.0
 44
0.0
 45
0.0
 46
0.0
 47
0.0
 48
0.0
 49
0.0
140
0.0
141
0.0
142
1.0
143
1.0
 70
   688
 72
     0
 73
     0
 74
     5
  7

 75
    16
147
1.0
148
0.0
149
0.0
100
AcDbLayout
  1
Layout1
 70
     1
 71
     1
 10
0.0
 20
0.0
 11
12.0
 21
9.0
 12
0.0
 22
0.0
 32
0.0
 14
1.000000E+20
 24
1.000000E+20
 34
1.000000E+20
 15
-1.000000E+20
 25
-1.000000E+20
 35
-1.000000E+20
146
0.0
 13
0.0
 23
0.0
 33
0.0
 16
1.0
 26
0.0
 36
0.0
 17
0.0
 27
1.0
 37
0.0
 76
     0
330
7E016
  0
LAYOUT
  5
7E015
102
{ACAD_REACTORS
330
7E026
330
7E026
102
}
330
7E026
100
AcDbPlotSettings
  1

  2

  4

  6

 40
0.0
 41
0.0
 42
0.0
 43
0.0
 44
0.0
 45
0.0
 46
0.0
 47
0.0
 48
0.0
 49
0.0
140
0.0
141
0.0
142
1.0
143
1.0
 70
  1712
 72
     0
 73
     0
 74
     0
  7

 75
     0
147
1.0
148
0.0
149
0.0
100
AcDbLayout
  1
Model
 70
     1
 71
     0
 10
0.0
 20
0.0
 11
12.0
 21
9.0
 12
0.0
 22
0.0
 32
0.0
 14
0.0
 24
0.0
 34
0.0
 15
0.0
 25
0.0
 35
0.0
146
0.0
 13
0.0
 23
0.0
 33
0.0
 16
1.0
 26
0.0
 36
0.0
 17
0.0
 27
1.0
 37
0.0
 76
     0
330
7E012
  0
MLINESTYLE
  5
7E010
102
{ACAD_REACTORS
330
7E024
102
}
330
7E024
100
AcDbMlineStyle
  2
STANDARD
 70
     0
  3

 62
   256
 51
90.0
 52
90.0
 71
     2
 49
0.5
 62
   256
  6
BYLAYER
 49
-0.5
 62
   256
  6
BYLAYER
  0
ACDBPLACEHOLDER
  5
7E00B
102
{ACAD_REACTORS
330
7E028
102
}
330
7E028
  0
ENDSEC
  0
SECTION
  2
THUMBNAILIMAGE
 90
    16004
310
28000000B40000005300000001000800000000005C3A000000040000000400000001000050000000FFFFFF000000C000980000001800B00000C800004060B0001808E00000C8F8000008F0000008E8000000280098680000D000A800A800980000080000C8009000880090009800780000980000E0080800D0000000089000
310
0000086800C0080800B80810008808180090001800A8081000A800000098080800800808000000A8001800280008000000500000001800980028000000280028005800180080000000000890000808080090689000D87828007808000078000000000080000000300030081000100000000800500080006000300000001800
310
78001800A800C00810000028280088000000580050006800180000083800000050006000180048000000180000000020000070001800B0A09800C0B890006000D000E808F000000860001000500000085000500018000008080000081000000818000000080000001800FFFFFF00FFFFFF00FFFFFF00FFFFFF00FFFFFF00FF
310
FFFF00FFFFFF00FFFFFF00FFFFFF00FFFFFF00FFFFFF00FFFFFF00FFFFFF00FFFFFF00FFFFFF00FFFFFF00FFFFFF00FFFFFF00FFFFFF00FFFFFF00FFFFFF00FFFFFF00FFFFFF00FFFFFF00FFFFFF00FFFFFF00FFFFFF00FFFFFF00FFFFFF00FFFFFF00FFFFFF00FFFFFF00FFFFFF00FFFFFF00FFFFFF00FFFFFF00FFFFFF00
310
FFFFFF00FFFFFF00FFFFFF00FFFFFF00FFFFFF00FFFFFF00FFFFFF00FFFFFF00FFFFFF00FFFFFF00FFFFFF00FFFFFF00FFFFFF00FFFFFF00FFFFFF00FFFFFF00FFFFFF00FFFFFF00FFFFFF00FFFFFF00FFFFFF00FFFFFF00FFFFFF00FFFFFF00FFFFFF00FFFFFF00FFFFFF00FFFFFF00FFFFFF00FFFFFF00FFFFFF00FFFFFF
310
00FFFFFF00FFFFFF00FFFFFF00FFFFFF00FFFFFF00FFFFFF00FFFFFF00FFFFFF00FFFFFF00FFFFFF00FFFFFF00FFFFFF00FFFFFF00FFFFFF00FFFFFF00FFFFFF00FFFFFF00FFFFFF00FFFFFF00FFFFFF00FFFFFF00FFFFFF00FFFFFF00FFFFFF00FFFFFF00FFFFFF00FFFFFF00FFFFFF00FFFFFF00FFFFFF00FFFFFF00FFFF
310
FF00FFFFFF00FFFFFF00FFFFFF00FFFFFF00FFFFFF00FFFFFF00FFFFFF00FFFFFF00FFFFFF00FFFFFF00FFFFFF00FFFFFF00FFFFFF00FFFFFF00FFFFFF00FFFFFF00FFFFFF00FFFFFF00FFFFFF00FFFFFF00FFFFFF00FFFFFF00FFFFFF00FFFFFF00FFFFFF00FFFFFF00FFFFFF00FFFFFF00FFFFFF00FFFFFF00FFFFFF00FF
310
FFFF00FFFFFF00FFFFFF00FFFFFF00FFFFFF00FFFFFF00FFFFFF00FFFFFF00FFFFFF00FFFFFF00FFFFFF00FFFFFF00FFFFFF00FFFFFF00FFFFFF00FFFFFF00FFFFFF00FFFFFF00FFFFFF00FFFFFF00FFFFFF00FFFFFF00FFFFFF00FFFFFF00FFFFFF00FFFFFF00FFFFFF00FFFFFF00FFFFFF00FFFFFF00FFFFFF00FFFFFF00
310
FFFFFF00FFFFFF00FFFFFF00FFFFFF00FFFFFF00FFFFFF00FFFFFF00FFFFFF00FFFFFF00FFFFFF00FFFFFF00FFFFFF002A2A2A2A2A2A2A2A2A2A2A2A2A2A2A2A2A2A2A2A2A2A2A2A2A2A2A2A2A2A2A2A2A2A2A2A2A2A2A2A2A2A2A2A2A2A2A2A2A2A2A2A2A2A2A2A2A2A2A2A2A2A2A2A2A2A2A2A2A2A2A2A2A2A2A2A2A2A2A
310
2A2A2A2A2A2A2A2A2A2A2A2A2A2A050505050505050505050505050505050505050505050505050505052A2A2A2A2A2A2A2A2A2A2A2A2A2A2A2A2A2A2A2A2A2A2A2A2A2A2A2A2A2A2A2A2A2A2A2A2A2A2A2A2A2A2A2A2A2A2A2A2A2A2A2A2A2A2A2A2A2A2A2A2A2A2A2A2A2A2A2A2A2A2A2A2A2A2A2A2A2A2A2A2A2A2A2A2A
310
2A2A2A2A2A2A2A2A2A2A2A2A2A2A2A2A2A2A2A2A2A2A2A2A2A2A2A2A2A2A2A2A2A2A2A2A2A2A2A2A2A2A2A2A2A2A2A2A2A2A2A2A2A2A2A2A2A2A2A2A2A2A2A2A2A2A2A052A2A2A2A2A2A2A2A2A2A2A2A2A2A2A2A2A2A2A2A2A2A2A2A2A2A052A2A2A2A2A2A2A2A2A2A2A2A2A2A2A2A2A2A2A2A2A2A2A2A2A2A2A2A2A2A2A2A
310
2A2A2A2A2A2A2A2A2A2A2A2A2A2A2A2A2A2A2A2A2A2A2A2A2A2A2A2A2A2A2A2A2A2A2A2A2A2A2A2A2A2A2A2A2A2A2A2A2A2A2A2A2A2A2A2A2A2A2A2A2A2A2A2A2A2A2A2A2A2A2A2A2A2A2A2A2A2A2A2A2A2A2A2A2A2A2A2A2A2A2A2A2A2A2A2A2A2A2A2A2A2A2A2A2A2A2A2A2A2A2A2A2A2A2A2A2A2A2A2A05050505050505
310
0505050505050505050505050505050505050505052A2A2A2A2A2A2A2A2A2A2A2A2A2A2A2A2A2A2A2A2A2A2A2A2A2A2A2A2A2A2A2A2A2A2A2A2A2A2A2A2A2A2A2A2A2A2A2A2A2A2A2A2A2A2A2A2A2A2A2A2A2A2A2A2A2A2A2A2A2A2A2A2A2A2A2A2A2A2A2A2A2A2A2A2A2A2A2A2A2A2A2A2A2A2A2A2A2A2A2A2A2A2A2A2A2A
310
2A2A2A2A2A2A2A2A2A2A2A2A2A2A2A2A2A2A2A2A2A2A2A2A2A2A2A2A2A2A2A2A2A2A2A2A2A2A2A2A2A2A2A2A2A2A050505050505050505050505050505050505050505050505050505052A2A2A2A2A2A2A2A2A2A2A2A2A2A2A2A2A2A2A2A2A2A2A2A2A2A2A2A2A2A2A2A2A2A2A2A2A2A2A2A2A2A2A2A2A2A2A2A2A2A2A2A2A
310
2A2A2A2A2A2A2A2A2A2A2A2A2A2A2A2A2A2A2A2A2A2A2A2A2A2A2A2A2A2A2A2A2A2A2A2A2A2A2A2A2A2A2A2A2A2A2A2A2A2A2A2A2A2A2A2A2A2A2A2A2A2A2A2A2A2A2A2A2A2A2A2A2A2A2A2A2A2A2A2A2A2A2A2A2A2A2A2A2A2A2A2A2A2A2A2A2A2A2A052A2A2A2A2A2A2A2A2A2A2A2A2A2A2A2A2A2A2A2A2A2A2A2A2A2A05
310
2A2A2A2A2A2A2A2A2A2A2A2A2A2A2A2A2A2A2A2A2A2A2A2A2A2A2A2A2A2A2A2A2A2A2A2A2A2A2A2A2A2A2A2A2A2A2A2A2A2A2A2A2A2A2A2A2A2A2A2A2A2A2A2A2A2A2A2A2A2A2A2A2A2A2A2A2A2A2A2A2A2A2A2A2A2A2A2A2A2A2A2A2A2A2A2A2A2A2A2A2A2A2A2A2A2A2A2A2A2A2A2A2A2A2A2A2A2A2A2A2A2A2A2A2A2A2A
310
2A2A2A2A2A2A2A2A2A2A2A2A2A2A2A2A2A2A2A2A2A43434343050505050505050505050505050505050505050505050505050505054343432A2A2A2A2A2A2A2A2A2A2A2A2A2A2A2A2A2A2A2A2A2A2A2A2A2A2A2A2A2A2A2A2A2A2A2A2A2A2A2A2A2A2A2A2A2A2A2A2A2A2A2A2A2A2A2A2A2A2A2A2A2A2A2A2A2A2A2A2A2A2A
310
2A2A2A2A2A2A2A2A2A2A2A2A2A2A2A2A2A2A2A2A2A2A2A2A2A2A2A2A2A2A2A2A2A2A2A2A2A2A2A2A2A2A2A2A2A2A2A2A2A2A2A2A2A2A2A2A2A2A2A2A2A2A2A2A2A2A2A2A2A2A2A2A2A2A43434343050505050505050505050505050505050505050505050505050505054343432A2A2A2A2A2A2A2A2A2A2A2A2A2A2A2A2A2A
310
2A2A2A2A2A2A2A2A2A2A2A2A2A2A2A2A2A2A2A2A2A2A2A2A2A2A2A2A2A2A2A2A2A2A2A2A2A2A2A2A2A2A2A2A2A2A2A2A2A2A2A2A2A2A2A2A2A2A2A2A2A2A2A2A2A2A2A2A2A2A2A2A2A2A2A2A2A2A2A2A2A2A2A2A2A2A2A2A2A2A2A2A2A2A2A2A2A2A2A2A2A2A2A2A2A2A2A2A2A2A2A2A2A2A2A2A2A2A2A2A2A2A2A2A2A2A2A
310
43434343430505050505050505050505070707050505050505050505050505434343432A2A2A2A2A2A2A2A2A2A2A2A2A2A2A2A2A2A2A2A2A2A2A2A2A2A2A2A2A2A2A2A2A2A2A2A2A2A2A2A2A2A2A2A2A2A2A2A2A2A2A2A2A2A2A2A2A2A2A2A2A2A2A2A2A2A2A2A2A2A2A2A2A2A2A2A2A2A2A2A2A2A2A2A2A2A2A2A2A2A2A2A
310
2A2A2A2A2A2A2A2A2A2A2A2A2A2A2A2A2A2A2A2A2A2A2A2A2A2A2A2A2A2A2A2A2A2A2A2A2A2A2A2A2A2A2A2A2A2A2A2A2A2A2A2A2A2A434343430707070707070707070707070707070707070707070707070707054343432A2A2A2A2A2A2A2A2A2A2A2A2A2A2A2A2A2A2A2A2A2A2A2A2A2A2A2A2A2A2A2A2A2A2A2A2A2A2A
310
2A2A2A2A2A2A2A2A2A2A2A2A2A2A2A2A2A2A2A2A2A2A2A2A2A2A2A2A2A2A2A2A2A2A2A2A2A2A2A2A2A2A2A2A2A2A2A2A2A2A2A2A2A2A2A2A2A2A2A2A2A2A2A2A2A2A2A2A2A2A2A2A2A2A2A2A2A2A2A2A2A2A2A2A2A2A2A2A2A2A2A2A2A2A2A2A2A2A2A2A2A2A2A2A2A2A2A2A05050505050505050505050505050707070505
310
050505050505050505050505052A2A2A2A2A2A2A2A2A2A2A2A2A2A2A2A2A2A2A2A2A2A2A2A2A2A2A2A2A2A2A2A2A2A2A2A2A2A2A2A2A2A2A2A2A2A2A2A2A2A2A2A2A2A2A2A2A2A2A2A2A2A2A2A2A2A2A2A2A2A2A2A2A2A2A2A2A2A2A2A2A2A2A2A2A2A2A2A2A2A2A2A2A2A2A2A2A2A2A2A2A2A2A2A2A2A2A2A2A2A2A2A2A2A
310
2A2A2A2A2A2A2A2A2A2A2A2A2A2A2A2A2A2A2A2A2A2A2A2A2A2A2A2A2A2A2A2A2A2A05050505050505050505050505050707070505050505050505050505050505052A2A2A2A2A2A2A2A2A2A2A2A2A2A2A2A2A2A2A2A2A2A2A2A2A2A2A2A2A2A2A2A2A2A2A2A2A2A2A2A2A2A2A2A2A2A2A2A2A2A2A2A2A2A2A2A2A2A2A2A2A
310
2A2A2A2A2A2A2A2A2A2A2A2A2A2A2A2A2A2A2A2A2A2A2A2A2A2A2A2A2A2A2A2A2A2A2A2A2A2A2A2A2A2A2A2A2A2A2A2A2A2A2A2A2A2A2A2A2A2A2A2A2A2A2A2A2A2A2A2A2A2A2A2A2A2A2A2A2A2A2A2A2A2A2A2A2A2A2A05050505050505050505050505050707070505050505050505050505050505052A2A2A2A2A2A2A2A
310
2A2A2A2A2A2A2A2A2A2A2A2A2A2A2A2A2A2A2A2A2A2A2A2A2A2A2A2A2A2A2A2A2A2A2A2A2A2A2A2A2A2A2A2A2A2A2A2A2A2A2A2A2A2A2A2A2A2A2A2A2A2A2A2A2A2A2A2A2A2A2A2A2A2A2A2A2A2A2A2A2A2A2A2A2A2A2A2A2A2A2A2A2A2A2A2A2A2A2A2A2A2A2A2A2A2A2A2A2A2A2A2A2A2A2A2A2A2A2A2A2A2A2A2A2A2A2A
310
2A2A2A2A2A2A2A2A2A2A2A2A2A05050505050505050505050505050707070505050505050505050505050505052A2A2A2A2A2A2A2A2A2A2A2A2A2A2A2A2A2A2A2A2A2A2A2A2A2A2A2A2A2A2A2A2A2A2A2A2A2A2A2A2A2A2A2A2A2A2A2A2A2A2A2A2A2A2A2A2A2A2A2A2A2A2A2A2A2A2A2A2A2A2A2A2A2A2A2A2A2A2A2A2A2A
310
2A2A2A2A2A2A2A2A2A2A2A2A2A2A2A2A2A2A2A2A2A2A2A2A2A2A2A2A2A2A2A2A2A2A2A2A2A2A2A2A2A2A2A2A2A2A2A2A2A2A2A2A2A2A2A2A2A2A2A2A2A2A2A2A2A2A05050505050505050505050505050707070505050505050505050505050505052A2A2A2A2A2A2A2A2A2A2A2A2A2A2A2A2A2A2A2A2A2A2A2A2A2A2A2A2A
310
2A2A2A2A2A2A2A2A2A2A2A2A2A2A2A2A2A2A2A2A2A2A2A2A2A2A2A2A2A2A2A2A2A2A2A2A2A2A2A2A2A2A2A2A2A2A2A2A2A2A2A2A2A2A2A2A2A2A2A2A2A2A2A2A2A2A2A2A2A2A2A2A2A2A2A2A2A2A2A2A2A2A2A2A2A2A2A2A2A2A2A2A2A2A2A2A2A2A2A2A2A2A2A2A2A2A2A2A2A2A2A2A2A2A2A2A2A2A2A0505050505050505
310
0505050505050707070505050505050505050505050505052A2A2A2A2A2A2A2A2A2A2A2A2A2A2A2A2A2A2A2A2A2A2A2A2A2A2A2A2A2A2A2A2A2A2A2A2A2A2A2A2A2A2A2A2A2A2A2A2A2A2A2A2A2A2A2A2A2A2A2A2A2A2A2A2A2A2A2A2A2A2A2A2A2A2A2A2A2A2A2A2A2A2A2A2A2A2A2A2A2A2A2A2A2A2A2A2A2A2A2A2A2A2A
310
2A2A2A2A2A2A2A2A2A2A2A2A2A2A2A2A2A2A2A2A2A2A2A2A2A2A2A2A2A2A2A2A2A2A2A2A2A2A2A2A2A2A2A2A2A05050505050505050505050505050707070505050505050505050505050505052A2A2A2A2A2A2A2A2A2A2A2A2A2A2A2A2A2A2A2A2A2A2A2A2A2A2A2A2A2A2A2A2A2A2A2A2A2A2A2A2A2A2A2A2A2A2A2A2A2A
310
2A2A2A2A2A2A2A2A2A2A2A2A2A2A2A2A2A2A2A2A2A2A2A2A2A2A2A2A2A2A2A2A2A2A2A2A2A2A2A2A2A2A2A2A2A2A2A2A2A2A2A2A2A2A2A2A2A2A2A2A2A2A2A2A2A2A2A2A2A2A2A2A2A2A2A2A2A2A2A2A2A2A2A2A2A2A2A2A2A2A2A2A2A2A2A2A2A2A0505072A2A2A2A2A2A2A2A2A2A2A0707072A2A2A2A2A2A2A2A2A2A2A2A
310
0705052A2A2A2A2A2A2A2A2A2A2A2A2A2A2A2A2A2A2A2A2A2A2A2A2A2A2A2A2A2A2A2A2A2A2A2A2A2A2A2A2A2A2A2A2A2A2A2A2A2A2A2A2A2A2A2A2A2A2A2A2A2A2A2A2A2A2A2A2A2A2A2A2A2A2A2A2A2A2A2A2A2A2A2A2A2A2A2A2A2A2A2A2A2A2A2A2A2A2A2A2A2A2A2A2A2A2A2A2A2A2A2A2A2A2A2A2A2A2A2A2A2A2A2A
310
2A2A2A2A2A2A2A2A2A2A2A2A2A2A2A2A2A2A2A2A2A2A2A2A05050505050505050505050505050707070505050505050505050505050505052A2A2A2A2A2A2A2A2A2A2A2A2A2A2A2A2A2A2A2A2A2A2A2A2A2A2A2A2A2A2A2A2A2A2A2A2A2A2A2A2A2A2A2A2A2A2A2A2A2A2A2A2A2A2A2A2A2A2A2A2A2A2A2A2A2A2A2A2A2A2A
310
2A2A2A2A2A2A2A2A2A2A2A2A2A2A2A2A2A2A2A2A2A2A2A2A2A2A2A2A2A2A2A2A2A2A2A2A2A2A2A2A2A2A2A2A2A2A2A2A2A2A2A2A2A2A2A2A2A2A2A2A2A2A2A2A2A2A2A2A2A2A2A2A2A2A2A2A2A05050505050505050505050505050707070505050505050505050505050505052A2A2A2A2A2A2A2A2A2A2A2A2A2A2A2A2A2A
310
2A2A2A2A2A2A2A2A2A2A2A2A2A2A2A2A2A2A2A2A2A2A2A2A2A2A2A2A2A2A2A2A2A2A2A2A2A2A2A2A2A2A2A2A2A2A2A2A2A2A2A2A2A2A2A2A2A2A2A2A2A2A2A2A2A2A2A2A2A2A2A2A2A2A2A2A2A2A2A2A2A2A2A2A2A2A2A2A2A2A2A2A2A2A2A2A2A2A2A2A2A2A2A2A2A2A2A2A2A2A2A2A2A2A2A2A2A2A2A2A2A2A2A2A2A2A2A
310
2A2A2A0505072A2A2A2A2A2A2A2A2A2A2A0707072A2A2A2A2A2A2A2A2A2A2A2A0705052A2A2A2A2A2A2A2A2A2A2A2A2A2A2A2A2A2A2A2A2A2A2A2A2A2A2A2A2A2A2A2A2A2A2A2A2A2A2A2A2A2A2A2A2A2A2A2A2A2A2A2A2A2A2A2A2A2A2A2A2A2A2A2A2A2A2A2A2A2A2A2A2A2A2A2A2A2A2A2A2A2A2A2A2A2A2A2A2A2A2A2A
310
2A2A2A2A2A2A2A2A2A2A2A2A2A2A2A2A2A2A2A2A2A2A2A2A2A2A2A2A2A2A2A2A2A2A2A2A2A2A2A2A2A2A2A2A2A2A2A2A2A2A2A2A2A2A2A2A05050505050505050505050505050707070505050505050505050505050505052A2A2A2A2A2A2A2A2A2A2A2A2A2A2A2A2A2A2A2A2A2A2A2A2A2A2A2A2A2A2A2A2A2A2A2A2A2A2A
310
2A2A2A2A2A2A2A2A2A2A2A2A2A2A2A2A2A2A2A2A2A2A2A2A2A2A2A2A2A2A2A2A2A2A2A2A2A2A2A2A2A2A2A2A2A2A2A2A2A2A2A2A2A2A2A2A2A2A2A2A2A2A2A2A2A2A2A2A2A2A2A2A2A2A2A2A2A2A2A2A2A2A2A2A2A2A2A2A2A2A2A2A2A2A2A2A2A2A2A2A2A2A2A2A2A2A2A2A2A050505050505050505050505050507070705
310
05050505050505050505050505052A2A2A2A2A2A2A2A2A2A2A2A2A2A2A2A2A2A2A2A2A2A2A2A2A2A2A2A2A2A2A2A2A2A2A2A2A2A2A2A2A2A2A2A2A2A2A2A2A2A2A2A2A2A2A2A2A2A2A2A2A2A2A2A2A2A2A2A2A2A2A2A2A2A2A2A2A2A2A2A2A2A2A2A2A2A2A2A2A2A2A2A2A2A2A2A2A2A2A2A2A2A2A2A2A2A2A2A2A2A2A2A2A
310
2A2A2A2A2A2A2A2A2A2A2A2A2A2A2A2A2A2A2A2A2A2A2A2A2A2A2A2A2A2A2A2A2A2A2A05050505050505050505050505050707070505050505050505050505050505052A2A2A2A2A2A2A2A2A2A2A2A2A2A2A2A2A2A2A2A2A2A2A2A2A2A2A2A2A2A2A2A2A2A2A2A2A2A2A2A2A2A2A2A2A2A2A2A2A2A2A2A2A2A2A2A2A2A2A2A
310
2A2A2A2A2A2A2A2A2A2A2A2A2A2A2A2A2A2A2A2A2A2A2A2A2A2A2A2A2A2A2A2A2A2A2A2A2A2A2A2A2A2A2A2A2A2A2A2A2A2A2A2A2A2A2A2A2A2A2A2A2A2A2A2A2A2A2A2A2A2A2A2A2A2A2A2A2A2A2A2A2A2A2A2A2A2A2A2A05050505050505050505050505050707070505050505050505050505050505052A2A2A2A2A2A2A
310
2A2A2A2A2A2A2A2A2A2A2A2A2A2A2A2A2A2A2A2A2A2A2A2A2A2A2A2A2A2A2A2A2A2A2A2A2A2A2A2A2A2A2A2A2A2A2A2A2A2A2A2A2A2A2A2A2A2A2A2A2A2A2A2A2A2A2A2A2A2A2A2A2A2A2A2A2A2A2A2A2A2A2A2A2A2A2A2A2A2A2A2A2A2A2A2A2A2A2A2A2A2A2A2A2A2A2A2A2A2A2A2A2A2A2A2A2A2A2A2A2A2A2A2A2A2A2A
310
2A2A2A2A2A2A2A2A2A2A2A2A2A2A0505072A2A2A2A2A2A2A2A2A2A2A0707072A2A2A2A2A2A2A2A2A2A2A2A0705052A2A2A2A2A2A2A2A2A2A2A2A2A2A2A2A2A2A2A2A2A2A2A2A2A2A2A2A2A2A2A2A2A2A2A2A2A2A2A2A2A2A2A2A2A2A2A2A2A2A2A2A2A2A2A2A2A2A2A2A2A2A2A2A2A2A2A2A2A2A2A2A2A2A2A2A2A2A2A2A2A
310
2A2A2A2A2A2A2A2A2A2A2A2A2A2A2A2A2A2A2A2A2A2A2A2A2A2A2A2A2A2A2A2A2A2A2A2A2A2A2A2A2A2A2A2A2A2A2A2A2A2A2A2A2A2A2A2A2A2A2A2A2A2A2A2A2A2A2A05050505050505050505050505050707070505050505050505050505050505052A2A2A2A2A2A2A2A2A2A2A2A2A2A2A2A2A2A2A2A2A2A2A2A2A2A2A2A
310
2A2A2A2A2A2A2A2A2A2A2A2A2A2A2A2A2A2A2A2A2A2A2A2A2A2A2A2A2A2A2A2A2A2A2A2A2A2A2A2A2A2A2A2A2A2A2A2A2A2A2A2A2A2A2A2A2A2A2A2A2A2A2A2A2A2A2A2A2A2A2A2A2A2A2A2A2A2A2A2A2A2A2A2A2A2A2A2A2A2A2A2A2A2A2A2A2A2A2A2A2A2A2A2A2A2A2A2A2A2A2A2A2A2A2A2A2A2A2A2A05050505050505
310
050505050505050707070505050505050505050505050505052A2A2A2A2A2A2A2A2A2A2A2A2A2A2A2A2A2A2A2A2A2A2A2A2A2A2A2A2A2A2A2A2A2A2A2A2A2A2A2A2A2A2A2A2A2A2A2A2A2A2A2A2A2A2A2A2A2A2A2A2A2A2A2A2A2A2A2A2A2A2A2A2A2A2A2A2A2A2A2A2A2A2A2A2A2A2A2A2A2A2A2A2A2A2A2A2A2A2A2A2A2A
310
2A2A2A2A2A2A2A2A2A2A2A2A2A2A2A2A2A2A2A2A2A2A2A2A2A2A2A2A2A2A2A2A2A2A2A2A2A2A2A2A2A2A2A2A2A2A0505072A2A2A2A2A2A2A2A2A2A2A0707072A2A2A2A2A2A2A2A2A2A2A2A0705052A2A2A2A2A2A2A2A2A2A2A2A2A2A2A2A2A2A2A2A2A2A2A2A2A2A2A2A2A2A2A2A2A2A2A2A2A2A2A2A2A2A2A2A2A2A2A2A2A
310
2A2A2A2A2A2A2A2A2A2A2A2A2A2A2A2A2A2A2A2A2A2A2A2A2A2A2A2A2A2A2A2A2A2A2A2A2A2A2A2A2A2A2A2A2A2A2A2A2A2A2A2A2A2A2A2A2A2A2A2A2A2A2A2A2A2A2A2A2A2A2A2A2A2A2A2A2A2A2A2A2A2A2A2A2A2A2A2A2A2A2A2A2A2A2A2A2A2A2A05050505050505050505050505050707070505050505050505050505
310
050505052A2A2A2A2A2A2A2A2A2A2A2A2A2A2A2A2A2A2A2A2A2A2A2A2A2A2A2A2A2A2A2A2A2A2A2A2A2A2A2A2A2A2A2A2A2A2A2A2A2A2A2A2A2A2A2A2A2A2A2A2A2A2A2A2A2A2A2A2A2A2A2A2A2A2A2A2A2A2A2A2A2A2A2A2A2A2A2A2A2A2A2A2A2A2A2A2A2A2A2A2A2A2A2A2A2A2A2A2A2A2A2A2A2A2A2A2A2A2A2A2A2A2A
310
2A2A2A2A2A2A2A2A2A2A2A2A2A2A2A2A2A2A2A2A2A2A2A2A2A05050505050505050505050505050707070505050505050505050505050505052A2A2A2A2A2A2A2A2A2A2A2A2A2A2A2A2A2A2A2A2A2A2A2A2A2A2A2A2A2A2A2A2A2A2A2A2A2A2A2A2A2A2A2A2A2A2A2A2A2A2A2A2A2A2A2A2A2A2A2A2A2A2A2A2A2A2A2A2A2A
310
2A2A2A2A2A2A2A2A2A2A2A2A2A2A2A2A2A2A2A2A2A2A2A2A2A2A2A2A2A2A2A2A2A2A2A2A2A2A2A2A2A2A2A2A2A2A2A2A2A2A2A2A2A2A2A2A2A2A2A2A2A2A2A2A2A2A2A2A2A2A2A2A2A2A2A2A2A2A05050505050505050505050505050707070505050505050505050505050505052A2A2A2A2A2A2A2A2A2A2A2A2A2A2A2A2A
310
2A2A2A2A2A2A2A2A2A2A2A2A2A2A2A2A2A2A2A2A2A2A2A2A2A2A2A2A2A2A2A2A2A2A2A2A2A2A2A2A2A2A2A2A2A2A2A2A2A2A2A2A2A2A2A2A2A2A2A2A2A2A2A2A2A2A2A2A2A2A2A2A2A2A2A2A2A2A2A2A2A2A2A2A2A2A2A2A2A2A2A2A2A2A2A2A2A2A2A2A2A2A2A2A2A2A2A2A2A2A2A2A2A2A2A2A2A2A2A2A2A2A2A2A2A2A2A
310
2A2A2A2A05050505050505050505050505050707070505050505050505050505050505052A2A2A2A2A2A2A2A2A2A2A2A2A2A2A2A2A2A2A2A2A2A2A2A2A2A2A2A2A2A2A2A2A2A2A2A2A2A2A2A2A2A2A2A2A2A2A2A2A2A2A2A2A2A2A2A2A2A2A2A2A2A2A2A2A2A2A2A2A2A2A2A2A2A2A2A2A2A2A2A2A2A2A2A2A2A2A2A2A2A2A
310
2A2A2A2A2A2A2A2A2A2A2A2A2A2A2A2A2A2A2A2A2A2A2A2A2A2A2A2A2A2A2A2A2A2A2A2A2A2A2A2A2A2A2A2A2A2A2A2A2A2A2A2A2A2A2A2A2A0505072A2A2A2A2A2A2A2A2A2A2A0707072A2A2A2A2A2A2A2A2A2A2A2A0705052A2A2A2A2A2A2A2A2A2A2A2A2A2A2A2A2A2A2A2A2A2A2A2A2A2A2A2A2A2A2A2A2A2A2A2A2A2A
310
2A2A2A2A2A2A2A2A2A2A2A2A2A2A2A2A2A2A2A2A2A2A2A2A2A2A2A2A2A2A2A2A2A2A2A2A2A2A2A2A2A2A2A2A2A2A2A2A2A2A2A2A2A2A2A2A2A2A2A2A2A2A2A2A2A2A2A2A2A2A2A2A2A2A2A2A2A2A2A2A2A2A2A2A2A2A2A2A2A2A2A2A2A2A2A2A2A2A2A2A2A2A2A2A2A2A2A2A2A2A0505050505050505050505050505070707
310
0505050505050505050505050505052A2A2A2A2A2A2A2A2A2A2A2A2A2A2A2A2A2A2A2A2A2A2A2A2A2A2A2A2A2A2A2A2A2A2A2A2A2A2A2A2A2A2A2A2A2A2A2A2A2A2A2A2A2A2A2A2A2A2A2A2A2A2A2A2A2A2A2A2A2A2A2A2A2A2A2A2A2A2A2A2A2A2A2A2A2A2A2A2A2A2A2A2A2A2A2A2A2A2A2A2A2A2A2A2A2A2A2A2A2A2A2A
310
2A2A2A2A2A2A2A2A2A2A2A2A2A2A2A2A2A2A2A2A2A2A2A2A2A2A2A2A2A2A2A2A2A2A2A2A05050505050505050505050505050707070505050505050505050505050505052A2A2A2A2A2A2A2A2A2A2A2A2A2A2A2A2A2A2A2A2A2A2A2A2A2A2A2A2A2A2A2A2A2A2A2A2A2A2A2A2A2A2A2A2A2A2A2A2A2A2A2A2A2A2A2A2A2A2A
310
2A2A2A2A2A2A2A2A2A2A2A2A2A2A2A2A2A2A2A2A2A2A2A2A2A2A2A2A2A2A2A2A2A2A2A2A2A2A2A2A2A2A2A2A2A2A2A2A2A2A2A2A2A2A2A2A2A2A2A2A2A2A2A2A2A2A2A2A2A2A2A2A2A2A2A2A2A2A2A2A2A2A2A2A2A2A2A43434343430707070707070707070707070707070707070707070707070705434343432A2A2A2A2A
310
2A2A2A2A2A2A2A2A2A2A2A2A2A2A2A2A2A2A2A2A2A2A2A2A2A2A2A2A2A2A2A2A2A2A2A2A2A2A2A2A2A2A2A2A2A2A2A2A2A2A2A2A2A2A2A2A2A2A2A2A2A2A2A2A2A2A2A2A2A2A2A2A2A2A2A2A2A2A2A2A2A2A2A2A2A2A2A2A2A2A2A2A2A2A2A2A2A2A2A2A2A2A2A2A2A2A2A2A2A2A2A2A2A2A2A2A2A2A2A2A2A2A2A2A2A2A2A
310
2A2A2A2A2A2A2A2A2A2A2A2A2A43434305050505050505050505050505050505050505050505050505050505050707432A2A2A2A2A2A2A2A2A2A2A2A2A2A2A2A2A2A2A2A2A2A2A2A2A2A2A2A2A2A2A2A2A2A2A2A2A2A2A2A2A2A2A2A2A2A2A2A2A2A2A2A2A2A2A2A2A2A2A2A2A2A2A2A2A2A2A2A2A2A2A2A2A2A2A2A2A2A2A
310
2A2A2A2A2A2A2A2A2A2A2A2A2A2A2A2A2A2A2A2A2A2A2A2A2A2A2A2A2A2A2A2A2A2A2A2A2A2A2A2A2A2A2A2A2A2A2A2A2A2A2A2A2A2A2A2A2A2A2A2A2A2A2A2A2A2A43430505050505050505050505050505070707050505050505050505050505050505072A2A2A2A2A2A2A2A2A2A2A2A2A2A2A2A2A2A2A2A2A2A2A2A2A2A
310
2A2A2A2A2A2A2A2A2A2A2A2A2A2A2A2A2A2A2A2A2A2A2A2A2A2A2A2A2A2A2A2A2A2A2A2A2A2A2A2A2A2A2A2A2A2A2A2A2A2A2A2A2A2A2A2A2A2A2A2A2A2A2A2A2A2A2A2A2A2A2A2A2A2A2A2A2A2A2A2A2A2A2A2A2A2A2A2A2A2A2A2A2A2A2A2A2A2A2A2A2A2A2A2A2A2A2A2A2A2A2A2A2A2A2A2A2A2A2A2A43050505070707
310
0707070707070707070707070707070707070707070707050505072A2A2A2A2A2A2A2A2A2A2A2A2A2A2A2A2A2A2A2A2A2A2A2A2A2A2A2A2A2A2A2A2A2A2A2A2A2A2A2A2A2A2A2A2A2A2A2A2A2A2A2A2A2A2A2A2A2A2A2A2A2A2A2A2A2A2A2A2A2A2A2A2A2A2A2A2A2A2A2A2A2A2A2A2A2A2A2A2A2A2A2A2A2A2A2A2A2A2A2A
310
2A2A2A2A2A2A2A2A2A2A2A2A2A2A2A2A2A2A2A2A2A2A2A2A2A2A2A2A2A2A2A2A2A2A2A2A2A2A2A2A2A2A2A2A2A2A2A05050505050505050505050505050707070505050505050505050505050505052A2A2A2A2A2A2A2A2A2A2A2A2A2A2A2A2A2A2A2A2A2A2A2A2A2A2A2A2A2A2A2A2A2A2A2A2A2A2A2A2A2A2A2A2A2A2A2A
310
2A2A2A2A2A2A2A2A2A2A2A2A2A2A2A2A2A2A2A2A2A2A2A2A2A2A2A2A2A2A2A2A2A2A2A2A2A2A2A2A2A2A2A2A2A2A2A2A2A2A2A2A2A2A2A2A2A2A2A2A2A2A2A2A2A2A2A2A2A2A2A2A2A2A2A2A2A2A2A2A2A2A2A2A2A2A2A2A2A2A2A2A2A2A2A2A2A2A2A2A050505050505050505050505050507070705050505050505050505
310
05050505052A2A2A2A2A2A2A2A2A2A2A2A2A2A2A2A2A2A2A2A2A2A2A2A2A2A2A2A2A2A2A2A2A2A2A2A2A2A2A2A2A2A2A2A2A2A2A2A2A2A2A2A2A2A2A2A2A2A2A2A2A2A2A2A2A2A2A2A2A2A2A2A2A2A2A2A2A2A2A2A2A2A2A2A2A2A2A2A2A2A2A2A2A2A2A2A2A2A2A2A2A2A2A2A2A2A2A2A2A2A2A2A2A2A2A2A2A2A2A2A2A2A
310
2A2A2A2A2A2A2A2A2A2A2A2A2A2A2A2A2A2A2A2A2A2A2A2A2A2A05050505050505050505050505050707070505050505050505050505050505052A2A2A2A2A2A2A2A2A2A2A2A2A2A2A2A2A2A2A2A2A2A2A2A2A2A2A2A2A2A2A2A2A2A2A2A2A2A2A2A2A2A2A2A2A2A2A2A2A2A2A2A2A2A2A2A2A2A2A2A2A2A2A2A2A2A2A2A2A
310
2A2A2A2A2A2A2A2A2A2A2A2A2A2A2A2A2A2A2A2A2A2A2A2A2A2A2A2A2A2A2A2A2A2A2A2A2A2A2A2A2A2A2A2A2A2A2A2A2A2A2A2A2A2A2A2A2A2A2A2A2A2A2A2A2A2A2A2A2A2A2A2A2A2A2A2A2A2A2A05050505050505050505050505050707070505050505050505050505050505052A2A2A2A2A2A2A2A2A2A2A2A2A2A2A2A
310
2A2A2A2A2A2A2A2A2A2A2A2A2A2A2A2A2A2A2A2A2A2A2A2A2A2A2A2A2A2A2A2A2A2A2A2A2A2A2A2A2A2A2A2A2A2A2A2A2A2A2A2A2A2A2A2A2A2A2A2A2A2A2A2A2A2A2A2A2A2A2A2A2A2A2A2A2A2A2A2A2A2A2A2A2A2A2A2A2A2A2A2A2A2A2A2A2A2A2A2A2A2A2A2A2A2A2A2A2A2A2A2A2A2A2A2A2A2A2A2A2A2A2A2A2A2A2A
310
2A2A2A2A2A0505072A2A2A2A2A2A2A2A2A2A2A0707072A2A2A2A2A2A2A2A2A2A2A2A0705052A2A2A2A2A2A2A2A2A2A2A2A2A2A2A2A2A2A2A2A2A2A2A2A2A2A2A2A2A2A2A2A2A2A2A2A2A2A2A2A2A2A2A2A2A2A2A2A2A2A2A2A2A2A2A2A2A2A2A2A2A2A2A2A2A2A2A2A2A2A2A2A2A2A2A2A2A2A2A2A2A2A2A2A2A2A2A2A2A2A
310
2A2A2A2A2A2A2A2A2A2A2A2A2A2A2A2A2A2A2A2A2A2A2A2A2A2A2A2A2A2A2A2A2A2A2A2A2A2A2A2A2A2A2A2A2A2A2A2A2A2A2A2A2A2A2A2A2A2A05050505050505050505050505050707070505050505050505050505050505052A2A2A2A2A2A2A2A2A2A2A2A2A2A2A2A2A2A2A2A2A2A2A2A2A2A2A2A2A2A2A2A2A2A2A2A2A
310
2A2A2A2A2A2A2A2A2A2A2A2A2A2A2A2A2A2A2A2A2A2A2A2A2A2A2A2A2A2A2A2A2A2A2A2A2A2A2A2A2A2A2A2A2A2A2A2A2A2A2A2A2A2A2A2A2A2A2A2A2A2A2A2A2A2A2A2A2A2A2A2A2A2A2A2A2A2A2A2A2A2A2A2A2A2A2A2A2A2A2A2A2A2A2A2A2A2A2A2A2A2A2A2A2A2A2A2A2A2A2A05050505050505050505050505050707
310
070505050505050505050505050505052A2A2A2A2A2A2A2A2A2A2A2A2A2A2A2A2A2A2A2A2A2A2A2A2A2A2A2A2A2A2A2A2A2A2A2A2A2A2A2A2A2A2A2A2A2A2A2A2A2A2A2A2A2A2A2A2A2A2A2A2A2A2A2A2A2A2A2A2A2A2A2A2A2A2A2A2A2A2A2A2A2A2A2A2A2A2A2A2A2A2A2A2A2A2A2A2A2A2A2A2A2A2A2A2A2A2A2A2A2A2A
310
2A2A2A2A2A2A2A2A2A2A2A2A2A2A2A2A2A2A2A2A2A2A2A2A2A2A2A2A2A2A2A2A2A2A2A2A2A0505072A2A2A2A2A2A2A2A2A2A2A0707072A2A2A2A2A2A2A2A2A2A2A2A0705052A2A2A2A2A2A2A2A2A2A2A2A2A2A2A2A2A2A2A2A2A2A2A2A2A2A2A2A2A2A2A2A2A2A2A2A2A2A2A2A2A2A2A2A2A2A2A2A2A2A2A2A2A2A2A2A2A2A
310
2A2A2A2A2A2A2A2A2A2A2A2A2A2A2A2A2A2A2A2A2A2A2A2A2A2A2A2A2A2A2A2A2A2A2A2A2A2A2A2A2A2A2A2A2A2A2A2A2A2A2A2A2A2A2A2A2A2A2A2A2A2A2A2A2A2A2A2A2A2A2A2A2A2A2A2A2A2A2A2A2A2A2A2A2A2A2A2A2A2A05050505050505050505050505050707070505050505050505050505050505052A2A2A2A2A
310
2A2A2A2A2A2A2A2A2A2A2A2A2A2A2A2A2A2A2A2A2A2A2A2A2A2A2A2A2A2A2A2A2A2A2A2A2A2A2A2A2A2A2A2A2A2A2A2A2A2A2A2A2A2A2A2A2A2A2A2A2A2A2A2A2A2A2A2A2A2A2A2A2A2A2A2A2A2A2A2A2A2A2A2A2A2A2A2A2A2A2A2A2A2A2A2A2A2A2A2A2A2A2A2A2A2A2A2A2A2A2A2A2A2A2A2A2A2A2A2A2A2A2A2A2A2A2A
310
2A2A2A2A2A2A2A2A2A2A2A2A2A2A2A2A05050505050505050505050505050707070505050505050505050505050505052A2A2A2A2A2A2A2A2A2A2A2A2A2A2A2A2A2A2A2A2A2A2A2A2A2A2A2A2A2A2A2A2A2A2A2A2A2A2A2A2A2A2A2A2A2A2A2A2A2A2A2A2A2A2A2A2A2A2A2A2A2A2A2A2A2A2A2A2A2A2A2A2A2A2A2A2A2A2A
310
2A2A2A2A2A2A2A2A2A2A2A2A2A2A2A2A2A2A2A2A2A2A2A2A2A2A2A2A2A2A2A2A2A2A2A2A2A2A2A2A2A2A2A2A2A2A2A2A2A2A2A2A2A2A2A2A2A2A2A2A2A2A2A2A2A2A2A2A2A05050505050505050505050505050707070505050505050505050505050505052A2A2A2A2A2A2A2A2A2A2A2A2A2A2A2A2A2A2A2A2A2A2A2A2A2A
310
2A2A2A2A2A2A2A2A2A2A2A2A2A2A2A2A2A2A2A2A2A2A2A2A2A2A2A2A2A2A2A2A2A2A2A2A2A2A2A2A2A2A2A2A2A2A2A2A2A2A2A2A2A2A2A2A2A2A2A2A2A2A2A2A2A2A2A2A2A2A2A2A2A2A2A2A2A2A2A2A2A2A2A2A2A2A2A2A2A2A2A2A2A2A2A2A2A2A2A2A2A2A2A2A2A2A2A2A2A2A2A2A2A2A2A2A2A2A2A2A2A2A0505050505
310
0505050505050505050707070505050505050505050505050505052A2A2A2A2A2A2A2A2A2A2A2A2A2A2A2A2A2A2A2A2A2A2A2A2A2A2A2A2A2A2A2A2A2A2A2A2A2A2A2A2A2A2A2A2A2A2A2A2A2A2A2A2A2A2A2A2A2A2A2A2A2A2A2A2A2A2A2A2A2A2A2A2A2A2A2A2A2A2A2A2A2A2A2A2A2A2A2A2A2A2A2A2A2A2A2A2A2A2A2A
310
2A2A2A2A2A2A2A2A2A2A2A2A2A2A2A2A2A2A2A2A2A2A2A2A2A2A2A2A2A2A2A2A2A2A2A2A2A2A2A2A2A2A2A2A2A2A2A2A0505072A2A2A2A2A2A2A2A2A2A2A0707072A2A2A2A2A2A2A2A2A2A2A2A0705052A2A2A2A2A2A2A2A2A2A2A2A2A2A2A2A2A2A2A2A2A2A2A2A2A2A2A2A2A2A2A2A2A2A2A2A2A2A2A2A2A2A2A2A2A2A2A
310
2A2A2A2A2A2A2A2A2A2A2A2A2A2A2A2A2A2A2A2A2A2A2A2A2A2A2A2A2A2A2A2A2A2A2A2A2A2A2A2A2A2A2A2A2A2A2A2A2A2A2A2A2A2A2A2A2A2A2A2A2A2A2A2A2A2A2A2A2A2A2A2A2A2A2A2A2A2A2A2A2A2A2A2A2A2A2A2A2A2A2A2A2A2A2A2A2A2A2A2A2A0505050505050505050505050505070707050505050505050505
310
0505050505052A2A2A2A2A2A2A2A2A2A2A2A2A2A2A2A2A2A2A2A2A2A2A2A2A2A2A2A2A2A2A2A2A2A2A2A2A2A2A2A2A2A2A2A2A2A2A2A2A2A2A2A2A2A2A2A2A2A2A2A2A2A2A2A2A2A2A2A2A2A2A2A2A2A2A2A2A2A2A2A2A2A2A2A2A2A2A2A2A2A2A2A2A2A2A2A2A2A2A2A2A2A2A2A2A2A2A2A2A2A2A2A2A2A2A2A2A2A2A2A2A
310
2A2A2A2A2A2A2A2A2A2A2A2A2A2A2A2A2A2A2A2A2A2A2A2A2A2A2A05050505050505050505050505050707070505050505050505050505050505052A2A2A2A2A2A2A2A2A2A2A2A2A2A2A2A2A2A2A2A2A2A2A2A2A2A2A2A2A2A2A2A2A2A2A2A2A2A2A2A2A2A2A2A2A2A2A2A2A2A2A2A2A2A2A2A2A2A2A2A2A2A2A2A2A2A2A2A
310
2A2A2A2A2A2A2A2A2A2A2A2A2A2A2A2A2A2A2A2A2A2A2A2A2A2A2A2A2A2A2A2A2A2A2A2A2A2A2A2A2A2A2A2A2A2A2A2A2A2A2A2A2A2A2A2A2A2A2A2A2A2A2A2A2A2A2A2A2A2A2A2A2A2A2A2A2A2A2A2A0505072A2A2A2A2A2A2A2A2A2A2A0707072A2A2A2A2A2A2A2A2A2A2A2A0705052A2A2A2A2A2A2A2A2A2A2A2A2A2A2A
310
2A2A2A2A2A2A2A2A2A2A2A2A2A2A2A2A2A2A2A2A2A2A2A2A2A2A2A2A2A2A2A2A2A2A2A2A2A2A2A2A2A2A2A2A2A2A2A2A2A2A2A2A2A2A2A2A2A2A2A2A2A2A2A2A2A2A2A2A2A2A2A2A2A2A2A2A2A2A2A2A2A2A2A2A2A2A2A2A2A2A2A2A2A2A2A2A2A2A2A2A2A2A2A2A2A2A2A2A2A2A2A2A2A2A2A2A2A2A2A2A2A2A2A2A2A2A2A
310
2A2A2A2A2A2A05050505050505050505050505050707070505050505050505050505050505052A2A2A2A2A2A2A2A2A2A2A2A2A2A2A2A2A2A2A2A2A2A2A2A2A2A2A2A2A2A2A2A2A2A2A2A2A2A2A2A2A2A2A2A2A2A2A2A2A2A2A2A2A2A2A2A2A2A2A2A2A2A2A2A2A2A2A2A2A2A2A2A2A2A2A2A2A2A2A2A2A2A2A2A2A2A2A2A2A
310
2A2A2A2A2A2A2A2A2A2A2A2A2A2A2A2A2A2A2A2A2A2A2A2A2A2A2A2A2A2A2A2A2A2A2A2A2A2A2A2A2A2A2A2A2A2A2A2A2A2A2A2A2A2A2A2A2A2A2A05050505050505050505050505050707070505050505050505050505050505052A2A2A2A2A2A2A2A2A2A2A2A2A2A2A2A2A2A2A2A2A2A2A2A2A2A2A2A2A2A2A2A2A2A2A2A
310
2A2A2A2A2A2A2A2A2A2A2A2A2A2A2A2A2A2A2A2A2A2A2A2A2A2A2A2A2A2A2A2A2A2A2A2A2A2A2A2A2A2A2A2A2A2A2A2A2A2A2A2A2A2A2A2A2A2A2A2A2A2A2A2A2A2A2A2A2A2A2A2A2A2A2A2A2A2A2A2A2A2A2A2A2A2A2A2A2A2A2A2A2A2A2A2A2A2A2A2A2A2A2A2A2A2A2A2A2A2A2A2A050505050505050505050505050507
310
07070505050505050505050505050505052A2A2A2A2A2A2A2A2A2A2A2A2A2A2A2A2A2A2A2A2A2A2A2A2A2A2A2A2A2A2A2A2A2A2A2A2A2A2A2A2A2A2A2A2A2A2A2A2A2A2A2A2A2A2A2A2A2A2A2A2A2A2A2A2A2A2A2A2A2A2A2A2A2A2A2A2A2A2A2A2A2A2A2A2A2A2A2A2A2A2A2A2A2A2A2A2A2A2A2A2A2A2A2A2A2A2A2A2A2A
310
2A2A2A2A2A2A2A2A2A2A2A2A2A2A2A2A2A2A2A2A2A2A2A2A2A2A2A2A2A2A2A2A2A2A2A2A2A2A05050505050505050505050505050707070505050505050505050505050505052A2A2A2A2A2A2A2A2A2A2A2A2A2A2A2A2A2A2A2A2A2A2A2A2A2A2A2A2A2A2A2A2A2A2A2A2A2A2A2A2A2A2A2A2A2A2A2A2A2A2A2A2A2A2A2A2A
310
2A2A2A2A2A2A2A2A2A2A2A2A2A2A2A2A2A2A2A2A2A2A2A2A2A2A2A2A2A2A2A2A2A2A2A2A2A2A2A2A2A2A2A2A2A2A2A2A2A2A2A2A2A2A2A2A2A2A2A2A2A2A2A2A2A2A2A2A2A2A2A2A2A2A2A2A2A2A2A2A2A2A2A2A2A2A2A2A2A2A2A0505072A2A2A2A2A2A2A2A2A2A2A0707072A2A2A2A2A2A2A2A2A2A2A2A0705052A2A2A2A
310
2A2A2A2A2A2A2A2A2A2A2A2A2A2A2A2A2A2A2A2A2A2A2A2A2A2A2A2A2A2A2A2A2A2A2A2A2A2A2A2A2A2A2A2A2A2A2A2A2A2A2A2A2A2A2A2A2A2A2A2A2A2A2A2A2A2A2A2A2A2A2A2A2A2A2A2A2A2A2A2A2A2A2A2A2A2A2A2A2A2A2A2A2A2A2A2A2A2A2A2A2A2A2A2A2A2A2A2A2A2A2A2A2A2A2A2A2A2A2A2A2A2A2A2A2A2A2A
310
2A2A2A2A2A2A2A2A2A2A2A2A2A2A2A2A2A05050505050505050505050505050707070505050505050505050505050505052A2A2A2A2A2A2A2A2A2A2A2A2A2A2A2A2A2A2A2A2A2A2A2A2A2A2A2A2A2A2A2A2A2A2A2A2A2A2A2A2A2A2A2A2A2A2A2A2A2A2A2A2A2A2A2A2A2A2A2A2A2A2A2A2A2A2A2A2A2A2A2A2A2A2A2A2A2A
310
2A2A2A2A2A2A2A2A2A2A2A2A2A2A2A2A2A2A2A2A2A2A2A2A2A2A2A2A2A2A2A2A2A2A2A2A2A2A2A2A2A2A2A2A2A2A2A2A2A2A2A2A2A2A2A2A2A2A2A2A2A2A2A2A2A2A2A2A2A2A05050505050505050505050505050707070505050505050505050505050505052A2A2A2A2A2A2A2A2A2A2A2A2A2A2A2A2A2A2A2A2A2A2A2A2A
310
2A2A2A2A2A2A2A2A2A2A2A2A2A2A2A2A2A2A2A2A2A2A2A2A2A2A2A2A2A2A2A2A2A2A2A2A2A2A2A2A2A2A2A2A2A2A2A2A2A2A2A2A2A2A2A2A2A2A2A2A2A2A2A2A2A2A2A2A2A2A2A2A2A2A2A2A2A2A2A2A2A2A2A2A2A2A2A2A2A2A2A2A2A2A2A2A2A2A2A2A2A2A2A2A2A2A2A2A2A2A2A2A2A2A2A2A2A2A2A2A2A2A2A0505072A
310
2A2A2A2A2A2A2A2A2A2A0707072A2A2A2A2A2A2A2A2A2A2A2A0705052A2A2A2A2A2A2A2A2A2A2A2A2A2A2A2A2A2A2A2A2A2A2A2A2A2A2A2A2A2A2A2A2A2A2A2A2A2A2A2A2A2A2A2A2A2A2A2A2A2A2A2A2A2A2A2A2A2A2A2A2A2A2A2A2A2A2A2A2A2A2A2A2A2A2A2A2A2A2A2A2A2A2A2A2A2A2A2A2A2A2A2A2A2A2A2A2A2A2A
310
2A2A2A2A2A2A2A2A2A2A2A2A2A2A2A2A2A2A2A2A2A2A2A2A2A2A2A2A2A2A2A2A2A2A2A2A2A2A2A2A2A2A2A2A2A2A2A2A2A05050505050505050505050505050707070505050505050505050505050505052A2A2A2A2A2A2A2A2A2A2A2A2A2A2A2A2A2A2A2A2A2A2A2A2A2A2A2A2A2A2A2A2A2A2A2A2A2A2A2A2A2A2A2A2A2A
310
2A2A2A2A2A2A2A2A2A2A2A2A2A2A2A2A2A2A2A2A2A2A2A2A2A2A2A2A2A2A2A2A2A2A2A2A2A2A2A2A2A2A2A2A2A2A2A2A2A2A2A2A2A2A2A2A2A2A2A2A2A2A2A2A2A2A2A2A2A2A2A2A2A2A2A2A2A2A2A2A2A2A2A2A2A2A2A2A2A2A2A2A2A2A2A2A2A2A2A2A434305050505050505050505050505050707070505050505050505
310
05050505050505072A2A2A2A2A2A2A2A2A2A2A2A2A2A2A2A2A2A2A2A2A2A2A2A2A2A2A2A2A2A2A2A2A2A2A2A2A2A2A2A2A2A2A2A2A2A2A2A2A2A2A2A2A2A2A2A2A2A2A2A2A2A2A2A2A2A2A2A2A2A2A2A2A2A2A2A2A2A2A2A2A2A2A2A2A2A2A2A2A2A2A2A2A2A2A2A2A2A2A2A2A2A2A2A2A2A2A2A2A2A2A2A2A2A2A2A2A2A2A
310
2A2A2A2A2A2A2A2A2A2A2A2A2A2A2A2A2A2A2A2A2A2A2A2A2A2A43430505050505050505050505050505050707050505050505050505050505050505072A2A2A2A2A2A2A2A2A2A2A2A2A2A2A2A2A2A2A2A2A2A2A2A2A2A2A2A2A2A2A2A2A2A2A2A2A2A2A2A2A2A2A2A2A2A2A2A2A2A2A2A2A2A2A2A2A2A2A2A2A2A2A2A2A2A
310
2A2A2A2A2A2A2A2A2A2A2A2A2A2A2A2A2A2A2A2A2A2A2A2A2A2A2A2A2A2A2A2A2A2A2A2A2A2A2A2A2A2A2A2A2A2A2A2A2A2A2A2A2A2A2A2A2A2A2A2A2A2A2A2A2A2A2A2A2A2A2A2A2A2A2A2A2A2A2A43430505050505050505050505050505050505050505050505050505050505050505432A2A2A2A2A2A2A2A2A2A2A2A2A
310
2A2A2A2A2A2A2A2A2A2A2A2A2A2A2A2A2A2A2A2A2A2A2A2A2A2A2A2A2A2A2A2A2A2A2A2A2A2A2A2A2A2A2A2A2A2A2A2A2A2A2A2A2A2A2A2A2A2A2A2A2A2A2A2A2A2A2A2A2A2A2A2A2A2A2A2A2A2A2A2A2A2A2A2A2A2A2A2A2A2A2A2A2A2A2A2A2A2A2A2A2A2A2A2A2A2A2A2A2A2A2A2A2A2A2A2A2A2A2A2A2A2A2A2A2A2A2A
310
2A2A2A2A2A43434305050707070707070707070707070707070707070707070707070707050543432A2A2A2A2A2A2A2A2A2A2A2A2A2A2A2A2A2A2A2A2A2A2A2A2A2A2A2A2A2A2A2A2A2A2A2A2A2A2A2A2A2A2A2A2A2A2A2A2A2A2A2A2A2A2A2A2A2A2A2A2A2A2A2A2A2A2A2A2A2A2A2A2A2A2A2A2A2A2A2A2A2A2A2A2A2A2A
310
2A2A2A2A2A2A2A2A2A2A2A2A2A2A2A2A2A2A2A2A2A2A2A2A2A2A2A2A2A2A2A2A2A2A2A2A2A2A2A2A2A2A2A2A2A2A2A2A2A2A2A2A2A2A2A2A2A2A2A434343050505050505050505050505050505050505050505050505050505054343432A2A2A2A2A2A2A2A2A2A2A2A2A2A2A2A2A2A2A2A2A2A2A2A2A2A2A2A2A2A2A2A2A2A
310
2A2A2A2A2A2A2A2A2A2A2A2A2A2A2A2A2A2A2A2A2A2A2A2A2A2A2A2A2A2A2A2A2A2A2A2A2A2A2A2A2A2A2A2A2A2A2A2A2A2A2A2A2A2A2A2A2A2A2A2A2A2A2A2A2A2A2A2A2A2A2A2A2A2A2A2A2A2A2A2A2A2A2A2A2A2A2A2A2A2A2A2A2A2A2A2A2A2A2A2A2A2A2A2A2A2A2A2A2A2A2A2A2A2A2A050505050505050505050505
310
050505050505050505050505050505052A2A2A2A2A2A2A2A2A2A2A2A2A2A2A2A2A2A2A2A2A2A2A2A2A2A2A2A2A2A2A2A2A2A2A2A2A2A2A2A2A2A2A2A2A2A2A2A2A2A2A2A2A2A2A2A2A2A2A2A2A2A2A2A2A2A2A2A2A2A2A2A2A2A2A2A2A2A2A2A2A2A2A2A2A2A2A2A2A2A2A2A2A2A2A2A2A2A2A2A2A2A2A2A2A2A2A2A2A2A2A
310
2A2A2A2A2A2A2A2A2A2A2A2A2A2A2A2A2A2A2A2A2A2A2A2A2A2A2A2A2A2A2A2A2A2A2A2A2A2A2A2A2A052A2A2A2A2A2A2A2A2A2A2A2A2A2A2A2A2A2A2A2A2A2A2A2A2A2A052A2A2A2A2A2A2A2A2A2A2A2A2A2A2A2A2A2A2A2A2A2A2A2A2A2A2A2A2A2A2A2A2A2A2A2A2A2A2A2A2A2A2A2A2A2A2A2A2A2A2A2A2A2A2A2A2A2A
310
2A2A2A2A2A2A2A2A2A2A2A2A2A2A2A2A2A2A2A2A2A2A2A2A2A2A2A2A2A2A2A2A2A2A2A2A2A2A2A2A2A2A2A2A2A2A2A2A2A2A2A2A2A2A2A2A2A2A2A2A2A2A2A2A2A2A2A2A2A2A2A2A2A2A2A2A2A2A2A2A2A2A2A2A2A2A2A2A2A2A2A2A2A2A050505050505050505050505050505050505050505050505050505052A2A2A2A2A
310
2A2A2A2A2A2A2A2A2A2A2A2A2A2A2A2A2A2A2A2A2A2A2A2A2A2A2A2A2A2A2A2A2A2A2A2A2A2A2A2A2A2A2A2A2A2A2A2A2A2A2A2A2A2A2A2A2A2A2A2A2A2A2A2A2A2A2A2A2A2A2A2A2A2A2A2A2A2A2A2A2A2A2A2A2A2A2A2A2A2A2A2A2A2A2A2A2A2A2A2A2A2A2A2A2A2A2A2A2A2A2A2A2A2A2A2A2A2A2A2A2A2A2A2A2A2A2A
310
2A2A2A2A2A2A2A2A2A2A2A2A2A2A2A2A2A2A2A2A050505050505050505050505050505050505050505050505050505052A2A2A2A2A2A2A2A2A2A2A2A2A2A2A2A2A2A2A2A2A2A2A2A2A2A2A2A2A2A2A2A2A2A2A2A2A2A2A2A2A2A2A2A2A2A2A2A2A2A2A2A2A2A2A2A2A2A2A2A2A2A2A2A2A2A2A2A2A2A2A2A2A2A2A2A2A2A2A
310
2A2A2A2A2A2A2A2A2A2A2A2A2A2A2A2A2A2A2A2A2A2A2A2A2A2A2A2A2A2A2A2A2A2A2A2A2A2A2A2A2A2A2A2A2A2A2A2A2A2A2A2A2A2A2A2A2A2A2A2A2A2A2A2A2A2A2A2A2A2A2A2A2A050505050505050505050505050505050505050505050505050505052A2A2A2A2A2A2A2A2A2A2A2A2A2A2A2A2A2A2A2A2A2A2A2A2A2A
310
2A2A2A2A2A2A2A2A2A2A2A2A2A2A2A2A2A2A2A2A2A2A2A2A2A2A2A2A2A2A2A2A2A2A2A2A2A2A2A2A2A2A2A2A2A2A2A2A2A2A2A2A2A2A2A2A2A2A2A2A2A2A2A2A2A2A2A2A2A2A2A2A2A2A2A2A2A2A2A2A2A2A2A2A2A2A2A2A2A2A2A2A2A2A2A2A2A2A2A2A2A2A2A2A2A2A2A2A2A2A2A2A2A2A2A2A2A2A2A2A2A2A2A2A2A2A05
310
0505050505050505050505050505050505050505050505050505052A2A2A2A2A2A2A2A2A2A2A2A2A2A2A2A2A2A2A2A2A2A2A2A2A2A2A2A2A2A2A2A2A2A2A2A2A2A2A2A2A2A2A2A2A2A2A2A2A2A2A2A2A2A2A2A2A2A2A2A2A2A2A2A2A2A2A2A2A2A2A2A2A2A2A2A2A2A2A2A2A2A2A2A2A2A2A2A2A2A2A2A2A2A2A2A2A2A2A2A
310
2A2A2A2A2A2A2A2A2A2A2A2A2A2A2A2A2A2A2A2A2A2A2A2A2A2A2A2A2A2A2A2A2A2A2A2A2A2A2A2A2A2A2A2A2A2A2A2A2A2A2A2A050505050505050505050505050505050505050505050505050505052A2A2A2A2A2A2A2A2A2A2A2A2A2A2A2A2A2A2A2A2A2A2A2A2A2A2A2A2A2A2A2A2A2A2A2A2A2A2A2A2A2A2A2A2A2A2A
310
2A2A2A2A2A2A2A2A2A2A2A2A2A2A2A2A2A2A2A2A2A2A2A2A2A2A2A2A2A2A2A2A2A2A2A2A2A2A2A2A2A2A2A2A2A2A2A2A2A2A2A2A2A2A2A2A2A2A2A2A2A2A2A2A2A2A2A2A2A2A2A2A2A2A2A2A2A2A2A2A2A2A2A2A2A2A2A2A2A2A2A2A2A2A2A2A2A2A2A2A2A2A2A2A2A05050505050505050505050505050505050505050505
310
0505050505052A2A2A2A2A2A2A2A2A2A2A2A2A2A2A2A2A2A2A2A2A2A2A2A2A2A2A2A2A2A2A2A2A2A2A2A2A2A2A2A2A2A2A2A2A2A2A2A2A2A2A2A2A2A2A2A2A2A2A2A2A2A2A2A2A2A2A2A2A2A2A2A2A2A2A2A2A2A2A2A2A2A2A2A2A2A2A2A2A2A2A2A2A2A2A2A2A2A2A2A2A2A2A2A2A2A2A2A2A2A2A2A2A2A2A2A2A2A2A2A2A
310
2A2A2A2A2A2A2A2A2A2A2A2A2A2A2A2A2A2A2A2A2A2A2A2A2A2A2A2A2A2A2A050505050505050505050505050505050505050505050505050505052A2A2A2A2A2A2A2A2A2A2A2A2A2A2A2A2A2A2A2A2A2A2A2A2A2A2A2A2A2A2A2A2A2A2A2A2A2A2A2A2A2A2A2A2A2A2A2A2A2A2A2A2A2A2A2A2A2A2A2A2A2A2A2A2A2A2A2A
310
2A2A2A2A2A2A2A2A2A2A2A2A2A2A2A2A2A2A2A2A2A2A2A2A2A2A2A2A2A2A2A2A2A2A2A2A2A2A2A2A2A2A2A2A2A2A2A2A2A2A2A2A2A2A2A2A2A2A2A2A2A2A2A2A2A2A2A2A2A2A2A2A2A2A2A2A2A2A2A2A2A2A2A2A050505050505050505050505050505050505050505050505050505052A2A2A2A2A2A2A2A2A2A2A2A2A2A2A
310
2A2A2A2A2A2A2A2A2A2A2A2A2A2A2A2A2A2A2A2A2A2A2A2A2A2A2A2A2A2A2A2A2A2A2A2A2A2A2A2A2A2A2A2A2A2A2A2A2A2A2A2A2A2A2A2A2A2A2A2A2A2A2A2A2A2A2A2A2A2A2A2A2A2A2A2A2A2A2A2A2A2A2A2A2A2A2A2A2A2A2A2A2A2A2A2A2A2A2A2A2A2A2A2A2A2A2A2A2A2A2A2A2A2A2A2A2A2A2A2A2A2A2A2A2A2A2A
310
2A2A2A2A2A2A2A2A2A2A050505050505050505050505050505050505050505050505050505052A2A2A2A2A2A2A2A2A2A2A2A2A2A2A2A2A2A2A2A2A2A2A2A2A2A2A2A2A2A2A2A2A2A2A2A2A2A2A2A2A2A2A2A2A2A2A2A2A2A2A2A2A2A2A2A2A2A2A2A2A2A2A2A2A2A2A2A2A2A2A2A2A2A2A2A2A2A2A2A2A2A2A2A2A2A2A2A2A
310
2A2A2A2A2A2A2A2A2A2A2A2A2A2A2A2A2A2A2A2A2A2A2A2A2A2A2A2A2A2A2A2A2A2A2A2A2A2A2A2A2A2A2A2A2A2A2A2A2A2A2A2A2A2A2A2A2A2A2A2A2A2A2A052A2A2A2A2A2A2A2A2A2A2A2A2A2A2A2A2A2A2A2A2A2A2A2A2A2A052A2A2A2A2A2A2A2A2A2A2A2A2A2A2A2A2A2A2A2A2A2A2A2A2A2A2A2A2A2A2A2A2A2A2A2A
310
2A2A2A2A2A2A2A2A2A2A2A2A2A2A2A2A2A2A2A2A2A2A2A2A2A2A2A2A2A2A2A2A2A2A2A2A2A2A2A2A2A2A2A2A2A2A2A2A2A2A2A2A2A2A2A2A2A2A2A2A2A2A2A2A2A2A2A2A2A2A2A2A2A2A2A2A2A2A2A2A2A2A2A2A2A2A2A2A2A2A2A2A2A2A2A2A2A2A2A2A2A2A2A2A2A2A2A2A2A2A2A2A2A2A2A2A0505050505050505050505
310
05050505050505050505050505050505052A2A2A2A2A2A2A2A2A2A2A2A2A2A2A2A2A2A2A2A2A2A2A2A2A2A2A2A2A2A2A2A2A2A2A2A2A2A2A2A2A2A2A2A2A2A2A2A2A2A2A2A2A2A2A2A2A2A2A001215440B044138100F3A00001A1D1713224B4F4E224B28230E2C320021403D002D3B272E29224B4F00222E16350011480021
310
343200023B271F1E224C2F4E221F1623000D4800313432001C3B1C011B224C2F4E22011603000C480031343200143B1C1F37224C2F00221F16360045480031343D0031343D003942273337224B2F00224C2F00224B2F0022093C0600464800344A34083022084E00222F49200025480040213D002426312F19224D4E00224D
310
222B
  0
ENDSEC
  0
EOF
