  0
SECTION
  2
HEADER
  9
$ACADVER
  1
AC1015
  9
$ACADMAINTVER
 70
     6
  9
$DWGCODEPAGE
  3
ANSI_1252
  9
$INSBASE
 10
0.0
 20
0.0
 30
0.0
  9
$EXTMIN
 10
1298.544
 20
-95.714
 30
0.0
  9
$EXTMAX
 10
6802.397
 20
924.287
 30
0.0
  9
$LIMMIN
 10
-7144.671283
 20
-10780.855283
  9
$LIMMAX
 10
15245.612283
 20
11609.428283
  9
$ORTHOMODE
 70
     0
  9
$REGENMODE
 70
     1
  9
$FILLMODE
 70
     1
  9
$QTEXTMODE
 70
     0
  9
$MIRRTEXT
 70
     1
  9
$LTSCALE
 40
1.0
  9
$ATTMODE
 70
     1
  9
$TEXTSIZE
 40
100.0
  9
$TRACEWID
 40
0.05
  9
$TEXTSTYLE
  7
Standard
  9
$CLAYER
  8
Level 8
  9
$CELTYPE
  6
Continuous
  9
$CECOLOR
 62
    98
  9
$CELTSCALE
 40
1.0
  9
$DISPSILH
 70
     0
  9
$DIMSCALE
 40
1.0
  9
$DIMASZ
 40
100.0
  9
$DIMEXO
 40
50.0
  9
$DIMDLI
 40
0.0
  9
$DIMRND
 40
0.0
  9
$DIMDLE
 40
0.0
  9
$DIMEXE
 40
50.0
  9
$DIMTP
 40
0.0
  9
$DIMTM
 40
0.0
  9
$DIMTXT
 40
100.0
  9
$DIMCEN
 40
0.09
  9
$DIMTSZ
 40
0.0
  9
$DIMTOL
 70
     0
  9
$DIMLIM
 70
     0
  9
$DIMTIH
 70
     0
  9
$DIMTOH
 70
     0
  9
$DIMSE1
 70
     0
  9
$DIMSE2
 70
     0
  9
$DIMTAD
 70
     1
  9
$DIMZIN
 70
    11
  9
$DIMBLK
  1
TerminatorOpen_0.5
  9
$DIMASO
 70
     1
  9
$DIMSHO
 70
     1
  9
$DIMPOST
  1

  9
$DIMAPOST
  1

  9
$DIMALT
 70
     0
  9
$DIMALTD
 70
     4
  9
$DIMALTF
 40
25.4
  9
$DIMLFAC
 40
1.0
  9
$DIMTOFL
 70
     0
  9
$DIMTVP
 40
0.0
  9
$DIMTIX
 70
     0
  9
$DIMSOXD
 70
     0
  9
$DIMSAH
 70
     0
  9
$DIMBLK1
  1

  9
$DIMBLK2
  1

  9
$DIMSTYLE
  2
Standard
  9
$DIMCLRD
 70
     0
  9
$DIMCLRE
 70
     0
  9
$DIMCLRT
 70
     0
  9
$DIMTFAC
 40
1.0
  9
$DIMGAP
 40
50.0
  9
$DIMJUST
 70
     0
  9
$DIMSD1
 70
     0
  9
$DIMSD2
 70
     0
  9
$DIMTOLJ
 70
     0
  9
$DIMTZIN
 70
    11
  9
$DIMALTZ
 70
    15
  9
$DIMALTTZ
 70
    15
  9
$DIMUPT
 70
     0
  9
$DIMDEC
 70
     0
  9
$DIMTDEC
 70
     0
  9
$DIMALTU
 70
     2
  9
$DIMALTTD
 70
     4
  9
$DIMTXSTY
  7
Style-ENGINEERING
  9
$DIMAUNIT
 70
     0
  9
$DIMADEC
 70
     0
  9
$DIMALTRND
 40
0.0
  9
$DIMAZIN
 70
     3
  9
$DIMDSEP
 70
    46
  9
$DIMATFIT
 70
     3
  9
$DIMFRAC
 70
     2
  9
$DIMLDRBLK
  1
TerminatorOpen_0.5
  9
$DIMLUNIT
 70
     2
  9
$DIMLWD
 70
    -2
  9
$DIMLWE
 70
    -2
  9
$DIMTMOVE
 70
     0
  9
$LUNITS
 70
     2
  9
$LUPREC
 70
     0
  9
$SKETCHINC
 40
0.1
  9
$FILLETRAD
 40
0.5
  9
$AUNITS
 70
     0
  9
$AUPREC
 70
     0
  9
$MENU
  1
.
  9
$ELEVATION
 40
0.0
  9
$PELEVATION
 40
0.0
  9
$THICKNESS
 40
0.0
  9
$LIMCHECK
 70
     0
  9
$CHAMFERA
 40
0.5
  9
$CHAMFERB
 40
0.5
  9
$CHAMFERC
 40
1.0
  9
$CHAMFERD
 40
0.0
  9
$SKPOLY
 70
     0
  9
$TDCREATE
 40
2451789.870802037
  9
$TDUCREATE
 40
2451789.537468704
  9
$TDUPDATE
 40
2451789.87089463
  9
$TDUUPDATE
 40
2451789.537561297
  9
$TDINDWG
 40
0.0000927662
  9
$TDUSRTIMER
 40
0.0000925926
  9
$USRTIMER
 70
     1
  9
$ANGBASE
 50
0.0
  9
$ANGDIR
 70
     0
  9
$PDMODE
 70
     0
  9
$PDSIZE
 40
0.0
  9
$PLINEWID
 40
0.0
  9
$SPLFRAME
 70
     0
  9
$SPLINETYPE
 70
     6
  9
$SPLINESEGS
 70
     8
  9
$HANDSEED
  5
7C15E
  9
$SURFTAB1
 70
     6
  9
$SURFTAB2
 70
     6
  9
$SURFTYPE
 70
     6
  9
$SURFU
 70
     6
  9
$SURFV
 70
     6
  9
$UCSBASE
  2

  9
$UCSNAME
  2

  9
$UCSORG
 10
0.0
 20
0.0
 30
0.0
  9
$UCSXDIR
 10
1.0
 20
0.0
 30
0.0
  9
$UCSYDIR
 10
0.0
 20
1.0
 30
0.0
  9
$UCSORTHOREF
  2

  9
$UCSORTHOVIEW
 70
     0
  9
$UCSORGTOP
 10
0.0
 20
0.0
 30
0.0
  9
$UCSORGBOTTOM
 10
0.0
 20
0.0
 30
0.0
  9
$UCSORGLEFT
 10
0.0
 20
0.0
 30
0.0
  9
$UCSORGRIGHT
 10
0.0
 20
0.0
 30
0.0
  9
$UCSORGFRONT
 10
0.0
 20
0.0
 30
0.0
  9
$UCSORGBACK
 10
0.0
 20
0.0
 30
0.0
  9
$PUCSBASE
  2

  9
$PUCSNAME
  2

  9
$PUCSORG
 10
0.0
 20
0.0
 30
0.0
  9
$PUCSXDIR
 10
1.0
 20
0.0
 30
0.0
  9
$PUCSYDIR
 10
0.0
 20
1.0
 30
0.0
  9
$PUCSORTHOREF
  2

  9
$PUCSORTHOVIEW
 70
     0
  9
$PUCSORGTOP
 10
0.0
 20
0.0
 30
0.0
  9
$PUCSORGBOTTOM
 10
0.0
 20
0.0
 30
0.0
  9
$PUCSORGLEFT
 10
0.0
 20
0.0
 30
0.0
  9
$PUCSORGRIGHT
 10
0.0
 20
0.0
 30
0.0
  9
$PUCSORGFRONT
 10
0.0
 20
0.0
 30
0.0
  9
$PUCSORGBACK
 10
0.0
 20
0.0
 30
0.0
  9
$USERI1
 70
     0
  9
$USERI2
 70
     0
  9
$USERI3
 70
     0
  9
$USERI4
 70
     0
  9
$USERI5
 70
     0
  9
$USERR1
 40
0.0
  9
$USERR2
 40
0.0
  9
$USERR3
 40
0.0
  9
$USERR4
 40
0.0
  9
$USERR5
 40
0.0
  9
$WORLDVIEW
 70
     1
  9
$SHADEDGE
 70
     3
  9
$SHADEDIF
 70
    70
  9
$TILEMODE
 70
     1
  9
$MAXACTVP
 70
    64
  9
$PINSBASE
 10
0.0
 20
0.0
 30
0.0
  9
$PLIMCHECK
 70
     0
  9
$PEXTMIN
 10
1.000000E+20
 20
1.000000E+20
 30
1.000000E+20
  9
$PEXTMAX
 10
-1.000000E+20
 20
-1.000000E+20
 30
-1.000000E+20
  9
$PLIMMIN
 10
0.0
 20
0.0
  9
$PLIMMAX
 10
12.0
 20
9.0
  9
$UNITMODE
 70
     0
  9
$VISRETAIN
 70
     1
  9
$PLINEGEN
 70
     0
  9
$PSLTSCALE
 70
     0
  9
$TREEDEPTH
 70
  3020
  9
$CMLSTYLE
  2
Standard
  9
$CMLJUST
 70
     0
  9
$CMLSCALE
 40
1.0
  9
$PROXYGRAPHICS
 70
     1
  9
$MEASUREMENT
 70
     0
  9
$CELWEIGHT
370
     0
  9
$ENDCAPS
280
     0
  9
$JOINSTYLE
280
     0
  9
$LWDISPLAY
290
     1
  9
$INSUNITS
 70
     4
  9
$HYPERLINKBASE
  1

  9
$STYLESHEET
  1

  9
$XEDIT
290
     1
  9
$CEPSNTYPE
380
     0
  9
$PSTYLEMODE
290
     1
  9
$FINGERPRINTGUID
  2
{FDEAD576-A652-11D2-9A35-0060089B3A3F}
  9
$VERSIONGUID
  2
{A257D680-BC79-11D2-9A46-0060089B3A3F}
  9
$EXTNAMES
290
     1
  9
$PSVPSCALE
 40
0.0
  9
$OLESTARTUP
290
     0
  0
ENDSEC
  0
SECTION
  2
CLASSES
  0
CLASS
  1
ACDBDICTIONARYWDFLT
  2
AcDbDictionaryWithDefault
  3
ObjectDBX Classes
 90
        0
280
     0
281
     0
  0
CLASS
  1
ACDBPLACEHOLDER
  2
AcDbPlaceHolder
  3
ObjectDBX Classes
 90
        0
280
     0
281
     0
  0
CLASS
  1
LAYOUT
  2
AcDbLayout
  3
ObjectDBX Classes
 90
        0
280
     0
281
     0
  0
ENDSEC
  0
SECTION
  2
TABLES
  0
TABLE
  2
VPORT
  5
7C032
330
0
100
AcDbSymbolTable
 70
     3
  0
VPORT
  5
4B
330
7C032
100
AcDbSymbolTableRecord
100
AcDbViewportTableRecord
  2
*ACTIVE
 70
     0
 10
0.0
 20
0.0
 11
1.0
 21
1.0
 12
4050.4705
 22
414.2865
 13
0.0
 23
0.0
 14
1.0
 24
1.0
 15
1.0
 25
1.0
 16
0.0
 26
0.0
 36
1.0
 17
0.0
 27
0.0
 37
0.0
 40
2653.43015
 41
2.15721
 42
50.0
 43
0.0
 44
0.0
 50
0.0
 51
0.0
 71
     0
 72
   100
 73
     1
 74
     2
 75
     0
 76
     0
 77
     0
 78
     1
281
     0
 65
     1
110
0.0
120
0.0
130
0.0
111
1.0
121
0.0
131
0.0
112
0.0
122
1.0
132
0.0
 79
     0
146
0.0
  0
ENDTAB
  0
TABLE
  2
LTYPE
  5
7C02E
330
0
100
AcDbSymbolTable
 70
     2
  0
LTYPE
  5
7C02F
330
7C02E
100
AcDbSymbolTableRecord
100
AcDbLinetypeTableRecord
  2
ByBlock
 70
     0
  3

 72
    65
 73
     0
 40
0.0
  0
LTYPE
  5
7C020
330
7C02E
100
AcDbSymbolTableRecord
100
AcDbLinetypeTableRecord
  2
ByLayer
 70
     0
  3

 72
    65
 73
     0
 40
0.0
  0
LTYPE
  5
7C01E
330
7C02E
100
AcDbSymbolTableRecord
100
AcDbLinetypeTableRecord
  2
Continuous
 70
     0
  3
Solid line
 72
    65
 73
     0
 40
0.0
  0
LTYPE
  5
4E1B6
330
7C02E
100
AcDbSymbolTableRecord
100
AcDbLinetypeTableRecord
  2
Continuous_1
 70
     0
  3

 72
    65
 73
     0
 40
0.0
  0
ENDTAB
  0
TABLE
  2
LAYER
  5
7C02C
102
{ACAD_XDICTIONARY
360
7C03D
102
}
330
0
100
AcDbSymbolTable
 70
    65
  0
LAYER
  5
7C01C
330
7C02C
100
AcDbSymbolTableRecord
100
AcDbLayerTableRecord
  2
0
 70
     0
 62
     7
  6
Continuous
370
    -3
390
7C01D
  0
LAYER
  5
7
330
7C02C
100
AcDbSymbolTableRecord
100
AcDbLayerTableRecord
  2
Level 1
 70
     0
 62
     7
  6
Continuous
370
     0
390
7C01D
  0
LAYER
  5
8
330
7C02C
100
AcDbSymbolTableRecord
100
AcDbLayerTableRecord
  2
Level 2
 70
     0
 62
     7
  6
Continuous
370
     0
390
7C01D
  0
LAYER
  5
9
330
7C02C
100
AcDbSymbolTableRecord
100
AcDbLayerTableRecord
  2
Level 3
 70
     0
 62
     7
  6
Continuous
370
     0
390
7C01D
  0
LAYER
  5
A
330
7C02C
100
AcDbSymbolTableRecord
100
AcDbLayerTableRecord
  2
Level 4
 70
     0
 62
     7
  6
Continuous
370
     0
390
7C01D
  0
LAYER
  5
B
330
7C02C
100
AcDbSymbolTableRecord
100
AcDbLayerTableRecord
  2
Level 5
 70
     0
 62
     7
  6
Continuous
370
     0
390
7C01D
  0
LAYER
  5
C
330
7C02C
100
AcDbSymbolTableRecord
100
AcDbLayerTableRecord
  2
Level 6
 70
     0
 62
     7
  6
Continuous
370
     0
390
7C01D
  0
LAYER
  5
D
330
7C02C
100
AcDbSymbolTableRecord
100
AcDbLayerTableRecord
  2
Level 7
 70
     0
 62
     7
  6
Continuous
370
     0
390
7C01D
  0
LAYER
  5
E
330
7C02C
100
AcDbSymbolTableRecord
100
AcDbLayerTableRecord
  2
Level 8
 70
     0
 62
     7
  6
Continuous
370
     0
390
7C01D
  0
LAYER
  5
F
330
7C02C
100
AcDbSymbolTableRecord
100
AcDbLayerTableRecord
  2
Level 9
 70
     0
 62
     7
  6
Continuous
370
     0
390
7C01D
  0
LAYER
  5
10
330
7C02C
100
AcDbSymbolTableRecord
100
AcDbLayerTableRecord
  2
Level 10
 70
     0
 62
     7
  6
Continuous
370
     0
390
7C01D
  0
LAYER
  5
11
330
7C02C
100
AcDbSymbolTableRecord
100
AcDbLayerTableRecord
  2
Level 11
 70
     0
 62
     7
  6
Continuous
370
     0
390
7C01D
  0
LAYER
  5
12
330
7C02C
100
AcDbSymbolTableRecord
100
AcDbLayerTableRecord
  2
Level 12
 70
     0
 62
     7
  6
Continuous
370
     0
390
7C01D
  0
LAYER
  5
13
330
7C02C
100
AcDbSymbolTableRecord
100
AcDbLayerTableRecord
  2
Level 13
 70
     0
 62
     7
  6
Continuous
370
     0
390
7C01D
  0
LAYER
  5
14
330
7C02C
100
AcDbSymbolTableRecord
100
AcDbLayerTableRecord
  2
Level 14
 70
     0
 62
     7
  6
Continuous
370
     0
390
7C01D
  0
LAYER
  5
15
330
7C02C
100
AcDbSymbolTableRecord
100
AcDbLayerTableRecord
  2
Level 15
 70
     0
 62
     7
  6
Continuous
370
     0
390
7C01D
  0
LAYER
  5
16
330
7C02C
100
AcDbSymbolTableRecord
100
AcDbLayerTableRecord
  2
Level 16
 70
     0
 62
     7
  6
Continuous
370
     0
390
7C01D
  0
LAYER
  5
17
330
7C02C
100
AcDbSymbolTableRecord
100
AcDbLayerTableRecord
  2
Level 17
 70
     0
 62
     7
  6
Continuous
370
     0
390
7C01D
  0
LAYER
  5
18
330
7C02C
100
AcDbSymbolTableRecord
100
AcDbLayerTableRecord
  2
Level 18
 70
     0
 62
     7
  6
Continuous
370
     0
390
7C01D
  0
LAYER
  5
19
330
7C02C
100
AcDbSymbolTableRecord
100
AcDbLayerTableRecord
  2
Level 19
 70
     0
 62
     7
  6
Continuous
370
     0
390
7C01D
  0
LAYER
  5
1A
330
7C02C
100
AcDbSymbolTableRecord
100
AcDbLayerTableRecord
  2
Level 20
 70
     0
 62
     7
  6
Continuous
370
     0
390
7C01D
  0
LAYER
  5
1B
330
7C02C
100
AcDbSymbolTableRecord
100
AcDbLayerTableRecord
  2
Level 21
 70
     0
 62
     7
  6
Continuous
370
     0
390
7C01D
  0
LAYER
  5
1C
330
7C02C
100
AcDbSymbolTableRecord
100
AcDbLayerTableRecord
  2
Level 22
 70
     0
 62
     7
  6
Continuous
370
     0
390
7C01D
  0
LAYER
  5
1D
330
7C02C
100
AcDbSymbolTableRecord
100
AcDbLayerTableRecord
  2
Level 23
 70
     0
 62
     7
  6
Continuous
370
     0
390
7C01D
  0
LAYER
  5
1E
330
7C02C
100
AcDbSymbolTableRecord
100
AcDbLayerTableRecord
  2
Level 24
 70
     0
 62
     7
  6
Continuous
370
     0
390
7C01D
  0
LAYER
  5
1F
330
7C02C
100
AcDbSymbolTableRecord
100
AcDbLayerTableRecord
  2
Level 25
 70
     0
 62
     7
  6
Continuous
370
     0
390
7C01D
  0
LAYER
  5
20
330
7C02C
100
AcDbSymbolTableRecord
100
AcDbLayerTableRecord
  2
Level 26
 70
     0
 62
     7
  6
Continuous
370
     0
390
7C01D
  0
LAYER
  5
21
330
7C02C
100
AcDbSymbolTableRecord
100
AcDbLayerTableRecord
  2
Level 27
 70
     0
 62
     7
  6
Continuous
370
     0
390
7C01D
  0
LAYER
  5
22
330
7C02C
100
AcDbSymbolTableRecord
100
AcDbLayerTableRecord
  2
Level 28
 70
     0
 62
     7
  6
Continuous
370
     0
390
7C01D
  0
LAYER
  5
23
330
7C02C
100
AcDbSymbolTableRecord
100
AcDbLayerTableRecord
  2
Level 29
 70
     0
 62
     7
  6
Continuous
370
     0
390
7C01D
  0
LAYER
  5
24
330
7C02C
100
AcDbSymbolTableRecord
100
AcDbLayerTableRecord
  2
Level 30
 70
     0
 62
     7
  6
Continuous
370
     0
390
7C01D
  0
LAYER
  5
25
330
7C02C
100
AcDbSymbolTableRecord
100
AcDbLayerTableRecord
  2
Level 31
 70
     0
 62
     7
  6
Continuous
370
     0
390
7C01D
  0
LAYER
  5
26
330
7C02C
100
AcDbSymbolTableRecord
100
AcDbLayerTableRecord
  2
Level 32
 70
     0
 62
     7
  6
Continuous
370
     0
390
7C01D
  0
LAYER
  5
27
330
7C02C
100
AcDbSymbolTableRecord
100
AcDbLayerTableRecord
  2
Level 33
 70
     0
 62
     7
  6
Continuous
370
     0
390
7C01D
  0
LAYER
  5
28
330
7C02C
100
AcDbSymbolTableRecord
100
AcDbLayerTableRecord
  2
Level 34
 70
     0
 62
     7
  6
Continuous
370
     0
390
7C01D
  0
LAYER
  5
29
330
7C02C
100
AcDbSymbolTableRecord
100
AcDbLayerTableRecord
  2
Level 35
 70
     0
 62
     7
  6
Continuous
370
     0
390
7C01D
  0
LAYER
  5
2A
330
7C02C
100
AcDbSymbolTableRecord
100
AcDbLayerTableRecord
  2
Level 36
 70
     0
 62
     7
  6
Continuous
370
     0
390
7C01D
  0
LAYER
  5
2B
330
7C02C
100
AcDbSymbolTableRecord
100
AcDbLayerTableRecord
  2
Level 37
 70
     0
 62
     7
  6
Continuous
370
     0
390
7C01D
  0
LAYER
  5
2C
330
7C02C
100
AcDbSymbolTableRecord
100
AcDbLayerTableRecord
  2
Level 38
 70
     0
 62
     7
  6
Continuous
370
     0
390
7C01D
  0
LAYER
  5
2D
330
7C02C
100
AcDbSymbolTableRecord
100
AcDbLayerTableRecord
  2
Level 39
 70
     0
 62
     7
  6
Continuous
370
     0
390
7C01D
  0
LAYER
  5
2E
330
7C02C
100
AcDbSymbolTableRecord
100
AcDbLayerTableRecord
  2
Level 40
 70
     0
 62
     7
  6
Continuous
370
     0
390
7C01D
  0
LAYER
  5
2F
330
7C02C
100
AcDbSymbolTableRecord
100
AcDbLayerTableRecord
  2
Level 41
 70
     0
 62
     7
  6
Continuous
370
     0
390
7C01D
  0
LAYER
  5
30
330
7C02C
100
AcDbSymbolTableRecord
100
AcDbLayerTableRecord
  2
Level 42
 70
     0
 62
     7
  6
Continuous
370
     0
390
7C01D
  0
LAYER
  5
31
330
7C02C
100
AcDbSymbolTableRecord
100
AcDbLayerTableRecord
  2
Level 43
 70
     0
 62
     7
  6
Continuous
370
     0
390
7C01D
  0
LAYER
  5
32
330
7C02C
100
AcDbSymbolTableRecord
100
AcDbLayerTableRecord
  2
Level 44
 70
     0
 62
     7
  6
Continuous
370
     0
390
7C01D
  0
LAYER
  5
33
330
7C02C
100
AcDbSymbolTableRecord
100
AcDbLayerTableRecord
  2
Level 45
 70
     0
 62
     7
  6
Continuous
370
     0
390
7C01D
  0
LAYER
  5
34
330
7C02C
100
AcDbSymbolTableRecord
100
AcDbLayerTableRecord
  2
Level 46
 70
     0
 62
     7
  6
Continuous
370
     0
390
7C01D
  0
LAYER
  5
35
330
7C02C
100
AcDbSymbolTableRecord
100
AcDbLayerTableRecord
  2
Level 47
 70
     0
 62
     7
  6
Continuous
370
     0
390
7C01D
  0
LAYER
  5
36
330
7C02C
100
AcDbSymbolTableRecord
100
AcDbLayerTableRecord
  2
Level 48
 70
     0
 62
     7
  6
Continuous
370
     0
390
7C01D
  0
LAYER
  5
37
330
7C02C
100
AcDbSymbolTableRecord
100
AcDbLayerTableRecord
  2
Level 49
 70
     0
 62
     7
  6
Continuous
370
     0
390
7C01D
  0
LAYER
  5
38
330
7C02C
100
AcDbSymbolTableRecord
100
AcDbLayerTableRecord
  2
Level 50
 70
     0
 62
     7
  6
Continuous
370
     0
390
7C01D
  0
LAYER
  5
39
330
7C02C
100
AcDbSymbolTableRecord
100
AcDbLayerTableRecord
  2
Level 51
 70
     0
 62
     7
  6
Continuous
370
     0
390
7C01D
  0
LAYER
  5
3A
330
7C02C
100
AcDbSymbolTableRecord
100
AcDbLayerTableRecord
  2
Level 52
 70
     0
 62
     7
  6
Continuous
370
     0
390
7C01D
  0
LAYER
  5
3B
330
7C02C
100
AcDbSymbolTableRecord
100
AcDbLayerTableRecord
  2
Level 53
 70
     0
 62
     7
  6
Continuous
370
     0
390
7C01D
  0
LAYER
  5
3C
330
7C02C
100
AcDbSymbolTableRecord
100
AcDbLayerTableRecord
  2
Level 54
 70
     0
 62
     7
  6
Continuous
370
     0
390
7C01D
  0
LAYER
  5
3D
330
7C02C
100
AcDbSymbolTableRecord
100
AcDbLayerTableRecord
  2
Level 55
 70
     0
 62
     7
  6
Continuous
370
     0
390
7C01D
  0
LAYER
  5
3E
330
7C02C
100
AcDbSymbolTableRecord
100
AcDbLayerTableRecord
  2
Level 56
 70
     0
 62
     7
  6
Continuous
370
     0
390
7C01D
  0
LAYER
  5
3F
330
7C02C
100
AcDbSymbolTableRecord
100
AcDbLayerTableRecord
  2
Level 57
 70
     0
 62
     7
  6
Continuous
370
     0
390
7C01D
  0
LAYER
  5
40
330
7C02C
100
AcDbSymbolTableRecord
100
AcDbLayerTableRecord
  2
Level 58
 70
     0
 62
     7
  6
Continuous
370
     0
390
7C01D
  0
LAYER
  5
41
330
7C02C
100
AcDbSymbolTableRecord
100
AcDbLayerTableRecord
  2
Level 59
 70
     0
 62
     7
  6
Continuous
370
     0
390
7C01D
  0
LAYER
  5
42
330
7C02C
100
AcDbSymbolTableRecord
100
AcDbLayerTableRecord
  2
Level 60
 70
     0
 62
     7
  6
Continuous
370
     0
390
7C01D
  0
LAYER
  5
43
330
7C02C
100
AcDbSymbolTableRecord
100
AcDbLayerTableRecord
  2
Level 61
 70
     0
 62
     7
  6
Continuous
370
     0
390
7C01D
  0
LAYER
  5
44
330
7C02C
100
AcDbSymbolTableRecord
100
AcDbLayerTableRecord
  2
Level 62
 70
     0
 62
     7
  6
Continuous
370
     0
390
7C01D
  0
LAYER
  5
45
330
7C02C
100
AcDbSymbolTableRecord
100
AcDbLayerTableRecord
  2
Level 63
 70
     0
 62
     7
  6
Continuous
370
     0
390
7C01D
  0
LAYER
  5
50CA0
330
7C02C
100
AcDbSymbolTableRecord
100
AcDbLayerTableRecord
  2
25
 70
     0
 62
     7
  6
Continuous
370
     0
390
7C01D
  0
ENDTAB
  0
TABLE
  2
STYLE
  5
7C02D
330
0
100
AcDbSymbolTable
 70
     2
  0
STYLE
  5
7C01F
330
7C02D
100
AcDbSymbolTableRecord
100
AcDbTextStyleTableRecord
  2
Standard
 70
     0
 40
0.0
 41
1.0
 50
0.0
 71
     0
 42
100.0
  3
txt
  4

  0
STYLE
  5
7C043
330
7C02D
100
AcDbSymbolTableRecord
100
AcDbTextStyleTableRecord
  2
Style-ENGINEERING
 70
     0
 40
0.0
 41
1.0
 50
0.0
 71
     0
 42
0.2
  3
ENGINEERING.shx
  4

  0
ENDTAB
  0
TABLE
  2
VIEW
  5
7C030
330
0
100
AcDbSymbolTable
 70
     0
  0
ENDTAB
  0
TABLE
  2
UCS
  5
7C031
330
0
100
AcDbSymbolTable
 70
     0
  0
ENDTAB
  0
TABLE
  2
APPID
  5
7C033
330
0
100
AcDbSymbolTable
 70
     1
  0
APPID
  5
7C03B
330
7C033
100
AcDbSymbolTableRecord
100
AcDbRegAppTableRecord
  2
ACAD
 70
     0
  0
ENDTAB
  0
TABLE
  2
DIMSTYLE
  5
7C034
330
0
100
AcDbSymbolTable
 70
     1
100
AcDbDimStyleTable
  0
DIMSTYLE
105
7C021
330
7C034
100
AcDbSymbolTableRecord
100
AcDbDimStyleTableRecord
  2
Standard
 70
     0
340
7C01F
  0
ENDTAB
  0
TABLE
  2
BLOCK_RECORD
  5
7C023
330
0
100
AcDbSymbolTable
 70
    69
  0
BLOCK_RECORD
  5
7C024
330
7C023
100
AcDbSymbolTableRecord
100
AcDbBlockTableRecord
  2
*Model_Space
340
7C027
  0
BLOCK_RECORD
  5
7C028
330
7C023
100
AcDbSymbolTableRecord
100
AcDbBlockTableRecord
  2
*Paper_Space
340
7C02B
  0
BLOCK_RECORD
  5
7C001
330
7C023
100
AcDbSymbolTableRecord
100
AcDbBlockTableRecord
  2
*U0
340
0
  0
BLOCK_RECORD
  5
7C007
330
7C023
100
AcDbSymbolTableRecord
100
AcDbBlockTableRecord
  2
*U1
340
0
  0
BLOCK_RECORD
  5
7C044
330
7C023
100
AcDbSymbolTableRecord
100
AcDbBlockTableRecord
  2
TerminatorOpen_0.5
340
0
  0
BLOCK_RECORD
  5
7C04B
330
7C023
100
AcDbSymbolTableRecord
100
AcDbBlockTableRecord
  2
FT26
340
0
102
{BLKREFS
331
7BDF6
102
}
  0
BLOCK_RECORD
  5
7C04E
330
7C023
100
AcDbSymbolTableRecord
100
AcDbBlockTableRecord
  2
Feature Solid
340
0
102
{BLKREFS
331
7BDF7
102
}
  0
BLOCK_RECORD
  5
7C051
330
7C023
100
AcDbSymbolTableRecord
100
AcDbBlockTableRecord
  2
UNITE
340
0
102
{BLKREFS
331
7BDF8
102
}
  0
BLOCK_RECORD
  5
7C054
330
7C023
100
AcDbSymbolTableRecord
100
AcDbBlockTableRecord
  2
Feature Solid_1
340
0
102
{BLKREFS
331
7BDF9
102
}
  0
BLOCK_RECORD
  5
7C057
330
7C023
100
AcDbSymbolTableRecord
100
AcDbBlockTableRecord
  2
DDPROJ
340
0
102
{BLKREFS
331
7BDFA
102
}
  0
BLOCK_RECORD
  5
7C05A
330
7C023
100
AcDbSymbolTableRecord
100
AcDbBlockTableRecord
  2
Feature Solid_2
340
0
102
{BLKREFS
331
7BE00
102
}
  0
BLOCK_RECORD
  5
7C05D
330
7C023
100
AcDbSymbolTableRecord
100
AcDbBlockTableRecord
  2
DDPROJ_1
340
0
102
{BLKREFS
331
7BE01
102
}
  0
BLOCK_RECORD
  5
7C060
330
7C023
100
AcDbSymbolTableRecord
100
AcDbBlockTableRecord
  2
Feature Solid_3
340
0
102
{BLKREFS
331
7BE07
102
}
  0
BLOCK_RECORD
  5
7C063
330
7C023
100
AcDbSymbolTableRecord
100
AcDbBlockTableRecord
  2
UNITE_1
340
0
102
{BLKREFS
331
7BE08
102
}
  0
BLOCK_RECORD
  5
7C066
330
7C023
100
AcDbSymbolTableRecord
100
AcDbBlockTableRecord
  2
Feature Solid_4
340
0
102
{BLKREFS
331
7BE09
102
}
  0
BLOCK_RECORD
  5
7C069
330
7C023
100
AcDbSymbolTableRecord
100
AcDbBlockTableRecord
  2
CONE
340
0
102
{BLKREFS
331
7BE0A
102
}
  0
BLOCK_RECORD
  5
7C06C
330
7C023
100
AcDbSymbolTableRecord
100
AcDbBlockTableRecord
  2
Feature Solid_5
340
0
102
{BLKREFS
331
7BE1F
102
}
  0
BLOCK_RECORD
  5
7C06F
330
7C023
100
AcDbSymbolTableRecord
100
AcDbBlockTableRecord
  2
DDPROJ_2
340
0
102
{BLKREFS
331
7BE20
102
}
  0
BLOCK_RECORD
  5
7C072
330
7C023
100
AcDbSymbolTableRecord
100
AcDbBlockTableRecord
  2
Feature Solid_6
340
0
102
{BLKREFS
331
7BE3B
102
}
  0
BLOCK_RECORD
  5
7C075
330
7C023
100
AcDbSymbolTableRecord
100
AcDbBlockTableRecord
  2
UNITE_2
340
0
102
{BLKREFS
331
7BE3C
102
}
  0
BLOCK_RECORD
  5
7C078
330
7C023
100
AcDbSymbolTableRecord
100
AcDbBlockTableRecord
  2
Feature Solid_7
340
0
102
{BLKREFS
331
7BE3D
102
}
  0
BLOCK_RECORD
  5
7C07B
330
7C023
100
AcDbSymbolTableRecord
100
AcDbBlockTableRecord
  2
DDPROJ_3
340
0
102
{BLKREFS
331
7BE3E
102
}
  0
BLOCK_RECORD
  5
7C07E
330
7C023
100
AcDbSymbolTableRecord
100
AcDbBlockTableRecord
  2
Feature Solid_8
340
0
102
{BLKREFS
331
7BE44
102
}
  0
BLOCK_RECORD
  5
7C081
330
7C023
100
AcDbSymbolTableRecord
100
AcDbBlockTableRecord
  2
DDPROJ_4
340
0
102
{BLKREFS
331
7BE45
102
}
  0
BLOCK_RECORD
  5
7C084
330
7C023
100
AcDbSymbolTableRecord
100
AcDbBlockTableRecord
  2
Feature Solid_9
340
0
102
{BLKREFS
331
7BE4B
102
}
  0
BLOCK_RECORD
  5
7C087
330
7C023
100
AcDbSymbolTableRecord
100
AcDbBlockTableRecord
  2
UNITE_3
340
0
102
{BLKREFS
331
7BE4C
102
}
  0
BLOCK_RECORD
  5
7C08A
330
7C023
100
AcDbSymbolTableRecord
100
AcDbBlockTableRecord
  2
Feature Solid_10
340
0
102
{BLKREFS
331
7BE4D
102
}
  0
BLOCK_RECORD
  5
7C08D
330
7C023
100
AcDbSymbolTableRecord
100
AcDbBlockTableRecord
  2
CONE_1
340
0
102
{BLKREFS
331
7BE4E
102
}
  0
BLOCK_RECORD
  5
7C090
330
7C023
100
AcDbSymbolTableRecord
100
AcDbBlockTableRecord
  2
Feature Solid_11
340
0
102
{BLKREFS
331
7BE63
102
}
  0
BLOCK_RECORD
  5
7C093
330
7C023
100
AcDbSymbolTableRecord
100
AcDbBlockTableRecord
  2
DDPROJ_5
340
0
102
{BLKREFS
331
7BE64
102
}
  0
BLOCK_RECORD
  5
7C096
330
7C023
100
AcDbSymbolTableRecord
100
AcDbBlockTableRecord
  2
Feature Solid_12
340
0
102
{BLKREFS
331
7BE7F
102
}
  0
BLOCK_RECORD
  5
7C099
330
7C023
100
AcDbSymbolTableRecord
100
AcDbBlockTableRecord
  2
UNITE_4
340
0
102
{BLKREFS
331
7BE80
102
}
  0
BLOCK_RECORD
  5
7C09C
330
7C023
100
AcDbSymbolTableRecord
100
AcDbBlockTableRecord
  2
Feature Solid_13
340
0
102
{BLKREFS
331
7BE81
102
}
  0
BLOCK_RECORD
  5
7C09F
330
7C023
100
AcDbSymbolTableRecord
100
AcDbBlockTableRecord
  2
DDPROJ_6
340
0
102
{BLKREFS
331
7BE82
102
}
  0
BLOCK_RECORD
  5
7C0A2
330
7C023
100
AcDbSymbolTableRecord
100
AcDbBlockTableRecord
  2
Feature Solid_14
340
0
102
{BLKREFS
331
7BE88
102
}
  0
BLOCK_RECORD
  5
7C0A5
330
7C023
100
AcDbSymbolTableRecord
100
AcDbBlockTableRecord
  2
DDPROJ_7
340
0
102
{BLKREFS
331
7BE89
102
}
  0
BLOCK_RECORD
  5
7C0A8
330
7C023
100
AcDbSymbolTableRecord
100
AcDbBlockTableRecord
  2
Feature Solid_15
340
0
102
{BLKREFS
331
7BE8F
102
}
  0
BLOCK_RECORD
  5
7C0AB
330
7C023
100
AcDbSymbolTableRecord
100
AcDbBlockTableRecord
  2
UNITE_5
340
0
102
{BLKREFS
331
7BE90
102
}
  0
BLOCK_RECORD
  5
7C0AE
330
7C023
100
AcDbSymbolTableRecord
100
AcDbBlockTableRecord
  2
Feature Solid_16
340
0
102
{BLKREFS
331
7BE91
102
}
  0
BLOCK_RECORD
  5
7C0B1
330
7C023
100
AcDbSymbolTableRecord
100
AcDbBlockTableRecord
  2
CONE_2
340
0
102
{BLKREFS
331
7BE92
102
}
  0
BLOCK_RECORD
  5
7C0B4
330
7C023
100
AcDbSymbolTableRecord
100
AcDbBlockTableRecord
  2
Feature Solid_17
340
0
102
{BLKREFS
331
7BEA7
102
}
  0
BLOCK_RECORD
  5
7C0B7
330
7C023
100
AcDbSymbolTableRecord
100
AcDbBlockTableRecord
  2
DDPROJ_8
340
0
102
{BLKREFS
331
7BEA8
102
}
  0
BLOCK_RECORD
  5
7C0BA
330
7C023
100
AcDbSymbolTableRecord
100
AcDbBlockTableRecord
  2
Feature Solid_18
340
0
102
{BLKREFS
331
7BEC3
102
}
  0
BLOCK_RECORD
  5
7C0BD
330
7C023
100
AcDbSymbolTableRecord
100
AcDbBlockTableRecord
  2
UNITE_6
340
0
102
{BLKREFS
331
7BEC4
102
}
  0
BLOCK_RECORD
  5
7C0C0
330
7C023
100
AcDbSymbolTableRecord
100
AcDbBlockTableRecord
  2
Feature Solid_19
340
0
102
{BLKREFS
331
7BEC5
102
}
  0
BLOCK_RECORD
  5
7C0C3
330
7C023
100
AcDbSymbolTableRecord
100
AcDbBlockTableRecord
  2
DDPROJ_9
340
0
102
{BLKREFS
331
7BEC6
102
}
  0
BLOCK_RECORD
  5
7C0C6
330
7C023
100
AcDbSymbolTableRecord
100
AcDbBlockTableRecord
  2
Feature Solid_20
340
0
102
{BLKREFS
331
7BECC
102
}
  0
BLOCK_RECORD
  5
7C0C9
330
7C023
100
AcDbSymbolTableRecord
100
AcDbBlockTableRecord
  2
DDPROJ_10
340
0
102
{BLKREFS
331
7BECD
102
}
  0
BLOCK_RECORD
  5
7C0CC
330
7C023
100
AcDbSymbolTableRecord
100
AcDbBlockTableRecord
  2
Feature Solid_21
340
0
102
{BLKREFS
331
7BED3
102
}
  0
BLOCK_RECORD
  5
7C0CF
330
7C023
100
AcDbSymbolTableRecord
100
AcDbBlockTableRecord
  2
UNITE_7
340
0
102
{BLKREFS
331
7BED4
102
}
  0
BLOCK_RECORD
  5
7C0D2
330
7C023
100
AcDbSymbolTableRecord
100
AcDbBlockTableRecord
  2
Feature Solid_22
340
0
102
{BLKREFS
331
7BED5
102
}
  0
BLOCK_RECORD
  5
7C0D5
330
7C023
100
AcDbSymbolTableRecord
100
AcDbBlockTableRecord
  2
CONE_3
340
0
102
{BLKREFS
331
7BED6
102
}
  0
BLOCK_RECORD
  5
7C0D8
330
7C023
100
AcDbSymbolTableRecord
100
AcDbBlockTableRecord
  2
Feature Solid_23
340
0
102
{BLKREFS
331
7BEEB
102
}
  0
BLOCK_RECORD
  5
7C0DB
330
7C023
100
AcDbSymbolTableRecord
100
AcDbBlockTableRecord
  2
DDPROJ_11
340
0
102
{BLKREFS
331
7BEEC
102
}
  0
BLOCK_RECORD
  5
7C0DE
330
7C023
100
AcDbSymbolTableRecord
100
AcDbBlockTableRecord
  2
From Solid
340
0
102
{BLKREFS
331
7C00D
102
}
  0
BLOCK_RECORD
  5
7C0E1
330
7C023
100
AcDbSymbolTableRecord
100
AcDbBlockTableRecord
  2
From Solid_1
340
0
102
{BLKREFS
331
7C00E
102
}
  0
BLOCK_RECORD
  5
7C0E4
330
7C023
100
AcDbSymbolTableRecord
100
AcDbBlockTableRecord
  2
From Solid_2
340
0
102
{BLKREFS
331
7C00F
102
}
  0
BLOCK_RECORD
  5
7C0E7
330
7C023
100
AcDbSymbolTableRecord
100
AcDbBlockTableRecord
  2
From Solid_3
340
0
102
{BLKREFS
331
7C010
102
}
  0
BLOCK_RECORD
  5
7C0EA
330
7C023
100
AcDbSymbolTableRecord
100
AcDbBlockTableRecord
  2
From Solid_4
340
0
102
{BLKREFS
331
7C011
102
}
  0
BLOCK_RECORD
  5
7C0ED
330
7C023
100
AcDbSymbolTableRecord
100
AcDbBlockTableRecord
  2
From Solid_5
340
0
102
{BLKREFS
331
7C012
102
}
  0
BLOCK_RECORD
  5
7C0F0
330
7C023
100
AcDbSymbolTableRecord
100
AcDbBlockTableRecord
  2
From Solid_6
340
0
102
{BLKREFS
331
7C013
102
}
  0
BLOCK_RECORD
  5
7C0F3
330
7C023
100
AcDbSymbolTableRecord
100
AcDbBlockTableRecord
  2
From Surface
340
0
102
{BLKREFS
331
7C014
102
}
  0
BLOCK_RECORD
  5
7C0F6
330
7C023
100
AcDbSymbolTableRecord
100
AcDbBlockTableRecord
  2
From Surface_1
340
0
102
{BLKREFS
331
7C015
102
}
  0
BLOCK_RECORD
  5
7C0F9
330
7C023
100
AcDbSymbolTableRecord
100
AcDbBlockTableRecord
  2
From Surface_2
340
0
102
{BLKREFS
331
7C016
102
}
  0
BLOCK_RECORD
  5
7C0FC
330
7C023
100
AcDbSymbolTableRecord
100
AcDbBlockTableRecord
  2
From Surface_3
340
0
102
{BLKREFS
331
7C017
102
}
  0
BLOCK_RECORD
  5
7C0FF
330
7C023
100
AcDbSymbolTableRecord
100
AcDbBlockTableRecord
  2
From Surface_4
340
0
102
{BLKREFS
331
7C018
102
}
  0
BLOCK_RECORD
  5
7C102
330
7C023
100
AcDbSymbolTableRecord
100
AcDbBlockTableRecord
  2
From Surface_5
340
0
102
{BLKREFS
331
7C019
102
}
  0
BLOCK_RECORD
  5
7C105
330
7C023
100
AcDbSymbolTableRecord
100
AcDbBlockTableRecord
  2
Feature Solid_24
340
0
102
{BLKREFS
331
7BFF0
102
}
  0
BLOCK_RECORD
  5
7C108
330
7C023
100
AcDbSymbolTableRecord
100
AcDbBlockTableRecord
  2
CONE_4
340
0
102
{BLKREFS
331
7BFF1
102
}
  0
BLOCK_RECORD
  5
7C10B
330
7C023
100
AcDbSymbolTableRecord
100
AcDbBlockTableRecord
  2
Feature Solid_25
340
0
102
{BLKREFS
331
7BFF8
102
}
  0
BLOCK_RECORD
  5
7C10E
330
7C023
100
AcDbSymbolTableRecord
100
AcDbBlockTableRecord
  2
CONE_5
340
0
102
{BLKREFS
331
7BFF9
102
}
  0
ENDTAB
  0
ENDSEC
  0
SECTION
  2
BLOCKS
  0
BLOCK
  5
7C025
330
7C024
100
AcDbEntity
  8
0
100
AcDbBlockBegin
  2
*Model_Space
 70
     0
 71
     0
 10
0.0
 20
0.0
 30
0.0
  3
*Model_Space
  1

  0
ENDBLK
  5
7C026
330
7C024
100
AcDbEntity
  8
0
100
AcDbBlockEnd
  0
BLOCK
  5
7C029
330
7C028
100
AcDbEntity
 67
     1
  8
0
100
AcDbBlockBegin
  2
*Paper_Space
 70
     0
 71
     0
 10
0.0
 20
0.0
 30
0.0
  3
*Paper_Space
  1

  0
ENDBLK
  5
7C02A
330
7C028
100
AcDbEntity
 67
     1
  8
0
100
AcDbBlockEnd
  0
BLOCK
  5
7C03F
330
7C001
100
AcDbEntity
  8
0
100
AcDbBlockBegin
  2
*U0
 70
     1
 71
     0
 10
0.0
 20
0.0
 30
0.0
  3
*U0
  1

  0
LWPOLYLINE
  5
7C002
330
7C001
100
AcDbEntity
  8
0
100
AcDbPolyline
 90
        4
 70
   129
 43
0.0
 10
0.82
 20
0.0
 42
0.853659
 10
0.0
 20
0.0
 10
0.0
 20
-0.07
 10
0.82
 20
-0.07
  0
ENDBLK
  5
7C040
330
7C001
100
AcDbEntity
  8
0
100
AcDbBlockEnd
  0
BLOCK
  5
7C041
330
7C007
100
AcDbEntity
  8
0
100
AcDbBlockBegin
  2
*U1
 70
     1
 71
     0
 10
0.0
 20
0.0
 30
0.0
  3
*U1
  1

  0
LWPOLYLINE
  5
7C008
330
7C007
100
AcDbEntity
  8
0
100
AcDbPolyline
 90
        4
 70
   129
 43
0.0
 10
0.325
 20
0.325
 42
1.0
 10
0.325
 20
-0.325
 10
1.145
 20
-0.325
 42
1.0
 10
1.145
 20
0.325
  0
ENDBLK
  5
7C042
330
7C007
100
AcDbEntity
  8
0
100
AcDbBlockEnd
  0
BLOCK
  5
7C048
330
7C044
100
AcDbEntity
  8
0
100
AcDbBlockBegin
  2
TerminatorOpen_0.5
 70
     0
 71
     0
 10
0.0
 20
0.0
 30
0.0
  3
TerminatorOpen_0.5
  1

  0
LINE
  5
7C045
330
7C044
100
AcDbEntity
  8
0
  6
ByBlock
 62
     0
370
    -2
100
AcDbLine
 10
0.0
 20
0.0
 30
0.0
 11
-1.0
 21
0.0
 31
0.0
  0
LINE
  5
7C046
330
7C044
100
AcDbEntity
  8
0
  6
ByBlock
 62
     0
370
    -2
100
AcDbLine
 10
0.0
 20
0.0
 30
0.0
 11
-1.0
 21
0.25
 31
0.0
  0
LINE
  5
7C047
330
7C044
100
AcDbEntity
  8
0
  6
ByBlock
 62
     0
370
    -2
100
AcDbLine
 10
0.0
 20
0.0
 30
0.0
 11
-1.0
 21
-0.25
 31
0.0
  0
ENDBLK
  5
7C049
330
7C044
100
AcDbEntity
  8
0
100
AcDbBlockEnd
  0
BLOCK
  5
7C04C
330
7C04B
100
AcDbEntity
  8
0
100
AcDbBlockBegin
  2
FT26
 70
     0
 71
     0
 10
0.0
 20
0.0
 30
0.0
  3
FT26
  1

  0
INSERT
  5
7BDF7
330
7C04B
100
AcDbEntity
  8
Level 26
 62
   133
370
     0
100
AcDbBlockReference
  2
Feature Solid
 10
0.0
 20
414.0005
 30
0.0
  0
INSERT
  5
7BE3B
330
7C04B
100
AcDbEntity
  8
Level 26
 62
   133
370
     0
100
AcDbBlockReference
  2
Feature Solid_6
 10
0.0
 20
-414.0005
 30
0.0
  0
INSERT
  5
7BE7F
330
7C04B
100
AcDbEntity
  8
Level 26
 62
   133
370
     0
100
AcDbBlockReference
  2
Feature Solid_12
 10
-3780.0
 20
414.0005
 30
0.0
  0
INSERT
  5
7BEC3
330
7C04B
100
AcDbEntity
  8
Level 26
 62
   133
370
     0
100
AcDbBlockReference
  2
Feature Solid_18
 10
-3780.0
 20
-414.0005
 30
0.0
  0
LWPOLYLINE
  5
7BF07
330
7C04B
100
AcDbEntity
  8
Level 26
  6
Continuous
 62
    25
370
    13
100
AcDbPolyline
 90
        4
 70
   129
 43
0.0
 10
-2017.5
 20
45.57601
 10
-2017.5
 20
65.93976
 10
-1817.5
 20
65.93976
 10
-1817.5
 20
45.57601
  0
LWPOLYLINE
  5
7BF08
330
7C04B
100
AcDbEntity
  8
Level 26
  6
Continuous
 62
    25
370
    13
100
AcDbPolyline
 90
        4
 70
   129
 43
0.0
 10
-2017.5
 20
-45.57601
 10
-2017.5
 20
-65.93976
 10
-1817.5
 20
-65.93976
 10
-1817.5
 20
-45.57601
  0
LWPOLYLINE
  5
7BF09
330
7C04B
100
AcDbEntity
  8
Level 26
  6
Continuous
 62
    25
370
    13
100
AcDbPolyline
 90
        4
 70
   129
 43
0.0
 10
-2017.5
 20
-65.93976
 10
-2017.5
 20
-15.515238
 10
-1817.5
 20
-15.515238
 10
-1817.5
 20
-65.93976
  0
LWPOLYLINE
  5
7BF0A
330
7C04B
100
AcDbEntity
  8
Level 26
  6
Continuous
 62
    25
370
    13
100
AcDbPolyline
 90
        4
 70
   129
 43
0.0
 10
-2017.5
 20
65.93976
 10
-2017.5
 20
15.515238
 10
-1817.5
 20
15.515238
 10
-1817.5
 20
65.93976
  0
INSERT
  5
7C00D
330
7C04B
100
AcDbEntity
  8
Level 26
  6
Continuous
 62
   254
370
    13
100
AcDbBlockReference
  2
From Solid
 10
-5940.470371
 20
-414.286503
 30
0.0
  0
INSERT
  5
7C00E
330
7C04B
100
AcDbEntity
  8
Level 26
  6
Continuous
 62
   254
370
    13
100
AcDbBlockReference
  2
From Solid_1
 10
-5940.470371
 20
-414.286503
 30
0.0
  0
INSERT
  5
7C00F
330
7C04B
100
AcDbEntity
  8
Level 26
  6
Continuous
 62
   254
370
    13
100
AcDbBlockReference
  2
From Solid_2
 10
-5940.470371
 20
-414.286503
 30
0.0
  0
INSERT
  5
7C010
330
7C04B
100
AcDbEntity
  8
Level 26
  6
Continuous
 62
   254
370
    13
100
AcDbBlockReference
  2
From Solid_3
 10
-5940.470371
 20
-414.286503
 30
0.0
  0
INSERT
  5
7C011
330
7C04B
100
AcDbEntity
  8
Level 26
  6
Continuous
 62
   254
370
    13
100
AcDbBlockReference
  2
From Solid_4
 10
-5940.470371
 20
-414.286503
 30
0.0
  0
LWPOLYLINE
  5
7BF2E
330
7C04B
100
AcDbEntity
  8
Level 26
  6
Continuous
 62
    25
370
    13
100
AcDbPolyline
 90
       12
 70
   129
 43
0.0
 10
-1817.5
 20
11.313194
 10
-1817.5
 20
45.57601
 10
-1817.5
 20
65.93976
 10
-1817.5
 20
15.515238
 10
-1817.5
 20
-15.515238
 10
-1817.5
 20
-65.93976
 10
-1817.5
 20
-45.57601
 10
-1817.5
 20
-11.313194
 10
-1817.5
 20
-9.927302
 10
-1817.5
 20
-32.5
 10
-1817.5
 20
32.5
 10
-1817.5
 20
9.927302
  0
LWPOLYLINE
  5
7BF39
330
7C04B
100
AcDbEntity
  8
Level 26
  6
Continuous
 62
    25
370
    13
100
AcDbPolyline
 90
       12
 70
   129
 43
0.0
 10
-2017.5
 20
11.313194
 10
-2017.5
 20
45.57601
 10
-2017.5
 20
65.93976
 10
-2017.5
 20
15.515238
 10
-2017.5
 20
-15.515238
 10
-2017.5
 20
-65.93976
 10
-2017.5
 20
-45.57601
 10
-2017.5
 20
-11.313194
 10
-2017.5
 20
-9.927302
 10
-2017.5
 20
-32.5
 10
-2017.5
 20
32.5
 10
-2017.5
 20
9.927302
  0
INSERT
  5
7C012
330
7C04B
100
AcDbEntity
  8
Level 26
  6
Continuous
 62
   254
370
    13
100
AcDbBlockReference
  2
From Solid_5
 10
-5940.470371
 20
-414.286503
 30
0.0
  0
INSERT
  5
7C013
330
7C04B
100
AcDbEntity
  8
Level 26
  6
Continuous
 62
   253
370
    13
100
AcDbBlockReference
  2
From Solid_6
 10
-5940.470371
 20
-414.286503
 30
0.0
  0
LWPOLYLINE
  5
7BF52
330
7C04B
100
AcDbEntity
  8
Level 26
  6
Continuous
 62
   254
370
    13
100
AcDbPolyline
 90
        4
 70
   129
 43
0.0
 10
2.5
 20
435.0
 10
2.5
 20
-435.0
 10
2.5
 20
-435.0
 10
2.5
 20
435.0
  0
LWPOLYLINE
  5
7BF57
330
7C04B
100
AcDbEntity
  8
Level 26
  6
Continuous
 62
   254
370
    13
100
AcDbPolyline
 90
       10
 70
   129
 43
0.0
 10
7.5
 20
435.0
 10
7.5
 20
-435.0
 10
37.5
 20
-435.0
 10
37.5
 20
-465.020422
 10
785.258722
 20
-30.161485
 10
759.383312
 20
-14.980472
 10
775.891826
 20
13.157607
 10
775.891447
 20
13.156962
 10
37.5
 20
463.714018
 10
37.5
 20
435.0
  0
LWPOLYLINE
  5
7BF61
330
7C04B
100
AcDbEntity
  8
Level 26
  6
Continuous
 62
   254
370
    13
100
AcDbPolyline
 90
        4
 70
   129
 43
0.0
 10
37.5
 20
-470.0
 10
789.571291
 20
-32.691654
 10
789.571291
 20
-32.691654
 10
37.5
 20
-470.0
  0
LWPOLYLINE
  5
7BF66
330
7C04B
100
AcDbEntity
  8
Level 26
  6
Continuous
 62
   254
370
    13
100
AcDbPolyline
 90
        4
 70
   129
 43
0.0
 10
37.5
 20
469.571339
 10
778.421994
 20
17.470176
 10
778.421994
 20
17.470176
 10
37.5
 20
469.571339
  0
INSERT
  5
7C014
330
7C04B
100
AcDbEntity
  8
Level 26
  6
Continuous
 62
   254
370
    13
100
AcDbBlockReference
  2
From Surface
 10
-5940.470371
 20
-414.286503
 30
0.0
  0
INSERT
  5
7C015
330
7C04B
100
AcDbEntity
  8
Level 26
  6
Continuous
 62
   254
370
    13
100
AcDbBlockReference
  2
From Surface_1
 10
-5940.470371
 20
-414.286503
 30
0.0
  0
INSERT
  5
7C016
330
7C04B
100
AcDbEntity
  8
Level 26
  6
Continuous
 62
   254
370
    13
100
AcDbBlockReference
  2
From Surface_2
 10
-5940.470371
 20
-414.286503
 30
0.0
  0
LWPOLYLINE
  5
7BF7A
330
7C04B
100
AcDbEntity
  8
Level 26
  6
Continuous
 62
   254
370
    13
100
AcDbPolyline
 90
        4
 70
   129
 43
0.0
 10
-3782.5
 20
-435.0
 10
-3782.5
 20
435.0
 10
-3782.5
 20
435.0
 10
-3782.5
 20
-435.0
  0
LWPOLYLINE
  5
7BF7F
330
7C04B
100
AcDbEntity
  8
Level 26
  6
Continuous
 62
   254
370
    13
100
AcDbPolyline
 90
       10
 70
   129
 43
0.0
 10
-3787.5
 20
-435.0
 10
-3787.5
 20
435.0
 10
-3817.5
 20
435.0
 10
-3817.5
 20
465.020422
 10
-4565.258722
 20
30.161485
 10
-4539.383312
 20
14.980472
 10
-4555.891826
 20
-13.157607
 10
-4555.891447
 20
-13.156962
 10
-3817.5
 20
-463.714018
 10
-3817.5
 20
-435.0
  0
LWPOLYLINE
  5
7BF89
330
7C04B
100
AcDbEntity
  8
Level 26
  6
Continuous
 62
   254
370
    13
100
AcDbPolyline
 90
        4
 70
   129
 43
0.0
 10
-3817.5
 20
470.0
 10
-4569.571291
 20
32.691654
 10
-4569.571291
 20
32.691654
 10
-3817.5
 20
470.0
  0
LWPOLYLINE
  5
7BF8E
330
7C04B
100
AcDbEntity
  8
Level 26
  6
Continuous
 62
   254
370
    13
100
AcDbPolyline
 90
        4
 70
   129
 43
0.0
 10
-3817.5
 20
-469.571339
 10
-4558.421994
 20
-17.470176
 10
-4558.421994
 20
-17.470176
 10
-3817.5
 20
-469.571339
  0
INSERT
  5
7C017
330
7C04B
100
AcDbEntity
  8
Level 26
  6
Continuous
 62
   254
370
    13
100
AcDbBlockReference
  2
From Surface_3
 10
-5940.470371
 20
-414.286503
 30
0.0
  0
INSERT
  5
7C018
330
7C04B
100
AcDbEntity
  8
Level 26
  6
Continuous
 62
   254
370
    13
100
AcDbBlockReference
  2
From Surface_4
 10
-5940.470371
 20
-414.286503
 30
0.0
  0
INSERT
  5
7C019
330
7C04B
100
AcDbEntity
  8
Level 26
  6
Continuous
 62
   254
370
    13
100
AcDbBlockReference
  2
From Surface_5
 10
-5940.470371
 20
-414.286503
 30
0.0
  0
LWPOLYLINE
  5
7BFA2
330
7C04B
100
AcDbEntity
  8
Level 30
  6
Continuous
 62
   152
370
    13
100
AcDbPolyline
 90
        4
 70
   129
 43
0.0
 10
-37.5
 20
435.0
 10
37.5
 20
435.0
 10
37.5
 20
435.0
 10
-37.5
 20
435.0
  0
LWPOLYLINE
  5
7BFA3
330
7C04B
100
AcDbEntity
  8
Level 30
  6
Continuous
 62
   152
370
    13
100
AcDbPolyline
 90
        4
 70
   129
 43
0.0
 10
37.5
 20
435.0
 10
37.5
 20
510.0
 10
37.5
 20
510.0
 10
37.5
 20
435.0
  0
LWPOLYLINE
  5
7BFA4
330
7C04B
100
AcDbEntity
  8
Level 30
  6
Continuous
 62
   152
370
    13
100
AcDbPolyline
 90
        4
 70
   129
 43
0.0
 10
-37.5
 20
510.0
 10
-37.5
 20
435.0
 10
-37.5
 20
435.0
 10
-37.5
 20
510.0
  0
LWPOLYLINE
  5
7BFA5
330
7C04B
100
AcDbEntity
  8
Level 30
  6
Continuous
 62
   152
370
    13
100
AcDbPolyline
 90
        4
 70
   129
 43
0.0
 10
37.5
 20
510.0
 10
-37.5
 20
510.0
 10
-37.5
 20
510.0
 10
37.5
 20
510.0
  0
LWPOLYLINE
  5
7BFA6
330
7C04B
100
AcDbEntity
  8
Level 26
  6
Continuous
 62
   163
370
    13
100
AcDbPolyline
 90
        4
 70
   129
 43
0.0
 10
-37.5
 20
510.0
 10
-37.5
 20
435.0
 10
-37.5
 20
435.0
 10
-37.5
 20
510.0
  0
LWPOLYLINE
  5
7BFA7
330
7C04B
100
AcDbEntity
  8
Level 26
  6
Continuous
 62
   163
370
    13
100
AcDbPolyline
 90
        4
 70
   129
 43
0.0
 10
37.5
 20
510.0
 10
-37.5
 20
510.0
 10
-37.5
 20
510.0
 10
37.5
 20
510.0
  0
LWPOLYLINE
  5
7BFA8
330
7C04B
100
AcDbEntity
  8
Level 26
  6
Continuous
 62
   163
370
    13
100
AcDbPolyline
 90
        4
 70
   129
 43
0.0
 10
37.5
 20
435.0
 10
37.5
 20
510.0
 10
37.5
 20
510.0
 10
37.5
 20
435.0
  0
LWPOLYLINE
  5
7BFA9
330
7C04B
100
AcDbEntity
  8
Level 26
  6
Continuous
 62
   163
370
    13
100
AcDbPolyline
 90
        4
 70
   129
 43
0.0
 10
-37.5
 20
435.0
 10
37.5
 20
435.0
 10
37.5
 20
435.0
 10
-37.5
 20
435.0
  0
LWPOLYLINE
  5
7BFAA
330
7C04B
100
AcDbEntity
  8
Level 26
  6
Continuous
 62
   163
370
    13
100
AcDbPolyline
 90
        4
 70
   129
 43
0.0
 10
-37.5
 20
510.0
 10
-37.5
 20
435.0
 10
37.5
 20
435.0
 10
37.5
 20
510.0
  0
LWPOLYLINE
  5
7BFAF
330
7C04B
100
AcDbEntity
  8
Level 31
  6
Continuous
 62
   152
370
    13
100
AcDbPolyline
 90
        4
 70
   129
 43
0.0
 10
-37.5
 20
-510.0
 10
37.5
 20
-510.0
 10
37.5
 20
-510.0
 10
-37.5
 20
-510.0
  0
LWPOLYLINE
  5
7BFB0
330
7C04B
100
AcDbEntity
  8
Level 31
  6
Continuous
 62
   152
370
    13
100
AcDbPolyline
 90
        4
 70
   129
 43
0.0
 10
37.5
 20
-510.0
 10
37.5
 20
-435.0
 10
37.5
 20
-435.0
 10
37.5
 20
-510.0
  0
LWPOLYLINE
  5
7BFB1
330
7C04B
100
AcDbEntity
  8
Level 31
  6
Continuous
 62
   152
370
    13
100
AcDbPolyline
 90
        4
 70
   129
 43
0.0
 10
-37.5
 20
-435.0
 10
-37.5
 20
-510.0
 10
-37.5
 20
-510.0
 10
-37.5
 20
-435.0
  0
LWPOLYLINE
  5
7BFB2
330
7C04B
100
AcDbEntity
  8
Level 31
  6
Continuous
 62
   152
370
    13
100
AcDbPolyline
 90
        4
 70
   129
 43
0.0
 10
37.5
 20
-435.0
 10
-37.5
 20
-435.0
 10
-37.5
 20
-435.0
 10
37.5
 20
-435.0
  0
LWPOLYLINE
  5
7BFB3
330
7C04B
100
AcDbEntity
  8
Level 26
  6
Continuous
 62
   163
370
    13
100
AcDbPolyline
 90
        4
 70
   129
 43
0.0
 10
-37.5
 20
-435.0
 10
-37.5
 20
-510.0
 10
-37.5
 20
-510.0
 10
-37.5
 20
-435.0
  0
LWPOLYLINE
  5
7BFB4
330
7C04B
100
AcDbEntity
  8
Level 26
  6
Continuous
 62
   163
370
    13
100
AcDbPolyline
 90
        4
 70
   129
 43
0.0
 10
37.5
 20
-435.0
 10
-37.5
 20
-435.0
 10
-37.5
 20
-435.0
 10
37.5
 20
-435.0
  0
LWPOLYLINE
  5
7BFB5
330
7C04B
100
AcDbEntity
  8
Level 26
  6
Continuous
 62
   163
370
    13
100
AcDbPolyline
 90
        4
 70
   129
 43
0.0
 10
37.5
 20
-510.0
 10
37.5
 20
-435.0
 10
37.5
 20
-435.0
 10
37.5
 20
-510.0
  0
LWPOLYLINE
  5
7BFB6
330
7C04B
100
AcDbEntity
  8
Level 26
  6
Continuous
 62
   163
370
    13
100
AcDbPolyline
 90
        4
 70
   129
 43
0.0
 10
-37.5
 20
-510.0
 10
37.5
 20
-510.0
 10
37.5
 20
-510.0
 10
-37.5
 20
-510.0
  0
LWPOLYLINE
  5
7BFB7
330
7C04B
100
AcDbEntity
  8
Level 26
  6
Continuous
 62
   163
370
    13
100
AcDbPolyline
 90
        4
 70
   129
 43
0.0
 10
-37.5
 20
-435.0
 10
-37.5
 20
-510.0
 10
37.5
 20
-510.0
 10
37.5
 20
-435.0
  0
LWPOLYLINE
  5
7BFBC
330
7C04B
100
AcDbEntity
  8
Level 29
  6
Continuous
 62
   152
370
    13
100
AcDbPolyline
 90
        4
 70
   129
 43
0.0
 10
-3817.5
 20
435.0
 10
-3742.5
 20
435.0
 10
-3742.5
 20
435.0
 10
-3817.5
 20
435.0
  0
LWPOLYLINE
  5
7BFBD
330
7C04B
100
AcDbEntity
  8
Level 29
  6
Continuous
 62
   152
370
    13
100
AcDbPolyline
 90
        4
 70
   129
 43
0.0
 10
-3742.5
 20
435.0
 10
-3742.5
 20
510.0
 10
-3742.5
 20
510.0
 10
-3742.5
 20
435.0
  0
LWPOLYLINE
  5
7BFBE
330
7C04B
100
AcDbEntity
  8
Level 29
  6
Continuous
 62
   152
370
    13
100
AcDbPolyline
 90
        4
 70
   129
 43
0.0
 10
-3817.5
 20
510.0
 10
-3817.5
 20
435.0
 10
-3817.5
 20
435.0
 10
-3817.5
 20
510.0
  0
LWPOLYLINE
  5
7BFBF
330
7C04B
100
AcDbEntity
  8
Level 29
  6
Continuous
 62
   152
370
    13
100
AcDbPolyline
 90
        4
 70
   129
 43
0.0
 10
-3742.5
 20
510.0
 10
-3817.5
 20
510.0
 10
-3817.5
 20
510.0
 10
-3742.5
 20
510.0
  0
LWPOLYLINE
  5
7BFC0
330
7C04B
100
AcDbEntity
  8
Level 26
  6
Continuous
 62
   163
370
    13
100
AcDbPolyline
 90
        4
 70
   129
 43
0.0
 10
-3817.5
 20
510.0
 10
-3817.5
 20
435.0
 10
-3817.5
 20
435.0
 10
-3817.5
 20
510.0
  0
LWPOLYLINE
  5
7BFC1
330
7C04B
100
AcDbEntity
  8
Level 26
  6
Continuous
 62
   163
370
    13
100
AcDbPolyline
 90
        4
 70
   129
 43
0.0
 10
-3742.5
 20
510.0
 10
-3817.5
 20
510.0
 10
-3817.5
 20
510.0
 10
-3742.5
 20
510.0
  0
LWPOLYLINE
  5
7BFC2
330
7C04B
100
AcDbEntity
  8
Level 26
  6
Continuous
 62
   163
370
    13
100
AcDbPolyline
 90
        4
 70
   129
 43
0.0
 10
-3742.5
 20
435.0
 10
-3742.5
 20
510.0
 10
-3742.5
 20
510.0
 10
-3742.5
 20
435.0
  0
LWPOLYLINE
  5
7BFC3
330
7C04B
100
AcDbEntity
  8
Level 26
  6
Continuous
 62
   163
370
    13
100
AcDbPolyline
 90
        4
 70
   129
 43
0.0
 10
-3817.5
 20
435.0
 10
-3742.5
 20
435.0
 10
-3742.5
 20
435.0
 10
-3817.5
 20
435.0
  0
LWPOLYLINE
  5
7BFC4
330
7C04B
100
AcDbEntity
  8
Level 26
  6
Continuous
 62
   163
370
    13
100
AcDbPolyline
 90
        4
 70
   129
 43
0.0
 10
-3817.5
 20
510.0
 10
-3817.5
 20
435.0
 10
-3742.5
 20
435.0
 10
-3742.5
 20
510.0
  0
LWPOLYLINE
  5
7BFC9
330
7C04B
100
AcDbEntity
  8
Level 28
  6
Continuous
 62
   152
370
    13
100
AcDbPolyline
 90
        4
 70
   129
 43
0.0
 10
-3817.5
 20
-510.0
 10
-3742.5
 20
-510.0
 10
-3742.5
 20
-510.0
 10
-3817.5
 20
-510.0
  0
LWPOLYLINE
  5
7BFCA
330
7C04B
100
AcDbEntity
  8
Level 28
  6
Continuous
 62
   152
370
    13
100
AcDbPolyline
 90
        4
 70
   129
 43
0.0
 10
-3742.5
 20
-510.0
 10
-3742.5
 20
-435.0
 10
-3742.5
 20
-435.0
 10
-3742.5
 20
-510.0
  0
LWPOLYLINE
  5
7BFCB
330
7C04B
100
AcDbEntity
  8
Level 28
  6
Continuous
 62
   152
370
    13
100
AcDbPolyline
 90
        4
 70
   129
 43
0.0
 10
-3817.5
 20
-435.0
 10
-3817.5
 20
-510.0
 10
-3817.5
 20
-510.0
 10
-3817.5
 20
-435.0
  0
LWPOLYLINE
  5
7BFCC
330
7C04B
100
AcDbEntity
  8
Level 28
  6
Continuous
 62
   152
370
    13
100
AcDbPolyline
 90
        4
 70
   129
 43
0.0
 10
-3742.5
 20
-435.0
 10
-3817.5
 20
-435.0
 10
-3817.5
 20
-435.0
 10
-3742.5
 20
-435.0
  0
LWPOLYLINE
  5
7BFCD
330
7C04B
100
AcDbEntity
  8
Level 26
  6
Continuous
 62
   163
370
    13
100
AcDbPolyline
 90
        4
 70
   129
 43
0.0
 10
-3817.5
 20
-435.0
 10
-3817.5
 20
-510.0
 10
-3817.5
 20
-510.0
 10
-3817.5
 20
-435.0
  0
LWPOLYLINE
  5
7BFCE
330
7C04B
100
AcDbEntity
  8
Level 26
  6
Continuous
 62
   163
370
    13
100
AcDbPolyline
 90
        4
 70
   129
 43
0.0
 10
-3742.5
 20
-435.0
 10
-3817.5
 20
-435.0
 10
-3817.5
 20
-435.0
 10
-3742.5
 20
-435.0
  0
LWPOLYLINE
  5
7BFCF
330
7C04B
100
AcDbEntity
  8
Level 26
  6
Continuous
 62
   163
370
    13
100
AcDbPolyline
 90
        4
 70
   129
 43
0.0
 10
-3742.5
 20
-510.0
 10
-3742.5
 20
-435.0
 10
-3742.5
 20
-435.0
 10
-3742.5
 20
-510.0
  0
LWPOLYLINE
  5
7BFD0
330
7C04B
100
AcDbEntity
  8
Level 26
  6
Continuous
 62
   163
370
    13
100
AcDbPolyline
 90
        4
 70
   129
 43
0.0
 10
-3817.5
 20
-510.0
 10
-3742.5
 20
-510.0
 10
-3742.5
 20
-510.0
 10
-3817.5
 20
-510.0
  0
LWPOLYLINE
  5
7BFD1
330
7C04B
100
AcDbEntity
  8
Level 26
  6
Continuous
 62
   163
370
    13
100
AcDbPolyline
 90
        4
 70
   129
 43
0.0
 10
-3817.5
 20
-435.0
 10
-3817.5
 20
-510.0
 10
-3742.5
 20
-510.0
 10
-3742.5
 20
-435.0
  0
LWPOLYLINE
  5
7BFD6
330
7C04B
100
AcDbEntity
  8
Level 27
  6
Continuous
 62
   152
370
    13
100
AcDbPolyline
 90
        4
 70
   129
 43
0.0
 10
-4576.974047
 20
-49.615953
 10
-4539.474047
 20
15.335953
 10
-4539.474047
 20
15.335953
 10
-4576.974047
 20
-49.615953
  0
LWPOLYLINE
  5
7BFD7
330
7C04B
100
AcDbEntity
  8
Level 27
  6
Continuous
 62
   152
370
    13
100
AcDbPolyline
 90
        4
 70
   129
 43
0.0
 10
-4539.474047
 20
15.335953
 10
-4604.425953
 20
52.835953
 10
-4604.425953
 20
52.835953
 10
-4539.474047
 20
15.335953
  0
LWPOLYLINE
  5
7BFD8
330
7C04B
100
AcDbEntity
  8
Level 27
  6
Continuous
 62
   152
370
    13
100
AcDbPolyline
 90
        4
 70
   129
 43
0.0
 10
-4641.925953
 20
-12.115953
 10
-4576.974047
 20
-49.615953
 10
-4576.974047
 20
-49.615953
 10
-4641.925953
 20
-12.115953
  0
LWPOLYLINE
  5
7BFD9
330
7C04B
100
AcDbEntity
  8
Level 27
  6
Continuous
 62
   152
370
    13
100
AcDbPolyline
 90
        4
 70
   129
 43
0.0
 10
-4604.425953
 20
52.835953
 10
-4641.925953
 20
-12.115953
 10
-4641.925953
 20
-12.115953
 10
-4604.425953
 20
52.835953
  0
LWPOLYLINE
  5
7BFDA
330
7C04B
100
AcDbEntity
  8
Level 26
  6
Continuous
 62
   163
370
    13
100
AcDbPolyline
 90
        4
 70
   129
 43
0.0
 10
-4604.425953
 20
52.835953
 10
-4641.925953
 20
-12.115953
 10
-4641.925953
 20
-12.115953
 10
-4604.425953
 20
52.835953
  0
LWPOLYLINE
  5
7BFDB
330
7C04B
100
AcDbEntity
  8
Level 26
  6
Continuous
 62
   163
370
    13
100
AcDbPolyline
 90
        4
 70
   129
 43
0.0
 10
-4539.474047
 20
15.335953
 10
-4604.425953
 20
52.835953
 10
-4604.425953
 20
52.835953
 10
-4539.474047
 20
15.335953
  0
LWPOLYLINE
  5
7BFDC
330
7C04B
100
AcDbEntity
  8
Level 26
  6
Continuous
 62
   163
370
    13
100
AcDbPolyline
 90
        4
 70
   129
 43
0.0
 10
-4576.974047
 20
-49.615953
 10
-4539.474047
 20
15.335953
 10
-4539.474047
 20
15.335953
 10
-4576.974047
 20
-49.615953
  0
LWPOLYLINE
  5
7BFDD
330
7C04B
100
AcDbEntity
  8
Level 26
  6
Continuous
 62
   163
370
    13
100
AcDbPolyline
 90
        4
 70
   129
 43
0.0
 10
-4641.925953
 20
-12.115953
 10
-4576.974047
 20
-49.615953
 10
-4576.974047
 20
-49.615953
 10
-4641.925953
 20
-12.115953
  0
LWPOLYLINE
  5
7BFDE
330
7C04B
100
AcDbEntity
  8
Level 26
  6
Continuous
 62
   163
370
    13
100
AcDbPolyline
 90
        4
 70
   129
 43
0.0
 10
-4604.425953
 20
52.835953
 10
-4641.925953
 20
-12.115953
 10
-4576.974047
 20
-49.615953
 10
-4539.474047
 20
15.335953
  0
LWPOLYLINE
  5
7BFE3
330
7C04B
100
AcDbEntity
  8
Level 32
  6
Continuous
 62
   152
370
    13
100
AcDbPolyline
 90
        4
 70
   129
 43
0.0
 10
824.425953
 20
-52.835953
 10
861.925953
 20
12.115953
 10
861.925953
 20
12.115953
 10
824.425953
 20
-52.835953
  0
LWPOLYLINE
  5
7BFE4
330
7C04B
100
AcDbEntity
  8
Level 32
  6
Continuous
 62
   152
370
    13
100
AcDbPolyline
 90
        4
 70
   129
 43
0.0
 10
861.925953
 20
12.115953
 10
796.974047
 20
49.615953
 10
796.974047
 20
49.615953
 10
861.925953
 20
12.115953
  0
LWPOLYLINE
  5
7BFE5
330
7C04B
100
AcDbEntity
  8
Level 32
  6
Continuous
 62
   152
370
    13
100
AcDbPolyline
 90
        4
 70
   129
 43
0.0
 10
759.474047
 20
-15.335953
 10
824.425953
 20
-52.835953
 10
824.425953
 20
-52.835953
 10
759.474047
 20
-15.335953
  0
LWPOLYLINE
  5
7BFE6
330
7C04B
100
AcDbEntity
  8
Level 32
  6
Continuous
 62
   152
370
    13
100
AcDbPolyline
 90
        4
 70
   129
 43
0.0
 10
796.974047
 20
49.615953
 10
759.474047
 20
-15.335953
 10
759.474047
 20
-15.335953
 10
796.974047
 20
49.615953
  0
LWPOLYLINE
  5
7BFE7
330
7C04B
100
AcDbEntity
  8
Level 26
  6
Continuous
 62
   163
370
    13
100
AcDbPolyline
 90
        4
 70
   129
 43
0.0
 10
796.974047
 20
49.615953
 10
759.474047
 20
-15.335953
 10
759.474047
 20
-15.335953
 10
796.974047
 20
49.615953
  0
LWPOLYLINE
  5
7BFE8
330
7C04B
100
AcDbEntity
  8
Level 26
  6
Continuous
 62
   163
370
    13
100
AcDbPolyline
 90
        4
 70
   129
 43
0.0
 10
861.925953
 20
12.115953
 10
796.974047
 20
49.615953
 10
796.974047
 20
49.615953
 10
861.925953
 20
12.115953
  0
LWPOLYLINE
  5
7BFE9
330
7C04B
100
AcDbEntity
  8
Level 26
  6
Continuous
 62
   163
370
    13
100
AcDbPolyline
 90
        4
 70
   129
 43
0.0
 10
824.425953
 20
-52.835953
 10
861.925953
 20
12.115953
 10
861.925953
 20
12.115953
 10
824.425953
 20
-52.835953
  0
LWPOLYLINE
  5
7BFEA
330
7C04B
100
AcDbEntity
  8
Level 26
  6
Continuous
 62
   163
370
    13
100
AcDbPolyline
 90
        4
 70
   129
 43
0.0
 10
759.474047
 20
-15.335953
 10
824.425953
 20
-52.835953
 10
824.425953
 20
-52.835953
 10
759.474047
 20
-15.335953
  0
LWPOLYLINE
  5
7BFEB
330
7C04B
100
AcDbEntity
  8
Level 26
  6
Continuous
 62
   163
370
    13
100
AcDbPolyline
 90
        4
 70
   129
 43
0.0
 10
796.974047
 20
49.615953
 10
759.474047
 20
-15.335953
 10
824.425953
 20
-52.835953
 10
861.925953
 20
12.115953
  0
INSERT
  5
7BFF0
330
7C04B
100
AcDbEntity
  8
Level 27
  6
Continuous
 62
    12
370
    13
100
AcDbBlockReference
  2
Feature Solid_24
 10
-1664.463933
 20
54.908141
 30
0.0
  0
INSERT
  5
7BFF8
330
7C04B
100
AcDbEntity
  8
Level 27
  6
Continuous
 62
    12
370
    13
100
AcDbBlockReference
  2
Feature Solid_25
 10
1.7425
 20
0.0005
 30
0.0
  0
ENDBLK
  5
7C04D
330
7C04B
100
AcDbEntity
  8
0
100
AcDbBlockEnd
  0
BLOCK
  5
7C04F
330
7C04E
100
AcDbEntity
  8
0
100
AcDbBlockBegin
  2
Feature Solid
 70
     0
 71
     0
 10
0.0
 20
0.0
 30
0.0
  3
Feature Solid
  1

  0
INSERT
  5
7BDF8
330
7C04E
100
AcDbEntity
  8
Level 26
 62
   133
370
     0
100
AcDbBlockReference
  2
UNITE
 10
-215.851704
 20
22.17087
 30
0.0
 41
100.0
 42
100.0
 43
100.0
  0
ENDBLK
  5
7C050
330
7C04E
100
AcDbEntity
  8
0
100
AcDbBlockEnd
  0
BLOCK
  5
7C052
330
7C051
100
AcDbEntity
  8
0
100
AcDbBlockBegin
  2
UNITE
 70
     0
 71
     0
 10
0.0
 20
0.0
 30
0.0
  3
UNITE
  1

  0
INSERT
  5
7BDF9
330
7C051
100
AcDbEntity
  8
Level 26
 62
   133
370
     0
100
AcDbBlockReference
  2
Feature Solid_1
 10
0.0
 20
0.0
 30
0.0
  0
INSERT
  5
7BE00
330
7C051
100
AcDbEntity
  8
Level 26
 62
   133
370
     0
100
AcDbBlockReference
  2
Feature Solid_2
 10
0.55
 20
0.0
 30
0.0
  0
INSERT
  5
7BE07
330
7C051
100
AcDbEntity
  8
Level 8
 62
   133
370
     0
100
AcDbBlockReference
  2
Feature Solid_3
 10
0.0
 20
0.0
 30
0.0
  0
ENDBLK
  5
7C053
330
7C051
100
AcDbEntity
  8
0
100
AcDbBlockEnd
  0
BLOCK
  5
7C055
330
7C054
100
AcDbEntity
  8
0
100
AcDbBlockBegin
  2
Feature Solid_1
 70
     0
 71
     0
 10
0.0
 20
0.0
 30
0.0
  3
Feature Solid_1
  1

  0
INSERT
  5
7BDFA
330
7C054
100
AcDbEntity
  8
Level 26
 62
   133
370
     0
100
AcDbBlockReference
  2
DDPROJ
 10
0.0
 20
0.0
 30
0.0
  0
ENDBLK
  5
7C056
330
7C054
100
AcDbEntity
  8
0
100
AcDbBlockEnd
  0
BLOCK
  5
7C058
330
7C057
100
AcDbEntity
  8
0
100
AcDbBlockBegin
  2
DDPROJ
 70
     0
 71
     0
 10
0.0
 20
0.0
 30
0.0
  3
DDPROJ
  1

  0
POINT
  5
7BDFB
330
7C057
100
AcDbEntity
  8
Level 26
 62
   133
370
     0
100
AcDbPoint
 10
1.833517
 20
-0.011714
 30
0.0
  0
LINE
  5
7BDFC
330
7C057
100
AcDbEntity
  8
Level 26
 62
   133
370
     0
100
AcDbLine
 10
1.933517
 20
-0.131714
 30
0.0
 11
1.933517
 21
-0.359125
 31
0.0
  0
LINE
  5
7BDFD
330
7C057
100
AcDbEntity
  8
Level 26
 62
   133
370
     0
100
AcDbLine
 10
1.833517
 20
-0.131714
 30
0.0
 11
1.833517
 21
-0.431714
 31
0.0
  0
LINE
  5
7BDFE
330
7C057
100
AcDbEntity
  8
Level 26
 62
   133
370
     0
100
AcDbLine
 10
1.833517
 20
-0.131714
 30
0.0
 11
1.833517
 21
-0.431714
 31
0.0
  0
LINE
  5
7BDFF
330
7C057
100
AcDbEntity
  8
Level 26
 62
   133
370
     0
100
AcDbLine
 10
1.933517
 20
-0.131714
 30
0.0
 11
1.933517
 21
-0.359125
 31
0.0
  0
ENDBLK
  5
7C059
330
7C057
100
AcDbEntity
  8
0
100
AcDbBlockEnd
  0
BLOCK
  5
7C05B
330
7C05A
100
AcDbEntity
  8
0
100
AcDbBlockBegin
  2
Feature Solid_2
 70
     0
 71
     0
 10
0.0
 20
0.0
 30
0.0
  3
Feature Solid_2
  1

  0
INSERT
  5
7BE01
330
7C05A
100
AcDbEntity
  8
Level 26
 62
   133
370
     0
100
AcDbBlockReference
  2
DDPROJ_1
 10
0.0
 20
0.0
 30
0.0
  0
ENDBLK
  5
7C05C
330
7C05A
100
AcDbEntity
  8
0
100
AcDbBlockEnd
  0
BLOCK
  5
7C05E
330
7C05D
100
AcDbEntity
  8
0
100
AcDbBlockBegin
  2
DDPROJ_1
 70
     0
 71
     0
 10
0.0
 20
0.0
 30
0.0
  3
DDPROJ_1
  1

  0
POINT
  5
7BE02
330
7C05D
100
AcDbEntity
  8
Level 26
 62
   133
370
     0
100
AcDbPoint
 10
1.933517
 20
-0.011714
 30
0.0
  0
LINE
  5
7BE03
330
7C05D
100
AcDbEntity
  8
Level 26
 62
   133
370
     0
100
AcDbLine
 10
1.933517
 20
-0.131714
 30
0.0
 11
1.933517
 21
-0.431714
 31
0.0
  0
LINE
  5
7BE04
330
7C05D
100
AcDbEntity
  8
Level 26
 62
   133
370
     0
100
AcDbLine
 10
1.833517
 20
-0.131714
 30
0.0
 11
1.833517
 21
-0.359125
 31
0.0
  0
LINE
  5
7BE05
330
7C05D
100
AcDbEntity
  8
Level 26
 62
   133
370
     0
100
AcDbLine
 10
1.833517
 20
-0.131714
 30
0.0
 11
1.833517
 21
-0.359125
 31
0.0
  0
LINE
  5
7BE06
330
7C05D
100
AcDbEntity
  8
Level 26
 62
   133
370
     0
100
AcDbLine
 10
1.933517
 20
-0.131714
 30
0.0
 11
1.933517
 21
-0.431714
 31
0.0
  0
ENDBLK
  5
7C05F
330
7C05D
100
AcDbEntity
  8
0
100
AcDbBlockEnd
  0
BLOCK
  5
7C061
330
7C060
100
AcDbEntity
  8
0
100
AcDbBlockBegin
  2
Feature Solid_3
 70
     0
 71
     0
 10
0.0
 20
0.0
 30
0.0
  3
Feature Solid_3
  1

  0
INSERT
  5
7BE08
330
7C060
100
AcDbEntity
  8
Level 8
 62
   133
370
     0
100
AcDbBlockReference
  2
UNITE_1
 10
0.0
 20
0.0
 30
0.0
  0
ENDBLK
  5
7C062
330
7C060
100
AcDbEntity
  8
0
100
AcDbBlockEnd
  0
BLOCK
  5
7C064
330
7C063
100
AcDbEntity
  8
0
100
AcDbBlockBegin
  2
UNITE_1
 70
     0
 71
     0
 10
0.0
 20
0.0
 30
0.0
  3
UNITE_1
  1

  0
INSERT
  5
7BE09
330
7C063
100
AcDbEntity
  8
Level 8
 62
   133
370
     0
100
AcDbBlockReference
  2
Feature Solid_4
 10
0.0
 20
0.0
 30
0.0
  0
INSERT
  5
7BE1F
330
7C063
100
AcDbEntity
  8
Level 26
 62
   133
370
     0
100
AcDbBlockReference
  2
Feature Solid_5
 10
0.0
 20
0.0
 30
0.0
  0
ENDBLK
  5
7C065
330
7C063
100
AcDbEntity
  8
0
100
AcDbBlockEnd
  0
BLOCK
  5
7C067
330
7C066
100
AcDbEntity
  8
0
100
AcDbBlockBegin
  2
Feature Solid_4
 70
     0
 71
     0
 10
0.0
 20
0.0
 30
0.0
  3
Feature Solid_4
  1

  0
INSERT
  5
7BE0A
330
7C066
100
AcDbEntity
  8
Level 8
 62
   133
370
     0
100
AcDbBlockReference
  2
CONE
 10
0.0
 20
0.0
 30
0.0
  0
ENDBLK
  5
7C068
330
7C066
100
AcDbEntity
  8
0
100
AcDbBlockEnd
  0
BLOCK
  5
7C06A
330
7C069
100
AcDbEntity
  8
0
100
AcDbBlockBegin
  2
CONE
 70
     0
 71
     0
 10
0.0
 20
0.0
 30
0.0
  3
CONE
  1

  0
LINE
  5
7BE0B
330
7C069
100
AcDbEntity
  8
Level 8
 62
   133
370
     0
100
AcDbLine
 10
1.833517
 20
-0.431714
 30
0.0
 11
2.483517
 21
-0.431714
 31
0.0
  0
LINE
  5
7BE0C
330
7C069
100
AcDbEntity
  8
Level 8
 62
   133
370
     0
100
AcDbLine
 10
2.383517
 20
-0.131714
 30
0.0
 11
2.383517
 21
-0.359125
 31
0.0
  0
LINE
  5
7BE0D
330
7C069
100
AcDbEntity
  8
Level 8
 62
   133
370
     0
100
AcDbLine
 10
2.383517
 20
-0.131714
 30
0.0
 11
2.383517
 21
-0.359125
 31
0.0
  0
SPLINE
  5
7BE0E
330
7C069
100
AcDbEntity
  8
Level 8
 62
   133
370
     0
100
AcDbSpline
210
0.0
220
0.0
230
1.0
 70
     8
 71
     3
 72
    17
 73
    13
 74
     0
 42
0.0000000001
 43
0.00000001
 40
0.0
 40
0.0
 40
0.0
 40
0.0
 40
0.1188920175173181
 40
0.1188920175173181
 40
0.1188920175173181
 40
0.4370642450454728
 40
0.4370642450454728
 40
0.4370642450454728
 40
0.7708126268407274
 40
0.7708126268407274
 40
0.7708126268407274
 40
1.0
 40
1.0
 40
1.0
 40
1.0
 10
2.483517035676393
 20
-0.4317136962460406
 30
0.0
 10
2.483517035676393
 20
-0.4317136962460353
 30
0.0
 10
2.482970961108954
 20
-0.4312857853703722
 30
0.0
 10
2.481890266834164
 20
-0.430441396724941
 30
0.0
 10
2.479007999541985
 20
-0.4281893687172289
 30
0.0
 10
2.472181370284076
 20
-0.4228496497948289
 30
0.0
 10
2.462245290317632
 20
-0.4152805637156778
 30
0.0
 10
2.451806866801178
 20
-0.4073288034245515
 30
0.0
 10
2.437764099143891
 20
-0.3967863239604554
 30
0.0
 10
2.421270187946128
 20
-0.3850241073261067
 30
0.0
 10
2.409877803190348
 20
-0.3768999155639072
 30
0.0
 10
2.39720582936004
 20
-0.3681165556180144
 30
0.0
 10
2.383517035681365
 20
-0.359125348396347
 30
0.0
  0
SPLINE
  5
7BE11
330
7C069
100
AcDbEntity
  8
Level 8
 62
   133
370
     0
100
AcDbSpline
210
0.0
220
0.0
230
1.0
 70
     8
 71
     3
 72
    14
 73
    10
 74
     0
 42
0.0000000001
 43
0.00000001
 40
0.0
 40
0.0
 40
0.0
 40
0.0
 40
0.4155111778321488
 40
0.4155111778321488
 40
0.4155111778321488
 40
0.7657511632294429
 40
0.7657511632294429
 40
0.7657511632294429
 40
1.0
 40
1.0
 40
1.0
 40
1.0
 10
2.38351703567637
 20
-0.359125348395855
 30
0.0
 10
2.408183961970714
 20
-0.3753273199526834
 30
0.0
 10
2.429723842876854
 20
-0.3909352251375093
 30
0.0
 10
2.446330563598316
 20
-0.4032945372283603
 30
0.0
 10
2.460337575068309
 20
-0.4137190532494017
 30
0.0
 10
2.471094914404418
 20
-0.422043984659398
 30
0.0
 10
2.477256738635802
 20
-0.4268312321213159
 30
0.0
 10
2.481375118370785
 20
-0.430030885696798
 30
0.0
 10
2.483517035676393
 20
-0.4317136962460406
 30
0.0
 10
2.483517035676393
 20
-0.4317136962460406
 30
0.0
  0
LINE
  5
7BE14
330
7C069
100
AcDbEntity
  8
Level 8
 62
   133
370
     0
100
AcDbLine
 10
1.833517
 20
-0.431714
 30
0.0
 11
2.483517
 21
-0.431714
 31
0.0
  0
SPLINE
  5
7BE15
330
7C069
100
AcDbEntity
  8
Level 8
 62
   133
370
     0
100
AcDbSpline
210
0.0
220
0.0
230
1.0
 70
     8
 71
     3
 72
    17
 73
    13
 74
     0
 42
0.0000000001
 43
0.00000001
 40
0.0
 40
0.0
 40
0.0
 40
0.0
 40
0.1188920175167992
 40
0.1188920175167992
 40
0.1188920175167992
 40
0.4370642450447248
 40
0.4370642450447248
 40
0.4370642450447248
 40
0.7708126268396294
 40
0.7708126268396294
 40
0.7708126268396294
 40
1.0
 40
1.0
 40
1.0
 40
1.0
 10
1.833517035676245
 20
-0.4317136962460353
 30
0.0
 10
1.833517035676245
 20
-0.4317136962460353
 30
0.0
 10
1.834063110243676
 20
-0.4312857853703811
 30
0.0
 10
1.835143804518467
 20
-0.4304413967249552
 30
0.0
 10
1.838026071810631
 20
-0.4281893687172609
 30
0.0
 10
1.844852701068518
 20
-0.4228496497948751
 30
0.0
 10
1.854788781034969
 20
-0.4152805637157382
 30
0.0
 10
1.865227204551417
 20
-0.4073288034246261
 30
0.0
 10
1.879269972208704
 20
-0.3967863239605443
 30
0.0
 10
1.895763883406445
 20
-0.3850241073262133
 30
0.0
 10
1.907156268162282
 20
-0.3768999155639765
 30
0.0
 10
1.919828241992668
 20
-0.3681165556180392
 30
0.0
 10
1.933517035671436
 20
-0.3591253483963239
 30
0.0
  0
LINE
  5
7BE18
330
7C069
100
AcDbEntity
  8
Level 8
 62
   133
370
     0
100
AcDbLine
 10
1.933517
 20
-0.131714
 30
0.0
 11
1.933517
 21
-0.359125
 31
0.0
  0
LINE
  5
7BE19
330
7C069
100
AcDbEntity
  8
Level 8
 62
   133
370
     0
100
AcDbLine
 10
1.933517
 20
-0.131714
 30
0.0
 11
1.933517
 21
-0.359125
 31
0.0
  0
SPLINE
  5
7BE1A
330
7C069
100
AcDbEntity
  8
Level 8
 62
   133
370
     0
100
AcDbSpline
210
0.0
220
0.0
230
1.0
 70
     8
 71
     3
 72
    14
 73
    10
 74
     0
 42
0.0000000001
 43
0.00000001
 40
0.0
 40
0.0
 40
0.0
 40
0.0
 40
0.4155111778320348
 40
0.4155111778320348
 40
0.4155111778320348
 40
0.7657511632291136
 40
0.7657511632291136
 40
0.7657511632291136
 40
1.0
 40
1.0
 40
1.0
 40
1.0
 10
1.93351703567641
 20
-0.3591253483956596
 30
0.0
 10
1.908850109382065
 20
-0.3753273199525147
 30
0.0
 10
1.887310228475876
 20
-0.390935225137369
 30
0.0
 10
1.870703507754392
 20
-0.4032945372282484
 30
0.0
 10
1.856696496284378
 20
-0.4137190532493076
 30
0.0
 10
1.845939156948276
 20
-0.4220439846593287
 30
0.0
 10
1.839777332716864
 20
-0.4268312321212697
 30
0.0
 10
1.835658952981866
 20
-0.4300308856967749
 30
0.0
 10
1.833517035676245
 20
-0.43171369624603
 30
0.0
 10
1.833517035676245
 20
-0.4317136962460353
 30
0.0
  0
LINE
  5
7BE1D
330
7C069
100
AcDbEntity
  8
Level 8
 62
   133
370
     0
100
AcDbLine
 10
2.158517
 20
-0.131714
 30
0.0
 11
2.158517
 21
-0.431714
 31
0.0
  0
LINE
  5
7BE1E
330
7C069
100
AcDbEntity
  8
Level 8
 62
   133
370
     0
100
AcDbLine
 10
2.158517
 20
-0.131714
 30
0.0
 11
2.158517
 21
-0.431714
 31
0.0
  0
ENDBLK
  5
7C06B
330
7C069
100
AcDbEntity
  8
0
100
AcDbBlockEnd
  0
BLOCK
  5
7C06D
330
7C06C
100
AcDbEntity
  8
0
100
AcDbBlockBegin
  2
Feature Solid_5
 70
     0
 71
     0
 10
0.0
 20
0.0
 30
0.0
  3
Feature Solid_5
  1

  0
INSERT
  5
7BE20
330
7C06C
100
AcDbEntity
  8
Level 26
 62
   133
370
     0
100
AcDbBlockReference
  2
DDPROJ_2
 10
0.0
 20
0.0
 30
0.0
  0
ENDBLK
  5
7C06E
330
7C06C
100
AcDbEntity
  8
0
100
AcDbBlockEnd
  0
BLOCK
  5
7C070
330
7C06F
100
AcDbEntity
  8
0
100
AcDbBlockBegin
  2
DDPROJ_2
 70
     0
 71
     0
 10
0.0
 20
0.0
 30
0.0
  3
DDPROJ_2
  1

  0
LINE
  5
7BE21
330
7C06F
100
AcDbEntity
  8
Level 26
 62
   133
370
     0
100
AcDbLine
 10
1.833517
 20
-0.011714
 30
0.0
 11
1.833517
 21
-0.131714
 31
0.0
  0
LINE
  5
7BE22
330
7C06F
100
AcDbEntity
  8
Level 26
 62
   133
370
     0
100
AcDbLine
 10
1.833517
 20
-0.131714
 30
0.0
 11
1.833517
 21
-0.011714
 31
0.0
  0
LINE
  5
7BE23
330
7C06F
100
AcDbEntity
  8
Level 26
 62
   133
370
     0
100
AcDbLine
 10
2.483517
 20
-0.011714
 30
0.0
 11
2.483517
 21
-0.131714
 31
0.0
  0
LINE
  5
7BE24
330
7C06F
100
AcDbEntity
  8
Level 26
 62
   133
370
     0
100
AcDbLine
 10
2.483517
 20
-0.131714
 30
0.0
 11
2.483517
 21
-0.011714
 31
0.0
  0
LINE
  5
7BE25
330
7C06F
100
AcDbEntity
  8
Level 26
 62
   133
370
     0
100
AcDbLine
 10
1.933517
 20
-0.131714
 30
0.0
 11
2.383517
 21
-0.131714
 31
0.0
  0
LINE
  5
7BE26
330
7C06F
100
AcDbEntity
  8
Level 26
 62
   133
370
     0
100
AcDbLine
 10
1.933517
 20
-0.131714
 30
0.0
 11
2.383517
 21
-0.131714
 31
0.0
  0
LINE
  5
7BE27
330
7C06F
100
AcDbEntity
  8
Level 26
 62
   133
370
     0
100
AcDbLine
 10
1.833517
 20
-0.011714
 30
0.0
 11
2.483517
 21
-0.011714
 31
0.0
  0
POINT
  5
7BE28
330
7C06F
100
AcDbEntity
  8
Level 26
 62
   133
370
     0
100
AcDbPoint
 10
2.483517
 20
-0.131714
 30
0.0
  0
LINE
  5
7BE29
330
7C06F
100
AcDbEntity
  8
Level 26
 62
   133
370
     0
100
AcDbLine
 10
1.833517
 20
-0.011714
 30
0.0
 11
2.483517
 21
-0.011714
 31
0.0
  0
LINE
  5
7BE2A
330
7C06F
100
AcDbEntity
  8
Level 26
 62
   133
370
     0
100
AcDbLine
 10
1.833517
 20
-0.131714
 30
0.0
 11
2.483517
 21
-0.131714
 31
0.0
  0
POINT
  5
7BE2B
330
7C06F
100
AcDbEntity
  8
Level 26
 62
   133
370
     0
100
AcDbPoint
 10
1.833517
 20
-0.131714
 30
0.0
  0
POINT
  5
7BE2C
330
7C06F
100
AcDbEntity
  8
Level 26
 62
   133
370
     0
100
AcDbPoint
 10
2.483517
 20
-0.131714
 30
0.0
  0
LINE
  5
7BE2D
330
7C06F
100
AcDbEntity
  8
Level 26
 62
   133
370
     0
100
AcDbLine
 10
1.833517
 20
-0.131714
 30
0.0
 11
2.483517
 21
-0.131714
 31
0.0
  0
POINT
  5
7BE2E
330
7C06F
100
AcDbEntity
  8
Level 26
 62
   133
370
     0
100
AcDbPoint
 10
1.833517
 20
-0.131714
 30
0.0
  0
POINT
  5
7BE2F
330
7C06F
100
AcDbEntity
  8
Level 26
 62
   133
370
     0
100
AcDbPoint
 10
2.383517
 20
-0.131714
 30
0.0
  0
POINT
  5
7BE30
330
7C06F
100
AcDbEntity
  8
Level 26
 62
   133
370
     0
100
AcDbPoint
 10
2.383517
 20
-0.131714
 30
0.0
  0
LINE
  5
7BE31
330
7C06F
100
AcDbEntity
  8
Level 26
 62
   133
370
     0
100
AcDbLine
 10
2.483517
 20
-0.131714
 30
0.0
 11
2.383517
 21
-0.131714
 31
0.0
  0
LINE
  5
7BE32
330
7C06F
100
AcDbEntity
  8
Level 26
 62
   133
370
     0
100
AcDbLine
 10
2.483517
 20
-0.131714
 30
0.0
 11
2.383517
 21
-0.131714
 31
0.0
  0
POINT
  5
7BE33
330
7C06F
100
AcDbEntity
  8
Level 26
 62
   133
370
     0
100
AcDbPoint
 10
1.933517
 20
-0.131714
 30
0.0
  0
LINE
  5
7BE34
330
7C06F
100
AcDbEntity
  8
Level 26
 62
   133
370
     0
100
AcDbLine
 10
1.933517
 20
-0.131714
 30
0.0
 11
1.833517
 21
-0.131714
 31
0.0
  0
POINT
  5
7BE35
330
7C06F
100
AcDbEntity
  8
Level 26
 62
   133
370
     0
100
AcDbPoint
 10
1.933517
 20
-0.131714
 30
0.0
  0
LINE
  5
7BE36
330
7C06F
100
AcDbEntity
  8
Level 26
 62
   133
370
     0
100
AcDbLine
 10
1.933517
 20
-0.131714
 30
0.0
 11
1.833517
 21
-0.131714
 31
0.0
  0
LINE
  5
7BE37
330
7C06F
100
AcDbEntity
  8
Level 26
 62
   133
370
     0
100
AcDbLine
 10
2.158517
 20
-0.131714
 30
0.0
 11
2.158517
 21
-0.011714
 31
0.0
  0
LINE
  5
7BE38
330
7C06F
100
AcDbEntity
  8
Level 26
 62
   133
370
     0
100
AcDbLine
 10
2.483517
 20
-0.131714
 30
0.0
 11
2.483517
 21
-0.011714
 31
0.0
  0
LINE
  5
7BE39
330
7C06F
100
AcDbEntity
  8
Level 26
 62
   133
370
     0
100
AcDbLine
 10
2.158517
 20
-0.131714
 30
0.0
 11
2.158517
 21
-0.011714
 31
0.0
  0
LINE
  5
7BE3A
330
7C06F
100
AcDbEntity
  8
Level 26
 62
   133
370
     0
100
AcDbLine
 10
1.833517
 20
-0.131714
 30
0.0
 11
1.833517
 21
-0.011714
 31
0.0
  0
ENDBLK
  5
7C071
330
7C06F
100
AcDbEntity
  8
0
100
AcDbBlockEnd
  0
BLOCK
  5
7C073
330
7C072
100
AcDbEntity
  8
0
100
AcDbBlockBegin
  2
Feature Solid_6
 70
     0
 71
     0
 10
0.0
 20
0.0
 30
0.0
  3
Feature Solid_6
  1

  0
INSERT
  5
7BE3C
330
7C072
100
AcDbEntity
  8
Level 26
 62
   133
370
     0
100
AcDbBlockReference
  2
UNITE_2
 10
-215.851704
 20
-22.17087
 30
0.0
 41
100.0
 42
100.0
 43
100.0
  0
ENDBLK
  5
7C074
330
7C072
100
AcDbEntity
  8
0
100
AcDbBlockEnd
  0
BLOCK
  5
7C076
330
7C075
100
AcDbEntity
  8
0
100
AcDbBlockBegin
  2
UNITE_2
 70
     0
 71
     0
 10
0.0
 20
0.0
 30
0.0
  3
UNITE_2
  1

  0
INSERT
  5
7BE3D
330
7C075
100
AcDbEntity
  8
Level 26
 62
   133
370
     0
100
AcDbBlockReference
  2
Feature Solid_7
 10
0.0
 20
0.0
 30
0.0
  0
INSERT
  5
7BE44
330
7C075
100
AcDbEntity
  8
Level 26
 62
   133
370
     0
100
AcDbBlockReference
  2
Feature Solid_8
 10
0.55
 20
0.0
 30
0.0
  0
INSERT
  5
7BE4B
330
7C075
100
AcDbEntity
  8
Level 8
 62
   133
370
     0
100
AcDbBlockReference
  2
Feature Solid_9
 10
0.0
 20
0.0
 30
0.0
  0
ENDBLK
  5
7C077
330
7C075
100
AcDbEntity
  8
0
100
AcDbBlockEnd
  0
BLOCK
  5
7C079
330
7C078
100
AcDbEntity
  8
0
100
AcDbBlockBegin
  2
Feature Solid_7
 70
     0
 71
     0
 10
0.0
 20
0.0
 30
0.0
  3
Feature Solid_7
  1

  0
INSERT
  5
7BE3E
330
7C078
100
AcDbEntity
  8
Level 26
 62
   133
370
     0
100
AcDbBlockReference
  2
DDPROJ_3
 10
0.0
 20
0.0
 30
0.0
  0
ENDBLK
  5
7C07A
330
7C078
100
AcDbEntity
  8
0
100
AcDbBlockEnd
  0
BLOCK
  5
7C07C
330
7C07B
100
AcDbEntity
  8
0
100
AcDbBlockBegin
  2
DDPROJ_3
 70
     0
 71
     0
 10
0.0
 20
0.0
 30
0.0
  3
DDPROJ_3
  1

  0
POINT
  5
7BE3F
330
7C07B
100
AcDbEntity
  8
Level 26
 62
   133
370
     0
100
AcDbPoint
 10
1.833517
 20
0.011714
 30
0.0
  0
LINE
  5
7BE40
330
7C07B
100
AcDbEntity
  8
Level 26
 62
   133
370
     0
100
AcDbLine
 10
1.933517
 20
0.131714
 30
0.0
 11
1.933517
 21
0.359125
 31
0.0
  0
LINE
  5
7BE41
330
7C07B
100
AcDbEntity
  8
Level 26
 62
   133
370
     0
100
AcDbLine
 10
1.833517
 20
0.131714
 30
0.0
 11
1.833517
 21
0.431714
 31
0.0
  0
LINE
  5
7BE42
330
7C07B
100
AcDbEntity
  8
Level 26
 62
   133
370
     0
100
AcDbLine
 10
1.833517
 20
0.131714
 30
0.0
 11
1.833517
 21
0.431714
 31
0.0
  0
LINE
  5
7BE43
330
7C07B
100
AcDbEntity
  8
Level 26
 62
   133
370
     0
100
AcDbLine
 10
1.933517
 20
0.131714
 30
0.0
 11
1.933517
 21
0.359125
 31
0.0
  0
ENDBLK
  5
7C07D
330
7C07B
100
AcDbEntity
  8
0
100
AcDbBlockEnd
  0
BLOCK
  5
7C07F
330
7C07E
100
AcDbEntity
  8
0
100
AcDbBlockBegin
  2
Feature Solid_8
 70
     0
 71
     0
 10
0.0
 20
0.0
 30
0.0
  3
Feature Solid_8
  1

  0
INSERT
  5
7BE45
330
7C07E
100
AcDbEntity
  8
Level 26
 62
   133
370
     0
100
AcDbBlockReference
  2
DDPROJ_4
 10
0.0
 20
0.0
 30
0.0
  0
ENDBLK
  5
7C080
330
7C07E
100
AcDbEntity
  8
0
100
AcDbBlockEnd
  0
BLOCK
  5
7C082
330
7C081
100
AcDbEntity
  8
0
100
AcDbBlockBegin
  2
DDPROJ_4
 70
     0
 71
     0
 10
0.0
 20
0.0
 30
0.0
  3
DDPROJ_4
  1

  0
POINT
  5
7BE46
330
7C081
100
AcDbEntity
  8
Level 26
 62
   133
370
     0
100
AcDbPoint
 10
1.933517
 20
0.011714
 30
0.0
  0
LINE
  5
7BE47
330
7C081
100
AcDbEntity
  8
Level 26
 62
   133
370
     0
100
AcDbLine
 10
1.933517
 20
0.131714
 30
0.0
 11
1.933517
 21
0.431714
 31
0.0
  0
LINE
  5
7BE48
330
7C081
100
AcDbEntity
  8
Level 26
 62
   133
370
     0
100
AcDbLine
 10
1.833517
 20
0.131714
 30
0.0
 11
1.833517
 21
0.359125
 31
0.0
  0
LINE
  5
7BE49
330
7C081
100
AcDbEntity
  8
Level 26
 62
   133
370
     0
100
AcDbLine
 10
1.833517
 20
0.131714
 30
0.0
 11
1.833517
 21
0.359125
 31
0.0
  0
LINE
  5
7BE4A
330
7C081
100
AcDbEntity
  8
Level 26
 62
   133
370
     0
100
AcDbLine
 10
1.933517
 20
0.131714
 30
0.0
 11
1.933517
 21
0.431714
 31
0.0
  0
ENDBLK
  5
7C083
330
7C081
100
AcDbEntity
  8
0
100
AcDbBlockEnd
  0
BLOCK
  5
7C085
330
7C084
100
AcDbEntity
  8
0
100
AcDbBlockBegin
  2
Feature Solid_9
 70
     0
 71
     0
 10
0.0
 20
0.0
 30
0.0
  3
Feature Solid_9
  1

  0
INSERT
  5
7BE4C
330
7C084
100
AcDbEntity
  8
Level 8
 62
   133
370
     0
100
AcDbBlockReference
  2
UNITE_3
 10
0.0
 20
0.0
 30
0.0
  0
ENDBLK
  5
7C086
330
7C084
100
AcDbEntity
  8
0
100
AcDbBlockEnd
  0
BLOCK
  5
7C088
330
7C087
100
AcDbEntity
  8
0
100
AcDbBlockBegin
  2
UNITE_3
 70
     0
 71
     0
 10
0.0
 20
0.0
 30
0.0
  3
UNITE_3
  1

  0
INSERT
  5
7BE4D
330
7C087
100
AcDbEntity
  8
Level 8
 62
   133
370
     0
100
AcDbBlockReference
  2
Feature Solid_10
 10
0.0
 20
0.0
 30
0.0
  0
INSERT
  5
7BE63
330
7C087
100
AcDbEntity
  8
Level 26
 62
   133
370
     0
100
AcDbBlockReference
  2
Feature Solid_11
 10
0.0
 20
0.0
 30
0.0
  0
ENDBLK
  5
7C089
330
7C087
100
AcDbEntity
  8
0
100
AcDbBlockEnd
  0
BLOCK
  5
7C08B
330
7C08A
100
AcDbEntity
  8
0
100
AcDbBlockBegin
  2
Feature Solid_10
 70
     0
 71
     0
 10
0.0
 20
0.0
 30
0.0
  3
Feature Solid_10
  1

  0
INSERT
  5
7BE4E
330
7C08A
100
AcDbEntity
  8
Level 8
 62
   133
370
     0
100
AcDbBlockReference
  2
CONE_1
 10
0.0
 20
0.0
 30
0.0
  0
ENDBLK
  5
7C08C
330
7C08A
100
AcDbEntity
  8
0
100
AcDbBlockEnd
  0
BLOCK
  5
7C08E
330
7C08D
100
AcDbEntity
  8
0
100
AcDbBlockBegin
  2
CONE_1
 70
     0
 71
     0
 10
0.0
 20
0.0
 30
0.0
  3
CONE_1
  1

  0
LINE
  5
7BE4F
330
7C08D
100
AcDbEntity
  8
Level 8
 62
   133
370
     0
100
AcDbLine
 10
1.833517
 20
0.431714
 30
0.0
 11
2.483517
 21
0.431714
 31
0.0
  0
LINE
  5
7BE50
330
7C08D
100
AcDbEntity
  8
Level 8
 62
   133
370
     0
100
AcDbLine
 10
2.383517
 20
0.131714
 30
0.0
 11
2.383517
 21
0.359125
 31
0.0
  0
LINE
  5
7BE51
330
7C08D
100
AcDbEntity
  8
Level 8
 62
   133
370
     0
100
AcDbLine
 10
2.383517
 20
0.131714
 30
0.0
 11
2.383517
 21
0.359125
 31
0.0
  0
SPLINE
  5
7BE52
330
7C08D
100
AcDbEntity
  8
Level 8
 62
   133
370
     0
100
AcDbSpline
210
0.0
220
0.0
230
1.0
 70
     8
 71
     3
 72
    17
 73
    13
 74
     0
 42
0.0000000001
 43
0.00000001
 40
0.0
 40
0.0
 40
0.0
 40
0.0
 40
0.1188920175173181
 40
0.1188920175173181
 40
0.1188920175173181
 40
0.4370642450454728
 40
0.4370642450454728
 40
0.4370642450454728
 40
0.7708126268407274
 40
0.7708126268407274
 40
0.7708126268407274
 40
1.0
 40
1.0
 40
1.0
 40
1.0
 10
2.483517035676393
 20
0.4317136962460401
 30
0.0
 10
2.483517035676393
 20
0.4317136962460354
 30
0.0
 10
2.482970961108954
 20
0.4312857853703713
 30
0.0
 10
2.481890266834164
 20
0.4304413967249403
 30
0.0
 10
2.479007999541985
 20
0.4281893687172281
 30
0.0
 10
2.472181370284076
 20
0.4228496497948282
 30
0.0
 10
2.462245290317632
 20
0.4152805637156777
 30
0.0
 10
2.451806866801178
 20
0.4073288034245512
 30
0.0
 10
2.437764099143891
 20
0.3967863239604561
 30
0.0
 10
2.421270187946128
 20
0.3850241073261062
 30
0.0
 10
2.409877803190348
 20
0.3768999155639066
 30
0.0
 10
2.39720582936004
 20
0.3681165556180152
 30
0.0
 10
2.383517035681365
 20
0.3591253483963479
 30
0.0
  0
SPLINE
  5
7BE55
330
7C08D
100
AcDbEntity
  8
Level 8
 62
   133
370
     0
100
AcDbSpline
210
0.0
220
0.0
230
1.0
 70
     8
 71
     3
 72
    14
 73
    10
 74
     0
 42
0.0000000001
 43
0.00000001
 40
0.0
 40
0.0
 40
0.0
 40
0.0
 40
0.4155111778321488
 40
0.4155111778321488
 40
0.4155111778321488
 40
0.7657511632294429
 40
0.7657511632294429
 40
0.7657511632294429
 40
1.0
 40
1.0
 40
1.0
 40
1.0
 10
2.38351703567637
 20
0.3591253483958543
 30
0.0
 10
2.408183961970714
 20
0.3753273199526827
 30
0.0
 10
2.429723842876854
 20
0.3909352251375095
 30
0.0
 10
2.446330563598316
 20
0.4032945372283598
 30
0.0
 10
2.460337575068309
 20
0.4137190532494011
 30
0.0
 10
2.471094914404418
 20
0.422043984659398
 30
0.0
 10
2.477256738635802
 20
0.4268312321213167
 30
0.0
 10
2.481375118370785
 20
0.4300308856967977
 30
0.0
 10
2.483517035676393
 20
0.4317136962460401
 30
0.0
 10
2.483517035676393
 20
0.4317136962460401
 30
0.0
  0
LINE
  5
7BE58
330
7C08D
100
AcDbEntity
  8
Level 8
 62
   133
370
     0
100
AcDbLine
 10
1.833517
 20
0.431714
 30
0.0
 11
2.483517
 21
0.431714
 31
0.0
  0
SPLINE
  5
7BE59
330
7C08D
100
AcDbEntity
  8
Level 8
 62
   133
370
     0
100
AcDbSpline
210
0.0
220
0.0
230
1.0
 70
     8
 71
     3
 72
    17
 73
    13
 74
     0
 42
0.0000000001
 43
0.00000001
 40
0.0
 40
0.0
 40
0.0
 40
0.0
 40
0.1188920175167992
 40
0.1188920175167992
 40
0.1188920175167992
 40
0.4370642450447248
 40
0.4370642450447248
 40
0.4370642450447248
 40
0.7708126268396294
 40
0.7708126268396294
 40
0.7708126268396294
 40
1.0
 40
1.0
 40
1.0
 40
1.0
 10
1.833517035676245
 20
0.4317136962460354
 30
0.0
 10
1.833517035676245
 20
0.4317136962460354
 30
0.0
 10
1.834063110243676
 20
0.4312857853703807
 30
0.0
 10
1.835143804518467
 20
0.4304413967249543
 30
0.0
 10
1.838026071810631
 20
0.4281893687172607
 30
0.0
 10
1.844852701068518
 20
0.4228496497948747
 30
0.0
 10
1.854788781034969
 20
0.4152805637157383
 30
0.0
 10
1.865227204551417
 20
0.4073288034246257
 30
0.0
 10
1.879269972208704
 20
0.3967863239605446
 30
0.0
 10
1.895763883406445
 20
0.3850241073262133
 30
0.0
 10
1.907156268162282
 20
0.3768999155639764
 30
0.0
 10
1.919828241992668
 20
0.3681165556180385
 30
0.0
 10
1.933517035671436
 20
0.3591253483963246
 30
0.0
  0
LINE
  5
7BE5C
330
7C08D
100
AcDbEntity
  8
Level 8
 62
   133
370
     0
100
AcDbLine
 10
1.933517
 20
0.131714
 30
0.0
 11
1.933517
 21
0.359125
 31
0.0
  0
LINE
  5
7BE5D
330
7C08D
100
AcDbEntity
  8
Level 8
 62
   133
370
     0
100
AcDbLine
 10
1.933517
 20
0.131714
 30
0.0
 11
1.933517
 21
0.359125
 31
0.0
  0
SPLINE
  5
7BE5E
330
7C08D
100
AcDbEntity
  8
Level 8
 62
   133
370
     0
100
AcDbSpline
210
0.0
220
0.0
230
1.0
 70
     8
 71
     3
 72
    14
 73
    10
 74
     0
 42
0.0000000001
 43
0.00000001
 40
0.0
 40
0.0
 40
0.0
 40
0.0
 40
0.4155111778320348
 40
0.4155111778320348
 40
0.4155111778320348
 40
0.7657511632291136
 40
0.7657511632291136
 40
0.7657511632291136
 40
1.0
 40
1.0
 40
1.0
 40
1.0
 10
1.93351703567641
 20
0.3591253483956587
 30
0.0
 10
1.908850109382065
 20
0.375327319952515
 30
0.0
 10
1.887310228475876
 20
0.3909352251373697
 30
0.0
 10
1.870703507754392
 20
0.4032945372282482
 30
0.0
 10
1.856696496284378
 20
0.4137190532493079
 30
0.0
 10
1.845939156948276
 20
0.4220439846593281
 30
0.0
 10
1.839777332716864
 20
0.4268312321212702
 30
0.0
 10
1.835658952981866
 20
0.4300308856967744
 30
0.0
 10
1.833517035676245
 20
0.4317136962460308
 30
0.0
 10
1.833517035676245
 20
0.4317136962460354
 30
0.0
  0
LINE
  5
7BE61
330
7C08D
100
AcDbEntity
  8
Level 8
 62
   133
370
     0
100
AcDbLine
 10
2.158517
 20
0.131714
 30
0.0
 11
2.158517
 21
0.431714
 31
0.0
  0
LINE
  5
7BE62
330
7C08D
100
AcDbEntity
  8
Level 8
 62
   133
370
     0
100
AcDbLine
 10
2.158517
 20
0.131714
 30
0.0
 11
2.158517
 21
0.431714
 31
0.0
  0
ENDBLK
  5
7C08F
330
7C08D
100
AcDbEntity
  8
0
100
AcDbBlockEnd
  0
BLOCK
  5
7C091
330
7C090
100
AcDbEntity
  8
0
100
AcDbBlockBegin
  2
Feature Solid_11
 70
     0
 71
     0
 10
0.0
 20
0.0
 30
0.0
  3
Feature Solid_11
  1

  0
INSERT
  5
7BE64
330
7C090
100
AcDbEntity
  8
Level 26
 62
   133
370
     0
100
AcDbBlockReference
  2
DDPROJ_5
 10
0.0
 20
0.0
 30
0.0
  0
ENDBLK
  5
7C092
330
7C090
100
AcDbEntity
  8
0
100
AcDbBlockEnd
  0
BLOCK
  5
7C094
330
7C093
100
AcDbEntity
  8
0
100
AcDbBlockBegin
  2
DDPROJ_5
 70
     0
 71
     0
 10
0.0
 20
0.0
 30
0.0
  3
DDPROJ_5
  1

  0
LINE
  5
7BE65
330
7C093
100
AcDbEntity
  8
Level 26
 62
   133
370
     0
100
AcDbLine
 10
1.833517
 20
0.011714
 30
0.0
 11
1.833517
 21
0.131714
 31
0.0
  0
LINE
  5
7BE66
330
7C093
100
AcDbEntity
  8
Level 26
 62
   133
370
     0
100
AcDbLine
 10
1.833517
 20
0.131714
 30
0.0
 11
1.833517
 21
0.011714
 31
0.0
  0
LINE
  5
7BE67
330
7C093
100
AcDbEntity
  8
Level 26
 62
   133
370
     0
100
AcDbLine
 10
2.483517
 20
0.011714
 30
0.0
 11
2.483517
 21
0.131714
 31
0.0
  0
LINE
  5
7BE68
330
7C093
100
AcDbEntity
  8
Level 26
 62
   133
370
     0
100
AcDbLine
 10
2.483517
 20
0.131714
 30
0.0
 11
2.483517
 21
0.011714
 31
0.0
  0
LINE
  5
7BE69
330
7C093
100
AcDbEntity
  8
Level 26
 62
   133
370
     0
100
AcDbLine
 10
1.933517
 20
0.131714
 30
0.0
 11
2.383517
 21
0.131714
 31
0.0
  0
LINE
  5
7BE6A
330
7C093
100
AcDbEntity
  8
Level 26
 62
   133
370
     0
100
AcDbLine
 10
1.933517
 20
0.131714
 30
0.0
 11
2.383517
 21
0.131714
 31
0.0
  0
LINE
  5
7BE6B
330
7C093
100
AcDbEntity
  8
Level 26
 62
   133
370
     0
100
AcDbLine
 10
1.833517
 20
0.011714
 30
0.0
 11
2.483517
 21
0.011714
 31
0.0
  0
POINT
  5
7BE6C
330
7C093
100
AcDbEntity
  8
Level 26
 62
   133
370
     0
100
AcDbPoint
 10
2.483517
 20
0.131714
 30
0.0
  0
LINE
  5
7BE6D
330
7C093
100
AcDbEntity
  8
Level 26
 62
   133
370
     0
100
AcDbLine
 10
1.833517
 20
0.011714
 30
0.0
 11
2.483517
 21
0.011714
 31
0.0
  0
LINE
  5
7BE6E
330
7C093
100
AcDbEntity
  8
Level 26
 62
   133
370
     0
100
AcDbLine
 10
1.833517
 20
0.131714
 30
0.0
 11
2.483517
 21
0.131714
 31
0.0
  0
POINT
  5
7BE6F
330
7C093
100
AcDbEntity
  8
Level 26
 62
   133
370
     0
100
AcDbPoint
 10
1.833517
 20
0.131714
 30
0.0
  0
POINT
  5
7BE70
330
7C093
100
AcDbEntity
  8
Level 26
 62
   133
370
     0
100
AcDbPoint
 10
2.483517
 20
0.131714
 30
0.0
  0
LINE
  5
7BE71
330
7C093
100
AcDbEntity
  8
Level 26
 62
   133
370
     0
100
AcDbLine
 10
1.833517
 20
0.131714
 30
0.0
 11
2.483517
 21
0.131714
 31
0.0
  0
POINT
  5
7BE72
330
7C093
100
AcDbEntity
  8
Level 26
 62
   133
370
     0
100
AcDbPoint
 10
1.833517
 20
0.131714
 30
0.0
  0
POINT
  5
7BE73
330
7C093
100
AcDbEntity
  8
Level 26
 62
   133
370
     0
100
AcDbPoint
 10
2.383517
 20
0.131714
 30
0.0
  0
POINT
  5
7BE74
330
7C093
100
AcDbEntity
  8
Level 26
 62
   133
370
     0
100
AcDbPoint
 10
2.383517
 20
0.131714
 30
0.0
  0
LINE
  5
7BE75
330
7C093
100
AcDbEntity
  8
Level 26
 62
   133
370
     0
100
AcDbLine
 10
2.483517
 20
0.131714
 30
0.0
 11
2.383517
 21
0.131714
 31
0.0
  0
LINE
  5
7BE76
330
7C093
100
AcDbEntity
  8
Level 26
 62
   133
370
     0
100
AcDbLine
 10
2.483517
 20
0.131714
 30
0.0
 11
2.383517
 21
0.131714
 31
0.0
  0
POINT
  5
7BE77
330
7C093
100
AcDbEntity
  8
Level 26
 62
   133
370
     0
100
AcDbPoint
 10
1.933517
 20
0.131714
 30
0.0
  0
LINE
  5
7BE78
330
7C093
100
AcDbEntity
  8
Level 26
 62
   133
370
     0
100
AcDbLine
 10
1.933517
 20
0.131714
 30
0.0
 11
1.833517
 21
0.131714
 31
0.0
  0
POINT
  5
7BE79
330
7C093
100
AcDbEntity
  8
Level 26
 62
   133
370
     0
100
AcDbPoint
 10
1.933517
 20
0.131714
 30
0.0
  0
LINE
  5
7BE7A
330
7C093
100
AcDbEntity
  8
Level 26
 62
   133
370
     0
100
AcDbLine
 10
1.933517
 20
0.131714
 30
0.0
 11
1.833517
 21
0.131714
 31
0.0
  0
LINE
  5
7BE7B
330
7C093
100
AcDbEntity
  8
Level 26
 62
   133
370
     0
100
AcDbLine
 10
2.158517
 20
0.131714
 30
0.0
 11
2.158517
 21
0.011714
 31
0.0
  0
LINE
  5
7BE7C
330
7C093
100
AcDbEntity
  8
Level 26
 62
   133
370
     0
100
AcDbLine
 10
2.483517
 20
0.131714
 30
0.0
 11
2.483517
 21
0.011714
 31
0.0
  0
LINE
  5
7BE7D
330
7C093
100
AcDbEntity
  8
Level 26
 62
   133
370
     0
100
AcDbLine
 10
2.158517
 20
0.131714
 30
0.0
 11
2.158517
 21
0.011714
 31
0.0
  0
LINE
  5
7BE7E
330
7C093
100
AcDbEntity
  8
Level 26
 62
   133
370
     0
100
AcDbLine
 10
1.833517
 20
0.131714
 30
0.0
 11
1.833517
 21
0.011714
 31
0.0
  0
ENDBLK
  5
7C095
330
7C093
100
AcDbEntity
  8
0
100
AcDbBlockEnd
  0
BLOCK
  5
7C097
330
7C096
100
AcDbEntity
  8
0
100
AcDbBlockBegin
  2
Feature Solid_12
 70
     0
 71
     0
 10
0.0
 20
0.0
 30
0.0
  3
Feature Solid_12
  1

  0
INSERT
  5
7BE80
330
7C096
100
AcDbEntity
  8
Level 26
 62
   133
370
     0
100
AcDbBlockReference
  2
UNITE_4
 10
-215.851704
 20
22.17087
 30
0.0
 41
100.0
 42
100.0
 43
100.0
  0
ENDBLK
  5
7C098
330
7C096
100
AcDbEntity
  8
0
100
AcDbBlockEnd
  0
BLOCK
  5
7C09A
330
7C099
100
AcDbEntity
  8
0
100
AcDbBlockBegin
  2
UNITE_4
 70
     0
 71
     0
 10
0.0
 20
0.0
 30
0.0
  3
UNITE_4
  1

  0
INSERT
  5
7BE81
330
7C099
100
AcDbEntity
  8
Level 26
 62
   133
370
     0
100
AcDbBlockReference
  2
Feature Solid_13
 10
0.0
 20
0.0
 30
0.0
  0
INSERT
  5
7BE88
330
7C099
100
AcDbEntity
  8
Level 26
 62
   133
370
     0
100
AcDbBlockReference
  2
Feature Solid_14
 10
0.55
 20
0.0
 30
0.0
  0
INSERT
  5
7BE8F
330
7C099
100
AcDbEntity
  8
Level 8
 62
   133
370
     0
100
AcDbBlockReference
  2
Feature Solid_15
 10
0.0
 20
0.0
 30
0.0
  0
ENDBLK
  5
7C09B
330
7C099
100
AcDbEntity
  8
0
100
AcDbBlockEnd
  0
BLOCK
  5
7C09D
330
7C09C
100
AcDbEntity
  8
0
100
AcDbBlockBegin
  2
Feature Solid_13
 70
     0
 71
     0
 10
0.0
 20
0.0
 30
0.0
  3
Feature Solid_13
  1

  0
INSERT
  5
7BE82
330
7C09C
100
AcDbEntity
  8
Level 26
 62
   133
370
     0
100
AcDbBlockReference
  2
DDPROJ_6
 10
0.0
 20
0.0
 30
0.0
  0
ENDBLK
  5
7C09E
330
7C09C
100
AcDbEntity
  8
0
100
AcDbBlockEnd
  0
BLOCK
  5
7C0A0
330
7C09F
100
AcDbEntity
  8
0
100
AcDbBlockBegin
  2
DDPROJ_6
 70
     0
 71
     0
 10
0.0
 20
0.0
 30
0.0
  3
DDPROJ_6
  1

  0
POINT
  5
7BE83
330
7C09F
100
AcDbEntity
  8
Level 26
 62
   133
370
     0
100
AcDbPoint
 10
1.833517
 20
-0.011714
 30
0.0
  0
LINE
  5
7BE84
330
7C09F
100
AcDbEntity
  8
Level 26
 62
   133
370
     0
100
AcDbLine
 10
1.933517
 20
-0.131714
 30
0.0
 11
1.933517
 21
-0.359125
 31
0.0
  0
LINE
  5
7BE85
330
7C09F
100
AcDbEntity
  8
Level 26
 62
   133
370
     0
100
AcDbLine
 10
1.833517
 20
-0.131714
 30
0.0
 11
1.833517
 21
-0.431714
 31
0.0
  0
LINE
  5
7BE86
330
7C09F
100
AcDbEntity
  8
Level 26
 62
   133
370
     0
100
AcDbLine
 10
1.833517
 20
-0.131714
 30
0.0
 11
1.833517
 21
-0.431714
 31
0.0
  0
LINE
  5
7BE87
330
7C09F
100
AcDbEntity
  8
Level 26
 62
   133
370
     0
100
AcDbLine
 10
1.933517
 20
-0.131714
 30
0.0
 11
1.933517
 21
-0.359125
 31
0.0
  0
ENDBLK
  5
7C0A1
330
7C09F
100
AcDbEntity
  8
0
100
AcDbBlockEnd
  0
BLOCK
  5
7C0A3
330
7C0A2
100
AcDbEntity
  8
0
100
AcDbBlockBegin
  2
Feature Solid_14
 70
     0
 71
     0
 10
0.0
 20
0.0
 30
0.0
  3
Feature Solid_14
  1

  0
INSERT
  5
7BE89
330
7C0A2
100
AcDbEntity
  8
Level 26
 62
   133
370
     0
100
AcDbBlockReference
  2
DDPROJ_7
 10
0.0
 20
0.0
 30
0.0
  0
ENDBLK
  5
7C0A4
330
7C0A2
100
AcDbEntity
  8
0
100
AcDbBlockEnd
  0
BLOCK
  5
7C0A6
330
7C0A5
100
AcDbEntity
  8
0
100
AcDbBlockBegin
  2
DDPROJ_7
 70
     0
 71
     0
 10
0.0
 20
0.0
 30
0.0
  3
DDPROJ_7
  1

  0
POINT
  5
7BE8A
330
7C0A5
100
AcDbEntity
  8
Level 26
 62
   133
370
     0
100
AcDbPoint
 10
1.933517
 20
-0.011714
 30
0.0
  0
LINE
  5
7BE8B
330
7C0A5
100
AcDbEntity
  8
Level 26
 62
   133
370
     0
100
AcDbLine
 10
1.933517
 20
-0.131714
 30
0.0
 11
1.933517
 21
-0.431714
 31
0.0
  0
LINE
  5
7BE8C
330
7C0A5
100
AcDbEntity
  8
Level 26
 62
   133
370
     0
100
AcDbLine
 10
1.833517
 20
-0.131714
 30
0.0
 11
1.833517
 21
-0.359125
 31
0.0
  0
LINE
  5
7BE8D
330
7C0A5
100
AcDbEntity
  8
Level 26
 62
   133
370
     0
100
AcDbLine
 10
1.833517
 20
-0.131714
 30
0.0
 11
1.833517
 21
-0.359125
 31
0.0
  0
LINE
  5
7BE8E
330
7C0A5
100
AcDbEntity
  8
Level 26
 62
   133
370
     0
100
AcDbLine
 10
1.933517
 20
-0.131714
 30
0.0
 11
1.933517
 21
-0.431714
 31
0.0
  0
ENDBLK
  5
7C0A7
330
7C0A5
100
AcDbEntity
  8
0
100
AcDbBlockEnd
  0
BLOCK
  5
7C0A9
330
7C0A8
100
AcDbEntity
  8
0
100
AcDbBlockBegin
  2
Feature Solid_15
 70
     0
 71
     0
 10
0.0
 20
0.0
 30
0.0
  3
Feature Solid_15
  1

  0
INSERT
  5
7BE90
330
7C0A8
100
AcDbEntity
  8
Level 8
 62
   133
370
     0
100
AcDbBlockReference
  2
UNITE_5
 10
0.0
 20
0.0
 30
0.0
  0
ENDBLK
  5
7C0AA
330
7C0A8
100
AcDbEntity
  8
0
100
AcDbBlockEnd
  0
BLOCK
  5
7C0AC
330
7C0AB
100
AcDbEntity
  8
0
100
AcDbBlockBegin
  2
UNITE_5
 70
     0
 71
     0
 10
0.0
 20
0.0
 30
0.0
  3
UNITE_5
  1

  0
INSERT
  5
7BE91
330
7C0AB
100
AcDbEntity
  8
Level 8
 62
   133
370
     0
100
AcDbBlockReference
  2
Feature Solid_16
 10
0.0
 20
0.0
 30
0.0
  0
INSERT
  5
7BEA7
330
7C0AB
100
AcDbEntity
  8
Level 26
 62
   133
370
     0
100
AcDbBlockReference
  2
Feature Solid_17
 10
0.0
 20
0.0
 30
0.0
  0
ENDBLK
  5
7C0AD
330
7C0AB
100
AcDbEntity
  8
0
100
AcDbBlockEnd
  0
BLOCK
  5
7C0AF
330
7C0AE
100
AcDbEntity
  8
0
100
AcDbBlockBegin
  2
Feature Solid_16
 70
     0
 71
     0
 10
0.0
 20
0.0
 30
0.0
  3
Feature Solid_16
  1

  0
INSERT
  5
7BE92
330
7C0AE
100
AcDbEntity
  8
Level 8
 62
   133
370
     0
100
AcDbBlockReference
  2
CONE_2
 10
0.0
 20
0.0
 30
0.0
  0
ENDBLK
  5
7C0B0
330
7C0AE
100
AcDbEntity
  8
0
100
AcDbBlockEnd
  0
BLOCK
  5
7C0B2
330
7C0B1
100
AcDbEntity
  8
0
100
AcDbBlockBegin
  2
CONE_2
 70
     0
 71
     0
 10
0.0
 20
0.0
 30
0.0
  3
CONE_2
  1

  0
LINE
  5
7BE93
330
7C0B1
100
AcDbEntity
  8
Level 8
 62
   133
370
     0
100
AcDbLine
 10
1.833517
 20
-0.431714
 30
0.0
 11
2.483517
 21
-0.431714
 31
0.0
  0
LINE
  5
7BE94
330
7C0B1
100
AcDbEntity
  8
Level 8
 62
   133
370
     0
100
AcDbLine
 10
2.383517
 20
-0.131714
 30
0.0
 11
2.383517
 21
-0.359125
 31
0.0
  0
LINE
  5
7BE95
330
7C0B1
100
AcDbEntity
  8
Level 8
 62
   133
370
     0
100
AcDbLine
 10
2.383517
 20
-0.131714
 30
0.0
 11
2.383517
 21
-0.359125
 31
0.0
  0
SPLINE
  5
7BE96
330
7C0B1
100
AcDbEntity
  8
Level 8
 62
   133
370
     0
100
AcDbSpline
210
0.0
220
0.0
230
1.0
 70
     8
 71
     3
 72
    17
 73
    13
 74
     0
 42
0.0000000001
 43
0.00000001
 40
0.0
 40
0.0
 40
0.0
 40
0.0
 40
0.1188920175173181
 40
0.1188920175173181
 40
0.1188920175173181
 40
0.4370642450454728
 40
0.4370642450454728
 40
0.4370642450454728
 40
0.7708126268407274
 40
0.7708126268407274
 40
0.7708126268407274
 40
1.0
 40
1.0
 40
1.0
 40
1.0
 10
2.483517035676389
 20
-0.4317136962460406
 30
0.0
 10
2.483517035676389
 20
-0.4317136962460353
 30
0.0
 10
2.482970961108954
 20
-0.4312857853703722
 30
0.0
 10
2.481890266834164
 20
-0.430441396724941
 30
0.0
 10
2.479007999541981
 20
-0.4281893687172289
 30
0.0
 10
2.472181370284073
 20
-0.4228496497948289
 30
0.0
 10
2.462245290317629
 20
-0.4152805637156778
 30
0.0
 10
2.451806866801174
 20
-0.4073288034245515
 30
0.0
 10
2.437764099143891
 20
-0.3967863239604554
 30
0.0
 10
2.421270187946128
 20
-0.3850241073261067
 30
0.0
 10
2.409877803190351
 20
-0.3768999155639072
 30
0.0
 10
2.397205829360036
 20
-0.3681165556180162
 30
0.0
 10
2.383517035681361
 20
-0.3591253483963488
 30
0.0
  0
SPLINE
  5
7BE99
330
7C0B1
100
AcDbEntity
  8
Level 8
 62
   133
370
     0
100
AcDbSpline
210
0.0
220
0.0
230
1.0
 70
     8
 71
     3
 72
    14
 73
    10
 74
     0
 42
0.0000000001
 43
0.00000001
 40
0.0
 40
0.0
 40
0.0
 40
0.0
 40
0.4155111778321488
 40
0.4155111778321488
 40
0.4155111778321488
 40
0.7657511632294429
 40
0.7657511632294429
 40
0.7657511632294429
 40
1.0
 40
1.0
 40
1.0
 40
1.0
 10
2.38351703567637
 20
-0.359125348395855
 30
0.0
 10
2.408183961970714
 20
-0.3753273199526834
 30
0.0
 10
2.42972384287685
 20
-0.3909352251375093
 30
0.0
 10
2.446330563598313
 20
-0.4032945372283603
 30
0.0
 10
2.460337575068305
 20
-0.4137190532494017
 30
0.0
 10
2.471094914404414
 20
-0.422043984659398
 30
0.0
 10
2.477256738635806
 20
-0.4268312321213177
 30
0.0
 10
2.481375118370782
 20
-0.430030885696798
 30
0.0
 10
2.483517035676389
 20
-0.4317136962460406
 30
0.0
 10
2.483517035676389
 20
-0.4317136962460406
 30
0.0
  0
LINE
  5
7BE9C
330
7C0B1
100
AcDbEntity
  8
Level 8
 62
   133
370
     0
100
AcDbLine
 10
1.833517
 20
-0.431714
 30
0.0
 11
2.483517
 21
-0.431714
 31
0.0
  0
SPLINE
  5
7BE9D
330
7C0B1
100
AcDbEntity
  8
Level 8
 62
   133
370
     0
100
AcDbSpline
210
0.0
220
0.0
230
1.0
 70
     8
 71
     3
 72
    17
 73
    13
 74
     0
 42
0.0000000001
 43
0.00000001
 40
0.0
 40
0.0
 40
0.0
 40
0.0
 40
0.1188920175167992
 40
0.1188920175167992
 40
0.1188920175167992
 40
0.4370642450447248
 40
0.4370642450447248
 40
0.4370642450447248
 40
0.7708126268396294
 40
0.7708126268396294
 40
0.7708126268396294
 40
1.0
 40
1.0
 40
1.0
 40
1.0
 10
1.833517035676241
 20
-0.4317136962460353
 30
0.0
 10
1.833517035676241
 20
-0.4317136962460353
 30
0.0
 10
1.834063110243676
 20
-0.4312857853703811
 30
0.0
 10
1.83514380451847
 20
-0.4304413967249552
 30
0.0
 10
1.838026071810628
 20
-0.4281893687172609
 30
0.0
 10
1.844852701068522
 20
-0.4228496497948751
 30
0.0
 10
1.854788781034966
 20
-0.4152805637157382
 30
0.0
 10
1.865227204551417
 20
-0.4073288034246261
 30
0.0
 10
1.8792699722087
 20
-0.3967863239605443
 30
0.0
 10
1.895763883406445
 20
-0.3850241073262133
 30
0.0
 10
1.907156268162279
 20
-0.3768999155639765
 30
0.0
 10
1.919828241992668
 20
-0.3681165556180392
 30
0.0
 10
1.933517035671436
 20
-0.3591253483963239
 30
0.0
  0
LINE
  5
7BEA0
330
7C0B1
100
AcDbEntity
  8
Level 8
 62
   133
370
     0
100
AcDbLine
 10
1.933517
 20
-0.131714
 30
0.0
 11
1.933517
 21
-0.359125
 31
0.0
  0
LINE
  5
7BEA1
330
7C0B1
100
AcDbEntity
  8
Level 8
 62
   133
370
     0
100
AcDbLine
 10
1.933517
 20
-0.131714
 30
0.0
 11
1.933517
 21
-0.359125
 31
0.0
  0
SPLINE
  5
7BEA2
330
7C0B1
100
AcDbEntity
  8
Level 8
 62
   133
370
     0
100
AcDbSpline
210
0.0
220
0.0
230
1.0
 70
     8
 71
     3
 72
    14
 73
    10
 74
     0
 42
0.0000000001
 43
0.00000001
 40
0.0
 40
0.0
 40
0.0
 40
0.0
 40
0.4155111778320348
 40
0.4155111778320348
 40
0.4155111778320348
 40
0.7657511632291136
 40
0.7657511632291136
 40
0.7657511632291136
 40
1.0
 40
1.0
 40
1.0
 40
1.0
 10
1.93351703567641
 20
-0.3591253483956596
 30
0.0
 10
1.908850109382065
 20
-0.3753273199525147
 30
0.0
 10
1.887310228475872
 20
-0.390935225137369
 30
0.0
 10
1.870703507754392
 20
-0.4032945372282484
 30
0.0
 10
1.856696496284378
 20
-0.4137190532493076
 30
0.0
 10
1.845939156948273
 20
-0.4220439846593287
 30
0.0
 10
1.839777332716864
 20
-0.4268312321212697
 30
0.0
 10
1.835658952981866
 20
-0.4300308856967749
 30
0.0
 10
1.833517035676241
 20
-0.4317136962460317
 30
0.0
 10
1.833517035676241
 20
-0.4317136962460353
 30
0.0
  0
LINE
  5
7BEA5
330
7C0B1
100
AcDbEntity
  8
Level 8
 62
   133
370
     0
100
AcDbLine
 10
2.158517
 20
-0.131714
 30
0.0
 11
2.158517
 21
-0.431714
 31
0.0
  0
LINE
  5
7BEA6
330
7C0B1
100
AcDbEntity
  8
Level 8
 62
   133
370
     0
100
AcDbLine
 10
2.158517
 20
-0.131714
 30
0.0
 11
2.158517
 21
-0.431714
 31
0.0
  0
ENDBLK
  5
7C0B3
330
7C0B1
100
AcDbEntity
  8
0
100
AcDbBlockEnd
  0
BLOCK
  5
7C0B5
330
7C0B4
100
AcDbEntity
  8
0
100
AcDbBlockBegin
  2
Feature Solid_17
 70
     0
 71
     0
 10
0.0
 20
0.0
 30
0.0
  3
Feature Solid_17
  1

  0
INSERT
  5
7BEA8
330
7C0B4
100
AcDbEntity
  8
Level 26
 62
   133
370
     0
100
AcDbBlockReference
  2
DDPROJ_8
 10
0.0
 20
0.0
 30
0.0
  0
ENDBLK
  5
7C0B6
330
7C0B4
100
AcDbEntity
  8
0
100
AcDbBlockEnd
  0
BLOCK
  5
7C0B8
330
7C0B7
100
AcDbEntity
  8
0
100
AcDbBlockBegin
  2
DDPROJ_8
 70
     0
 71
     0
 10
0.0
 20
0.0
 30
0.0
  3
DDPROJ_8
  1

  0
LINE
  5
7BEA9
330
7C0B7
100
AcDbEntity
  8
Level 26
 62
   133
370
     0
100
AcDbLine
 10
1.833517
 20
-0.011714
 30
0.0
 11
1.833517
 21
-0.131714
 31
0.0
  0
LINE
  5
7BEAA
330
7C0B7
100
AcDbEntity
  8
Level 26
 62
   133
370
     0
100
AcDbLine
 10
1.833517
 20
-0.131714
 30
0.0
 11
1.833517
 21
-0.011714
 31
0.0
  0
LINE
  5
7BEAB
330
7C0B7
100
AcDbEntity
  8
Level 26
 62
   133
370
     0
100
AcDbLine
 10
2.483517
 20
-0.011714
 30
0.0
 11
2.483517
 21
-0.131714
 31
0.0
  0
LINE
  5
7BEAC
330
7C0B7
100
AcDbEntity
  8
Level 26
 62
   133
370
     0
100
AcDbLine
 10
2.483517
 20
-0.131714
 30
0.0
 11
2.483517
 21
-0.011714
 31
0.0
  0
LINE
  5
7BEAD
330
7C0B7
100
AcDbEntity
  8
Level 26
 62
   133
370
     0
100
AcDbLine
 10
1.933517
 20
-0.131714
 30
0.0
 11
2.383517
 21
-0.131714
 31
0.0
  0
LINE
  5
7BEAE
330
7C0B7
100
AcDbEntity
  8
Level 26
 62
   133
370
     0
100
AcDbLine
 10
1.933517
 20
-0.131714
 30
0.0
 11
2.383517
 21
-0.131714
 31
0.0
  0
LINE
  5
7BEAF
330
7C0B7
100
AcDbEntity
  8
Level 26
 62
   133
370
     0
100
AcDbLine
 10
1.833517
 20
-0.011714
 30
0.0
 11
2.483517
 21
-0.011714
 31
0.0
  0
POINT
  5
7BEB0
330
7C0B7
100
AcDbEntity
  8
Level 26
 62
   133
370
     0
100
AcDbPoint
 10
2.483517
 20
-0.131714
 30
0.0
  0
LINE
  5
7BEB1
330
7C0B7
100
AcDbEntity
  8
Level 26
 62
   133
370
     0
100
AcDbLine
 10
1.833517
 20
-0.011714
 30
0.0
 11
2.483517
 21
-0.011714
 31
0.0
  0
LINE
  5
7BEB2
330
7C0B7
100
AcDbEntity
  8
Level 26
 62
   133
370
     0
100
AcDbLine
 10
1.833517
 20
-0.131714
 30
0.0
 11
2.483517
 21
-0.131714
 31
0.0
  0
POINT
  5
7BEB3
330
7C0B7
100
AcDbEntity
  8
Level 26
 62
   133
370
     0
100
AcDbPoint
 10
1.833517
 20
-0.131714
 30
0.0
  0
POINT
  5
7BEB4
330
7C0B7
100
AcDbEntity
  8
Level 26
 62
   133
370
     0
100
AcDbPoint
 10
2.483517
 20
-0.131714
 30
0.0
  0
LINE
  5
7BEB5
330
7C0B7
100
AcDbEntity
  8
Level 26
 62
   133
370
     0
100
AcDbLine
 10
1.833517
 20
-0.131714
 30
0.0
 11
2.483517
 21
-0.131714
 31
0.0
  0
POINT
  5
7BEB6
330
7C0B7
100
AcDbEntity
  8
Level 26
 62
   133
370
     0
100
AcDbPoint
 10
1.833517
 20
-0.131714
 30
0.0
  0
POINT
  5
7BEB7
330
7C0B7
100
AcDbEntity
  8
Level 26
 62
   133
370
     0
100
AcDbPoint
 10
2.383517
 20
-0.131714
 30
0.0
  0
POINT
  5
7BEB8
330
7C0B7
100
AcDbEntity
  8
Level 26
 62
   133
370
     0
100
AcDbPoint
 10
2.383517
 20
-0.131714
 30
0.0
  0
LINE
  5
7BEB9
330
7C0B7
100
AcDbEntity
  8
Level 26
 62
   133
370
     0
100
AcDbLine
 10
2.483517
 20
-0.131714
 30
0.0
 11
2.383517
 21
-0.131714
 31
0.0
  0
LINE
  5
7BEBA
330
7C0B7
100
AcDbEntity
  8
Level 26
 62
   133
370
     0
100
AcDbLine
 10
2.483517
 20
-0.131714
 30
0.0
 11
2.383517
 21
-0.131714
 31
0.0
  0
POINT
  5
7BEBB
330
7C0B7
100
AcDbEntity
  8
Level 26
 62
   133
370
     0
100
AcDbPoint
 10
1.933517
 20
-0.131714
 30
0.0
  0
LINE
  5
7BEBC
330
7C0B7
100
AcDbEntity
  8
Level 26
 62
   133
370
     0
100
AcDbLine
 10
1.933517
 20
-0.131714
 30
0.0
 11
1.833517
 21
-0.131714
 31
0.0
  0
POINT
  5
7BEBD
330
7C0B7
100
AcDbEntity
  8
Level 26
 62
   133
370
     0
100
AcDbPoint
 10
1.933517
 20
-0.131714
 30
0.0
  0
LINE
  5
7BEBE
330
7C0B7
100
AcDbEntity
  8
Level 26
 62
   133
370
     0
100
AcDbLine
 10
1.933517
 20
-0.131714
 30
0.0
 11
1.833517
 21
-0.131714
 31
0.0
  0
LINE
  5
7BEBF
330
7C0B7
100
AcDbEntity
  8
Level 26
 62
   133
370
     0
100
AcDbLine
 10
2.158517
 20
-0.131714
 30
0.0
 11
2.158517
 21
-0.011714
 31
0.0
  0
LINE
  5
7BEC0
330
7C0B7
100
AcDbEntity
  8
Level 26
 62
   133
370
     0
100
AcDbLine
 10
2.483517
 20
-0.131714
 30
0.0
 11
2.483517
 21
-0.011714
 31
0.0
  0
LINE
  5
7BEC1
330
7C0B7
100
AcDbEntity
  8
Level 26
 62
   133
370
     0
100
AcDbLine
 10
2.158517
 20
-0.131714
 30
0.0
 11
2.158517
 21
-0.011714
 31
0.0
  0
LINE
  5
7BEC2
330
7C0B7
100
AcDbEntity
  8
Level 26
 62
   133
370
     0
100
AcDbLine
 10
1.833517
 20
-0.131714
 30
0.0
 11
1.833517
 21
-0.011714
 31
0.0
  0
ENDBLK
  5
7C0B9
330
7C0B7
100
AcDbEntity
  8
0
100
AcDbBlockEnd
  0
BLOCK
  5
7C0BB
330
7C0BA
100
AcDbEntity
  8
0
100
AcDbBlockBegin
  2
Feature Solid_18
 70
     0
 71
     0
 10
0.0
 20
0.0
 30
0.0
  3
Feature Solid_18
  1

  0
INSERT
  5
7BEC4
330
7C0BA
100
AcDbEntity
  8
Level 26
 62
   133
370
     0
100
AcDbBlockReference
  2
UNITE_6
 10
-215.851704
 20
-22.17087
 30
0.0
 41
100.0
 42
100.0
 43
100.0
  0
ENDBLK
  5
7C0BC
330
7C0BA
100
AcDbEntity
  8
0
100
AcDbBlockEnd
  0
BLOCK
  5
7C0BE
330
7C0BD
100
AcDbEntity
  8
0
100
AcDbBlockBegin
  2
UNITE_6
 70
     0
 71
     0
 10
0.0
 20
0.0
 30
0.0
  3
UNITE_6
  1

  0
INSERT
  5
7BEC5
330
7C0BD
100
AcDbEntity
  8
Level 26
 62
   133
370
     0
100
AcDbBlockReference
  2
Feature Solid_19
 10
0.0
 20
0.0
 30
0.0
  0
INSERT
  5
7BECC
330
7C0BD
100
AcDbEntity
  8
Level 26
 62
   133
370
     0
100
AcDbBlockReference
  2
Feature Solid_20
 10
0.55
 20
0.0
 30
0.0
  0
INSERT
  5
7BED3
330
7C0BD
100
AcDbEntity
  8
Level 8
 62
   133
370
     0
100
AcDbBlockReference
  2
Feature Solid_21
 10
0.0
 20
0.0
 30
0.0
  0
ENDBLK
  5
7C0BF
330
7C0BD
100
AcDbEntity
  8
0
100
AcDbBlockEnd
  0
BLOCK
  5
7C0C1
330
7C0C0
100
AcDbEntity
  8
0
100
AcDbBlockBegin
  2
Feature Solid_19
 70
     0
 71
     0
 10
0.0
 20
0.0
 30
0.0
  3
Feature Solid_19
  1

  0
INSERT
  5
7BEC6
330
7C0C0
100
AcDbEntity
  8
Level 26
 62
   133
370
     0
100
AcDbBlockReference
  2
DDPROJ_9
 10
0.0
 20
0.0
 30
0.0
  0
ENDBLK
  5
7C0C2
330
7C0C0
100
AcDbEntity
  8
0
100
AcDbBlockEnd
  0
BLOCK
  5
7C0C4
330
7C0C3
100
AcDbEntity
  8
0
100
AcDbBlockBegin
  2
DDPROJ_9
 70
     0
 71
     0
 10
0.0
 20
0.0
 30
0.0
  3
DDPROJ_9
  1

  0
POINT
  5
7BEC7
330
7C0C3
100
AcDbEntity
  8
Level 26
 62
   133
370
     0
100
AcDbPoint
 10
1.833517
 20
0.011714
 30
0.0
  0
LINE
  5
7BEC8
330
7C0C3
100
AcDbEntity
  8
Level 26
 62
   133
370
     0
100
AcDbLine
 10
1.933517
 20
0.131714
 30
0.0
 11
1.933517
 21
0.359125
 31
0.0
  0
LINE
  5
7BEC9
330
7C0C3
100
AcDbEntity
  8
Level 26
 62
   133
370
     0
100
AcDbLine
 10
1.833517
 20
0.131714
 30
0.0
 11
1.833517
 21
0.431714
 31
0.0
  0
LINE
  5
7BECA
330
7C0C3
100
AcDbEntity
  8
Level 26
 62
   133
370
     0
100
AcDbLine
 10
1.833517
 20
0.131714
 30
0.0
 11
1.833517
 21
0.431714
 31
0.0
  0
LINE
  5
7BECB
330
7C0C3
100
AcDbEntity
  8
Level 26
 62
   133
370
     0
100
AcDbLine
 10
1.933517
 20
0.131714
 30
0.0
 11
1.933517
 21
0.359125
 31
0.0
  0
ENDBLK
  5
7C0C5
330
7C0C3
100
AcDbEntity
  8
0
100
AcDbBlockEnd
  0
BLOCK
  5
7C0C7
330
7C0C6
100
AcDbEntity
  8
0
100
AcDbBlockBegin
  2
Feature Solid_20
 70
     0
 71
     0
 10
0.0
 20
0.0
 30
0.0
  3
Feature Solid_20
  1

  0
INSERT
  5
7BECD
330
7C0C6
100
AcDbEntity
  8
Level 26
 62
   133
370
     0
100
AcDbBlockReference
  2
DDPROJ_10
 10
0.0
 20
0.0
 30
0.0
  0
ENDBLK
  5
7C0C8
330
7C0C6
100
AcDbEntity
  8
0
100
AcDbBlockEnd
  0
BLOCK
  5
7C0CA
330
7C0C9
100
AcDbEntity
  8
0
100
AcDbBlockBegin
  2
DDPROJ_10
 70
     0
 71
     0
 10
0.0
 20
0.0
 30
0.0
  3
DDPROJ_10
  1

  0
POINT
  5
7BECE
330
7C0C9
100
AcDbEntity
  8
Level 26
 62
   133
370
     0
100
AcDbPoint
 10
1.933517
 20
0.011714
 30
0.0
  0
LINE
  5
7BECF
330
7C0C9
100
AcDbEntity
  8
Level 26
 62
   133
370
     0
100
AcDbLine
 10
1.933517
 20
0.131714
 30
0.0
 11
1.933517
 21
0.431714
 31
0.0
  0
LINE
  5
7BED0
330
7C0C9
100
AcDbEntity
  8
Level 26
 62
   133
370
     0
100
AcDbLine
 10
1.833517
 20
0.131714
 30
0.0
 11
1.833517
 21
0.359125
 31
0.0
  0
LINE
  5
7BED1
330
7C0C9
100
AcDbEntity
  8
Level 26
 62
   133
370
     0
100
AcDbLine
 10
1.833517
 20
0.131714
 30
0.0
 11
1.833517
 21
0.359125
 31
0.0
  0
LINE
  5
7BED2
330
7C0C9
100
AcDbEntity
  8
Level 26
 62
   133
370
     0
100
AcDbLine
 10
1.933517
 20
0.131714
 30
0.0
 11
1.933517
 21
0.431714
 31
0.0
  0
ENDBLK
  5
7C0CB
330
7C0C9
100
AcDbEntity
  8
0
100
AcDbBlockEnd
  0
BLOCK
  5
7C0CD
330
7C0CC
100
AcDbEntity
  8
0
100
AcDbBlockBegin
  2
Feature Solid_21
 70
     0
 71
     0
 10
0.0
 20
0.0
 30
0.0
  3
Feature Solid_21
  1

  0
INSERT
  5
7BED4
330
7C0CC
100
AcDbEntity
  8
Level 8
 62
   133
370
     0
100
AcDbBlockReference
  2
UNITE_7
 10
0.0
 20
0.0
 30
0.0
  0
ENDBLK
  5
7C0CE
330
7C0CC
100
AcDbEntity
  8
0
100
AcDbBlockEnd
  0
BLOCK
  5
7C0D0
330
7C0CF
100
AcDbEntity
  8
0
100
AcDbBlockBegin
  2
UNITE_7
 70
     0
 71
     0
 10
0.0
 20
0.0
 30
0.0
  3
UNITE_7
  1

  0
INSERT
  5
7BED5
330
7C0CF
100
AcDbEntity
  8
Level 8
 62
   133
370
     0
100
AcDbBlockReference
  2
Feature Solid_22
 10
0.0
 20
0.0
 30
0.0
  0
INSERT
  5
7BEEB
330
7C0CF
100
AcDbEntity
  8
Level 26
 62
   133
370
     0
100
AcDbBlockReference
  2
Feature Solid_23
 10
0.0
 20
0.0
 30
0.0
  0
ENDBLK
  5
7C0D1
330
7C0CF
100
AcDbEntity
  8
0
100
AcDbBlockEnd
  0
BLOCK
  5
7C0D3
330
7C0D2
100
AcDbEntity
  8
0
100
AcDbBlockBegin
  2
Feature Solid_22
 70
     0
 71
     0
 10
0.0
 20
0.0
 30
0.0
  3
Feature Solid_22
  1

  0
INSERT
  5
7BED6
330
7C0D2
100
AcDbEntity
  8
Level 8
 62
   133
370
     0
100
AcDbBlockReference
  2
CONE_3
 10
0.0
 20
0.0
 30
0.0
  0
ENDBLK
  5
7C0D4
330
7C0D2
100
AcDbEntity
  8
0
100
AcDbBlockEnd
  0
BLOCK
  5
7C0D6
330
7C0D5
100
AcDbEntity
  8
0
100
AcDbBlockBegin
  2
CONE_3
 70
     0
 71
     0
 10
0.0
 20
0.0
 30
0.0
  3
CONE_3
  1

  0
LINE
  5
7BED7
330
7C0D5
100
AcDbEntity
  8
Level 8
 62
   133
370
     0
100
AcDbLine
 10
1.833517
 20
0.431714
 30
0.0
 11
2.483517
 21
0.431714
 31
0.0
  0
LINE
  5
7BED8
330
7C0D5
100
AcDbEntity
  8
Level 8
 62
   133
370
     0
100
AcDbLine
 10
2.383517
 20
0.131714
 30
0.0
 11
2.383517
 21
0.359125
 31
0.0
  0
LINE
  5
7BED9
330
7C0D5
100
AcDbEntity
  8
Level 8
 62
   133
370
     0
100
AcDbLine
 10
2.383517
 20
0.131714
 30
0.0
 11
2.383517
 21
0.359125
 31
0.0
  0
SPLINE
  5
7BEDA
330
7C0D5
100
AcDbEntity
  8
Level 8
 62
   133
370
     0
100
AcDbSpline
210
0.0
220
0.0
230
1.0
 70
     8
 71
     3
 72
    17
 73
    13
 74
     0
 42
0.0000000001
 43
0.00000001
 40
0.0
 40
0.0
 40
0.0
 40
0.0
 40
0.1188920175173181
 40
0.1188920175173181
 40
0.1188920175173181
 40
0.4370642450454728
 40
0.4370642450454728
 40
0.4370642450454728
 40
0.7708126268407274
 40
0.7708126268407274
 40
0.7708126268407274
 40
1.0
 40
1.0
 40
1.0
 40
1.0
 10
2.483517035676389
 20
0.4317136962460401
 30
0.0
 10
2.483517035676389
 20
0.4317136962460354
 30
0.0
 10
2.482970961108954
 20
0.4312857853703713
 30
0.0
 10
2.481890266834164
 20
0.4304413967249403
 30
0.0
 10
2.479007999541981
 20
0.4281893687172281
 30
0.0
 10
2.472181370284073
 20
0.4228496497948282
 30
0.0
 10
2.462245290317629
 20
0.4152805637156777
 30
0.0
 10
2.451806866801174
 20
0.4073288034245511
 30
0.0
 10
2.437764099143891
 20
0.3967863239604561
 30
0.0
 10
2.421270187946128
 20
0.3850241073261062
 30
0.0
 10
2.409877803190351
 20
0.3768999155639066
 30
0.0
 10
2.397205829360036
 20
0.3681165556180152
 30
0.0
 10
2.383517035681361
 20
0.3591253483963479
 30
0.0
  0
SPLINE
  5
7BEDD
330
7C0D5
100
AcDbEntity
  8
Level 8
 62
   133
370
     0
100
AcDbSpline
210
0.0
220
0.0
230
1.0
 70
     8
 71
     3
 72
    14
 73
    10
 74
     0
 42
0.0000000001
 43
0.00000001
 40
0.0
 40
0.0
 40
0.0
 40
0.0
 40
0.4155111778321488
 40
0.4155111778321488
 40
0.4155111778321488
 40
0.7657511632294429
 40
0.7657511632294429
 40
0.7657511632294429
 40
1.0
 40
1.0
 40
1.0
 40
1.0
 10
2.38351703567637
 20
0.3591253483958543
 30
0.0
 10
2.408183961970714
 20
0.3753273199526827
 30
0.0
 10
2.42972384287685
 20
0.3909352251375095
 30
0.0
 10
2.446330563598313
 20
0.4032945372283598
 30
0.0
 10
2.460337575068305
 20
0.4137190532494011
 30
0.0
 10
2.471094914404414
 20
0.422043984659398
 30
0.0
 10
2.477256738635806
 20
0.4268312321213167
 30
0.0
 10
2.481375118370782
 20
0.4300308856967977
 30
0.0
 10
2.483517035676389
 20
0.4317136962460401
 30
0.0
 10
2.483517035676389
 20
0.4317136962460401
 30
0.0
  0
LINE
  5
7BEE0
330
7C0D5
100
AcDbEntity
  8
Level 8
 62
   133
370
     0
100
AcDbLine
 10
1.833517
 20
0.431714
 30
0.0
 11
2.483517
 21
0.431714
 31
0.0
  0
SPLINE
  5
7BEE1
330
7C0D5
100
AcDbEntity
  8
Level 8
 62
   133
370
     0
100
AcDbSpline
210
0.0
220
0.0
230
1.0
 70
     8
 71
     3
 72
    17
 73
    13
 74
     0
 42
0.0000000001
 43
0.00000001
 40
0.0
 40
0.0
 40
0.0
 40
0.0
 40
0.1188920175167992
 40
0.1188920175167992
 40
0.1188920175167992
 40
0.4370642450447248
 40
0.4370642450447248
 40
0.4370642450447248
 40
0.7708126268396294
 40
0.7708126268396294
 40
0.7708126268396294
 40
1.0
 40
1.0
 40
1.0
 40
1.0
 10
1.833517035676241
 20
0.4317136962460354
 30
0.0
 10
1.833517035676241
 20
0.4317136962460354
 30
0.0
 10
1.834063110243676
 20
0.4312857853703807
 30
0.0
 10
1.83514380451847
 20
0.4304413967249543
 30
0.0
 10
1.838026071810628
 20
0.4281893687172607
 30
0.0
 10
1.844852701068522
 20
0.4228496497948747
 30
0.0
 10
1.854788781034966
 20
0.4152805637157383
 30
0.0
 10
1.865227204551417
 20
0.4073288034246257
 30
0.0
 10
1.8792699722087
 20
0.3967863239605446
 30
0.0
 10
1.895763883406445
 20
0.3850241073262133
 30
0.0
 10
1.907156268162279
 20
0.3768999155639764
 30
0.0
 10
1.919828241992668
 20
0.3681165556180384
 30
0.0
 10
1.933517035671436
 20
0.3591253483963246
 30
0.0
  0
LINE
  5
7BEE4
330
7C0D5
100
AcDbEntity
  8
Level 8
 62
   133
370
     0
100
AcDbLine
 10
1.933517
 20
0.131714
 30
0.0
 11
1.933517
 21
0.359125
 31
0.0
  0
LINE
  5
7BEE5
330
7C0D5
100
AcDbEntity
  8
Level 8
 62
   133
370
     0
100
AcDbLine
 10
1.933517
 20
0.131714
 30
0.0
 11
1.933517
 21
0.359125
 31
0.0
  0
SPLINE
  5
7BEE6
330
7C0D5
100
AcDbEntity
  8
Level 8
 62
   133
370
     0
100
AcDbSpline
210
0.0
220
0.0
230
1.0
 70
     8
 71
     3
 72
    14
 73
    10
 74
     0
 42
0.0000000001
 43
0.00000001
 40
0.0
 40
0.0
 40
0.0
 40
0.0
 40
0.4155111778320348
 40
0.4155111778320348
 40
0.4155111778320348
 40
0.7657511632291136
 40
0.7657511632291136
 40
0.7657511632291136
 40
1.0
 40
1.0
 40
1.0
 40
1.0
 10
1.93351703567641
 20
0.3591253483956587
 30
0.0
 10
1.908850109382065
 20
0.375327319952515
 30
0.0
 10
1.887310228475872
 20
0.3909352251373697
 30
0.0
 10
1.870703507754392
 20
0.4032945372282481
 30
0.0
 10
1.856696496284378
 20
0.4137190532493079
 30
0.0
 10
1.845939156948273
 20
0.4220439846593281
 30
0.0
 10
1.839777332716864
 20
0.4268312321212702
 30
0.0
 10
1.835658952981866
 20
0.4300308856967744
 30
0.0
 10
1.833517035676241
 20
0.4317136962460307
 30
0.0
 10
1.833517035676241
 20
0.4317136962460354
 30
0.0
  0
LINE
  5
7BEE9
330
7C0D5
100
AcDbEntity
  8
Level 8
 62
   133
370
     0
100
AcDbLine
 10
2.158517
 20
0.131714
 30
0.0
 11
2.158517
 21
0.431714
 31
0.0
  0
LINE
  5
7BEEA
330
7C0D5
100
AcDbEntity
  8
Level 8
 62
   133
370
     0
100
AcDbLine
 10
2.158517
 20
0.131714
 30
0.0
 11
2.158517
 21
0.431714
 31
0.0
  0
ENDBLK
  5
7C0D7
330
7C0D5
100
AcDbEntity
  8
0
100
AcDbBlockEnd
  0
BLOCK
  5
7C0D9
330
7C0D8
100
AcDbEntity
  8
0
100
AcDbBlockBegin
  2
Feature Solid_23
 70
     0
 71
     0
 10
0.0
 20
0.0
 30
0.0
  3
Feature Solid_23
  1

  0
INSERT
  5
7BEEC
330
7C0D8
100
AcDbEntity
  8
Level 26
 62
   133
370
     0
100
AcDbBlockReference
  2
DDPROJ_11
 10
0.0
 20
0.0
 30
0.0
  0
ENDBLK
  5
7C0DA
330
7C0D8
100
AcDbEntity
  8
0
100
AcDbBlockEnd
  0
BLOCK
  5
7C0DC
330
7C0DB
100
AcDbEntity
  8
0
100
AcDbBlockBegin
  2
DDPROJ_11
 70
     0
 71
     0
 10
0.0
 20
0.0
 30
0.0
  3
DDPROJ_11
  1

  0
LINE
  5
7BEED
330
7C0DB
100
AcDbEntity
  8
Level 26
 62
   133
370
     0
100
AcDbLine
 10
1.833517
 20
0.011714
 30
0.0
 11
1.833517
 21
0.131714
 31
0.0
  0
LINE
  5
7BEEE
330
7C0DB
100
AcDbEntity
  8
Level 26
 62
   133
370
     0
100
AcDbLine
 10
1.833517
 20
0.131714
 30
0.0
 11
1.833517
 21
0.011714
 31
0.0
  0
LINE
  5
7BEEF
330
7C0DB
100
AcDbEntity
  8
Level 26
 62
   133
370
     0
100
AcDbLine
 10
2.483517
 20
0.011714
 30
0.0
 11
2.483517
 21
0.131714
 31
0.0
  0
LINE
  5
7BEF0
330
7C0DB
100
AcDbEntity
  8
Level 26
 62
   133
370
     0
100
AcDbLine
 10
2.483517
 20
0.131714
 30
0.0
 11
2.483517
 21
0.011714
 31
0.0
  0
LINE
  5
7BEF1
330
7C0DB
100
AcDbEntity
  8
Level 26
 62
   133
370
     0
100
AcDbLine
 10
1.933517
 20
0.131714
 30
0.0
 11
2.383517
 21
0.131714
 31
0.0
  0
LINE
  5
7BEF2
330
7C0DB
100
AcDbEntity
  8
Level 26
 62
   133
370
     0
100
AcDbLine
 10
1.933517
 20
0.131714
 30
0.0
 11
2.383517
 21
0.131714
 31
0.0
  0
LINE
  5
7BEF3
330
7C0DB
100
AcDbEntity
  8
Level 26
 62
   133
370
     0
100
AcDbLine
 10
1.833517
 20
0.011714
 30
0.0
 11
2.483517
 21
0.011714
 31
0.0
  0
POINT
  5
7BEF4
330
7C0DB
100
AcDbEntity
  8
Level 26
 62
   133
370
     0
100
AcDbPoint
 10
2.483517
 20
0.131714
 30
0.0
  0
LINE
  5
7BEF5
330
7C0DB
100
AcDbEntity
  8
Level 26
 62
   133
370
     0
100
AcDbLine
 10
1.833517
 20
0.011714
 30
0.0
 11
2.483517
 21
0.011714
 31
0.0
  0
LINE
  5
7BEF6
330
7C0DB
100
AcDbEntity
  8
Level 26
 62
   133
370
     0
100
AcDbLine
 10
1.833517
 20
0.131714
 30
0.0
 11
2.483517
 21
0.131714
 31
0.0
  0
POINT
  5
7BEF7
330
7C0DB
100
AcDbEntity
  8
Level 26
 62
   133
370
     0
100
AcDbPoint
 10
1.833517
 20
0.131714
 30
0.0
  0
POINT
  5
7BEF8
330
7C0DB
100
AcDbEntity
  8
Level 26
 62
   133
370
     0
100
AcDbPoint
 10
2.483517
 20
0.131714
 30
0.0
  0
LINE
  5
7BEF9
330
7C0DB
100
AcDbEntity
  8
Level 26
 62
   133
370
     0
100
AcDbLine
 10
1.833517
 20
0.131714
 30
0.0
 11
2.483517
 21
0.131714
 31
0.0
  0
POINT
  5
7BEFA
330
7C0DB
100
AcDbEntity
  8
Level 26
 62
   133
370
     0
100
AcDbPoint
 10
1.833517
 20
0.131714
 30
0.0
  0
POINT
  5
7BEFB
330
7C0DB
100
AcDbEntity
  8
Level 26
 62
   133
370
     0
100
AcDbPoint
 10
2.383517
 20
0.131714
 30
0.0
  0
POINT
  5
7BEFC
330
7C0DB
100
AcDbEntity
  8
Level 26
 62
   133
370
     0
100
AcDbPoint
 10
2.383517
 20
0.131714
 30
0.0
  0
LINE
  5
7BEFD
330
7C0DB
100
AcDbEntity
  8
Level 26
 62
   133
370
     0
100
AcDbLine
 10
2.483517
 20
0.131714
 30
0.0
 11
2.383517
 21
0.131714
 31
0.0
  0
LINE
  5
7BEFE
330
7C0DB
100
AcDbEntity
  8
Level 26
 62
   133
370
     0
100
AcDbLine
 10
2.483517
 20
0.131714
 30
0.0
 11
2.383517
 21
0.131714
 31
0.0
  0
POINT
  5
7BEFF
330
7C0DB
100
AcDbEntity
  8
Level 26
 62
   133
370
     0
100
AcDbPoint
 10
1.933517
 20
0.131714
 30
0.0
  0
LINE
  5
7BF00
330
7C0DB
100
AcDbEntity
  8
Level 26
 62
   133
370
     0
100
AcDbLine
 10
1.933517
 20
0.131714
 30
0.0
 11
1.833517
 21
0.131714
 31
0.0
  0
POINT
  5
7BF01
330
7C0DB
100
AcDbEntity
  8
Level 26
 62
   133
370
     0
100
AcDbPoint
 10
1.933517
 20
0.131714
 30
0.0
  0
LINE
  5
7BF02
330
7C0DB
100
AcDbEntity
  8
Level 26
 62
   133
370
     0
100
AcDbLine
 10
1.933517
 20
0.131714
 30
0.0
 11
1.833517
 21
0.131714
 31
0.0
  0
LINE
  5
7BF03
330
7C0DB
100
AcDbEntity
  8
Level 26
 62
   133
370
     0
100
AcDbLine
 10
2.158517
 20
0.131714
 30
0.0
 11
2.158517
 21
0.011714
 31
0.0
  0
LINE
  5
7BF04
330
7C0DB
100
AcDbEntity
  8
Level 26
 62
   133
370
     0
100
AcDbLine
 10
2.483517
 20
0.131714
 30
0.0
 11
2.483517
 21
0.011714
 31
0.0
  0
LINE
  5
7BF05
330
7C0DB
100
AcDbEntity
  8
Level 26
 62
   133
370
     0
100
AcDbLine
 10
2.158517
 20
0.131714
 30
0.0
 11
2.158517
 21
0.011714
 31
0.0
  0
LINE
  5
7BF06
330
7C0DB
100
AcDbEntity
  8
Level 26
 62
   133
370
     0
100
AcDbLine
 10
1.833517
 20
0.131714
 30
0.0
 11
1.833517
 21
0.011714
 31
0.0
  0
ENDBLK
  5
7C0DD
330
7C0DB
100
AcDbEntity
  8
0
100
AcDbBlockEnd
  0
BLOCK
  5
7C0DF
330
7C0DE
100
AcDbEntity
  8
0
100
AcDbBlockBegin
  2
From Solid
 70
     0
 71
     0
 10
0.0
 20
0.0
 30
0.0
  3
From Solid
  1

  0
ELLIPSE
  5
7BF0C
330
7C0DE
100
AcDbEntity
  8
Level 26
  6
Continuous
 62
   254
370
    13
100
AcDbEllipse
 10
4022.970371
 20
485.626249
 30
0.0
 11
-5.000000000000003
 21
0.0
 31
0.0
210
0.0
220
0.0
230
1.0
 40
0.866025
 41
0.0
 42
6.283185307179586
  0
ELLIPSE
  5
7BF0D
330
7C0DE
100
AcDbEntity
  8
Level 26
  6
Continuous
 62
   254
370
    13
100
AcDbEllipse
 10
4022.970371
 20
414.286503
 30
0.0
 11
-5.000000000000004
 21
0.0
 31
0.0
210
0.0
220
0.0
230
1.0
 40
0.866025
 41
0.0
 42
6.283185307179586
  0
LINE
  5
7BF0E
330
7C0DE
100
AcDbEntity
  8
Level 26
  6
Continuous
 62
   254
370
    13
100
AcDbLine
 10
4017.970371
 20
485.626249
 30
0.0
 11
4017.970371
 21
414.286503
 31
0.0
  0
LINE
  5
7BF0F
330
7C0DE
100
AcDbEntity
  8
Level 26
  6
Continuous
 62
   254
370
    13
100
AcDbLine
 10
4022.970371
 20
489.956376
 30
0.0
 11
4022.970371
 21
418.61663
 31
0.0
  0
LINE
  5
7BF10
330
7C0DE
100
AcDbEntity
  8
Level 26
  6
Continuous
 62
   254
370
    13
100
AcDbLine
 10
4027.970371
 20
485.626249
 30
0.0
 11
4027.970371
 21
414.286503
 31
0.0
  0
LINE
  5
7BF11
330
7C0DE
100
AcDbEntity
  8
Level 26
  6
Continuous
 62
   254
370
    13
100
AcDbLine
 10
4022.970371
 20
481.296121
 30
0.0
 11
4022.970371
 21
409.956375
 31
0.0
  0
ENDBLK
  5
7C0E0
330
7C0DE
100
AcDbEntity
  8
0
100
AcDbBlockEnd
  0
BLOCK
  5
7C0E2
330
7C0E1
100
AcDbEntity
  8
0
100
AcDbBlockBegin
  2
From Solid_1
 70
     0
 71
     0
 10
0.0
 20
0.0
 30
0.0
  3
From Solid_1
  1

  0
LINE
  5
7BF13
330
7C0E1
100
AcDbEntity
  8
Level 26
  6
Continuous
 62
   254
370
    13
100
AcDbLine
 10
4027.970371
 20
351.607011
 30
0.0
 11
4017.970371
 21
351.607011
 31
0.0
  0
LINE
  5
7BF14
330
7C0E1
100
AcDbEntity
  8
Level 26
  6
Continuous
 62
   254
370
    13
100
AcDbLine
 10
4027.970371
 20
476.965995
 30
0.0
 11
4017.970371
 21
476.965995
 31
0.0
  0
LINE
  5
7BF15
330
7C0E1
100
AcDbEntity
  8
Level 26
  6
Continuous
 62
   254
370
    13
100
AcDbLine
 10
4027.970371
 20
351.607011
 30
0.0
 11
4027.970371
 21
476.965994
 31
0.0
  0
LINE
  5
7BF16
330
7C0E1
100
AcDbEntity
  8
Level 26
  6
Continuous
 62
   254
370
    13
100
AcDbLine
 10
4022.970371
 20
351.607011
 30
0.0
 11
4022.970371
 21
476.965994
 31
0.0
  0
LINE
  5
7BF17
330
7C0E1
100
AcDbEntity
  8
Level 26
  6
Continuous
 62
   254
370
    13
100
AcDbLine
 10
4017.970371
 20
351.607011
 30
0.0
 11
4017.970371
 21
476.965994
 31
0.0
  0
LINE
  5
7BF18
330
7C0E1
100
AcDbEntity
  8
Level 26
  6
Continuous
 62
   254
370
    13
100
AcDbLine
 10
4022.970371
 20
351.607011
 30
0.0
 11
4022.970371
 21
476.965994
 31
0.0
  0
ENDBLK
  5
7C0E3
330
7C0E1
100
AcDbEntity
  8
0
100
AcDbBlockEnd
  0
BLOCK
  5
7C0E5
330
7C0E4
100
AcDbEntity
  8
0
100
AcDbBlockBegin
  2
From Solid_2
 70
     0
 71
     0
 10
0.0
 20
0.0
 30
0.0
  3
From Solid_2
  1

  0
ELLIPSE
  5
7BF1A
330
7C0E4
100
AcDbEntity
  8
Level 26
  6
Continuous
 62
   254
370
    13
100
AcDbEllipse
 10
4022.970371
 20
342.946757
 30
0.0
 11
-5.000000000000003
 21
0.0
 31
0.0
210
0.0
220
0.0
230
1.0
 40
0.866025
 41
0.0
 42
6.283185307179586
  0
ELLIPSE
  5
7BF1B
330
7C0E4
100
AcDbEntity
  8
Level 26
  6
Continuous
 62
   254
370
    13
100
AcDbEllipse
 10
4022.970371
 20
414.286503
 30
0.0
 11
-5.000000000000004
 21
0.0
 31
0.0
210
0.0
220
0.0
230
1.0
 40
0.866025
 41
0.0
 42
6.283185307179586
  0
LINE
  5
7BF1C
330
7C0E4
100
AcDbEntity
  8
Level 26
  6
Continuous
 62
   254
370
    13
100
AcDbLine
 10
4017.970371
 20
342.946757
 30
0.0
 11
4017.970371
 21
414.286503
 31
0.0
  0
LINE
  5
7BF1D
330
7C0E4
100
AcDbEntity
  8
Level 26
  6
Continuous
 62
   254
370
    13
100
AcDbLine
 10
4022.970371
 20
347.276884
 30
0.0
 11
4022.970371
 21
418.61663
 31
0.0
  0
LINE
  5
7BF1E
330
7C0E4
100
AcDbEntity
  8
Level 26
  6
Continuous
 62
   254
370
    13
100
AcDbLine
 10
4027.970371
 20
342.946757
 30
0.0
 11
4027.970371
 21
414.286503
 31
0.0
  0
LINE
  5
7BF1F
330
7C0E4
100
AcDbEntity
  8
Level 26
  6
Continuous
 62
   254
370
    13
100
AcDbLine
 10
4022.970371
 20
338.616629
 30
0.0
 11
4022.970371
 21
409.956375
 31
0.0
  0
ENDBLK
  5
7C0E6
330
7C0E4
100
AcDbEntity
  8
0
100
AcDbBlockEnd
  0
BLOCK
  5
7C0E8
330
7C0E7
100
AcDbEntity
  8
0
100
AcDbBlockBegin
  2
From Solid_3
 70
     0
 71
     0
 10
0.0
 20
0.0
 30
0.0
  3
From Solid_3
  1

  0
ELLIPSE
  5
7BF21
330
7C0E7
100
AcDbEntity
  8
Level 26
  6
Continuous
 62
   254
370
    13
100
AcDbEllipse
 10
4022.970371
 20
485.626249
 30
0.0
 11
-5.000000000000003
 21
0.0
 31
0.0
210
0.0
220
0.0
230
1.0
 40
0.866025
 41
0.0
 42
6.283185307179586
  0
LINE
  5
7BF22
330
7C0E7
100
AcDbEntity
  8
Level 26
  6
Continuous
 62
   254
370
    13
100
AcDbLine
 10
4017.970371
 20
476.965995
 30
0.0
 11
4027.970371
 21
476.965995
 31
0.0
  0
LINE
  5
7BF23
330
7C0E7
100
AcDbEntity
  8
Level 26
  6
Continuous
 62
   254
370
    13
100
AcDbLine
 10
4017.970371
 20
476.965995
 30
0.0
 11
4017.970371
 21
486.965994
 31
0.0
  0
LINE
  5
7BF24
330
7C0E7
100
AcDbEntity
  8
Level 26
  6
Continuous
 62
   254
370
    13
100
AcDbLine
 10
4022.970371
 20
476.965995
 30
0.0
 11
4022.970371
 21
491.965994
 31
0.0
  0
LINE
  5
7BF25
330
7C0E7
100
AcDbEntity
  8
Level 26
  6
Continuous
 62
   254
370
    13
100
AcDbLine
 10
4027.970371
 20
476.965995
 30
0.0
 11
4027.970371
 21
486.965994
 31
0.0
  0
LINE
  5
7BF26
330
7C0E7
100
AcDbEntity
  8
Level 26
  6
Continuous
 62
   254
370
    13
100
AcDbLine
 10
4022.970371
 20
476.965995
 30
0.0
 11
4022.970371
 21
481.965994
 31
0.0
  0
ENDBLK
  5
7C0E9
330
7C0E7
100
AcDbEntity
  8
0
100
AcDbBlockEnd
  0
BLOCK
  5
7C0EB
330
7C0EA
100
AcDbEntity
  8
0
100
AcDbBlockBegin
  2
From Solid_4
 70
     0
 71
     0
 10
0.0
 20
0.0
 30
0.0
  3
From Solid_4
  1

  0
ELLIPSE
  5
7BF28
330
7C0EA
100
AcDbEntity
  8
Level 26
  6
Continuous
 62
   254
370
    13
100
AcDbEllipse
 10
4022.970371
 20
342.946757
 30
0.0
 11
5.000000000000003
 21
0.0
 31
0.0
210
0.0
220
0.0
230
1.0
 40
0.866025
 41
0.0
 42
6.283185307179586
  0
LINE
  5
7BF29
330
7C0EA
100
AcDbEntity
  8
Level 26
  6
Continuous
 62
   254
370
    13
100
AcDbLine
 10
4027.970371
 20
351.607011
 30
0.0
 11
4017.970371
 21
351.607011
 31
0.0
  0
LINE
  5
7BF2A
330
7C0EA
100
AcDbEntity
  8
Level 26
  6
Continuous
 62
   254
370
    13
100
AcDbLine
 10
4027.970371
 20
351.607011
 30
0.0
 11
4027.970371
 21
341.607011
 31
0.0
  0
LINE
  5
7BF2B
330
7C0EA
100
AcDbEntity
  8
Level 26
  6
Continuous
 62
   254
370
    13
100
AcDbLine
 10
4022.970371
 20
351.607011
 30
0.0
 11
4022.970371
 21
336.607011
 31
0.0
  0
LINE
  5
7BF2C
330
7C0EA
100
AcDbEntity
  8
Level 26
  6
Continuous
 62
   254
370
    13
100
AcDbLine
 10
4017.970371
 20
351.607011
 30
0.0
 11
4017.970371
 21
341.607011
 31
0.0
  0
LINE
  5
7BF2D
330
7C0EA
100
AcDbEntity
  8
Level 26
  6
Continuous
 62
   254
370
    13
100
AcDbLine
 10
4022.970371
 20
351.607011
 30
0.0
 11
4022.970371
 21
346.607011
 31
0.0
  0
ENDBLK
  5
7C0EC
330
7C0EA
100
AcDbEntity
  8
0
100
AcDbBlockEnd
  0
BLOCK
  5
7C0EE
330
7C0ED
100
AcDbEntity
  8
0
100
AcDbBlockBegin
  2
From Solid_5
 70
     0
 71
     0
 10
0.0
 20
0.0
 30
0.0
  3
From Solid_5
  1

  0
CIRCLE
  5
7BF45
330
7C0ED
100
AcDbEntity
  8
Level 26
  6
Continuous
 62
   254
370
    13
100
AcDbCircle
 10
4022.970371
 20
414.286503
 30
0.0
 40
5.000000000000002
  0
CIRCLE
  5
7BF46
330
7C0ED
100
AcDbEntity
  8
Level 26
  6
Continuous
 62
   254
370
    13
100
AcDbCircle
 10
4022.970371
 20
414.286503
 30
0.0
 40
5.000000000000003
  0
POINT
  5
7BF47
330
7C0ED
100
AcDbEntity
  8
Level 26
  6
Continuous
 62
   254
370
    13
100
AcDbPoint
 10
4017.970371
 20
414.286503
 30
0.0
  0
POINT
  5
7BF48
330
7C0ED
100
AcDbEntity
  8
Level 26
  6
Continuous
 62
   254
370
    13
100
AcDbPoint
 10
4022.970371
 20
419.286503
 30
0.0
  0
POINT
  5
7BF49
330
7C0ED
100
AcDbEntity
  8
Level 26
  6
Continuous
 62
   254
370
    13
100
AcDbPoint
 10
4027.970371
 20
414.286503
 30
0.0
  0
POINT
  5
7BF4A
330
7C0ED
100
AcDbEntity
  8
Level 26
  6
Continuous
 62
   254
370
    13
100
AcDbPoint
 10
4022.970371
 20
409.286503
 30
0.0
  0
ENDBLK
  5
7C0EF
330
7C0ED
100
AcDbEntity
  8
0
100
AcDbBlockEnd
  0
BLOCK
  5
7C0F1
330
7C0F0
100
AcDbEntity
  8
0
100
AcDbBlockBegin
  2
From Solid_6
 70
     0
 71
     0
 10
0.0
 20
0.0
 30
0.0
  3
From Solid_6
  1

  0
LINE
  5
7BF4C
330
7C0F0
100
AcDbEntity
  8
Level 26
  6
Continuous
 62
   253
370
    13
100
AcDbLine
 10
2160.470371
 20
444.436503
 30
0.0
 11
2160.470371
 21
384.136503
 31
0.0
  0
LINE
  5
7BF4D
330
7C0F0
100
AcDbEntity
  8
Level 26
  6
Continuous
 62
   253
370
    13
100
AcDbLine
 10
5940.470371
 20
444.436503
 30
0.0
 11
5940.470371
 21
384.136503
 31
0.0
  0
LINE
  5
7BF4E
330
7C0F0
100
AcDbEntity
  8
Level 26
  6
Continuous
 62
   253
370
    13
100
AcDbLine
 10
2160.470371
 20
414.286503
 30
0.0
 11
5940.470371
 21
414.286503
 31
0.0
  0
LINE
  5
7BF4F
330
7C0F0
100
AcDbEntity
  8
Level 26
  6
Continuous
 62
   253
370
    13
100
AcDbLine
 10
2160.470371
 20
444.436503
 30
0.0
 11
5940.470371
 21
444.436503
 31
0.0
  0
LINE
  5
7BF50
330
7C0F0
100
AcDbEntity
  8
Level 26
  6
Continuous
 62
   253
370
    13
100
AcDbLine
 10
2160.470371
 20
414.286503
 30
0.0
 11
5940.470371
 21
414.286503
 31
0.0
  0
LINE
  5
7BF51
330
7C0F0
100
AcDbEntity
  8
Level 26
  6
Continuous
 62
   253
370
    13
100
AcDbLine
 10
2160.470371
 20
384.136503
 30
0.0
 11
5940.470371
 21
384.136503
 31
0.0
  0
ENDBLK
  5
7C0F2
330
7C0F0
100
AcDbEntity
  8
0
100
AcDbBlockEnd
  0
BLOCK
  5
7C0F4
330
7C0F3
100
AcDbEntity
  8
0
100
AcDbBlockBegin
  2
From Surface
 70
     0
 71
     0
 10
0.0
 20
0.0
 30
0.0
  3
From Surface
  1

  0
LINE
  5
7BF6C
330
7C0F3
100
AcDbEntity
  8
Level 26
  6
Continuous
 62
   254
370
    13
100
AcDbLine
 10
5977.970371
 20
-50.713497
 30
0.0
 11
5977.970371
 21
-55.713497
 31
0.0
  0
LINE
  5
7BF6D
330
7C0F3
100
AcDbEntity
  8
Level 26
  6
Continuous
 62
   254
370
    13
100
AcDbLine
 10
6725.729093
 20
384.125018
 30
0.0
 11
6725.729093
 21
379.125018
 31
0.0
  0
LINE
  5
7BF6E
330
7C0F3
100
AcDbEntity
  8
Level 26
  6
Continuous
 62
   254
370
    13
100
AcDbLine
 10
5977.970371
 20
-55.713497
 30
0.0
 11
6725.729093
 21
379.125018
 31
0.0
  0
LINE
  5
7BF6F
330
7C0F3
100
AcDbEntity
  8
Level 26
  6
Continuous
 62
   254
370
    13
100
AcDbLine
 10
5977.970371
 20
-50.713497
 30
0.0
 11
6725.729093
 21
384.125018
 31
0.0
  0
ENDBLK
  5
7C0F5
330
7C0F3
100
AcDbEntity
  8
0
100
AcDbBlockEnd
  0
BLOCK
  5
7C0F7
330
7C0F6
100
AcDbEntity
  8
0
100
AcDbBlockBegin
  2
From Surface_1
 70
     0
 71
     0
 10
0.0
 20
0.0
 30
0.0
  3
From Surface_1
  1

  0
LINE
  5
7BF71
330
7C0F6
100
AcDbEntity
  8
Level 26
  6
Continuous
 62
   254
370
    13
100
AcDbLine
 10
5947.970371
 20
-20.713497
 30
0.0
 11
5942.970371
 21
-20.713497
 31
0.0
  0
LINE
  5
7BF72
330
7C0F6
100
AcDbEntity
  8
Level 26
  6
Continuous
 62
   254
370
    13
100
AcDbLine
 10
5947.970371
 20
849.286503
 30
0.0
 11
5942.970371
 21
849.286503
 31
0.0
  0
LINE
  5
7BF73
330
7C0F6
100
AcDbEntity
  8
Level 26
  6
Continuous
 62
   254
370
    13
100
AcDbLine
 10
5942.970371
 20
-20.713497
 30
0.0
 11
5942.970371
 21
849.286503
 31
0.0
  0
LINE
  5
7BF74
330
7C0F6
100
AcDbEntity
  8
Level 26
  6
Continuous
 62
   254
370
    13
100
AcDbLine
 10
5947.970371
 20
-20.713497
 30
0.0
 11
5947.970371
 21
849.286503
 31
0.0
  0
ENDBLK
  5
7C0F8
330
7C0F6
100
AcDbEntity
  8
0
100
AcDbBlockEnd
  0
BLOCK
  5
7C0FA
330
7C0F9
100
AcDbEntity
  8
0
100
AcDbBlockBegin
  2
From Surface_2
 70
     0
 71
     0
 10
0.0
 20
0.0
 30
0.0
  3
From Surface_2
  1

  0
LINE
  5
7BF76
330
7C0F9
100
AcDbEntity
  8
Level 26
  6
Continuous
 62
   254
370
    13
100
AcDbLine
 10
5977.970371
 20
878.000521
 30
0.0
 11
5977.970371
 21
883.857842
 31
0.0
  0
LINE
  5
7BF77
330
7C0F9
100
AcDbEntity
  8
Level 26
  6
Continuous
 62
   254
370
    13
100
AcDbLine
 10
6716.362197
 20
427.44411
 30
0.0
 11
6716.362197
 21
433.301431
 31
0.0
  0
LINE
  5
7BF78
330
7C0F9
100
AcDbEntity
  8
Level 26
  6
Continuous
 62
   254
370
    13
100
AcDbLine
 10
5977.970371
 20
883.857842
 30
0.0
 11
6716.362197
 21
433.301431
 31
0.0
  0
LINE
  5
7BF79
330
7C0F9
100
AcDbEntity
  8
Level 26
  6
Continuous
 62
   254
370
    13
100
AcDbLine
 10
5977.970371
 20
878.000521
 30
0.0
 11
6716.362197
 21
427.44411
 31
0.0
  0
ENDBLK
  5
7C0FB
330
7C0F9
100
AcDbEntity
  8
0
100
AcDbBlockEnd
  0
BLOCK
  5
7C0FD
330
7C0FC
100
AcDbEntity
  8
0
100
AcDbBlockBegin
  2
From Surface_3
 70
     0
 71
     0
 10
0.0
 20
0.0
 30
0.0
  3
From Surface_3
  1

  0
LINE
  5
7BF94
330
7C0FC
100
AcDbEntity
  8
Level 26
  6
Continuous
 62
   254
370
    13
100
AcDbLine
 10
2122.970371
 20
879.286503
 30
0.0
 11
2122.970371
 21
884.286503
 31
0.0
  0
LINE
  5
7BF95
330
7C0FC
100
AcDbEntity
  8
Level 26
  6
Continuous
 62
   254
370
    13
100
AcDbLine
 10
1375.211649
 20
444.447988
 30
0.0
 11
1375.211649
 21
449.447988
 31
0.0
  0
LINE
  5
7BF96
330
7C0FC
100
AcDbEntity
  8
Level 26
  6
Continuous
 62
   254
370
    13
100
AcDbLine
 10
2122.970371
 20
884.286503
 30
0.0
 11
1375.211649
 21
449.447988
 31
0.0
  0
LINE
  5
7BF97
330
7C0FC
100
AcDbEntity
  8
Level 26
  6
Continuous
 62
   254
370
    13
100
AcDbLine
 10
2122.970371
 20
879.286503
 30
0.0
 11
1375.211649
 21
444.447988
 31
0.0
  0
ENDBLK
  5
7C0FE
330
7C0FC
100
AcDbEntity
  8
0
100
AcDbBlockEnd
  0
BLOCK
  5
7C100
330
7C0FF
100
AcDbEntity
  8
0
100
AcDbBlockBegin
  2
From Surface_4
 70
     0
 71
     0
 10
0.0
 20
0.0
 30
0.0
  3
From Surface_4
  1

  0
LINE
  5
7BF99
330
7C0FF
100
AcDbEntity
  8
Level 26
  6
Continuous
 62
   254
370
    13
100
AcDbLine
 10
2152.970371
 20
849.286503
 30
0.0
 11
2157.970371
 21
849.286503
 31
0.0
  0
LINE
  5
7BF9A
330
7C0FF
100
AcDbEntity
  8
Level 26
  6
Continuous
 62
   254
370
    13
100
AcDbLine
 10
2152.970371
 20
-20.713497
 30
0.0
 11
2157.970371
 21
-20.713497
 31
0.0
  0
LINE
  5
7BF9B
330
7C0FF
100
AcDbEntity
  8
Level 26
  6
Continuous
 62
   254
370
    13
100
AcDbLine
 10
2157.970371
 20
849.286503
 30
0.0
 11
2157.970371
 21
-20.713497
 31
0.0
  0
LINE
  5
7BF9C
330
7C0FF
100
AcDbEntity
  8
Level 26
  6
Continuous
 62
   254
370
    13
100
AcDbLine
 10
2152.970371
 20
849.286503
 30
0.0
 11
2152.970371
 21
-20.713497
 31
0.0
  0
ENDBLK
  5
7C101
330
7C0FF
100
AcDbEntity
  8
0
100
AcDbBlockEnd
  0
BLOCK
  5
7C103
330
7C102
100
AcDbEntity
  8
0
100
AcDbBlockBegin
  2
From Surface_5
 70
     0
 71
     0
 10
0.0
 20
0.0
 30
0.0
  3
From Surface_5
  1

  0
LINE
  5
7BF9E
330
7C102
100
AcDbEntity
  8
Level 26
  6
Continuous
 62
   254
370
    13
100
AcDbLine
 10
2122.970371
 20
-49.427515
 30
0.0
 11
2122.970371
 21
-55.284836
 31
0.0
  0
LINE
  5
7BF9F
330
7C102
100
AcDbEntity
  8
Level 26
  6
Continuous
 62
   254
370
    13
100
AcDbLine
 10
1384.578545
 20
401.128896
 30
0.0
 11
1384.578545
 21
395.271575
 31
0.0
  0
LINE
  5
7BFA0
330
7C102
100
AcDbEntity
  8
Level 26
  6
Continuous
 62
   254
370
    13
100
AcDbLine
 10
2122.970371
 20
-55.284836
 30
0.0
 11
1384.578545
 21
395.271574
 31
0.0
  0
LINE
  5
7BFA1
330
7C102
100
AcDbEntity
  8
Level 26
  6
Continuous
 62
   254
370
    13
100
AcDbLine
 10
2122.970371
 20
-49.427516
 30
0.0
 11
1384.578545
 21
401.128895
 31
0.0
  0
ENDBLK
  5
7C104
330
7C102
100
AcDbEntity
  8
0
100
AcDbBlockEnd
  0
BLOCK
  5
7C106
330
7C105
100
AcDbEntity
  8
0
100
AcDbBlockBegin
  2
Feature Solid_24
 70
     0
 71
     0
 10
0.0
 20
0.0
 30
0.0
  3
Feature Solid_24
  1

  0
INSERT
  5
7BFF1
330
7C105
100
AcDbEntity
  8
Level 27
  6
Continuous
 62
    12
370
    13
100
AcDbBlockReference
  2
CONE_4
 10
0.0
 20
0.0
 30
0.0
  0
ENDBLK
  5
7C107
330
7C105
100
AcDbEntity
  8
0
100
AcDbBlockEnd
  0
BLOCK
  5
7C109
330
7C108
100
AcDbEntity
  8
0
100
AcDbBlockBegin
  2
CONE_4
 70
     0
 71
     0
 10
0.0
 20
0.0
 30
0.0
  3
CONE_4
  1

  0
LINE
  5
7BFF2
330
7C108
100
AcDbEntity
  8
Level 27
  6
Continuous
 62
    12
370
    13
100
AcDbLine
 10
-2091.386067
 20
376.091859
 30
0.0
 11
-2139.686067
 21
376.091859
 31
0.0
  0
LINE
  5
7BFF3
330
7C108
100
AcDbEntity
  8
Level 27
  6
Continuous
 62
    12
370
    13
100
AcDbLine
 10
-2139.686067
 20
-485.908141
 30
0.0
 11
-2091.386067
 21
-485.908141
 31
0.0
  0
LINE
  5
7BFF4
330
7C108
100
AcDbEntity
  8
Level 27
  6
Continuous
 62
    12
370
    13
100
AcDbLine
 10
-2139.686067
 20
-485.908141
 30
0.0
 11
-2139.686067
 21
376.091859
 31
0.0
  0
LINE
  5
7BFF5
330
7C108
100
AcDbEntity
  8
Level 27
  6
Continuous
 62
    12
370
    13
100
AcDbLine
 10
-2115.536067
 20
-485.908141
 30
0.0
 11
-2115.536067
 21
376.091859
 31
0.0
  0
LINE
  5
7BFF6
330
7C108
100
AcDbEntity
  8
Level 27
  6
Continuous
 62
    12
370
    13
100
AcDbLine
 10
-2091.386067
 20
-485.908141
 30
0.0
 11
-2091.386067
 21
376.091859
 31
0.0
  0
LINE
  5
7BFF7
330
7C108
100
AcDbEntity
  8
Level 27
  6
Continuous
 62
    12
370
    13
100
AcDbLine
 10
-2115.536067
 20
-485.908141
 30
0.0
 11
-2115.536067
 21
376.091859
 31
0.0
  0
ENDBLK
  5
7C10A
330
7C108
100
AcDbEntity
  8
0
100
AcDbBlockEnd
  0
BLOCK
  5
7C10C
330
7C10B
100
AcDbEntity
  8
0
100
AcDbBlockBegin
  2
Feature Solid_25
 70
     0
 71
     0
 10
0.0
 20
0.0
 30
0.0
  3
Feature Solid_25
  1

  0
INSERT
  5
7BFF9
330
7C10B
100
AcDbEntity
  8
Level 27
  6
Continuous
 62
    12
370
    13
100
AcDbBlockReference
  2
CONE_5
 10
2115.536208
 20
54.907641
 30
0.0
  0
ENDBLK
  5
7C10D
330
7C10B
100
AcDbEntity
  8
0
100
AcDbBlockEnd
  0
BLOCK
  5
7C10F
330
7C10E
100
AcDbEntity
  8
0
100
AcDbBlockBegin
  2
CONE_5
 70
     0
 71
     0
 10
0.0
 20
0.0
 30
0.0
  3
CONE_5
  1

  0
LINE
  5
7BFFA
330
7C10E
100
AcDbEntity
  8
Level 27
  6
Continuous
 62
    12
370
    13
100
AcDbLine
 10
-2091.386067
 20
376.091859
 30
0.0
 11
-2139.686067
 21
376.091859
 31
0.0
  0
LINE
  5
7BFFB
330
7C10E
100
AcDbEntity
  8
Level 27
  6
Continuous
 62
    12
370
    13
100
AcDbLine
 10
-2139.686067
 20
-485.908141
 30
0.0
 11
-2091.386067
 21
-485.908141
 31
0.0
  0
LINE
  5
7BFFC
330
7C10E
100
AcDbEntity
  8
Level 27
  6
Continuous
 62
    12
370
    13
100
AcDbLine
 10
-2139.686067
 20
-485.908141
 30
0.0
 11
-2139.686067
 21
376.091859
 31
0.0
  0
LINE
  5
7BFFD
330
7C10E
100
AcDbEntity
  8
Level 27
  6
Continuous
 62
    12
370
    13
100
AcDbLine
 10
-2115.536067
 20
-485.908141
 30
0.0
 11
-2115.536067
 21
376.091859
 31
0.0
  0
LINE
  5
7BFFE
330
7C10E
100
AcDbEntity
  8
Level 27
  6
Continuous
 62
    12
370
    13
100
AcDbLine
 10
-2091.386067
 20
-485.908141
 30
0.0
 11
-2091.386067
 21
376.091859
 31
0.0
  0
LINE
  5
7BFFF
330
7C10E
100
AcDbEntity
  8
Level 27
  6
Continuous
 62
    12
370
    13
100
AcDbLine
 10
-2115.536067
 20
-485.908141
 30
0.0
 11
-2115.536067
 21
376.091859
 31
0.0
  0
ENDBLK
  5
7C110
330
7C10E
100
AcDbEntity
  8
0
100
AcDbBlockEnd
  0
ENDSEC
  0
SECTION
  2
ENTITIES
  0
INSERT
  5
7BDF6
330
7C024
100
AcDbEntity
  8
Level 26
 62
   133
370
     0
100
AcDbBlockReference
  2
FT26
 10
5940.470371
 20
414.286503
 30
0.0
  0
ENDSEC
  0
SECTION
  2
OBJECTS
  0
DICTIONARY
  5
7C037
330
0
100
AcDbDictionary
281
     1
  3
ACAD_GROUP
350
7C035
  3
ACAD_LAYOUT
350
7C038
  3
ACAD_MLINESTYLE
350
7C036
  3
ACAD_PLOTSETTINGS
350
7C039
  3
ACAD_PLOTSTYLENAME
350
7C03A
  3
ACAD_TABLESTYLE
350
7C116
  3
AcadDim
350
7C04A
  3
DWGPROPS
350
7C15D
  0
DICTIONARY
  5
7C03D
330
7C02C
100
AcDbDictionary
280
     1
281
     1
  3
ACAD_LAYERFILTERS
360
7C03E
  0
DICTIONARY
  5
7C035
102
{ACAD_REACTORS
330
7C037
102
}
330
7C037
100
AcDbDictionary
281
     1
  0
DICTIONARY
  5
7C038
102
{ACAD_REACTORS
330
7C037
102
}
330
7C037
100
AcDbDictionary
281
     1
  3
Layout1
350
7C02B
  3
Model
350
7C027
  0
DICTIONARY
  5
7C036
102
{ACAD_REACTORS
330
7C037
102
}
330
7C037
100
AcDbDictionary
281
     1
  3
Standard
350
7C022
  0
DICTIONARY
  5
7C039
102
{ACAD_REACTORS
330
7C037
102
}
330
7C037
100
AcDbDictionary
281
     1
  0
ACDBDICTIONARYWDFLT
  5
7C03A
102
{ACAD_REACTORS
330
7C037
102
}
330
7C037
100
AcDbDictionary
281
     1
  3
Normal
350
7C01D
100
AcDbDictionaryWithDefault
340
7C01D
  0
DICTIONARY
  5
7C116
102
{ACAD_REACTORS
330
7C037
102
}
330
7C037
100
AcDbDictionary
281
     1
  0
XRECORD
  5
7C04A
102
{ACAD_REACTORS
330
7C037
102
}
330
7C037
100
AcDbXrecord
280
     1
 90
   990106
  3
 
 60
     0
 61
     0
 62
     1
 63
     1
 64
     0
 65
     0
 66
     0
 67
     3
 68
     1
 69
     1
 70
     0
 71
     0
 72
     0
 40
0.0
170
     0
  0
XRECORD
  5
7C15D
102
{ACAD_REACTORS
330
7C037
102
}
330
7C037
100
AcDbXrecord
280
     1
  1
DWGPROPS COOKIE
  2

  3

  4
WAEngineering1
  6

  7

  8

  9

300
=
301
=
302
=
303
=
304
=
305
=
306
=
307
=
308
=
309
=
 40
0.0
 41
2451789.537469
 42
2451789.537561
  1

 90
        0
  0
DICTIONARY
  5
7C03E
102
{ACAD_REACTORS
330
7C03D
102
}
330
7C03D
100
AcDbDictionary
281
     1
  0
LAYOUT
  5
7C02B
102
{ACAD_REACTORS
330
7C038
330
7C038
102
}
330
7C038
100
AcDbPlotSettings
  1

  2

  4

  6

 40
0.0
 41
0.0
 42
0.0
 43
0.0
 44
0.0
 45
0.0
 46
0.0
 47
0.0
 48
0.0
 49
0.0
140
0.0
141
0.0
142
1.0
143
1.0
 70
   688
 72
     0
 73
     0
 74
     5
  7

 75
    16
147
1.0
148
0.0
149
0.0
100
AcDbLayout
  1
Layout1
 70
     1
 71
     1
 10
0.0
 20
0.0
 11
12.0
 21
9.0
 12
0.0
 22
0.0
 32
0.0
 14
1.000000E+20
 24
1.000000E+20
 34
1.000000E+20
 15
-1.000000E+20
 25
-1.000000E+20
 35
-1.000000E+20
146
0.0
 13
0.0
 23
0.0
 33
0.0
 16
1.0
 26
0.0
 36
0.0
 17
0.0
 27
1.0
 37
0.0
 76
     0
330
7C028
  0
LAYOUT
  5
7C027
102
{ACAD_REACTORS
330
7C038
330
7C038
102
}
330
7C038
100
AcDbPlotSettings
  1

  2

  4

  6

 40
0.0
 41
0.0
 42
0.0
 43
0.0
 44
0.0
 45
0.0
 46
0.0
 47
0.0
 48
0.0
 49
0.0
140
0.0
141
0.0
142
1.0
143
1.0
 70
  1712
 72
     0
 73
     0
 74
     0
  7

 75
     0
147
1.0
148
0.0
149
0.0
100
AcDbLayout
  1
Model
 70
     1
 71
     0
 10
0.0
 20
0.0
 11
12.0
 21
9.0
 12
0.0
 22
0.0
 32
0.0
 14
0.0
 24
0.0
 34
0.0
 15
0.0
 25
0.0
 35
0.0
146
0.0
 13
0.0
 23
0.0
 33
0.0
 16
1.0
 26
0.0
 36
0.0
 17
0.0
 27
1.0
 37
0.0
 76
     0
330
7C024
  0
MLINESTYLE
  5
7C022
102
{ACAD_REACTORS
330
7C036
102
}
330
7C036
100
AcDbMlineStyle
  2
STANDARD
 70
     0
  3

 62
   256
 51
90.0
 52
90.0
 71
     2
 49
0.5
 62
   256
  6
BYLAYER
 49
-0.5
 62
   256
  6
BYLAYER
  0
ACDBPLACEHOLDER
  5
7C01D
102
{ACAD_REACTORS
330
7C03A
102
}
330
7C03A
  0
ENDSEC
  0
SECTION
  2
THUMBNAILIMAGE
 90
    16004
310
28000000B40000005300000001000800000000005C3A00000004000000040000000100000A000000FFFFFF00D8782800A8A8A8000000B800B0A09800480000004060B00090689000C8C8C800B8B89800FFFFFF00FFFFFF00FFFFFF00FFFFFF00FFFFFF00FFFFFF00FFFFFF00FFFFFF00FFFFFF00FFFFFF00FFFFFF00FFFFFF
310
00FFFFFF00FFFFFF00FFFFFF00FFFFFF00FFFFFF00FFFFFF00FFFFFF00FFFFFF00FFFFFF00FFFFFF00FFFFFF00FFFFFF00FFFFFF00FFFFFF00FFFFFF00FFFFFF00FFFFFF00FFFFFF00FFFFFF00FFFFFF00FFFFFF00FFFFFF00FFFFFF00FFFFFF00FFFFFF00FFFFFF00FFFFFF00FFFFFF00FFFFFF00FFFFFF00FFFFFF00FFFF
310
FF00FFFFFF00FFFFFF00FFFFFF00FFFFFF00FFFFFF00FFFFFF00FFFFFF00FFFFFF00FFFFFF00FFFFFF00FFFFFF00FFFFFF00FFFFFF00FFFFFF00FFFFFF00FFFFFF00FFFFFF00FFFFFF00FFFFFF00FFFFFF00FFFFFF00FFFFFF00FFFFFF00FFFFFF00FFFFFF00FFFFFF00FFFFFF00FFFFFF00FFFFFF00FFFFFF00FFFFFF00FF
310
FFFF00FFFFFF00FFFFFF00FFFFFF00FFFFFF00FFFFFF00FFFFFF00FFFFFF00FFFFFF00FFFFFF00FFFFFF00FFFFFF00FFFFFF00FFFFFF00FFFFFF00FFFFFF00FFFFFF00FFFFFF00FFFFFF00FFFFFF00FFFFFF00FFFFFF00FFFFFF00FFFFFF00FFFFFF00FFFFFF00FFFFFF00FFFFFF00FFFFFF00FFFFFF00FFFFFF00FFFFFF00
310
FFFFFF00FFFFFF00FFFFFF00FFFFFF00FFFFFF00FFFFFF00FFFFFF00FFFFFF00FFFFFF00FFFFFF00FFFFFF00FFFFFF00FFFFFF00FFFFFF00FFFFFF00FFFFFF00FFFFFF00FFFFFF00FFFFFF00FFFFFF00FFFFFF00FFFFFF00FFFFFF00FFFFFF00FFFFFF00FFFFFF00FFFFFF00FFFFFF00FFFFFF00FFFFFF00FFFFFF00FFFFFF
310
00FFFFFF00FFFFFF00FFFFFF00FFFFFF00FFFFFF00FFFFFF00FFFFFF00FFFFFF00FFFFFF00FFFFFF00FFFFFF00FFFFFF00FFFFFF00FFFFFF00FFFFFF00FFFFFF00FFFFFF00FFFFFF00FFFFFF00FFFFFF00FFFFFF00FFFFFF00FFFFFF00FFFFFF00FFFFFF00FFFFFF00FFFFFF00FFFFFF00FFFFFF00FFFFFF00FFFFFF00FFFF
310
FF00FFFFFF00FFFFFF00FFFFFF00FFFFFF00FFFFFF00FFFFFF00FFFFFF00FFFFFF00FFFFFF00FFFFFF00FFFFFF00FFFFFF00FFFFFF00FFFFFF00FFFFFF00FFFFFF00FFFFFF00FFFFFF00FFFFFF00FFFFFF00FFFFFF00FFFFFF00FFFFFF00FFFFFF00FFFFFF00FFFFFF00FFFFFF00FFFFFF00FFFFFF00FFFFFF00FFFFFF00FF
310
FFFF00FFFFFF00FFFFFF00FFFFFF00FFFFFF00FFFFFF00FFFFFF00FFFFFF00FFFFFF00FFFFFF00FFFFFF00FFFFFF00FFFFFF00FFFFFF00FFFFFF00FFFFFF00FFFFFF00FFFFFF00FFFFFF00FFFFFF00FFFFFF00FFFFFF00FFFFFF00FFFFFF00FFFFFF00FFFFFF00FFFFFF00FFFFFF00FFFFFF00FFFFFF00FFFFFF00FFFFFF00
310
FFFFFF00FFFFFF00FFFFFF00FFFFFF00FFFFFF00FFFFFF00FFFFFF00FFFFFF00FFFFFF00FFFFFF00FFFFFF00FFFFFF0007070707070707070707070707070707070707070707070707070707070707070707070707070707070707070707070707070707070707070707070707070707070707070707070707070707070707
310
07070707070707070707070707070707070707070707070707070707070707070707070707070707070707070707070707070707070707070707070707070707070707070707070707070707070707070707070707070707070707070707070707070707070707070707070707070707070707070707070707070707070707
310
07070707070707070707070707070707070707070707070707070707070707070707070707070707070707070707070707070707070707070707070707070707070707070707070707070707070707070707070707070707070707070707070707070707070707070707070707070707070707070707070707070707070707
310
07070707070707070707070707070707070707070707070707070707070707070707070707070707070707070707070707070707070707070707070707070707070707070707070707070707070707070707070707070707070707070707070707070707070707070707070707070707070707070707070707070707070707
310
07070707070707070707070707070707070707070707070707070707070707070707070707070707070707070707070707070707070707070707070707070707070707070707070707070707070707070707070707070707070707070707070707070707070707070707070707070707070707070707070707070707070707
310
07070707070707070707070707070707070707070707070707070707070707070707070707070707070707070707070707070707070707070707070707070707070707070707070707070707070707070707070707070707070707070707070707070707070707070707070707070707070707070707070707070707070707
310
07070707070707070707070707070707070707070707070707070707070707070707070707070707070707070707070707070707070707070707070707070707070707070707070707070707070707070707070707070707070707070707070707070707070707070707070707070707070707070707070707070707070707
310
07070707070707070707070707070707070707070707070707070707070707070707070707070707070707070707070707070707070707070707070707070707070707070707070707070707070707070707070707070707070707070707070707070707070707070707070707070707070707070707070707070707070707
310
07070707070707070707070707070707070707070707070707070707070707070707070707070707070707070707070707070707070707070707070707070707070707070707070707070707070707070707070707070707070707070707070707070707070707070707070707070707070707070707070707070707070707
310
07070707070707070707070707070707070707070707070707070707070707070707070707070707070707070707070707070707070707070707070707070707070707070707070707070707070707070707070707070707070707070707070707070707070707070707070707070707070707070707070707070707070707
310
07070707070707070707070707070707070707070707070707070707070707070707070707070707070707070707070707070707070707070707070707070707070707070707070707070707070707070707070707070707070707070707070707070707070707070707070707070707070707070707070707070707070707
310
07070707070707070707070707070707070707070707070707070707070707070707070707070707070707070707070707070707070707070707070707070707070707070707070707070707070707070707070707070707070707070707070707070707070707070707070707070707070707070707070707070707070707
310
07070707070707070707070707070707070707070707070707070707070707070707070707070707070707070707070707070707070707070707070707070707070707070707070707070707070707070707070707070707070707070707070707070707070707070707070707070707070707070707070707070707070707
310
07070707070707070707070707070707070707070707070707070707070707070707070707070707070707070707070707070707070707070707070707070707070707070707070707070707070707070707070707070707070707070707070707070707070707070707070707070707070707070707070707070707070707
310
07070707070707070707070707070707070707070707070707070707070707070707070707070707070707070707070707070707070707070707070707070707070707070707070707070707070707070707070707070707070707070707070707070707070707070707070707070707070707070707070707070707070707
310
07070707070707070707070707070707070707070707070707070707070707070707070707070707070707070707070707070707070707070707070707070707070707070707070707070707070707070707070707070707070707070707070707070707070707070707070707070707070707070707070707070707070707
310
07070707070707070707070707070707070707070707070707070707070707070707070707070707070707070707070707070707070707070707070707070707070707070707070707070707070707070707070707070707070707070707070707070707070707070707070707070707070707070707070707070707070707
310
07070707070707070707070707070707070707070707070707070707070707070707070707070707070707070707070707070707070707070707070707070707070707070707070707070707070707070707070707070707070707070707070707070707070707070707070707070707070707070707070707070707070707
310
07070707070707070707070707070707070707070707070707070707070707070707070707070707070707070707070707070707070707070707070707070707070707070707070707070707070707070707070707070707070707070707070707070707070707070707070707070707070707070707070707070707070707
310
07070707070707070707070707070707070707070707070707070707070707070707070707070707070707070707070707070707070707070707070707070707070707070707070707070707070707070707070707070707070707070707070707070707070707070707070707070707070707070707070707070707070707
310
07070707070707070707070707070707070707070707070707070707070707070707070707070707070707070707070707070707070707070707070707070707070707070707070707070707070707070707070707070707070707070707070707070707070707070707070707070707070707070707070707070707070707
310
07070707070707070707070707070707070707070707070707070707070707070707070707070707070707070707070707070707070707070707070707070707070707070707070707070707070707070707070707070707070707070707070707070707070707070707070707070707070707070707070707070707070707
310
07070707070707070707070707070707070707070707070707070707070707070707070707070707070707070707070707070707070707070707070707070707070707070707070707070707070707070707070707070707070707070707070707070707070707070707070707070707070707070707070707070707070707
310
07070707070707070707070707070707070707070707070707070707070707070707070707070707070707070707070707070707070707070707070707070707070707070707070707070707070707070707070707070707070707070707070707070707070707070707070707070707070707070707070707070707070707
310
07070707070707070707070707070707070707070707070707070707070707070707070707070707070707070707070707070707070707070707070707070707070707070707070707070707070707070707070707070707070707070707070707070707070707070707070707070707070707070707070707070707070707
310
07070707070707070707070707070707070707070707070707070707070707070707070707070707070707070707070707070707070707070707070707070707070707070707070707070707070707070707070707070707070707070707070707070707070707070707070707070707070707070707070707070707070707
310
07070707070707070707070707070707070707070707070707070707070707070707070707070707070707070707070707070707070707070707070707070707070707070707070707070707070707070707070707070707070707070707070707070707070707070707070707070707070707070707070707070707070707
310
07070707070707070707070707070707070707070707070707070707070707070707070707070707070707070707070707070707070707070707070707070707070707070707070707070707070707070707070707070707070707070707070707070707070707070707070707070707070707070707070707070707070707
310
07070707070707070707070707070707070707070707070707070707070707070707070707070707070707070707070707070707070707070707070707070707070707070707070707070707070707070707070707070707070707070707070707070707070707070707070707070707070707070707070707070707070707
310
07070707070707070707070707070707070707070707070707070707070707070707070707070707070707070707070707070707070707070707070707070707070707070707070707070707070707070707070707070707070707070707070707070707070707070707070707070707070707070707070707070707070707
310
07070707070707070707070707070707070707070707070707070707070707070707070707070707070707070707070707070707070707070707070707070707070707070707070707070707070707070707070707070707070707070707070707070707070707070707070707070707070707070707070707070707070707
310
07070707070707070707070707070707070707070707070707070707070707070707070707070707070707070707070707070707070707070707070707070707070707070707070707070707070707070707070707070707070707070707070707070707070707070707070707070707070707070707070707070707070707
310
07070707070707070707070707070707070707070707070707070707070707070707070707070707070707070707070707070707070707070707070707070707070707070707070707070707070707070707070707070707070707070707070707070707070707070707070707070707070707070707070707070707070707
310
07070707070707070707070707070707070707070707070707070707070707070707070707070707070707070707070707070707070707070707070707070707070707070707070707070707070707070707070707070707070707070707070707070707070707070707070707070707070707070707070707070707070707
310
07070707070707070707070707070707070707070707070707070707070707070707070707070707070707070707070707070707070707070707070707070707070707070707070707070707070704040404040707070707070707070707070707070707070707070707070707070707070707070707070707070707070707
310
07070707070707070707070707070707070707070707070707070707070707070707070707070707070707070707070707070707070707070707070707070707070707070704040404040707070707070707070707070707070707070707070707070707070707070707070707070707070707070707070707070707070707
310
07070707040404040407070707070707070707070707070707070707070707070707070707070707070707070707070707070707070707070707070707070707070707070707070707070707070707070707070707070707070707070707070707070707070707070707070707070707070707070707070707070404040404
310
07070707070707070707070707070707070707070707070707070707070707070707070707070707070707070707070707070707070707070804040804040707070707070707070707070707070707070707070707070707070707070707070707070707070707070707070707070707070707070707070707070707070707
310
07070707070707070707070707070707070707070707070707070707070707070707070707070707070707070707070704040704040808070707070707070707070707070707070707070707070707070707070707070707070707070707070707070707070707070707070808080403030304070707070707070707070707
310
07070707070707070707070707070707070707070707070707070707070707070707070707070707070707070707070707070707070707070707070707070707070707070707070707070707070707070707070707070707070707070707070707070707070403030304080808080707070707070707070707070707070707
310
07070707070707070707070707070707070707070707070707070707070707070808080808030303040707070707070707070707070707070707070707070707070707070707070707070707070707070707070707070707070707070707070707070707070707070707070707070707070707070707070707070707070707
310
07070707070707070707070707070707070707070707070707070707030303040808080808070707070707070707070707070707070707070707070707070707070707070707070707070707070707070707070808080808070703030307070707070707070707070707070707070707070707070707070707070707070707
310
07070707070707070707070707070707070707070707070707070707070707070707070707070707070707070707070707070707070707070707070707070707070707070707070707070707070707070703030307070708080808080707070707070707070707070707070707070707070707070707070707070707070707
310
07070707070707080808080807070707030303070707070707070707070707070707070707070707070707070707070707070707070707070707070707070707070707070707070707070707070707070707070707070707070707070707070707070707070707070707070707070707070707070707070707070707070707
310
07070707070707030303070707070708080808080707070707070707070707070707070707070707070707070707070707070707070707070707070808080808070707070703030307070707070707070707070707070707070707070707070707070707070707070707070707070707070707070707070707070707070707
310
07070707070707070707070707070707070707070707070707070707070707070707070707070707070707070707070707070707070707070707070703030307070707070707080808080707070707070707070707070707070707070707070707070707070707070707070707070808080808070707070707070303030707
310
07070707070707070707070707070707070707070707070707070707070707070707070707070707070707070707070707070707070707070707070707070707070707070707070707070707070707070707070707070707070707070707070707070707070707070707070707070707070303030707070707070707080808
310
08080707070707070707070707070707070707070707070707070707070707070707070808080807070707070707070703030307070707070707070707070707070707070707070707070707070707070707070707070707070707070707070707070707070707070707070707070707070707070707070707070707070707
310
07070707070707070707070707070707070707070707070707070707070707070707070707070703030307070707070707070707080808080707070707070707070707070707070707070707070707070707070707070808080808070707070707070707070303030707070707070707070707070707070707070707070707
310
07070707070707070707070707070707070707070707070707070707070707070707070707070707070707070707070707070707070707070707070707070707070707070707070707070707070707070707070707070707070707070303030707070707070707070707070808080807070707070707070707070707070707
310
07070707070707070707080808080807070707070707070707070703030307070707070707070707070707070707070707070707070707070707070707070707070707070707070707070707070707070707070707070707070707070707070707070707070707070707070707070707070707070707070707070707070707
310
07070707070707070707070707070707070703030307070707070707070707070707070808080807070707070707070707070707070707070707070707070808080808070707070707070707070707070303030707070707070707070707070707070707070707070707070707070707070707070707070707070707070707
310
07070707070707070707070707070707070707070707070707070707070707070707070707070707070707070707070707070707070707070707070707070707070707070707070303030707070707070707070707070707070708080807070707070707070707070707070707070707070808080808070707070707070707
310
07070707070703030307070707070707070707070707070707070707070707070707070707070707070707070707070707070707070707070707070707070707070707070707070707070707070707070707070707070707070707070707070707070707070707070707070707070707070707070707070707070707030303
310
07070707070707070707070707070707070808080807070707070707070707070707070407080808080807070707070707070707070707070707070303030707070707070707070707070707070707070707070707070707070707070707070707070707070707070707070707070707070707060608080808060607070707
310
07070707070707070707070707070707070707070707070707070707070707070707070707070707070707070707070707070303030707070707070707070707070707070707070708080808070407070707070707070704040408080808070707070707070707070707070707070707030303020202020202020202020202
310
02020202020202020202020202020202020202020202020202020202020202020202020202020202020202020202020202020202020202020202020202020202020202020202020202020202020202020202020202020202020202020202020202020202020202030303070707070707070707070707070707070707070707
310
08080404040707070707070704040804040807070707070707070707070707070707070707070303030202020202020202020202020202020202020202020202020202020202020202020202020202020202020202020202020202020202020202020202020202020202020202020202020202020202020202020202020202
310
02020202020202020202020202020202020202020202020202020202020303030707070707070707070707070707070707070707070704040804040707070707070404070404070707070707070707070707070707070707070707030303020202020202020202020202020202020202020202020202020202020202020202
310
02020202020202020202020202020202020202020202020202020202020202020202020202020202020202020202020202020202020202020202020202020202020202020202020202020202020202020202030303070707070707070707070707070707070707070707080404080404070707070707070404040808070707
310
07070707070707070707070707070707070303030202020202020202020202020202020202020202020202020202020202020202020202020202020202020202020202020202020202020202020202020202020202020202020202020202020202020202020202020202020202020202020202020202020202020202020202
310
02020202020202020303030707070707070707070707070707070707070708080808040404070707070707070707040808080808070707070707070707070707070707070707030303070707070707070707070707070707070707070707070707070707070707070707070707070707070707070707070707070707070707
310
06060808080606070707070707070707070707070707070707070707070707070707070707070707070707070707070707070707070707070707070707030303070707070707070707070707070707070707080808080807040707070707070707070707070707080808080707070707070707070707070707070703030307
310
07070707070707070707070707070707070707070707070707070707070707070707070707070707070707070707070707070707070707070707070707070707070707070707070707070707070707070707070707070707070707070707070707070707070707070707070707070707070703030307070707070707070707
310
07070707070708080808080707070707070707070707070707070707070707080808070707070707070707070707070707030303070707070707070707070707070707070707070707070707070707070707070707070707070707070707070707070707070707070707070707070707070707070707070707070707070707
310
07070707070707070707070707070707070707070707070707070707070707070707070707070707030303070707070707070707070707070708080808080707070707070707070707070707070707070707070707080808080707070707070707070707070703030307070707070707070707070707070707070707070707
310
07070707070707070707070707070707070707070707070707070707070707070707070707070707070707070707070707070707070707070707070707070707070707070707070707070707070707070707070707070707070707070703030307070707070707070707070707080808080807070707070707070707070707
310
07070707070707070707070707080808080707070707070707070707030303070707070707070707070707070707070707070707070707070707070707070707070707070707070707070707070707070707070707070707070707070707070707070707070707070707070707070707070707070707070707070707070707
310
07070707070707070707070707070707070707030303070707070707070707070708080808080707070707070707070707070707070707070707070707070707070707070808080807070707070707070703030307070707070707070707070707070707070707070707070707070707070707070707070707070707070707
310
07070707070707070707070707070707070707070707070707070707070707070707070707070707070707070707070707070707070707070707070707070707070707070707070703030307070707070707070707080808080707070707070707070707070707070707070707070707070707070707070707070808080808
310
07070707070707030303070707070707070707070707070707070707070707070707070707070707070707070707070707070707070707070707070707070707070707070707070707070707070707070707070707070707070707070707070707070707070707070707070707070707070707070707070707070707070303
310
03070707070707070708080808080707070707070707070707070707070707070707070707070707070707070707070707070808080807070707070703030307070707070707070707070707070707070707070707070707070707070707070707070707070707070707070707070707070707070707070707070707070707
310
07070707070707070707070707070707070707070707070707070707070707070707070707070707070707070707070707070703030307070707070708080808080707070707070707070707070707070707070707070707070707070707070707070707070707070808080808070707070303030707070707070707070707
310
07070707070707070707070707070707070707070707070707070707070707070707070707070707070707070707070707070707070707070707070707070707070707070707070707070707070707070707070707070707070707070707070707070707070707070303030707070707080808080807070707070707070707
310
07070707070707070707070707070707070707070707070707070707070707070808080808070703030307070707070707070707070707070707070707070707070707070707070707070707070707070707070707070707070707070707070707070707070707070707070707070707070707070707070707070707070707
310
07070707070707070707070707070707070707070707070707070707070703030309070708080808080707070707070707070707070707070707070707070707070707070707070707070707070707070707070707070708080808040303030407070707070707070707070707070707070707070707070707070707070707
310
07070707070707070707070707070707070707070707070707070707070707070707070707070707070707070707070707070707070707070707070707070707070707070707070707070707070707070707040303030408080808080707070707070707070707070707070707070707070707070707070707070707070707
310
07070707070707070707070707070808080404030304070707070707070707070707070707070707070707070707070707070707070707070707070707070707070707070707070707070707070707070707070707070707070707070707070707070707070707070707070707070707070707070707070707070707070707
310
07070707070707070404030304080808080707070707070707070707070707070707070707070707070707070707070707070707070707070707070707070707070707070708040408040407070707070707070707070707070707070707070707070707070707070707070707070707070707070707070707070707070707
310
07070707070707070707070707070707070707070707070707070707070707070707070707070707070707070707070707070707070707070707070707040408040408080707070707070707070707070707070707070707070707070707070707070707070707070707070707070707070707070707070707070704040404
310
04070707070707070707070707070707070707070707070707070707070707070707070707070707070707070707070707070707070707070707070707070707070707070707070707070707070707070707070707070707070707070707070707070707070707070707070707070707070704040404040707070707070707
310
07070707070707070707070707070707070707070707070707070707070707070707070707070707070707070707070707070404040407070707070707070707070707070707070707070707070707070707070707070707070707070707070707070707070707070707070707070707070707070707070707070707070707
310
07070707070707070707070707070707070707070707070707070707070707070707070707070707070404040407070707070707070707070707070707070707070707070707070707070707070707070707070707070707070707070707070707070707070707070707070707070707070707070707070707070707070707
310
07070707070707070707070707070707070707070707070707070707070707070707070707070707070707070707070707070707070707070707070707070707070707070707070707070707070707070707070707070707070707070707070707070707070707070707070707070707070707070707070707070707070707
310
07070707070707070707070707070707070707070707070707070707070707070707070707070707070707070707070707070707070707070707070707070707070707070707070707070707070707070707070707070707070707070707070707070707070707070707070707070707070707070707070707070707070707
310
07070707070707070707070707070707070707070707070707070707070707070707070707070707070707070707070707070707070707070707070707070707070707070707070707070707070707070707070707070707070707070707070707070707070707070707070707070707070707070707070707070707070707
310
07070707070707070707070707070707070707070707070707070707070707070707070707070707070707070707070707070707070707070707070707070707070707070707070707070707070707070707070707070707070707070707070707070707070707070707070707070707070707070707070707070707070707
310
07070707070707070707070707070707070707070707070707070707070707070707070707070707070707070707070707070707070707070707070707070707070707070707070707070707070707070707070707070707070707070707070707070707070707070707070707070707070707070707070707070707070707
310
07070707070707070707070707070707070707070707070707070707070707070707070707070707070707070707070707070707070707070707070707070707070707070707070707070707070707070707070707070707070707070707070707070707070707070707070707070707070707070707070707070707070707
310
07070707070707070707070707070707070707070707070707070707070707070707070707070707070707070707070707070707070707070707070707070707070707070707070707070707070707070707070707070707070707070707070707070707070707070707070707070707070707070707070707070707070707
310
07070707070707070707070707070707070707070707070707070707070707070707070707070707070707070707070707070707070707070707070707070707070707070707070707070707070707070707070707070707070707070707070707070707070707070707070707070707070707070707070707070707070707
310
07070707070707070707070707070707070707070707070707070707070707070707070707070707070707070707070707070707070707070707070707070707070707070707070707070707070707070707070707070707070707070707070707070707070707070707070707070707070707070707070707070707070707
310
07070707070707070707070707070707070707070707070707070707070707070707070707070707070707070707070707070707070707070707070707070707070707070707070707070707070707070707070707070707070707070707070707070707070707070707070707070707070707070707070707070707070707
310
07070707070707070707070707070707070707070707070707070707070707070707070707070707070707070707070707070707070707070707070707070707070707070707070707070707070707070707070707070707070707070707070707070707070707070707070707070707070707070707070707070707070707
310
07070707070707070707070707070707070707070707070707070707070707070707070707070707070707070707070707070707070707070707070707070707070707070707070707070707070707070707070707070707070707070707070707070707070707070707070707070707070707070707070707070707070707
310
07070707070707070707070707070707070707070707070707070707070707070707070707070707070707070707070707070707070707070707070707070707070707070707070707070707070707070707070707070707070707070707070707070707070707070707070707070707070707070707070707070707070707
310
07070707070707070707070707070707070707070707070707070707070707070707070707070707070707070707070707070707070707070707070707070707070707070707070707070707070707070707070707070707070707070707070707070707070707070707070707070707070707070707070707070707070707
310
07070707070707070707070707070707070707070707070707070707070707070707070707070707070707070707070707070707070707070707070707070707070707070707070707070707070707070707070707070707070707070707070707070707070707070707070707070707070707070707070707070707070707
310
07070707070707070707070707070707070707070707070707070707070707070707070707070707070707070707070707070707070707070707070707070707070707070707070707070707070707070707070707070707070707070707070707070707070707070707070707070707070707070707070707070707070707
310
07070707070707070707070707070707070707070707070707070707070707070707070707070707070707070707070707070707070707070707070707070707070707070707070707070707070707070707070707070707070707070707070707070707070707070707070707070707070707070707070707070707070707
310
07070707070707070707070707070707070707070707070707070707070707070707070707070707070707070707070707070707070707070707070707070707070707070707070707070707070707070707070707070707070707070707070707070707070707070707070707070707070707070707070707070707070707
310
07070707070707070707070707070707070707070707070707070707070707070707070707070707070707070707070707070707070707070707070707070707070707070707070707070707070707070707070707070707070707070707070707070707070707070707070707070707070707070707070707070707070707
310
07070707070707070707070707070707070707070707070707070707070707070707070707070707070707070707070707070707070707070707070707070707070707070707070707070707070707070707070707070707070707070707070707070707070707070707070707070707070707070707070707070707070707
310
07070707070707070707070707070707070707070707070707070707070707070707070707070707070707070707070707070707070707070707070707070707070707070707070707070707070707070707070707070707070707070707070707070707070707070707070707070707070707070707070707070707070707
310
07070707070707070707070707070707070707070707070707070707070707070707070707070707070707070707070707070707070707070707070707070707070707070707070707070707070707070707070707070707070707070707070707070707070707070707070707070707070707070707070707070707070707
310
07070707070707070707070707070707070707070707070707070707070707070707070707070707070707070707070707070707070707070707070707070707070707070707070707070707070707070707070707070707070707070707070707070707070707070707070707070707070707070707070707070707070707
310
07070707070707070707070707070707070707070707070707070707070707070707070707070707070707070707070707070707070707070707070707070707070707070707070707070707070707070707070707070707070707070707070707070707070707070707070707070707070707070707070707070707070707
310
07070707070707070707070707070707070707070707070707070707070707070707070707070707070707070707070707070707070707070707070707070707070707070707070707070707070707070707070707070707070707070707070707070707070707070707070707070707070707070707070707070707070707
310
07070707070707070707070707070707070707070707070707070707070707070707070707070707070707070707070707070707070707070707070707070707070707070707070707070707070707070707070707070707070707070707070707070707070707070707070707070707070707070707070707070707070707
310
07070707070707070707070707070707070707070707070707070707070707070707070707070707070707070707070707070707070707070707070707070707070707070707070707070707070707070707070707070707070707070707070707070707070707070707070707070707070707070707070707070707070707
310
07070707070707070707070707070707070707070707070707070707070707070707070707070707070707070707070707070707070707070707070707070707070707070707070707070707070707070707070707070707070707070707070707070707070707070707070707070707070707070707070707070707070707
310
07070707070707070707070707070707070707070707070707070707070707070707070707070707070707070707070707070707070707070707070707070707070707070707070707070707070707070707070707070707070707070707070707070707070707070707070707070707070707070707070707070707070707
310
07070707070707070707070707070707070707070707070707070707070707070707070707070707070707070707070707070707070707070707070707070707070707070707070707070707070707070707070707070707070707070707070707070707070707070707070707070707070707070707070707070707070707
310
07070707070707070707070707070707070707070707070707070707070707070707070707070707070707070707070707070707070707070707070707070707070707070707070707070707070707070707070707070707070707070707070707070707070707070707070707070707070707070707070707070707070707
310
07070707070707070707070707070707070707070707070707070707070707070707070707070707070707070707070707070707070707070707070707070707070707070707070707070707070707070707070707070707070707070707070707070707070707070707070707070707070707070707070707070707070707
310
07070707070707070707070707070707070707070707070707070707070707070707070707070707070707070707070707070707070707070707070707070707070707070707070707070707070707070707070707070707070707070707070707070707070707070707070707070707070707070707070707070707070707
310
07070707070707070707070707070707070707070707070707070707070707070707070707070707070707070707070707070707070707070707070707070707070707070707070707070707000000000000000000000000000000000000000000000000000000000000000000000000000000000000000000000000000000
310
00000000000000000000000000000000000000000000000000000000000000000000000000000000000000000000000000000000000000000000000000000000000000000000000000000000000000000000000000000000000000000000000000000000000000000000000000000000000000000000000000000000000000
310
0501
  0
ENDSEC
  0
EOF
