  0
SECTION
  2
HEADER
  9
$ACADVER
  1
AC1015
  9
$ACADMAINTVER
 70
     6
  9
$DWGCODEPAGE
  3
ANSI_1252
  9
$INSBASE
 10
0.0
 20
0.0
 30
0.0
  9
$EXTMIN
 10
3048.749
 20
55.276
 30
0.0
  9
$EXTMAX
 10
6148.254
 20
12355.277
 30
0.0
  9
$LIMMIN
 10
-20770.531264
 20
-19163.756264
  9
$LIMMAX
 10
29967.534264
 20
31574.309264
  9
$ORTHOMODE
 70
     0
  9
$REGENMODE
 70
     1
  9
$FILLMODE
 70
     1
  9
$QTEXTMODE
 70
     0
  9
$MIRRTEXT
 70
     1
  9
$LTSCALE
 40
1.0
  9
$ATTMODE
 70
     1
  9
$TEXTSIZE
 40
100.0
  9
$TRACEWID
 40
0.05
  9
$TEXTSTYLE
  7
Standard
  9
$CLAYER
  8
Level 8
  9
$CELTYPE
  6
Continuous
  9
$CECOLOR
 62
    98
  9
$CELTSCALE
 40
1.0
  9
$DISPSILH
 70
     0
  9
$DIMSCALE
 40
1.0
  9
$DIMASZ
 40
100.0
  9
$DIMEXO
 40
50.0
  9
$DIMDLI
 40
0.0
  9
$DIMRND
 40
0.0
  9
$DIMDLE
 40
0.0
  9
$DIMEXE
 40
50.0
  9
$DIMTP
 40
0.0
  9
$DIMTM
 40
0.0
  9
$DIMTXT
 40
100.0
  9
$DIMCEN
 40
0.09
  9
$DIMTSZ
 40
0.0
  9
$DIMTOL
 70
     0
  9
$DIMLIM
 70
     0
  9
$DIMTIH
 70
     0
  9
$DIMTOH
 70
     0
  9
$DIMSE1
 70
     0
  9
$DIMSE2
 70
     0
  9
$DIMTAD
 70
     1
  9
$DIMZIN
 70
    11
  9
$DIMBLK
  1
TerminatorOpen_0.5
  9
$DIMASO
 70
     1
  9
$DIMSHO
 70
     1
  9
$DIMPOST
  1

  9
$DIMAPOST
  1

  9
$DIMALT
 70
     0
  9
$DIMALTD
 70
     4
  9
$DIMALTF
 40
25.4
  9
$DIMLFAC
 40
1.0
  9
$DIMTOFL
 70
     0
  9
$DIMTVP
 40
0.0
  9
$DIMTIX
 70
     0
  9
$DIMSOXD
 70
     0
  9
$DIMSAH
 70
     0
  9
$DIMBLK1
  1

  9
$DIMBLK2
  1

  9
$DIMSTYLE
  2
Standard
  9
$DIMCLRD
 70
     0
  9
$DIMCLRE
 70
     0
  9
$DIMCLRT
 70
     0
  9
$DIMTFAC
 40
1.0
  9
$DIMGAP
 40
50.0
  9
$DIMJUST
 70
     0
  9
$DIMSD1
 70
     0
  9
$DIMSD2
 70
     0
  9
$DIMTOLJ
 70
     0
  9
$DIMTZIN
 70
    11
  9
$DIMALTZ
 70
    15
  9
$DIMALTTZ
 70
    15
  9
$DIMUPT
 70
     0
  9
$DIMDEC
 70
     0
  9
$DIMTDEC
 70
     0
  9
$DIMALTU
 70
     2
  9
$DIMALTTD
 70
     4
  9
$DIMTXSTY
  7
Style-ENGINEERING
  9
$DIMAUNIT
 70
     0
  9
$DIMADEC
 70
     0
  9
$DIMALTRND
 40
0.0
  9
$DIMAZIN
 70
     3
  9
$DIMDSEP
 70
    46
  9
$DIMATFIT
 70
     3
  9
$DIMFRAC
 70
     2
  9
$DIMLDRBLK
  1
TerminatorOpen_0.5
  9
$DIMLUNIT
 70
     2
  9
$DIMLWD
 70
    -2
  9
$DIMLWE
 70
    -2
  9
$DIMTMOVE
 70
     0
  9
$LUNITS
 70
     2
  9
$LUPREC
 70
     0
  9
$SKETCHINC
 40
0.1
  9
$FILLETRAD
 40
0.5
  9
$AUNITS
 70
     0
  9
$AUPREC
 70
     0
  9
$MENU
  1
.
  9
$ELEVATION
 40
0.0
  9
$PELEVATION
 40
0.0
  9
$THICKNESS
 40
0.0
  9
$LIMCHECK
 70
     0
  9
$CHAMFERA
 40
0.5
  9
$CHAMFERB
 40
0.5
  9
$CHAMFERC
 40
1.0
  9
$CHAMFERD
 40
0.0
  9
$SKPOLY
 70
     0
  9
$TDCREATE
 40
2451789.870802037
  9
$TDUCREATE
 40
2451789.537468704
  9
$TDUPDATE
 40
2451789.87089463
  9
$TDUUPDATE
 40
2451789.537561297
  9
$TDINDWG
 40
0.0000927662
  9
$TDUSRTIMER
 40
0.0000925926
  9
$USRTIMER
 70
     1
  9
$ANGBASE
 50
0.0
  9
$ANGDIR
 70
     0
  9
$PDMODE
 70
     0
  9
$PDSIZE
 40
0.0
  9
$PLINEWID
 40
0.0
  9
$SPLFRAME
 70
     0
  9
$SPLINETYPE
 70
     6
  9
$SPLINESEGS
 70
     8
  9
$HANDSEED
  5
7A1D8
  9
$SURFTAB1
 70
     6
  9
$SURFTAB2
 70
     6
  9
$SURFTYPE
 70
     6
  9
$SURFU
 70
     6
  9
$SURFV
 70
     6
  9
$UCSBASE
  2

  9
$UCSNAME
  2

  9
$UCSORG
 10
0.0
 20
0.0
 30
0.0
  9
$UCSXDIR
 10
1.0
 20
0.0
 30
0.0
  9
$UCSYDIR
 10
0.0
 20
1.0
 30
0.0
  9
$UCSORTHOREF
  2

  9
$UCSORTHOVIEW
 70
     0
  9
$UCSORGTOP
 10
0.0
 20
0.0
 30
0.0
  9
$UCSORGBOTTOM
 10
0.0
 20
0.0
 30
0.0
  9
$UCSORGLEFT
 10
0.0
 20
0.0
 30
0.0
  9
$UCSORGRIGHT
 10
0.0
 20
0.0
 30
0.0
  9
$UCSORGFRONT
 10
0.0
 20
0.0
 30
0.0
  9
$UCSORGBACK
 10
0.0
 20
0.0
 30
0.0
  9
$PUCSBASE
  2

  9
$PUCSNAME
  2

  9
$PUCSORG
 10
0.0
 20
0.0
 30
0.0
  9
$PUCSXDIR
 10
1.0
 20
0.0
 30
0.0
  9
$PUCSYDIR
 10
0.0
 20
1.0
 30
0.0
  9
$PUCSORTHOREF
  2

  9
$PUCSORTHOVIEW
 70
     0
  9
$PUCSORGTOP
 10
0.0
 20
0.0
 30
0.0
  9
$PUCSORGBOTTOM
 10
0.0
 20
0.0
 30
0.0
  9
$PUCSORGLEFT
 10
0.0
 20
0.0
 30
0.0
  9
$PUCSORGRIGHT
 10
0.0
 20
0.0
 30
0.0
  9
$PUCSORGFRONT
 10
0.0
 20
0.0
 30
0.0
  9
$PUCSORGBACK
 10
0.0
 20
0.0
 30
0.0
  9
$USERI1
 70
     0
  9
$USERI2
 70
     0
  9
$USERI3
 70
     0
  9
$USERI4
 70
     0
  9
$USERI5
 70
     0
  9
$USERR1
 40
0.0
  9
$USERR2
 40
0.0
  9
$USERR3
 40
0.0
  9
$USERR4
 40
0.0
  9
$USERR5
 40
0.0
  9
$WORLDVIEW
 70
     1
  9
$SHADEDGE
 70
     3
  9
$SHADEDIF
 70
    70
  9
$TILEMODE
 70
     1
  9
$MAXACTVP
 70
    64
  9
$PINSBASE
 10
0.0
 20
0.0
 30
0.0
  9
$PLIMCHECK
 70
     0
  9
$PEXTMIN
 10
1.000000E+20
 20
1.000000E+20
 30
1.000000E+20
  9
$PEXTMAX
 10
-1.000000E+20
 20
-1.000000E+20
 30
-1.000000E+20
  9
$PLIMMIN
 10
0.0
 20
0.0
  9
$PLIMMAX
 10
12.0
 20
9.0
  9
$UNITMODE
 70
     0
  9
$VISRETAIN
 70
     1
  9
$PLINEGEN
 70
     0
  9
$PSLTSCALE
 70
     0
  9
$TREEDEPTH
 70
  3020
  9
$CMLSTYLE
  2
Standard
  9
$CMLJUST
 70
     0
  9
$CMLSCALE
 40
1.0
  9
$PROXYGRAPHICS
 70
     1
  9
$MEASUREMENT
 70
     0
  9
$CELWEIGHT
370
     0
  9
$ENDCAPS
280
     0
  9
$JOINSTYLE
280
     0
  9
$LWDISPLAY
290
     1
  9
$INSUNITS
 70
     4
  9
$HYPERLINKBASE
  1

  9
$STYLESHEET
  1

  9
$XEDIT
290
     1
  9
$CEPSNTYPE
380
     0
  9
$PSTYLEMODE
290
     1
  9
$FINGERPRINTGUID
  2
{FDEAD576-A652-11D2-9A35-0060089B3A3F}
  9
$VERSIONGUID
  2
{A257D680-BC79-11D2-9A46-0060089B3A3F}
  9
$EXTNAMES
290
     1
  9
$PSVPSCALE
 40
0.0
  9
$OLESTARTUP
290
     0
  0
ENDSEC
  0
SECTION
  2
CLASSES
  0
CLASS
  1
ACDBDICTIONARYWDFLT
  2
AcDbDictionaryWithDefault
  3
ObjectDBX Classes
 90
        0
280
     0
281
     0
  0
CLASS
  1
ACDBPLACEHOLDER
  2
AcDbPlaceHolder
  3
ObjectDBX Classes
 90
        0
280
     0
281
     0
  0
CLASS
  1
LAYOUT
  2
AcDbLayout
  3
ObjectDBX Classes
 90
        0
280
     0
281
     0
  0
ENDSEC
  0
SECTION
  2
TABLES
  0
TABLE
  2
VPORT
  5
7A150
330
0
100
AcDbSymbolTable
 70
     3
  0
VPORT
  5
4B
330
7A150
100
AcDbSymbolTableRecord
100
AcDbViewportTableRecord
  2
*ACTIVE
 70
     0
 10
0.0
 20
0.0
 11
1.0
 21
1.0
 12
4598.5015
 22
6205.2765
 13
0.0
 23
0.0
 14
1.0
 24
1.0
 15
1.0
 25
1.0
 16
0.0
 26
0.0
 36
1.0
 17
0.0
 27
0.0
 37
0.0
 40
12792.00104
 41
2.15721
 42
50.0
 43
0.0
 44
0.0
 50
0.0
 51
0.0
 71
     0
 72
   100
 73
     1
 74
     2
 75
     0
 76
     0
 77
     0
 78
     1
281
     0
 65
     1
110
0.0
120
0.0
130
0.0
111
1.0
121
0.0
131
0.0
112
0.0
122
1.0
132
0.0
 79
     0
146
0.0
  0
ENDTAB
  0
TABLE
  2
LTYPE
  5
7A14C
330
0
100
AcDbSymbolTable
 70
     2
  0
LTYPE
  5
7A14D
330
7A14C
100
AcDbSymbolTableRecord
100
AcDbLinetypeTableRecord
  2
ByBlock
 70
     0
  3

 72
    65
 73
     0
 40
0.0
  0
LTYPE
  5
7A13E
330
7A14C
100
AcDbSymbolTableRecord
100
AcDbLinetypeTableRecord
  2
ByLayer
 70
     0
  3

 72
    65
 73
     0
 40
0.0
  0
LTYPE
  5
7A13C
330
7A14C
100
AcDbSymbolTableRecord
100
AcDbLinetypeTableRecord
  2
Continuous
 70
     0
  3
Solid line
 72
    65
 73
     0
 40
0.0
  0
LTYPE
  5
4E1B6
330
7A14C
100
AcDbSymbolTableRecord
100
AcDbLinetypeTableRecord
  2
Continuous_1
 70
     0
  3

 72
    65
 73
     0
 40
0.0
  0
ENDTAB
  0
TABLE
  2
LAYER
  5
7A14A
102
{ACAD_XDICTIONARY
360
7A15B
102
}
330
0
100
AcDbSymbolTable
 70
    65
  0
LAYER
  5
7A13A
330
7A14A
100
AcDbSymbolTableRecord
100
AcDbLayerTableRecord
  2
0
 70
     0
 62
     7
  6
Continuous
370
    -3
390
7A13B
  0
LAYER
  5
7
330
7A14A
100
AcDbSymbolTableRecord
100
AcDbLayerTableRecord
  2
Level 1
 70
     0
 62
     7
  6
Continuous
370
     0
390
7A13B
  0
LAYER
  5
8
330
7A14A
100
AcDbSymbolTableRecord
100
AcDbLayerTableRecord
  2
Level 2
 70
     0
 62
     7
  6
Continuous
370
     0
390
7A13B
  0
LAYER
  5
9
330
7A14A
100
AcDbSymbolTableRecord
100
AcDbLayerTableRecord
  2
Level 3
 70
     0
 62
     7
  6
Continuous
370
     0
390
7A13B
  0
LAYER
  5
A
330
7A14A
100
AcDbSymbolTableRecord
100
AcDbLayerTableRecord
  2
Level 4
 70
     0
 62
     7
  6
Continuous
370
     0
390
7A13B
  0
LAYER
  5
B
330
7A14A
100
AcDbSymbolTableRecord
100
AcDbLayerTableRecord
  2
Level 5
 70
     0
 62
     7
  6
Continuous
370
     0
390
7A13B
  0
LAYER
  5
C
330
7A14A
100
AcDbSymbolTableRecord
100
AcDbLayerTableRecord
  2
Level 6
 70
     0
 62
     7
  6
Continuous
370
     0
390
7A13B
  0
LAYER
  5
D
330
7A14A
100
AcDbSymbolTableRecord
100
AcDbLayerTableRecord
  2
Level 7
 70
     0
 62
     7
  6
Continuous
370
     0
390
7A13B
  0
LAYER
  5
E
330
7A14A
100
AcDbSymbolTableRecord
100
AcDbLayerTableRecord
  2
Level 8
 70
     0
 62
     7
  6
Continuous
370
     0
390
7A13B
  0
LAYER
  5
F
330
7A14A
100
AcDbSymbolTableRecord
100
AcDbLayerTableRecord
  2
Level 9
 70
     0
 62
     7
  6
Continuous
370
     0
390
7A13B
  0
LAYER
  5
10
330
7A14A
100
AcDbSymbolTableRecord
100
AcDbLayerTableRecord
  2
Level 10
 70
     0
 62
     7
  6
Continuous
370
     0
390
7A13B
  0
LAYER
  5
11
330
7A14A
100
AcDbSymbolTableRecord
100
AcDbLayerTableRecord
  2
Level 11
 70
     0
 62
     7
  6
Continuous
370
     0
390
7A13B
  0
LAYER
  5
12
330
7A14A
100
AcDbSymbolTableRecord
100
AcDbLayerTableRecord
  2
Level 12
 70
     0
 62
     7
  6
Continuous
370
     0
390
7A13B
  0
LAYER
  5
13
330
7A14A
100
AcDbSymbolTableRecord
100
AcDbLayerTableRecord
  2
Level 13
 70
     0
 62
     7
  6
Continuous
370
     0
390
7A13B
  0
LAYER
  5
14
330
7A14A
100
AcDbSymbolTableRecord
100
AcDbLayerTableRecord
  2
Level 14
 70
     0
 62
     7
  6
Continuous
370
     0
390
7A13B
  0
LAYER
  5
15
330
7A14A
100
AcDbSymbolTableRecord
100
AcDbLayerTableRecord
  2
Level 15
 70
     0
 62
     7
  6
Continuous
370
     0
390
7A13B
  0
LAYER
  5
16
330
7A14A
100
AcDbSymbolTableRecord
100
AcDbLayerTableRecord
  2
Level 16
 70
     0
 62
     7
  6
Continuous
370
     0
390
7A13B
  0
LAYER
  5
17
330
7A14A
100
AcDbSymbolTableRecord
100
AcDbLayerTableRecord
  2
Level 17
 70
     0
 62
     7
  6
Continuous
370
     0
390
7A13B
  0
LAYER
  5
18
330
7A14A
100
AcDbSymbolTableRecord
100
AcDbLayerTableRecord
  2
Level 18
 70
     0
 62
     7
  6
Continuous
370
     0
390
7A13B
  0
LAYER
  5
19
330
7A14A
100
AcDbSymbolTableRecord
100
AcDbLayerTableRecord
  2
Level 19
 70
     0
 62
     7
  6
Continuous
370
     0
390
7A13B
  0
LAYER
  5
1A
330
7A14A
100
AcDbSymbolTableRecord
100
AcDbLayerTableRecord
  2
Level 20
 70
     0
 62
     7
  6
Continuous
370
     0
390
7A13B
  0
LAYER
  5
1B
330
7A14A
100
AcDbSymbolTableRecord
100
AcDbLayerTableRecord
  2
Level 21
 70
     0
 62
     7
  6
Continuous
370
     0
390
7A13B
  0
LAYER
  5
1C
330
7A14A
100
AcDbSymbolTableRecord
100
AcDbLayerTableRecord
  2
Level 22
 70
     0
 62
     7
  6
Continuous
370
     0
390
7A13B
  0
LAYER
  5
1D
330
7A14A
100
AcDbSymbolTableRecord
100
AcDbLayerTableRecord
  2
Level 23
 70
     0
 62
     7
  6
Continuous
370
     0
390
7A13B
  0
LAYER
  5
1E
330
7A14A
100
AcDbSymbolTableRecord
100
AcDbLayerTableRecord
  2
Level 24
 70
     0
 62
     7
  6
Continuous
370
     0
390
7A13B
  0
LAYER
  5
1F
330
7A14A
100
AcDbSymbolTableRecord
100
AcDbLayerTableRecord
  2
Level 25
 70
     0
 62
     7
  6
Continuous
370
     0
390
7A13B
  0
LAYER
  5
20
330
7A14A
100
AcDbSymbolTableRecord
100
AcDbLayerTableRecord
  2
Level 26
 70
     0
 62
     7
  6
Continuous
370
     0
390
7A13B
  0
LAYER
  5
21
330
7A14A
100
AcDbSymbolTableRecord
100
AcDbLayerTableRecord
  2
Level 27
 70
     0
 62
     7
  6
Continuous
370
     0
390
7A13B
  0
LAYER
  5
22
330
7A14A
100
AcDbSymbolTableRecord
100
AcDbLayerTableRecord
  2
Level 28
 70
     0
 62
     7
  6
Continuous
370
     0
390
7A13B
  0
LAYER
  5
23
330
7A14A
100
AcDbSymbolTableRecord
100
AcDbLayerTableRecord
  2
Level 29
 70
     0
 62
     7
  6
Continuous
370
     0
390
7A13B
  0
LAYER
  5
24
330
7A14A
100
AcDbSymbolTableRecord
100
AcDbLayerTableRecord
  2
Level 30
 70
     0
 62
     7
  6
Continuous
370
     0
390
7A13B
  0
LAYER
  5
25
330
7A14A
100
AcDbSymbolTableRecord
100
AcDbLayerTableRecord
  2
Level 31
 70
     0
 62
     7
  6
Continuous
370
     0
390
7A13B
  0
LAYER
  5
26
330
7A14A
100
AcDbSymbolTableRecord
100
AcDbLayerTableRecord
  2
Level 32
 70
     0
 62
     7
  6
Continuous
370
     0
390
7A13B
  0
LAYER
  5
27
330
7A14A
100
AcDbSymbolTableRecord
100
AcDbLayerTableRecord
  2
Level 33
 70
     0
 62
     7
  6
Continuous
370
     0
390
7A13B
  0
LAYER
  5
28
330
7A14A
100
AcDbSymbolTableRecord
100
AcDbLayerTableRecord
  2
Level 34
 70
     0
 62
     7
  6
Continuous
370
     0
390
7A13B
  0
LAYER
  5
29
330
7A14A
100
AcDbSymbolTableRecord
100
AcDbLayerTableRecord
  2
Level 35
 70
     0
 62
     7
  6
Continuous
370
     0
390
7A13B
  0
LAYER
  5
2A
330
7A14A
100
AcDbSymbolTableRecord
100
AcDbLayerTableRecord
  2
Level 36
 70
     0
 62
     7
  6
Continuous
370
     0
390
7A13B
  0
LAYER
  5
2B
330
7A14A
100
AcDbSymbolTableRecord
100
AcDbLayerTableRecord
  2
Level 37
 70
     0
 62
     7
  6
Continuous
370
     0
390
7A13B
  0
LAYER
  5
2C
330
7A14A
100
AcDbSymbolTableRecord
100
AcDbLayerTableRecord
  2
Level 38
 70
     0
 62
     7
  6
Continuous
370
     0
390
7A13B
  0
LAYER
  5
2D
330
7A14A
100
AcDbSymbolTableRecord
100
AcDbLayerTableRecord
  2
Level 39
 70
     0
 62
     7
  6
Continuous
370
     0
390
7A13B
  0
LAYER
  5
2E
330
7A14A
100
AcDbSymbolTableRecord
100
AcDbLayerTableRecord
  2
Level 40
 70
     0
 62
     7
  6
Continuous
370
     0
390
7A13B
  0
LAYER
  5
2F
330
7A14A
100
AcDbSymbolTableRecord
100
AcDbLayerTableRecord
  2
Level 41
 70
     0
 62
     7
  6
Continuous
370
     0
390
7A13B
  0
LAYER
  5
30
330
7A14A
100
AcDbSymbolTableRecord
100
AcDbLayerTableRecord
  2
Level 42
 70
     0
 62
     7
  6
Continuous
370
     0
390
7A13B
  0
LAYER
  5
31
330
7A14A
100
AcDbSymbolTableRecord
100
AcDbLayerTableRecord
  2
Level 43
 70
     0
 62
     7
  6
Continuous
370
     0
390
7A13B
  0
LAYER
  5
32
330
7A14A
100
AcDbSymbolTableRecord
100
AcDbLayerTableRecord
  2
Level 44
 70
     0
 62
     7
  6
Continuous
370
     0
390
7A13B
  0
LAYER
  5
33
330
7A14A
100
AcDbSymbolTableRecord
100
AcDbLayerTableRecord
  2
Level 45
 70
     0
 62
     7
  6
Continuous
370
     0
390
7A13B
  0
LAYER
  5
34
330
7A14A
100
AcDbSymbolTableRecord
100
AcDbLayerTableRecord
  2
Level 46
 70
     0
 62
     7
  6
Continuous
370
     0
390
7A13B
  0
LAYER
  5
35
330
7A14A
100
AcDbSymbolTableRecord
100
AcDbLayerTableRecord
  2
Level 47
 70
     0
 62
     7
  6
Continuous
370
     0
390
7A13B
  0
LAYER
  5
36
330
7A14A
100
AcDbSymbolTableRecord
100
AcDbLayerTableRecord
  2
Level 48
 70
     0
 62
     7
  6
Continuous
370
     0
390
7A13B
  0
LAYER
  5
37
330
7A14A
100
AcDbSymbolTableRecord
100
AcDbLayerTableRecord
  2
Level 49
 70
     0
 62
     7
  6
Continuous
370
     0
390
7A13B
  0
LAYER
  5
38
330
7A14A
100
AcDbSymbolTableRecord
100
AcDbLayerTableRecord
  2
Level 50
 70
     0
 62
     7
  6
Continuous
370
     0
390
7A13B
  0
LAYER
  5
39
330
7A14A
100
AcDbSymbolTableRecord
100
AcDbLayerTableRecord
  2
Level 51
 70
     0
 62
     7
  6
Continuous
370
     0
390
7A13B
  0
LAYER
  5
3A
330
7A14A
100
AcDbSymbolTableRecord
100
AcDbLayerTableRecord
  2
Level 52
 70
     0
 62
     7
  6
Continuous
370
     0
390
7A13B
  0
LAYER
  5
3B
330
7A14A
100
AcDbSymbolTableRecord
100
AcDbLayerTableRecord
  2
Level 53
 70
     0
 62
     7
  6
Continuous
370
     0
390
7A13B
  0
LAYER
  5
3C
330
7A14A
100
AcDbSymbolTableRecord
100
AcDbLayerTableRecord
  2
Level 54
 70
     0
 62
     7
  6
Continuous
370
     0
390
7A13B
  0
LAYER
  5
3D
330
7A14A
100
AcDbSymbolTableRecord
100
AcDbLayerTableRecord
  2
Level 55
 70
     0
 62
     7
  6
Continuous
370
     0
390
7A13B
  0
LAYER
  5
3E
330
7A14A
100
AcDbSymbolTableRecord
100
AcDbLayerTableRecord
  2
Level 56
 70
     0
 62
     7
  6
Continuous
370
     0
390
7A13B
  0
LAYER
  5
3F
330
7A14A
100
AcDbSymbolTableRecord
100
AcDbLayerTableRecord
  2
Level 57
 70
     0
 62
     7
  6
Continuous
370
     0
390
7A13B
  0
LAYER
  5
40
330
7A14A
100
AcDbSymbolTableRecord
100
AcDbLayerTableRecord
  2
Level 58
 70
     0
 62
     7
  6
Continuous
370
     0
390
7A13B
  0
LAYER
  5
41
330
7A14A
100
AcDbSymbolTableRecord
100
AcDbLayerTableRecord
  2
Level 59
 70
     0
 62
     7
  6
Continuous
370
     0
390
7A13B
  0
LAYER
  5
42
330
7A14A
100
AcDbSymbolTableRecord
100
AcDbLayerTableRecord
  2
Level 60
 70
     0
 62
     7
  6
Continuous
370
     0
390
7A13B
  0
LAYER
  5
43
330
7A14A
100
AcDbSymbolTableRecord
100
AcDbLayerTableRecord
  2
Level 61
 70
     0
 62
     7
  6
Continuous
370
     0
390
7A13B
  0
LAYER
  5
44
330
7A14A
100
AcDbSymbolTableRecord
100
AcDbLayerTableRecord
  2
Level 62
 70
     0
 62
     7
  6
Continuous
370
     0
390
7A13B
  0
LAYER
  5
45
330
7A14A
100
AcDbSymbolTableRecord
100
AcDbLayerTableRecord
  2
Level 63
 70
     0
 62
     7
  6
Continuous
370
     0
390
7A13B
  0
LAYER
  5
50CA0
330
7A14A
100
AcDbSymbolTableRecord
100
AcDbLayerTableRecord
  2
25
 70
     0
 62
     7
  6
Continuous
370
     0
390
7A13B
  0
ENDTAB
  0
TABLE
  2
STYLE
  5
7A14B
330
0
100
AcDbSymbolTable
 70
     2
  0
STYLE
  5
7A13D
330
7A14B
100
AcDbSymbolTableRecord
100
AcDbTextStyleTableRecord
  2
Standard
 70
     0
 40
0.0
 41
1.0
 50
0.0
 71
     0
 42
100.0
  3
txt
  4

  0
STYLE
  5
7A161
330
7A14B
100
AcDbSymbolTableRecord
100
AcDbTextStyleTableRecord
  2
Style-ENGINEERING
 70
     0
 40
0.0
 41
1.0
 50
0.0
 71
     0
 42
0.2
  3
ENGINEERING.shx
  4

  0
ENDTAB
  0
TABLE
  2
VIEW
  5
7A14E
330
0
100
AcDbSymbolTable
 70
     0
  0
ENDTAB
  0
TABLE
  2
UCS
  5
7A14F
330
0
100
AcDbSymbolTable
 70
     0
  0
ENDTAB
  0
TABLE
  2
APPID
  5
7A151
330
0
100
AcDbSymbolTable
 70
     1
  0
APPID
  5
7A159
330
7A151
100
AcDbSymbolTableRecord
100
AcDbRegAppTableRecord
  2
ACAD
 70
     0
  0
ENDTAB
  0
TABLE
  2
DIMSTYLE
  5
7A152
330
0
100
AcDbSymbolTable
 70
     1
100
AcDbDimStyleTable
  0
DIMSTYLE
105
7A13F
330
7A152
100
AcDbSymbolTableRecord
100
AcDbDimStyleTableRecord
  2
Standard
 70
     0
340
7A13D
  0
ENDTAB
  0
TABLE
  2
BLOCK_RECORD
  5
7A141
330
0
100
AcDbSymbolTable
 70
    25
  0
BLOCK_RECORD
  5
7A142
330
7A141
100
AcDbSymbolTableRecord
100
AcDbBlockTableRecord
  2
*Model_Space
340
7A145
  0
BLOCK_RECORD
  5
7A146
330
7A141
100
AcDbSymbolTableRecord
100
AcDbBlockTableRecord
  2
*Paper_Space
340
7A149
  0
BLOCK_RECORD
  5
7A12A
330
7A141
100
AcDbSymbolTableRecord
100
AcDbBlockTableRecord
  2
*U0
340
0
  0
BLOCK_RECORD
  5
7A131
330
7A141
100
AcDbSymbolTableRecord
100
AcDbBlockTableRecord
  2
*U1
340
0
  0
BLOCK_RECORD
  5
7A162
330
7A141
100
AcDbSymbolTableRecord
100
AcDbBlockTableRecord
  2
TerminatorOpen_0.5
340
0
  0
BLOCK_RECORD
  5
7A169
330
7A141
100
AcDbSymbolTableRecord
100
AcDbBlockTableRecord
  2
Feature Solid
340
0
102
{BLKREFS
331
79EF8
331
79F0A
331
79F1C
331
79F2E
331
79F40
331
79F52
331
79F64
331
79F76
331
79F88
331
79F9A
331
79FAC
331
79FBE
331
79FD0
331
79FE2
331
79FF4
331
7A006
331
7A018
331
7A02A
331
7A03C
331
7A04E
331
7A060
331
7A072
331
7A084
331
7A096
331
7A0A8
102
}
  0
BLOCK_RECORD
  5
7A16C
330
7A141
100
AcDbSymbolTableRecord
100
AcDbBlockTableRecord
  2
SLAB
340
0
102
{BLKREFS
331
79EF9
102
}
  0
BLOCK_RECORD
  5
7A16F
330
7A141
100
AcDbSymbolTableRecord
100
AcDbBlockTableRecord
  2
Feature Solid_1
340
0
102
{BLKREFS
331
7A0B6
102
}
  0
BLOCK_RECORD
  5
7A172
330
7A141
100
AcDbSymbolTableRecord
100
AcDbBlockTableRecord
  2
UNITE
340
0
102
{BLKREFS
331
7A0B7
102
}
  0
BLOCK_RECORD
  5
7A175
330
7A141
100
AcDbSymbolTableRecord
100
AcDbBlockTableRecord
  2
Feature Solid_2
340
0
102
{BLKREFS
331
7A0BE
102
}
  0
BLOCK_RECORD
  5
7A178
330
7A141
100
AcDbSymbolTableRecord
100
AcDbBlockTableRecord
  2
DDREVL
340
0
102
{BLKREFS
331
7A0BF
102
}
  0
BLOCK_RECORD
  5
7A17B
330
7A141
100
AcDbSymbolTableRecord
100
AcDbBlockTableRecord
  2
Feature Solid_3
340
0
102
{BLKREFS
331
7A0CD
102
}
  0
BLOCK_RECORD
  5
7A17E
330
7A141
100
AcDbSymbolTableRecord
100
AcDbBlockTableRecord
  2
UNITE_1
340
0
102
{BLKREFS
331
7A0CE
102
}
  0
BLOCK_RECORD
  5
7A181
330
7A141
100
AcDbSymbolTableRecord
100
AcDbBlockTableRecord
  2
Feature Solid_4
340
0
102
{BLKREFS
331
7A0D5
102
}
  0
BLOCK_RECORD
  5
7A184
330
7A141
100
AcDbSymbolTableRecord
100
AcDbBlockTableRecord
  2
DDREVL_1
340
0
102
{BLKREFS
331
7A0D6
102
}
  0
BLOCK_RECORD
  5
7A187
330
7A141
100
AcDbSymbolTableRecord
100
AcDbBlockTableRecord
  2
Feature Solid_5
340
0
102
{BLKREFS
331
7A0E4
102
}
  0
BLOCK_RECORD
  5
7A18A
330
7A141
100
AcDbSymbolTableRecord
100
AcDbBlockTableRecord
  2
UNITE_2
340
0
102
{BLKREFS
331
7A0E5
102
}
  0
BLOCK_RECORD
  5
7A18D
330
7A141
100
AcDbSymbolTableRecord
100
AcDbBlockTableRecord
  2
Feature Solid_6
340
0
102
{BLKREFS
331
7A0EC
102
}
  0
BLOCK_RECORD
  5
7A190
330
7A141
100
AcDbSymbolTableRecord
100
AcDbBlockTableRecord
  2
DDREVL_2
340
0
102
{BLKREFS
331
7A0ED
102
}
  0
BLOCK_RECORD
  5
7A193
330
7A141
100
AcDbSymbolTableRecord
100
AcDbBlockTableRecord
  2
Feature Solid_7
340
0
102
{BLKREFS
331
7A0FB
102
}
  0
BLOCK_RECORD
  5
7A196
330
7A141
100
AcDbSymbolTableRecord
100
AcDbBlockTableRecord
  2
UNITE_3
340
0
102
{BLKREFS
331
7A0FC
102
}
  0
BLOCK_RECORD
  5
7A199
330
7A141
100
AcDbSymbolTableRecord
100
AcDbBlockTableRecord
  2
Feature Solid_8
340
0
102
{BLKREFS
331
7A103
102
}
  0
BLOCK_RECORD
  5
7A19C
330
7A141
100
AcDbSymbolTableRecord
100
AcDbBlockTableRecord
  2
DDREVL_3
340
0
102
{BLKREFS
331
7A104
102
}
  0
BLOCK_RECORD
  5
7A19F
330
7A141
100
AcDbSymbolTableRecord
100
AcDbBlockTableRecord
  2
Feature Solid_9
340
0
102
{BLKREFS
331
7A112
102
}
  0
BLOCK_RECORD
  5
7A1A2
330
7A141
100
AcDbSymbolTableRecord
100
AcDbBlockTableRecord
  2
UNITE_4
340
0
102
{BLKREFS
331
7A113
102
}
  0
BLOCK_RECORD
  5
7A1A5
330
7A141
100
AcDbSymbolTableRecord
100
AcDbBlockTableRecord
  2
Feature Solid_10
340
0
102
{BLKREFS
331
7A11A
102
}
  0
BLOCK_RECORD
  5
7A1A8
330
7A141
100
AcDbSymbolTableRecord
100
AcDbBlockTableRecord
  2
DDREVL_4
340
0
102
{BLKREFS
331
7A11B
102
}
  0
ENDTAB
  0
ENDSEC
  0
SECTION
  2
BLOCKS
  0
BLOCK
  5
7A143
330
7A142
100
AcDbEntity
  8
0
100
AcDbBlockBegin
  2
*Model_Space
 70
     0
 71
     0
 10
0.0
 20
0.0
 30
0.0
  3
*Model_Space
  1

  0
ENDBLK
  5
7A144
330
7A142
100
AcDbEntity
  8
0
100
AcDbBlockEnd
  0
BLOCK
  5
7A147
330
7A146
100
AcDbEntity
 67
     1
  8
0
100
AcDbBlockBegin
  2
*Paper_Space
 70
     0
 71
     0
 10
0.0
 20
0.0
 30
0.0
  3
*Paper_Space
  1

  0
ENDBLK
  5
7A148
330
7A146
100
AcDbEntity
 67
     1
  8
0
100
AcDbBlockEnd
  0
BLOCK
  5
7A15D
330
7A12A
100
AcDbEntity
  8
0
100
AcDbBlockBegin
  2
*U0
 70
     1
 71
     0
 10
0.0
 20
0.0
 30
0.0
  3
*U0
  1

  0
SPLINE
  5
7A12B
330
7A12A
100
AcDbEntity
  8
0
  6
Continuous
 62
    98
370
     0
100
AcDbSpline
210
0.0
220
0.0
230
1.0
 70
    15
 71
     2
 72
    14
 73
    11
 74
     0
 42
0.0000000001
 43
0.00000001
 40
0.0
 40
0.0
 40
0.0
 40
0.2
 40
0.2
 40
0.4
 40
0.4
 40
0.6
 40
0.6
 40
0.8
 40
0.8
 40
1.0
 40
1.0
 40
1.0
 10
59.40904430004979
 20
27.63510564892504
 30
-0.0000000000018363
 41
1.0
 10
29.7754320707575
 20
26.57542042571442
 30
-0.0000000000017874
 41
0.980826806734691
 10
3.608037241450468
 20
21.82001628873698
 30
-0.0000000000017442
 41
1.0
 10
-13.70855797661428
 20
18.67306914036723
 30
0.000000000000147
 41
0.991466185197326
 10
-27.99608089686124
 20
14.14095354483443
 30
0.0000000000001705
 41
1.0
 10
-42.60448175839859
 20
9.507052921196886
 30
0.0000000000001946
 41
0.9910837346544785
 10
-53.02268706968245
 20
3.751633361907683
 30
0.0000000000002118
 41
1.0
 10
-174.6236973277235
 20
-63.42546787168367
 30
-0.0000000000014503
 41
0.5374250052366121
 10
59.40904430004982
 20
-71.79437801775345
 30
-0.0000000000018363
 41
1.0
 10
59.40904430004908
 20
-22.07963618441424
 30
-0.0000000000018626
 41
1.0
 10
59.40904430004979
 20
27.63510564892504
 30
-0.0000000000018363
 41
1.0
  0
ENDBLK
  5
7A15E
330
7A12A
100
AcDbEntity
  8
0
100
AcDbBlockEnd
  0
BLOCK
  5
7A15F
330
7A131
100
AcDbEntity
  8
0
100
AcDbBlockBegin
  2
*U1
 70
     1
 71
     0
 10
0.0
 20
0.0
 30
0.0
  3
*U1
  1

  0
SPLINE
  5
7A132
330
7A131
100
AcDbEntity
  8
0
  6
Continuous
 62
    98
370
     0
100
AcDbSpline
210
0.0
220
0.0
230
1.0
 70
    15
 71
     2
 72
    14
 73
    11
 74
     0
 42
0.0000000001
 43
0.00000001
 40
0.0
 40
0.0
 40
0.0
 40
0.2
 40
0.2
 40
0.4
 40
0.4
 40
0.6
 40
0.6
 40
0.8
 40
0.8
 40
1.0
 40
1.0
 40
1.0
 10
59.40904430004839
 20
27.63510564892481
 30
-0.0000000000000357
 41
1.0
 10
29.77543207075611
 20
26.57542042571419
 30
-0.0000000000001018
 41
0.980826806734691
 10
3.608037241449085
 20
21.82001628873676
 30
-0.0000000000001602
 41
1.0
 10
-13.70855797661658
 20
18.673069140367
 30
-0.0000000000001988
 41
0.991466185197326
 10
-27.99608089686355
 20
14.14095354483421
 30
-0.0000000000002307
 41
1.0
 10
-42.60448175840088
 20
9.507052921196653
 30
-0.0000000000002633
 41
0.9910837346544785
 10
-53.02268706968475
 20
3.751633361907454
 30
-0.0000000000002866
 41
1.0
 10
-174.6236973277248
 20
-63.42546787168394
 30
-0.0000000000005579
 41
0.5374250052366121
 10
59.40904430004843
 20
-71.7943780177537
 30
-0.0000000000000357
 41
1.0
 10
59.40904430004861
 20
-22.07963618441447
 30
0.0
 41
1.0
 10
59.40904430004839
 20
27.63510564892481
 30
-0.0000000000000357
 41
1.0
  0
ENDBLK
  5
7A160
330
7A131
100
AcDbEntity
  8
0
100
AcDbBlockEnd
  0
BLOCK
  5
7A166
330
7A162
100
AcDbEntity
  8
0
100
AcDbBlockBegin
  2
TerminatorOpen_0.5
 70
     0
 71
     0
 10
0.0
 20
0.0
 30
0.0
  3
TerminatorOpen_0.5
  1

  0
LINE
  5
7A163
330
7A162
100
AcDbEntity
  8
0
  6
ByBlock
 62
     0
370
    -2
100
AcDbLine
 10
0.0
 20
0.0
 30
0.0
 11
-1.0
 21
0.0
 31
0.0
  0
LINE
  5
7A164
330
7A162
100
AcDbEntity
  8
0
  6
ByBlock
 62
     0
370
    -2
100
AcDbLine
 10
0.0
 20
0.0
 30
0.0
 11
-1.0
 21
0.25
 31
0.0
  0
LINE
  5
7A165
330
7A162
100
AcDbEntity
  8
0
  6
ByBlock
 62
     0
370
    -2
100
AcDbLine
 10
0.0
 20
0.0
 30
0.0
 11
-1.0
 21
-0.25
 31
0.0
  0
ENDBLK
  5
7A167
330
7A162
100
AcDbEntity
  8
0
100
AcDbBlockEnd
  0
BLOCK
  5
7A16A
330
7A169
100
AcDbEntity
  8
0
100
AcDbBlockBegin
  2
Feature Solid
 70
     0
 71
     0
 10
0.0
 20
0.0
 30
0.0
  3
Feature Solid
  1

  0
INSERT
  5
79EF9
330
7A169
100
AcDbEntity
  8
Level 25
  6
Continuous
 62
   174
370
     0
100
AcDbBlockReference
  2
SLAB
 10
2052.064413
 20
-6707.78686
 30
0.0
  0
ENDBLK
  5
7A16B
330
7A169
100
AcDbEntity
  8
0
100
AcDbBlockEnd
  0
BLOCK
  5
7A16D
330
7A16C
100
AcDbEntity
  8
0
100
AcDbBlockBegin
  2
SLAB
 70
     0
 71
     0
 10
0.0
 20
0.0
 30
0.0
  3
SLAB
  1

  0
POINT
  5
79EFA
330
7A16C
100
AcDbEntity
  8
Level 25
  6
Continuous
 62
   174
370
     0
100
AcDbPoint
 10
-2084.564063
 20
6675.286674
 30
0.0
  0
LINE
  5
79EFB
330
7A16C
100
AcDbEntity
  8
Level 25
  6
Continuous
 62
   174
370
     0
100
AcDbLine
 10
-2084.564063
 20
6675.286674
 30
0.0
 11
-2019.564063
 21
6675.286674
 31
0.0
  0
POINT
  5
79EFC
330
7A16C
100
AcDbEntity
  8
Level 25
  6
Continuous
 62
   174
370
     0
100
AcDbPoint
 10
-2019.564063
 20
6675.286674
 30
0.0
  0
LINE
  5
79EFD
330
7A16C
100
AcDbEntity
  8
Level 25
  6
Continuous
 62
   174
370
     0
100
AcDbLine
 10
-2019.564063
 20
6675.286674
 30
0.0
 11
-2084.564063
 21
6675.286674
 31
0.0
  0
LINE
  5
79EFE
330
7A16C
100
AcDbEntity
  8
Level 25
  6
Continuous
 62
   174
370
     0
100
AcDbLine
 10
-2084.564063
 20
6740.286674
 30
0.0
 11
-2084.564063
 21
6675.286674
 31
0.0
  0
LINE
  5
79EFF
330
7A16C
100
AcDbEntity
  8
Level 25
  6
Continuous
 62
   174
370
     0
100
AcDbLine
 10
-2019.564063
 20
6740.286674
 30
0.0
 11
-2019.564063
 21
6675.286674
 31
0.0
  0
LINE
  5
79F00
330
7A16C
100
AcDbEntity
  8
Level 25
  6
Continuous
 62
   174
370
     0
100
AcDbLine
 10
-2019.564063
 20
6740.286674
 30
0.0
 11
-2019.564063
 21
6675.286674
 31
0.0
  0
LINE
  5
79F01
330
7A16C
100
AcDbEntity
  8
Level 25
  6
Continuous
 62
   174
370
     0
100
AcDbLine
 10
-2084.564063
 20
6740.286674
 30
0.0
 11
-2084.564063
 21
6675.286674
 31
0.0
  0
LINE
  5
79F02
330
7A16C
100
AcDbEntity
  8
Level 25
  6
Continuous
 62
   174
370
     0
100
AcDbLine
 10
-2084.564063
 20
6740.286674
 30
0.0
 11
-2019.564063
 21
6740.286674
 31
0.0
  0
POINT
  5
79F03
330
7A16C
100
AcDbEntity
  8
Level 25
  6
Continuous
 62
   174
370
     0
100
AcDbPoint
 10
-2019.564063
 20
6740.286674
 30
0.0
  0
LINE
  5
79F04
330
7A16C
100
AcDbEntity
  8
Level 25
  6
Continuous
 62
   174
370
     0
100
AcDbLine
 10
-2019.564063
 20
6740.286674
 30
0.0
 11
-2084.564063
 21
6740.286674
 31
0.0
  0
POINT
  5
79F05
330
7A16C
100
AcDbEntity
  8
Level 25
  6
Continuous
 62
   174
370
     0
100
AcDbPoint
 10
-2084.564063
 20
6740.286674
 30
0.0
  0
ENDBLK
  5
7A16E
330
7A16C
100
AcDbEntity
  8
0
100
AcDbBlockEnd
  0
BLOCK
  5
7A170
330
7A16F
100
AcDbEntity
  8
0
100
AcDbBlockBegin
  2
Feature Solid_1
 70
     0
 71
     0
 10
0.0
 20
0.0
 30
0.0
  3
Feature Solid_1
  1

  0
INSERT
  5
7A0B7
330
7A16F
100
AcDbEntity
  8
Level 27
  6
Continuous
 62
    12
370
     0
100
AcDbBlockReference
  2
UNITE
 10
3450.709574
 20
-5991.869625
 30
0.0
  0
ENDBLK
  5
7A171
330
7A16F
100
AcDbEntity
  8
0
100
AcDbBlockEnd
  0
BLOCK
  5
7A173
330
7A172
100
AcDbEntity
  8
0
100
AcDbBlockBegin
  2
UNITE
 70
     0
 71
     0
 10
0.0
 20
0.0
 30
0.0
  3
UNITE
  1

  0
INSERT
  5
7A0BE
330
7A172
100
AcDbEntity
  8
Level 27
  6
Continuous
 62
    12
370
     0
100
AcDbBlockReference
  2
Feature Solid_2
 10
0.0
 20
0.0
 30
0.0
  0
ENDBLK
  5
7A174
330
7A172
100
AcDbEntity
  8
0
100
AcDbBlockEnd
  0
BLOCK
  5
7A176
330
7A175
100
AcDbEntity
  8
0
100
AcDbBlockBegin
  2
Feature Solid_2
 70
     0
 71
     0
 10
0.0
 20
0.0
 30
0.0
  3
Feature Solid_2
  1

  0
INSERT
  5
7A0BF
330
7A175
100
AcDbEntity
  8
Level 27
  6
Continuous
 62
    12
370
     0
100
AcDbBlockReference
  2
DDREVL
 10
0.0
 20
0.0
 30
0.0
  0
ENDBLK
  5
7A177
330
7A175
100
AcDbEntity
  8
0
100
AcDbBlockEnd
  0
BLOCK
  5
7A179
330
7A178
100
AcDbEntity
  8
0
100
AcDbBlockBegin
  2
DDREVL
 70
     0
 71
     0
 10
0.0
 20
0.0
 30
0.0
  3
DDREVL
  1

  0
ARC
  5
7A0C0
330
7A178
100
AcDbEntity
  8
Level 27
  6
Continuous
 62
    12
370
     0
100
AcDbCircle
 10
-3450.70982
 20
5991.869689
 30
0.0
 40
15.9999999999982
100
AcDbArc
 50
0.0
 51
360.0
  0
ARC
  5
7A0C1
330
7A178
100
AcDbEntity
  8
Level 27
  6
Continuous
 62
    12
370
     0
100
AcDbCircle
 10
-3450.70982
 20
5991.869689
 30
0.0
 40
15.99999999999817
100
AcDbArc
 50
0.0
 51
360.0
  0
LINE
  5
7A0C2
330
7A178
100
AcDbEntity
  8
Level 27
  6
Continuous
 62
    12
370
     0
100
AcDbLine
 10
-3442.70982
 20
6005.726096
 30
0.0
 11
-3375.70982
 21
6121.7735
 31
0.0
  0
LINE
  5
7A0C3
330
7A178
100
AcDbEntity
  8
Level 27
  6
Continuous
 62
    12
370
     0
100
AcDbLine
 10
-3436.853414
 20
5983.869689
 30
0.0
 11
-3320.80601
 21
5916.869689
 31
0.0
  0
LINE
  5
7A0C4
330
7A178
100
AcDbEntity
  8
Level 27
  6
Continuous
 62
    12
370
     0
100
AcDbLine
 10
-3458.70982
 20
5978.013283
 30
0.0
 11
-3525.70982
 21
5861.965879
 31
0.0
  0
LINE
  5
7A0C5
330
7A178
100
AcDbEntity
  8
Level 27
  6
Continuous
 62
    12
370
     0
100
AcDbLine
 10
-3464.566227
 20
5999.869689
 30
0.0
 11
-3580.613631
 21
6066.869689
 31
0.0
  0
ARC
  5
7A0C6
330
7A178
100
AcDbEntity
  8
Level 27
  6
Continuous
 62
    12
370
     0
100
AcDbCircle
 10
-3450.70982
 20
5991.869689
 30
0.0
 40
111.5795680221043
100
AcDbArc
 50
0.0
 51
360.0
  0
ARC
  5
7A0C7
330
7A178
100
AcDbEntity
  8
Level 27
  6
Continuous
 62
    12
370
     0
100
AcDbCircle
 10
-3450.70982
 20
5991.869689
 30
0.0
 40
149.9999999999968
100
AcDbArc
 50
0.0
 51
360.0
  0
ARC
  5
7A0C8
330
7A178
100
AcDbEntity
  8
Level 27
  6
Continuous
 62
    12
370
     0
100
AcDbCircle
 10
-3450.70982
 20
5991.869689
 30
0.0
 40
111.5795680221042
100
AcDbArc
 50
0.0
 51
360.0
  0
POINT
  5
7A0C9
330
7A178
100
AcDbEntity
  8
Level 27
  6
Continuous
 62
    12
370
     0
100
AcDbPoint
 10
-3458.70982
 20
5978.013283
 30
0.0
  0
POINT
  5
7A0CA
330
7A178
100
AcDbEntity
  8
Level 27
  6
Continuous
 62
    12
370
     0
100
AcDbPoint
 10
-3464.566227
 20
5999.869689
 30
0.0
  0
POINT
  5
7A0CB
330
7A178
100
AcDbEntity
  8
Level 27
  6
Continuous
 62
    12
370
     0
100
AcDbPoint
 10
-3442.70982
 20
6005.726096
 30
0.0
  0
POINT
  5
7A0CC
330
7A178
100
AcDbEntity
  8
Level 27
  6
Continuous
 62
    12
370
     0
100
AcDbPoint
 10
-3436.853414
 20
5983.869689
 30
0.0
  0
ENDBLK
  5
7A17A
330
7A178
100
AcDbEntity
  8
0
100
AcDbBlockEnd
  0
BLOCK
  5
7A17C
330
7A17B
100
AcDbEntity
  8
0
100
AcDbBlockBegin
  2
Feature Solid_3
 70
     0
 71
     0
 10
0.0
 20
0.0
 30
0.0
  3
Feature Solid_3
  1

  0
INSERT
  5
7A0CE
330
7A17B
100
AcDbEntity
  8
Level 28
  6
Continuous
 62
    12
370
     0
100
AcDbBlockReference
  2
UNITE_1
 10
3450.709574
 20
-5991.869625
 30
0.0
  0
ENDBLK
  5
7A17D
330
7A17B
100
AcDbEntity
  8
0
100
AcDbBlockEnd
  0
BLOCK
  5
7A17F
330
7A17E
100
AcDbEntity
  8
0
100
AcDbBlockBegin
  2
UNITE_1
 70
     0
 71
     0
 10
0.0
 20
0.0
 30
0.0
  3
UNITE_1
  1

  0
INSERT
  5
7A0D5
330
7A17E
100
AcDbEntity
  8
Level 28
  6
Continuous
 62
    12
370
     0
100
AcDbBlockReference
  2
Feature Solid_4
 10
0.0
 20
0.0
 30
0.0
  0
ENDBLK
  5
7A180
330
7A17E
100
AcDbEntity
  8
0
100
AcDbBlockEnd
  0
BLOCK
  5
7A182
330
7A181
100
AcDbEntity
  8
0
100
AcDbBlockBegin
  2
Feature Solid_4
 70
     0
 71
     0
 10
0.0
 20
0.0
 30
0.0
  3
Feature Solid_4
  1

  0
INSERT
  5
7A0D6
330
7A181
100
AcDbEntity
  8
Level 28
  6
Continuous
 62
    12
370
     0
100
AcDbBlockReference
  2
DDREVL_1
 10
0.0
 20
0.0
 30
0.0
  0
ENDBLK
  5
7A183
330
7A181
100
AcDbEntity
  8
0
100
AcDbBlockEnd
  0
BLOCK
  5
7A185
330
7A184
100
AcDbEntity
  8
0
100
AcDbBlockBegin
  2
DDREVL_1
 70
     0
 71
     0
 10
0.0
 20
0.0
 30
0.0
  3
DDREVL_1
  1

  0
ARC
  5
7A0D7
330
7A184
100
AcDbEntity
  8
Level 28
  6
Continuous
 62
    12
370
     0
100
AcDbCircle
 10
-3450.70982
 20
5991.869689
 30
0.0
 40
15.9999999999982
100
AcDbArc
 50
0.0
 51
360.0
  0
ARC
  5
7A0D8
330
7A184
100
AcDbEntity
  8
Level 28
  6
Continuous
 62
    12
370
     0
100
AcDbCircle
 10
-3450.70982
 20
5991.869689
 30
0.0
 40
15.99999999999817
100
AcDbArc
 50
0.0
 51
360.0
  0
LINE
  5
7A0D9
330
7A184
100
AcDbEntity
  8
Level 28
  6
Continuous
 62
    12
370
     0
100
AcDbLine
 10
-3442.70982
 20
6005.726096
 30
0.0
 11
-3375.70982
 21
6121.7735
 31
0.0
  0
LINE
  5
7A0DA
330
7A184
100
AcDbEntity
  8
Level 28
  6
Continuous
 62
    12
370
     0
100
AcDbLine
 10
-3436.853414
 20
5983.869689
 30
0.0
 11
-3320.80601
 21
5916.869689
 31
0.0
  0
LINE
  5
7A0DB
330
7A184
100
AcDbEntity
  8
Level 28
  6
Continuous
 62
    12
370
     0
100
AcDbLine
 10
-3458.70982
 20
5978.013283
 30
0.0
 11
-3525.70982
 21
5861.965879
 31
0.0
  0
LINE
  5
7A0DC
330
7A184
100
AcDbEntity
  8
Level 28
  6
Continuous
 62
    12
370
     0
100
AcDbLine
 10
-3464.566227
 20
5999.869689
 30
0.0
 11
-3580.613631
 21
6066.869689
 31
0.0
  0
ARC
  5
7A0DD
330
7A184
100
AcDbEntity
  8
Level 28
  6
Continuous
 62
    12
370
     0
100
AcDbCircle
 10
-3450.70982
 20
5991.869689
 30
0.0
 40
111.5795680221043
100
AcDbArc
 50
0.0
 51
360.0
  0
ARC
  5
7A0DE
330
7A184
100
AcDbEntity
  8
Level 28
  6
Continuous
 62
    12
370
     0
100
AcDbCircle
 10
-3450.70982
 20
5991.869689
 30
0.0
 40
149.9999999999968
100
AcDbArc
 50
0.0
 51
360.0
  0
ARC
  5
7A0DF
330
7A184
100
AcDbEntity
  8
Level 28
  6
Continuous
 62
    12
370
     0
100
AcDbCircle
 10
-3450.70982
 20
5991.869689
 30
0.0
 40
111.5795680221042
100
AcDbArc
 50
0.0
 51
360.0
  0
POINT
  5
7A0E0
330
7A184
100
AcDbEntity
  8
Level 28
  6
Continuous
 62
    12
370
     0
100
AcDbPoint
 10
-3458.70982
 20
5978.013283
 30
0.0
  0
POINT
  5
7A0E1
330
7A184
100
AcDbEntity
  8
Level 28
  6
Continuous
 62
    12
370
     0
100
AcDbPoint
 10
-3464.566227
 20
5999.869689
 30
0.0
  0
POINT
  5
7A0E2
330
7A184
100
AcDbEntity
  8
Level 28
  6
Continuous
 62
    12
370
     0
100
AcDbPoint
 10
-3442.70982
 20
6005.726096
 30
0.0
  0
POINT
  5
7A0E3
330
7A184
100
AcDbEntity
  8
Level 28
  6
Continuous
 62
    12
370
     0
100
AcDbPoint
 10
-3436.853414
 20
5983.869689
 30
0.0
  0
ENDBLK
  5
7A186
330
7A184
100
AcDbEntity
  8
0
100
AcDbBlockEnd
  0
BLOCK
  5
7A188
330
7A187
100
AcDbEntity
  8
0
100
AcDbBlockBegin
  2
Feature Solid_5
 70
     0
 71
     0
 10
0.0
 20
0.0
 30
0.0
  3
Feature Solid_5
  1

  0
INSERT
  5
7A0E5
330
7A187
100
AcDbEntity
  8
Level 29
  6
Continuous
 62
    12
370
     0
100
AcDbBlockReference
  2
UNITE_2
 10
3450.709574
 20
-5991.869625
 30
0.0
  0
ENDBLK
  5
7A189
330
7A187
100
AcDbEntity
  8
0
100
AcDbBlockEnd
  0
BLOCK
  5
7A18B
330
7A18A
100
AcDbEntity
  8
0
100
AcDbBlockBegin
  2
UNITE_2
 70
     0
 71
     0
 10
0.0
 20
0.0
 30
0.0
  3
UNITE_2
  1

  0
INSERT
  5
7A0EC
330
7A18A
100
AcDbEntity
  8
Level 29
  6
Continuous
 62
    12
370
     0
100
AcDbBlockReference
  2
Feature Solid_6
 10
0.0
 20
0.0
 30
0.0
  0
ENDBLK
  5
7A18C
330
7A18A
100
AcDbEntity
  8
0
100
AcDbBlockEnd
  0
BLOCK
  5
7A18E
330
7A18D
100
AcDbEntity
  8
0
100
AcDbBlockBegin
  2
Feature Solid_6
 70
     0
 71
     0
 10
0.0
 20
0.0
 30
0.0
  3
Feature Solid_6
  1

  0
INSERT
  5
7A0ED
330
7A18D
100
AcDbEntity
  8
Level 29
  6
Continuous
 62
    12
370
     0
100
AcDbBlockReference
  2
DDREVL_2
 10
0.0
 20
0.0
 30
0.0
  0
ENDBLK
  5
7A18F
330
7A18D
100
AcDbEntity
  8
0
100
AcDbBlockEnd
  0
BLOCK
  5
7A191
330
7A190
100
AcDbEntity
  8
0
100
AcDbBlockBegin
  2
DDREVL_2
 70
     0
 71
     0
 10
0.0
 20
0.0
 30
0.0
  3
DDREVL_2
  1

  0
ARC
  5
7A0EE
330
7A190
100
AcDbEntity
  8
Level 29
  6
Continuous
 62
    12
370
     0
100
AcDbCircle
 10
-3450.70982
 20
5991.869689
 30
0.0
 40
15.9999999999982
100
AcDbArc
 50
0.0
 51
360.0
  0
ARC
  5
7A0EF
330
7A190
100
AcDbEntity
  8
Level 29
  6
Continuous
 62
    12
370
     0
100
AcDbCircle
 10
-3450.70982
 20
5991.869689
 30
0.0
 40
15.99999999999817
100
AcDbArc
 50
0.0
 51
360.0
  0
LINE
  5
7A0F0
330
7A190
100
AcDbEntity
  8
Level 29
  6
Continuous
 62
    12
370
     0
100
AcDbLine
 10
-3442.70982
 20
6005.726096
 30
0.0
 11
-3375.70982
 21
6121.7735
 31
0.0
  0
LINE
  5
7A0F1
330
7A190
100
AcDbEntity
  8
Level 29
  6
Continuous
 62
    12
370
     0
100
AcDbLine
 10
-3436.853414
 20
5983.869689
 30
0.0
 11
-3320.80601
 21
5916.869689
 31
0.0
  0
LINE
  5
7A0F2
330
7A190
100
AcDbEntity
  8
Level 29
  6
Continuous
 62
    12
370
     0
100
AcDbLine
 10
-3458.70982
 20
5978.013283
 30
0.0
 11
-3525.70982
 21
5861.965879
 31
0.0
  0
LINE
  5
7A0F3
330
7A190
100
AcDbEntity
  8
Level 29
  6
Continuous
 62
    12
370
     0
100
AcDbLine
 10
-3464.566227
 20
5999.869689
 30
0.0
 11
-3580.613631
 21
6066.869689
 31
0.0
  0
ARC
  5
7A0F4
330
7A190
100
AcDbEntity
  8
Level 29
  6
Continuous
 62
    12
370
     0
100
AcDbCircle
 10
-3450.70982
 20
5991.869689
 30
0.0
 40
111.5795680221043
100
AcDbArc
 50
0.0
 51
360.0
  0
ARC
  5
7A0F5
330
7A190
100
AcDbEntity
  8
Level 29
  6
Continuous
 62
    12
370
     0
100
AcDbCircle
 10
-3450.70982
 20
5991.869689
 30
0.0
 40
149.9999999999968
100
AcDbArc
 50
0.0
 51
360.0
  0
ARC
  5
7A0F6
330
7A190
100
AcDbEntity
  8
Level 29
  6
Continuous
 62
    12
370
     0
100
AcDbCircle
 10
-3450.70982
 20
5991.869689
 30
0.0
 40
111.5795680221042
100
AcDbArc
 50
0.0
 51
360.0
  0
POINT
  5
7A0F7
330
7A190
100
AcDbEntity
  8
Level 29
  6
Continuous
 62
    12
370
     0
100
AcDbPoint
 10
-3458.70982
 20
5978.013283
 30
0.0
  0
POINT
  5
7A0F8
330
7A190
100
AcDbEntity
  8
Level 29
  6
Continuous
 62
    12
370
     0
100
AcDbPoint
 10
-3464.566227
 20
5999.869689
 30
0.0
  0
POINT
  5
7A0F9
330
7A190
100
AcDbEntity
  8
Level 29
  6
Continuous
 62
    12
370
     0
100
AcDbPoint
 10
-3442.70982
 20
6005.726096
 30
0.0
  0
POINT
  5
7A0FA
330
7A190
100
AcDbEntity
  8
Level 29
  6
Continuous
 62
    12
370
     0
100
AcDbPoint
 10
-3436.853414
 20
5983.869689
 30
0.0
  0
ENDBLK
  5
7A192
330
7A190
100
AcDbEntity
  8
0
100
AcDbBlockEnd
  0
BLOCK
  5
7A194
330
7A193
100
AcDbEntity
  8
0
100
AcDbBlockBegin
  2
Feature Solid_7
 70
     0
 71
     0
 10
0.0
 20
0.0
 30
0.0
  3
Feature Solid_7
  1

  0
INSERT
  5
7A0FC
330
7A193
100
AcDbEntity
  8
Level 30
  6
Continuous
 62
    12
370
     0
100
AcDbBlockReference
  2
UNITE_3
 10
3450.709574
 20
-5991.869625
 30
0.0
  0
ENDBLK
  5
7A195
330
7A193
100
AcDbEntity
  8
0
100
AcDbBlockEnd
  0
BLOCK
  5
7A197
330
7A196
100
AcDbEntity
  8
0
100
AcDbBlockBegin
  2
UNITE_3
 70
     0
 71
     0
 10
0.0
 20
0.0
 30
0.0
  3
UNITE_3
  1

  0
INSERT
  5
7A103
330
7A196
100
AcDbEntity
  8
Level 30
  6
Continuous
 62
    12
370
     0
100
AcDbBlockReference
  2
Feature Solid_8
 10
0.0
 20
0.0
 30
0.0
  0
ENDBLK
  5
7A198
330
7A196
100
AcDbEntity
  8
0
100
AcDbBlockEnd
  0
BLOCK
  5
7A19A
330
7A199
100
AcDbEntity
  8
0
100
AcDbBlockBegin
  2
Feature Solid_8
 70
     0
 71
     0
 10
0.0
 20
0.0
 30
0.0
  3
Feature Solid_8
  1

  0
INSERT
  5
7A104
330
7A199
100
AcDbEntity
  8
Level 30
  6
Continuous
 62
    12
370
     0
100
AcDbBlockReference
  2
DDREVL_3
 10
0.0
 20
0.0
 30
0.0
  0
ENDBLK
  5
7A19B
330
7A199
100
AcDbEntity
  8
0
100
AcDbBlockEnd
  0
BLOCK
  5
7A19D
330
7A19C
100
AcDbEntity
  8
0
100
AcDbBlockBegin
  2
DDREVL_3
 70
     0
 71
     0
 10
0.0
 20
0.0
 30
0.0
  3
DDREVL_3
  1

  0
ARC
  5
7A105
330
7A19C
100
AcDbEntity
  8
Level 30
  6
Continuous
 62
    12
370
     0
100
AcDbCircle
 10
-3450.70982
 20
5991.869689
 30
0.0
 40
15.9999999999982
100
AcDbArc
 50
0.0
 51
360.0
  0
ARC
  5
7A106
330
7A19C
100
AcDbEntity
  8
Level 30
  6
Continuous
 62
    12
370
     0
100
AcDbCircle
 10
-3450.70982
 20
5991.869689
 30
0.0
 40
15.99999999999817
100
AcDbArc
 50
0.0
 51
360.0
  0
LINE
  5
7A107
330
7A19C
100
AcDbEntity
  8
Level 30
  6
Continuous
 62
    12
370
     0
100
AcDbLine
 10
-3442.70982
 20
6005.726096
 30
0.0
 11
-3375.70982
 21
6121.7735
 31
0.0
  0
LINE
  5
7A108
330
7A19C
100
AcDbEntity
  8
Level 30
  6
Continuous
 62
    12
370
     0
100
AcDbLine
 10
-3436.853414
 20
5983.869689
 30
0.0
 11
-3320.80601
 21
5916.869689
 31
0.0
  0
LINE
  5
7A109
330
7A19C
100
AcDbEntity
  8
Level 30
  6
Continuous
 62
    12
370
     0
100
AcDbLine
 10
-3458.70982
 20
5978.013283
 30
0.0
 11
-3525.70982
 21
5861.965879
 31
0.0
  0
LINE
  5
7A10A
330
7A19C
100
AcDbEntity
  8
Level 30
  6
Continuous
 62
    12
370
     0
100
AcDbLine
 10
-3464.566227
 20
5999.869689
 30
0.0
 11
-3580.613631
 21
6066.869689
 31
0.0
  0
ARC
  5
7A10B
330
7A19C
100
AcDbEntity
  8
Level 30
  6
Continuous
 62
    12
370
     0
100
AcDbCircle
 10
-3450.70982
 20
5991.869689
 30
0.0
 40
111.5795680221043
100
AcDbArc
 50
0.0
 51
360.0
  0
ARC
  5
7A10C
330
7A19C
100
AcDbEntity
  8
Level 30
  6
Continuous
 62
    12
370
     0
100
AcDbCircle
 10
-3450.70982
 20
5991.869689
 30
0.0
 40
149.9999999999968
100
AcDbArc
 50
0.0
 51
360.0
  0
ARC
  5
7A10D
330
7A19C
100
AcDbEntity
  8
Level 30
  6
Continuous
 62
    12
370
     0
100
AcDbCircle
 10
-3450.70982
 20
5991.869689
 30
0.0
 40
111.5795680221042
100
AcDbArc
 50
0.0
 51
360.0
  0
POINT
  5
7A10E
330
7A19C
100
AcDbEntity
  8
Level 30
  6
Continuous
 62
    12
370
     0
100
AcDbPoint
 10
-3458.70982
 20
5978.013283
 30
0.0
  0
POINT
  5
7A10F
330
7A19C
100
AcDbEntity
  8
Level 30
  6
Continuous
 62
    12
370
     0
100
AcDbPoint
 10
-3464.566227
 20
5999.869689
 30
0.0
  0
POINT
  5
7A110
330
7A19C
100
AcDbEntity
  8
Level 30
  6
Continuous
 62
    12
370
     0
100
AcDbPoint
 10
-3442.70982
 20
6005.726096
 30
0.0
  0
POINT
  5
7A111
330
7A19C
100
AcDbEntity
  8
Level 30
  6
Continuous
 62
    12
370
     0
100
AcDbPoint
 10
-3436.853414
 20
5983.869689
 30
0.0
  0
ENDBLK
  5
7A19E
330
7A19C
100
AcDbEntity
  8
0
100
AcDbBlockEnd
  0
BLOCK
  5
7A1A0
330
7A19F
100
AcDbEntity
  8
0
100
AcDbBlockBegin
  2
Feature Solid_9
 70
     0
 71
     0
 10
0.0
 20
0.0
 30
0.0
  3
Feature Solid_9
  1

  0
INSERT
  5
7A113
330
7A19F
100
AcDbEntity
  8
Level 31
  6
Continuous
 62
    12
370
     0
100
AcDbBlockReference
  2
UNITE_4
 10
3450.709574
 20
-5991.869625
 30
0.0
  0
ENDBLK
  5
7A1A1
330
7A19F
100
AcDbEntity
  8
0
100
AcDbBlockEnd
  0
BLOCK
  5
7A1A3
330
7A1A2
100
AcDbEntity
  8
0
100
AcDbBlockBegin
  2
UNITE_4
 70
     0
 71
     0
 10
0.0
 20
0.0
 30
0.0
  3
UNITE_4
  1

  0
INSERT
  5
7A11A
330
7A1A2
100
AcDbEntity
  8
Level 31
  6
Continuous
 62
    12
370
     0
100
AcDbBlockReference
  2
Feature Solid_10
 10
0.0
 20
0.0
 30
0.0
  0
ENDBLK
  5
7A1A4
330
7A1A2
100
AcDbEntity
  8
0
100
AcDbBlockEnd
  0
BLOCK
  5
7A1A6
330
7A1A5
100
AcDbEntity
  8
0
100
AcDbBlockBegin
  2
Feature Solid_10
 70
     0
 71
     0
 10
0.0
 20
0.0
 30
0.0
  3
Feature Solid_10
  1

  0
INSERT
  5
7A11B
330
7A1A5
100
AcDbEntity
  8
Level 31
  6
Continuous
 62
    12
370
     0
100
AcDbBlockReference
  2
DDREVL_4
 10
0.0
 20
0.0
 30
0.0
  0
ENDBLK
  5
7A1A7
330
7A1A5
100
AcDbEntity
  8
0
100
AcDbBlockEnd
  0
BLOCK
  5
7A1A9
330
7A1A8
100
AcDbEntity
  8
0
100
AcDbBlockBegin
  2
DDREVL_4
 70
     0
 71
     0
 10
0.0
 20
0.0
 30
0.0
  3
DDREVL_4
  1

  0
ARC
  5
7A11C
330
7A1A8
100
AcDbEntity
  8
Level 31
  6
Continuous
 62
    12
370
     0
100
AcDbCircle
 10
-3450.70982
 20
5991.869689
 30
0.0
 40
15.9999999999982
100
AcDbArc
 50
0.0
 51
360.0
  0
ARC
  5
7A11D
330
7A1A8
100
AcDbEntity
  8
Level 31
  6
Continuous
 62
    12
370
     0
100
AcDbCircle
 10
-3450.70982
 20
5991.869689
 30
0.0
 40
15.99999999999817
100
AcDbArc
 50
0.0
 51
360.0
  0
LINE
  5
7A11E
330
7A1A8
100
AcDbEntity
  8
Level 31
  6
Continuous
 62
    12
370
     0
100
AcDbLine
 10
-3442.70982
 20
6005.726096
 30
0.0
 11
-3375.70982
 21
6121.7735
 31
0.0
  0
LINE
  5
7A11F
330
7A1A8
100
AcDbEntity
  8
Level 31
  6
Continuous
 62
    12
370
     0
100
AcDbLine
 10
-3436.853414
 20
5983.869689
 30
0.0
 11
-3320.80601
 21
5916.869689
 31
0.0
  0
LINE
  5
7A120
330
7A1A8
100
AcDbEntity
  8
Level 31
  6
Continuous
 62
    12
370
     0
100
AcDbLine
 10
-3458.70982
 20
5978.013283
 30
0.0
 11
-3525.70982
 21
5861.965879
 31
0.0
  0
LINE
  5
7A121
330
7A1A8
100
AcDbEntity
  8
Level 31
  6
Continuous
 62
    12
370
     0
100
AcDbLine
 10
-3464.566227
 20
5999.869689
 30
0.0
 11
-3580.613631
 21
6066.869689
 31
0.0
  0
ARC
  5
7A122
330
7A1A8
100
AcDbEntity
  8
Level 31
  6
Continuous
 62
    12
370
     0
100
AcDbCircle
 10
-3450.70982
 20
5991.869689
 30
0.0
 40
111.5795680221043
100
AcDbArc
 50
0.0
 51
360.0
  0
ARC
  5
7A123
330
7A1A8
100
AcDbEntity
  8
Level 31
  6
Continuous
 62
    12
370
     0
100
AcDbCircle
 10
-3450.70982
 20
5991.869689
 30
0.0
 40
149.9999999999968
100
AcDbArc
 50
0.0
 51
360.0
  0
ARC
  5
7A124
330
7A1A8
100
AcDbEntity
  8
Level 31
  6
Continuous
 62
    12
370
     0
100
AcDbCircle
 10
-3450.70982
 20
5991.869689
 30
0.0
 40
111.5795680221042
100
AcDbArc
 50
0.0
 51
360.0
  0
POINT
  5
7A125
330
7A1A8
100
AcDbEntity
  8
Level 31
  6
Continuous
 62
    12
370
     0
100
AcDbPoint
 10
-3458.70982
 20
5978.013283
 30
0.0
  0
POINT
  5
7A126
330
7A1A8
100
AcDbEntity
  8
Level 31
  6
Continuous
 62
    12
370
     0
100
AcDbPoint
 10
-3464.566227
 20
5999.869689
 30
0.0
  0
POINT
  5
7A127
330
7A1A8
100
AcDbEntity
  8
Level 31
  6
Continuous
 62
    12
370
     0
100
AcDbPoint
 10
-3442.70982
 20
6005.726096
 30
0.0
  0
POINT
  5
7A128
330
7A1A8
100
AcDbEntity
  8
Level 31
  6
Continuous
 62
    12
370
     0
100
AcDbPoint
 10
-3436.853414
 20
5983.869689
 30
0.0
  0
ENDBLK
  5
7A1AA
330
7A1A8
100
AcDbEntity
  8
0
100
AcDbBlockEnd
  0
ENDSEC
  0
SECTION
  2
ENTITIES
  0
CIRCLE
  5
79EF4
330
7A142
100
AcDbEntity
  8
Level 26
  6
Continuous
 62
     7
370
     0
100
AcDbCircle
 10
3198.749439
 20
205.276387
 30
0.0
 40
16.0
  0
CIRCLE
  5
79EF5
330
7A142
100
AcDbEntity
  8
Level 26
  6
Continuous
 62
     7
370
     0
100
AcDbCircle
 10
3198.749439
 20
205.276387
 30
0.0
 40
16.0
  0
CIRCLE
  5
79EF6
330
7A142
100
AcDbEntity
  8
Level 26
  6
Continuous
 62
     7
370
     0
100
AcDbCircle
 10
3198.749439
 20
205.276387
 30
0.0
 40
16.0
  0
CIRCLE
  5
79EF7
330
7A142
100
AcDbEntity
  8
Level 26
  6
Continuous
 62
     7
370
     0
100
AcDbCircle
 10
3198.749439
 20
205.276387
 30
0.0
 40
16.0
  0
INSERT
  5
79EF8
330
7A142
100
AcDbEntity
  8
Level 25
  6
Continuous
 62
   174
370
     0
100
AcDbBlockReference
  2
Feature Solid
 10
3198.749089
 20
205.276573
 30
0.0
  0
CIRCLE
  5
79F06
330
7A142
100
AcDbEntity
  8
Level 26
  6
Continuous
 62
     7
370
     0
100
AcDbCircle
 10
3198.749439
 20
205.276387
 30
0.0
 40
16.0
  0
CIRCLE
  5
79F07
330
7A142
100
AcDbEntity
  8
Level 26
  6
Continuous
 62
     7
370
     0
100
AcDbCircle
 10
3198.749439
 20
205.276387
 30
0.0
 40
16.0
  0
CIRCLE
  5
79F08
330
7A142
100
AcDbEntity
  8
Level 26
  6
Continuous
 62
     7
370
     0
100
AcDbCircle
 10
3198.749439
 20
205.276387
 30
0.0
 40
16.0
  0
CIRCLE
  5
79F09
330
7A142
100
AcDbEntity
  8
Level 26
  6
Continuous
 62
     7
370
     0
100
AcDbCircle
 10
3198.749439
 20
205.276387
 30
0.0
 40
16.0
  0
INSERT
  5
79F0A
330
7A142
100
AcDbEntity
  8
Level 25
  6
Continuous
 62
   174
370
     0
100
AcDbBlockReference
  2
Feature Solid
 10
3198.749089
 20
205.276573
 30
0.0
  0
CIRCLE
  5
79F18
330
7A142
100
AcDbEntity
  8
Level 26
  6
Continuous
 62
     7
370
     0
100
AcDbCircle
 10
3198.749439
 20
205.276387
 30
0.0
 40
16.0
  0
CIRCLE
  5
79F19
330
7A142
100
AcDbEntity
  8
Level 26
  6
Continuous
 62
     7
370
     0
100
AcDbCircle
 10
3198.749439
 20
205.276387
 30
0.0
 40
16.0
  0
CIRCLE
  5
79F1A
330
7A142
100
AcDbEntity
  8
Level 26
  6
Continuous
 62
     7
370
     0
100
AcDbCircle
 10
3198.749439
 20
205.276387
 30
0.0
 40
16.0
  0
CIRCLE
  5
79F1B
330
7A142
100
AcDbEntity
  8
Level 26
  6
Continuous
 62
     7
370
     0
100
AcDbCircle
 10
3198.749439
 20
205.276387
 30
0.0
 40
16.0
  0
INSERT
  5
79F1C
330
7A142
100
AcDbEntity
  8
Level 25
  6
Continuous
 62
   174
370
     0
100
AcDbBlockReference
  2
Feature Solid
 10
3198.749089
 20
205.276573
 30
0.0
  0
CIRCLE
  5
79F2A
330
7A142
100
AcDbEntity
  8
Level 26
  6
Continuous
 62
     7
370
     0
100
AcDbCircle
 10
3198.749439
 20
205.276387
 30
0.0
 40
16.0
  0
CIRCLE
  5
79F2B
330
7A142
100
AcDbEntity
  8
Level 26
  6
Continuous
 62
     7
370
     0
100
AcDbCircle
 10
3198.749439
 20
205.276387
 30
0.0
 40
16.0
  0
CIRCLE
  5
79F2C
330
7A142
100
AcDbEntity
  8
Level 26
  6
Continuous
 62
     7
370
     0
100
AcDbCircle
 10
3198.749439
 20
205.276387
 30
0.0
 40
16.0
  0
CIRCLE
  5
79F2D
330
7A142
100
AcDbEntity
  8
Level 26
  6
Continuous
 62
     7
370
     0
100
AcDbCircle
 10
3198.749439
 20
205.276387
 30
0.0
 40
16.0
  0
INSERT
  5
79F2E
330
7A142
100
AcDbEntity
  8
Level 25
  6
Continuous
 62
   174
370
     0
100
AcDbBlockReference
  2
Feature Solid
 10
3198.749089
 20
205.276573
 30
0.0
  0
CIRCLE
  5
79F3C
330
7A142
100
AcDbEntity
  8
Level 26
  6
Continuous
 62
     7
370
     0
100
AcDbCircle
 10
3198.749439
 20
205.276387
 30
0.0
 40
16.0
  0
CIRCLE
  5
79F3D
330
7A142
100
AcDbEntity
  8
Level 26
  6
Continuous
 62
     7
370
     0
100
AcDbCircle
 10
3198.749439
 20
205.276387
 30
0.0
 40
16.0
  0
CIRCLE
  5
79F3E
330
7A142
100
AcDbEntity
  8
Level 26
  6
Continuous
 62
     7
370
     0
100
AcDbCircle
 10
3198.749439
 20
205.276387
 30
0.0
 40
16.0
  0
CIRCLE
  5
79F3F
330
7A142
100
AcDbEntity
  8
Level 26
  6
Continuous
 62
     7
370
     0
100
AcDbCircle
 10
3198.749439
 20
205.276387
 30
0.0
 40
16.0
  0
INSERT
  5
79F40
330
7A142
100
AcDbEntity
  8
Level 25
  6
Continuous
 62
   174
370
     0
100
AcDbBlockReference
  2
Feature Solid
 10
3198.749089
 20
205.276573
 30
0.0
  0
CIRCLE
  5
79F4E
330
7A142
100
AcDbEntity
  8
Level 26
  6
Continuous
 62
     7
370
     0
100
AcDbCircle
 10
5998.253268
 20
3205.276387
 30
0.0
 40
16.0
  0
CIRCLE
  5
79F4F
330
7A142
100
AcDbEntity
  8
Level 26
  6
Continuous
 62
     7
370
     0
100
AcDbCircle
 10
5998.253268
 20
3205.276387
 30
0.0
 40
16.0
  0
CIRCLE
  5
79F50
330
7A142
100
AcDbEntity
  8
Level 26
  6
Continuous
 62
     7
370
     0
100
AcDbCircle
 10
5998.253268
 20
3205.276387
 30
0.0
 40
16.0
  0
CIRCLE
  5
79F51
330
7A142
100
AcDbEntity
  8
Level 26
  6
Continuous
 62
     7
370
     0
100
AcDbCircle
 10
5998.253268
 20
3205.276387
 30
0.0
 40
16.0
  0
INSERT
  5
79F52
330
7A142
100
AcDbEntity
  8
Level 25
  6
Continuous
 62
   174
370
     0
100
AcDbBlockReference
  2
Feature Solid
 10
5998.252917
 20
3205.276573
 30
0.0
  0
CIRCLE
  5
79F60
330
7A142
100
AcDbEntity
  8
Level 26
  6
Continuous
 62
     7
370
     0
100
AcDbCircle
 10
5998.253268
 20
3205.276387
 30
0.0
 40
16.0
  0
CIRCLE
  5
79F61
330
7A142
100
AcDbEntity
  8
Level 26
  6
Continuous
 62
     7
370
     0
100
AcDbCircle
 10
5998.253268
 20
3205.276387
 30
0.0
 40
16.0
  0
CIRCLE
  5
79F62
330
7A142
100
AcDbEntity
  8
Level 26
  6
Continuous
 62
     7
370
     0
100
AcDbCircle
 10
5998.253268
 20
3205.276387
 30
0.0
 40
16.0
  0
CIRCLE
  5
79F63
330
7A142
100
AcDbEntity
  8
Level 26
  6
Continuous
 62
     7
370
     0
100
AcDbCircle
 10
5998.253268
 20
3205.276387
 30
0.0
 40
16.0
  0
INSERT
  5
79F64
330
7A142
100
AcDbEntity
  8
Level 25
  6
Continuous
 62
   174
370
     0
100
AcDbBlockReference
  2
Feature Solid
 10
5998.252917
 20
3205.276573
 30
0.0
  0
CIRCLE
  5
79F72
330
7A142
100
AcDbEntity
  8
Level 26
  6
Continuous
 62
     7
370
     0
100
AcDbCircle
 10
5998.253268
 20
3205.276387
 30
0.0
 40
16.0
  0
CIRCLE
  5
79F73
330
7A142
100
AcDbEntity
  8
Level 26
  6
Continuous
 62
     7
370
     0
100
AcDbCircle
 10
5998.253268
 20
3205.276387
 30
0.0
 40
16.0
  0
CIRCLE
  5
79F74
330
7A142
100
AcDbEntity
  8
Level 26
  6
Continuous
 62
     7
370
     0
100
AcDbCircle
 10
5998.253268
 20
3205.276387
 30
0.0
 40
16.0
  0
CIRCLE
  5
79F75
330
7A142
100
AcDbEntity
  8
Level 26
  6
Continuous
 62
     7
370
     0
100
AcDbCircle
 10
5998.253268
 20
3205.276387
 30
0.0
 40
16.0
  0
INSERT
  5
79F76
330
7A142
100
AcDbEntity
  8
Level 25
  6
Continuous
 62
   174
370
     0
100
AcDbBlockReference
  2
Feature Solid
 10
5998.252917
 20
3205.276573
 30
0.0
  0
CIRCLE
  5
79F84
330
7A142
100
AcDbEntity
  8
Level 26
  6
Continuous
 62
     7
370
     0
100
AcDbCircle
 10
5998.253268
 20
3205.276387
 30
0.0
 40
16.0
  0
CIRCLE
  5
79F85
330
7A142
100
AcDbEntity
  8
Level 26
  6
Continuous
 62
     7
370
     0
100
AcDbCircle
 10
5998.253268
 20
3205.276387
 30
0.0
 40
16.0
  0
CIRCLE
  5
79F86
330
7A142
100
AcDbEntity
  8
Level 26
  6
Continuous
 62
     7
370
     0
100
AcDbCircle
 10
5998.253268
 20
3205.276387
 30
0.0
 40
16.0
  0
CIRCLE
  5
79F87
330
7A142
100
AcDbEntity
  8
Level 26
  6
Continuous
 62
     7
370
     0
100
AcDbCircle
 10
5998.253268
 20
3205.276387
 30
0.0
 40
16.0
  0
INSERT
  5
79F88
330
7A142
100
AcDbEntity
  8
Level 25
  6
Continuous
 62
   174
370
     0
100
AcDbBlockReference
  2
Feature Solid
 10
5998.252917
 20
3205.276573
 30
0.0
  0
CIRCLE
  5
79F96
330
7A142
100
AcDbEntity
  8
Level 26
  6
Continuous
 62
     7
370
     0
100
AcDbCircle
 10
5998.253268
 20
3205.276387
 30
0.0
 40
16.0
  0
CIRCLE
  5
79F97
330
7A142
100
AcDbEntity
  8
Level 26
  6
Continuous
 62
     7
370
     0
100
AcDbCircle
 10
5998.253268
 20
3205.276387
 30
0.0
 40
16.0
  0
CIRCLE
  5
79F98
330
7A142
100
AcDbEntity
  8
Level 26
  6
Continuous
 62
     7
370
     0
100
AcDbCircle
 10
5998.253268
 20
3205.276387
 30
0.0
 40
16.0
  0
CIRCLE
  5
79F99
330
7A142
100
AcDbEntity
  8
Level 26
  6
Continuous
 62
     7
370
     0
100
AcDbCircle
 10
5998.253268
 20
3205.276387
 30
0.0
 40
16.0
  0
INSERT
  5
79F9A
330
7A142
100
AcDbEntity
  8
Level 25
  6
Continuous
 62
   174
370
     0
100
AcDbBlockReference
  2
Feature Solid
 10
5998.252917
 20
3205.276573
 30
0.0
  0
CIRCLE
  5
79FA8
330
7A142
100
AcDbEntity
  8
Level 26
  6
Continuous
 62
     7
370
     0
100
AcDbCircle
 10
3198.749439
 20
6205.276387
 30
0.0
 40
16.0
  0
CIRCLE
  5
79FA9
330
7A142
100
AcDbEntity
  8
Level 26
  6
Continuous
 62
     7
370
     0
100
AcDbCircle
 10
3198.749439
 20
6205.276387
 30
0.0
 40
16.0
  0
CIRCLE
  5
79FAA
330
7A142
100
AcDbEntity
  8
Level 26
  6
Continuous
 62
     7
370
     0
100
AcDbCircle
 10
3198.749439
 20
6205.276387
 30
0.0
 40
16.0
  0
CIRCLE
  5
79FAB
330
7A142
100
AcDbEntity
  8
Level 26
  6
Continuous
 62
     7
370
     0
100
AcDbCircle
 10
3198.749439
 20
6205.276387
 30
0.0
 40
16.0
  0
INSERT
  5
79FAC
330
7A142
100
AcDbEntity
  8
Level 25
  6
Continuous
 62
   174
370
     0
100
AcDbBlockReference
  2
Feature Solid
 10
3198.749089
 20
6205.276573
 30
0.0
  0
CIRCLE
  5
79FBA
330
7A142
100
AcDbEntity
  8
Level 26
  6
Continuous
 62
     7
370
     0
100
AcDbCircle
 10
3198.749439
 20
6205.276387
 30
0.0
 40
16.0
  0
CIRCLE
  5
79FBB
330
7A142
100
AcDbEntity
  8
Level 26
  6
Continuous
 62
     7
370
     0
100
AcDbCircle
 10
3198.749439
 20
6205.276387
 30
0.0
 40
16.0
  0
CIRCLE
  5
79FBC
330
7A142
100
AcDbEntity
  8
Level 26
  6
Continuous
 62
     7
370
     0
100
AcDbCircle
 10
3198.749439
 20
6205.276387
 30
0.0
 40
16.0
  0
CIRCLE
  5
79FBD
330
7A142
100
AcDbEntity
  8
Level 26
  6
Continuous
 62
     7
370
     0
100
AcDbCircle
 10
3198.749439
 20
6205.276387
 30
0.0
 40
16.0
  0
INSERT
  5
79FBE
330
7A142
100
AcDbEntity
  8
Level 25
  6
Continuous
 62
   174
370
     0
100
AcDbBlockReference
  2
Feature Solid
 10
3198.749089
 20
6205.276573
 30
0.0
  0
CIRCLE
  5
79FCC
330
7A142
100
AcDbEntity
  8
Level 26
  6
Continuous
 62
     7
370
     0
100
AcDbCircle
 10
3198.749439
 20
6205.276387
 30
0.0
 40
16.0
  0
CIRCLE
  5
79FCD
330
7A142
100
AcDbEntity
  8
Level 26
  6
Continuous
 62
     7
370
     0
100
AcDbCircle
 10
3198.749439
 20
6205.276387
 30
0.0
 40
16.0
  0
CIRCLE
  5
79FCE
330
7A142
100
AcDbEntity
  8
Level 26
  6
Continuous
 62
     7
370
     0
100
AcDbCircle
 10
3198.749439
 20
6205.276387
 30
0.0
 40
16.0
  0
CIRCLE
  5
79FCF
330
7A142
100
AcDbEntity
  8
Level 26
  6
Continuous
 62
     7
370
     0
100
AcDbCircle
 10
3198.749439
 20
6205.276387
 30
0.0
 40
16.0
  0
INSERT
  5
79FD0
330
7A142
100
AcDbEntity
  8
Level 25
  6
Continuous
 62
   174
370
     0
100
AcDbBlockReference
  2
Feature Solid
 10
3198.749089
 20
6205.276573
 30
0.0
  0
CIRCLE
  5
79FDE
330
7A142
100
AcDbEntity
  8
Level 26
  6
Continuous
 62
     7
370
     0
100
AcDbCircle
 10
3198.749439
 20
6205.276387
 30
0.0
 40
16.0
  0
CIRCLE
  5
79FDF
330
7A142
100
AcDbEntity
  8
Level 26
  6
Continuous
 62
     7
370
     0
100
AcDbCircle
 10
3198.749439
 20
6205.276387
 30
0.0
 40
16.0
  0
CIRCLE
  5
79FE0
330
7A142
100
AcDbEntity
  8
Level 26
  6
Continuous
 62
     7
370
     0
100
AcDbCircle
 10
3198.749439
 20
6205.276387
 30
0.0
 40
16.0
  0
CIRCLE
  5
79FE1
330
7A142
100
AcDbEntity
  8
Level 26
  6
Continuous
 62
     7
370
     0
100
AcDbCircle
 10
3198.749439
 20
6205.276387
 30
0.0
 40
16.0
  0
INSERT
  5
79FE2
330
7A142
100
AcDbEntity
  8
Level 25
  6
Continuous
 62
   174
370
     0
100
AcDbBlockReference
  2
Feature Solid
 10
3198.749089
 20
6205.276573
 30
0.0
  0
CIRCLE
  5
79FF0
330
7A142
100
AcDbEntity
  8
Level 26
  6
Continuous
 62
     7
370
     0
100
AcDbCircle
 10
3198.749439
 20
6205.276387
 30
0.0
 40
16.0
  0
CIRCLE
  5
79FF1
330
7A142
100
AcDbEntity
  8
Level 26
  6
Continuous
 62
     7
370
     0
100
AcDbCircle
 10
3198.749439
 20
6205.276387
 30
0.0
 40
16.0
  0
CIRCLE
  5
79FF2
330
7A142
100
AcDbEntity
  8
Level 26
  6
Continuous
 62
     7
370
     0
100
AcDbCircle
 10
3198.749439
 20
6205.276387
 30
0.0
 40
16.0
  0
CIRCLE
  5
79FF3
330
7A142
100
AcDbEntity
  8
Level 26
  6
Continuous
 62
     7
370
     0
100
AcDbCircle
 10
3198.749439
 20
6205.276387
 30
0.0
 40
16.0
  0
INSERT
  5
79FF4
330
7A142
100
AcDbEntity
  8
Level 25
  6
Continuous
 62
   174
370
     0
100
AcDbBlockReference
  2
Feature Solid
 10
3198.749089
 20
6205.276573
 30
0.0
  0
CIRCLE
  5
7A002
330
7A142
100
AcDbEntity
  8
Level 26
  6
Continuous
 62
     7
370
     0
100
AcDbCircle
 10
5998.253268
 20
9205.276387
 30
0.0
 40
16.0
  0
CIRCLE
  5
7A003
330
7A142
100
AcDbEntity
  8
Level 26
  6
Continuous
 62
     7
370
     0
100
AcDbCircle
 10
5998.253268
 20
9205.276387
 30
0.0
 40
16.0
  0
CIRCLE
  5
7A004
330
7A142
100
AcDbEntity
  8
Level 26
  6
Continuous
 62
     7
370
     0
100
AcDbCircle
 10
5998.253268
 20
9205.276387
 30
0.0
 40
16.0
  0
CIRCLE
  5
7A005
330
7A142
100
AcDbEntity
  8
Level 26
  6
Continuous
 62
     7
370
     0
100
AcDbCircle
 10
5998.253268
 20
9205.276387
 30
0.0
 40
16.0
  0
INSERT
  5
7A006
330
7A142
100
AcDbEntity
  8
Level 25
  6
Continuous
 62
   174
370
     0
100
AcDbBlockReference
  2
Feature Solid
 10
5998.252917
 20
9205.276573
 30
0.0
  0
CIRCLE
  5
7A014
330
7A142
100
AcDbEntity
  8
Level 26
  6
Continuous
 62
     7
370
     0
100
AcDbCircle
 10
5998.253268
 20
9205.276387
 30
0.0
 40
16.0
  0
CIRCLE
  5
7A015
330
7A142
100
AcDbEntity
  8
Level 26
  6
Continuous
 62
     7
370
     0
100
AcDbCircle
 10
5998.253268
 20
9205.276387
 30
0.0
 40
16.0
  0
CIRCLE
  5
7A016
330
7A142
100
AcDbEntity
  8
Level 26
  6
Continuous
 62
     7
370
     0
100
AcDbCircle
 10
5998.253268
 20
9205.276387
 30
0.0
 40
16.0
  0
CIRCLE
  5
7A017
330
7A142
100
AcDbEntity
  8
Level 26
  6
Continuous
 62
     7
370
     0
100
AcDbCircle
 10
5998.253268
 20
9205.276387
 30
0.0
 40
16.0
  0
INSERT
  5
7A018
330
7A142
100
AcDbEntity
  8
Level 25
  6
Continuous
 62
   174
370
     0
100
AcDbBlockReference
  2
Feature Solid
 10
5998.252917
 20
9205.276573
 30
0.0
  0
CIRCLE
  5
7A026
330
7A142
100
AcDbEntity
  8
Level 26
  6
Continuous
 62
     7
370
     0
100
AcDbCircle
 10
5998.253268
 20
9205.276387
 30
0.0
 40
16.0
  0
CIRCLE
  5
7A027
330
7A142
100
AcDbEntity
  8
Level 26
  6
Continuous
 62
     7
370
     0
100
AcDbCircle
 10
5998.253268
 20
9205.276387
 30
0.0
 40
16.0
  0
CIRCLE
  5
7A028
330
7A142
100
AcDbEntity
  8
Level 26
  6
Continuous
 62
     7
370
     0
100
AcDbCircle
 10
5998.253268
 20
9205.276387
 30
0.0
 40
16.0
  0
CIRCLE
  5
7A029
330
7A142
100
AcDbEntity
  8
Level 26
  6
Continuous
 62
     7
370
     0
100
AcDbCircle
 10
5998.253268
 20
9205.276387
 30
0.0
 40
16.0
  0
INSERT
  5
7A02A
330
7A142
100
AcDbEntity
  8
Level 25
  6
Continuous
 62
   174
370
     0
100
AcDbBlockReference
  2
Feature Solid
 10
5998.252917
 20
9205.276573
 30
0.0
  0
CIRCLE
  5
7A038
330
7A142
100
AcDbEntity
  8
Level 26
  6
Continuous
 62
     7
370
     0
100
AcDbCircle
 10
5998.253268
 20
9205.276387
 30
0.0
 40
16.0
  0
CIRCLE
  5
7A039
330
7A142
100
AcDbEntity
  8
Level 26
  6
Continuous
 62
     7
370
     0
100
AcDbCircle
 10
5998.253268
 20
9205.276387
 30
0.0
 40
16.0
  0
CIRCLE
  5
7A03A
330
7A142
100
AcDbEntity
  8
Level 26
  6
Continuous
 62
     7
370
     0
100
AcDbCircle
 10
5998.253268
 20
9205.276387
 30
0.0
 40
16.0
  0
CIRCLE
  5
7A03B
330
7A142
100
AcDbEntity
  8
Level 26
  6
Continuous
 62
     7
370
     0
100
AcDbCircle
 10
5998.253268
 20
9205.276387
 30
0.0
 40
16.0
  0
INSERT
  5
7A03C
330
7A142
100
AcDbEntity
  8
Level 25
  6
Continuous
 62
   174
370
     0
100
AcDbBlockReference
  2
Feature Solid
 10
5998.252917
 20
9205.276573
 30
0.0
  0
CIRCLE
  5
7A04A
330
7A142
100
AcDbEntity
  8
Level 26
  6
Continuous
 62
     7
370
     0
100
AcDbCircle
 10
5998.253268
 20
9205.276387
 30
0.0
 40
16.0
  0
CIRCLE
  5
7A04B
330
7A142
100
AcDbEntity
  8
Level 26
  6
Continuous
 62
     7
370
     0
100
AcDbCircle
 10
5998.253268
 20
9205.276387
 30
0.0
 40
16.0
  0
CIRCLE
  5
7A04C
330
7A142
100
AcDbEntity
  8
Level 26
  6
Continuous
 62
     7
370
     0
100
AcDbCircle
 10
5998.253268
 20
9205.276387
 30
0.0
 40
16.0
  0
CIRCLE
  5
7A04D
330
7A142
100
AcDbEntity
  8
Level 26
  6
Continuous
 62
     7
370
     0
100
AcDbCircle
 10
5998.253268
 20
9205.276387
 30
0.0
 40
16.0
  0
INSERT
  5
7A04E
330
7A142
100
AcDbEntity
  8
Level 25
  6
Continuous
 62
   174
370
     0
100
AcDbBlockReference
  2
Feature Solid
 10
5998.252917
 20
9205.276573
 30
0.0
  0
CIRCLE
  5
7A05C
330
7A142
100
AcDbEntity
  8
Level 26
  6
Continuous
 62
     7
370
     0
100
AcDbCircle
 10
3198.749439
 20
12205.276387
 30
0.0
 40
16.0
  0
CIRCLE
  5
7A05D
330
7A142
100
AcDbEntity
  8
Level 26
  6
Continuous
 62
     7
370
     0
100
AcDbCircle
 10
3198.749439
 20
12205.276387
 30
0.0
 40
16.0
  0
CIRCLE
  5
7A05E
330
7A142
100
AcDbEntity
  8
Level 26
  6
Continuous
 62
     7
370
     0
100
AcDbCircle
 10
3198.749439
 20
12205.276387
 30
0.0
 40
16.0
  0
CIRCLE
  5
7A05F
330
7A142
100
AcDbEntity
  8
Level 26
  6
Continuous
 62
     7
370
     0
100
AcDbCircle
 10
3198.749439
 20
12205.276387
 30
0.0
 40
16.0
  0
INSERT
  5
7A060
330
7A142
100
AcDbEntity
  8
Level 25
  6
Continuous
 62
   174
370
     0
100
AcDbBlockReference
  2
Feature Solid
 10
3198.749089
 20
12205.276573
 30
0.0
  0
CIRCLE
  5
7A06E
330
7A142
100
AcDbEntity
  8
Level 26
  6
Continuous
 62
     7
370
     0
100
AcDbCircle
 10
3198.749439
 20
12205.276387
 30
0.0
 40
16.0
  0
CIRCLE
  5
7A06F
330
7A142
100
AcDbEntity
  8
Level 26
  6
Continuous
 62
     7
370
     0
100
AcDbCircle
 10
3198.749439
 20
12205.276387
 30
0.0
 40
16.0
  0
CIRCLE
  5
7A070
330
7A142
100
AcDbEntity
  8
Level 26
  6
Continuous
 62
     7
370
     0
100
AcDbCircle
 10
3198.749439
 20
12205.276387
 30
0.0
 40
16.0
  0
CIRCLE
  5
7A071
330
7A142
100
AcDbEntity
  8
Level 26
  6
Continuous
 62
     7
370
     0
100
AcDbCircle
 10
3198.749439
 20
12205.276387
 30
0.0
 40
16.0
  0
INSERT
  5
7A072
330
7A142
100
AcDbEntity
  8
Level 25
  6
Continuous
 62
   174
370
     0
100
AcDbBlockReference
  2
Feature Solid
 10
3198.749089
 20
12205.276573
 30
0.0
  0
CIRCLE
  5
7A080
330
7A142
100
AcDbEntity
  8
Level 26
  6
Continuous
 62
     7
370
     0
100
AcDbCircle
 10
3198.749439
 20
12205.276387
 30
0.0
 40
16.0
  0
CIRCLE
  5
7A081
330
7A142
100
AcDbEntity
  8
Level 26
  6
Continuous
 62
     7
370
     0
100
AcDbCircle
 10
3198.749439
 20
12205.276387
 30
0.0
 40
16.0
  0
CIRCLE
  5
7A082
330
7A142
100
AcDbEntity
  8
Level 26
  6
Continuous
 62
     7
370
     0
100
AcDbCircle
 10
3198.749439
 20
12205.276387
 30
0.0
 40
16.0
  0
CIRCLE
  5
7A083
330
7A142
100
AcDbEntity
  8
Level 26
  6
Continuous
 62
     7
370
     0
100
AcDbCircle
 10
3198.749439
 20
12205.276387
 30
0.0
 40
16.0
  0
INSERT
  5
7A084
330
7A142
100
AcDbEntity
  8
Level 25
  6
Continuous
 62
   174
370
     0
100
AcDbBlockReference
  2
Feature Solid
 10
3198.749089
 20
12205.276573
 30
0.0
  0
CIRCLE
  5
7A092
330
7A142
100
AcDbEntity
  8
Level 26
  6
Continuous
 62
     7
370
     0
100
AcDbCircle
 10
3198.749439
 20
12205.276387
 30
0.0
 40
16.0
  0
CIRCLE
  5
7A093
330
7A142
100
AcDbEntity
  8
Level 26
  6
Continuous
 62
     7
370
     0
100
AcDbCircle
 10
3198.749439
 20
12205.276387
 30
0.0
 40
16.0
  0
CIRCLE
  5
7A094
330
7A142
100
AcDbEntity
  8
Level 26
  6
Continuous
 62
     7
370
     0
100
AcDbCircle
 10
3198.749439
 20
12205.276387
 30
0.0
 40
16.0
  0
CIRCLE
  5
7A095
330
7A142
100
AcDbEntity
  8
Level 26
  6
Continuous
 62
     7
370
     0
100
AcDbCircle
 10
3198.749439
 20
12205.276387
 30
0.0
 40
16.0
  0
INSERT
  5
7A096
330
7A142
100
AcDbEntity
  8
Level 25
  6
Continuous
 62
   174
370
     0
100
AcDbBlockReference
  2
Feature Solid
 10
3198.749089
 20
12205.276573
 30
0.0
  0
CIRCLE
  5
7A0A4
330
7A142
100
AcDbEntity
  8
Level 26
  6
Continuous
 62
     7
370
     0
100
AcDbCircle
 10
3198.749439
 20
12205.276387
 30
0.0
 40
16.0
  0
CIRCLE
  5
7A0A5
330
7A142
100
AcDbEntity
  8
Level 26
  6
Continuous
 62
     7
370
     0
100
AcDbCircle
 10
3198.749439
 20
12205.276387
 30
0.0
 40
16.0
  0
CIRCLE
  5
7A0A6
330
7A142
100
AcDbEntity
  8
Level 26
  6
Continuous
 62
     7
370
     0
100
AcDbCircle
 10
3198.749439
 20
12205.276387
 30
0.0
 40
16.0
  0
CIRCLE
  5
7A0A7
330
7A142
100
AcDbEntity
  8
Level 26
  6
Continuous
 62
     7
370
     0
100
AcDbCircle
 10
3198.749439
 20
12205.276387
 30
0.0
 40
16.0
  0
INSERT
  5
7A0A8
330
7A142
100
AcDbEntity
  8
Level 25
  6
Continuous
 62
   174
370
     0
100
AcDbBlockReference
  2
Feature Solid
 10
3198.749089
 20
12205.276573
 30
0.0
  0
INSERT
  5
7A0B6
330
7A142
100
AcDbEntity
  8
Level 27
  6
Continuous
 62
    12
370
     0
100
AcDbBlockReference
  2
Feature Solid_1
 10
3198.749685
 20
205.276322
 30
0.0
  0
INSERT
  5
7A0CD
330
7A142
100
AcDbEntity
  8
Level 28
  6
Continuous
 62
    12
370
     0
100
AcDbBlockReference
  2
Feature Solid_3
 10
5998.253514
 20
3205.276322
 30
0.0
  0
INSERT
  5
7A0E4
330
7A142
100
AcDbEntity
  8
Level 29
  6
Continuous
 62
    12
370
     0
100
AcDbBlockReference
  2
Feature Solid_5
 10
3198.749685
 20
6205.276322
 30
0.0
  0
INSERT
  5
7A0FB
330
7A142
100
AcDbEntity
  8
Level 30
  6
Continuous
 62
    12
370
     0
100
AcDbBlockReference
  2
Feature Solid_7
 10
5998.253514
 20
9205.276322
 30
0.0
  0
INSERT
  5
7A112
330
7A142
100
AcDbEntity
  8
Level 31
  6
Continuous
 62
    12
370
     0
100
AcDbBlockReference
  2
Feature Solid_9
 10
3198.749685
 20
12205.276322
 30
0.0
  0
ENDSEC
  0
SECTION
  2
OBJECTS
  0
DICTIONARY
  5
7A155
330
0
100
AcDbDictionary
281
     1
  3
ACAD_GROUP
350
7A153
  3
ACAD_LAYOUT
350
7A156
  3
ACAD_MLINESTYLE
350
7A154
  3
ACAD_PLOTSETTINGS
350
7A157
  3
ACAD_PLOTSTYLENAME
350
7A158
  3
ACAD_TABLESTYLE
350
7A1B0
  3
AcadDim
350
7A168
  3
DWGPROPS
350
7A1D7
  0
DICTIONARY
  5
7A15B
330
7A14A
100
AcDbDictionary
280
     1
281
     1
  3
ACAD_LAYERFILTERS
360
7A15C
  0
DICTIONARY
  5
7A153
102
{ACAD_REACTORS
330
7A155
102
}
330
7A155
100
AcDbDictionary
281
     1
  0
DICTIONARY
  5
7A156
102
{ACAD_REACTORS
330
7A155
102
}
330
7A155
100
AcDbDictionary
281
     1
  3
Layout1
350
7A149
  3
Model
350
7A145
  0
DICTIONARY
  5
7A154
102
{ACAD_REACTORS
330
7A155
102
}
330
7A155
100
AcDbDictionary
281
     1
  3
Standard
350
7A140
  0
DICTIONARY
  5
7A157
102
{ACAD_REACTORS
330
7A155
102
}
330
7A155
100
AcDbDictionary
281
     1
  0
ACDBDICTIONARYWDFLT
  5
7A158
102
{ACAD_REACTORS
330
7A155
102
}
330
7A155
100
AcDbDictionary
281
     1
  3
Normal
350
7A13B
100
AcDbDictionaryWithDefault
340
7A13B
  0
DICTIONARY
  5
7A1B0
102
{ACAD_REACTORS
330
7A155
102
}
330
7A155
100
AcDbDictionary
281
     1
  0
XRECORD
  5
7A168
102
{ACAD_REACTORS
330
7A155
102
}
330
7A155
100
AcDbXrecord
280
     1
 90
   990106
  3
 
 60
     0
 61
     0
 62
     1
 63
     1
 64
     0
 65
     0
 66
     0
 67
     3
 68
     1
 69
     1
 70
     0
 71
     0
 72
     0
 40
0.0
170
     0
  0
XRECORD
  5
7A1D7
102
{ACAD_REACTORS
330
7A155
102
}
330
7A155
100
AcDbXrecord
280
     1
  1
DWGPROPS COOKIE
  2

  3

  4
WAEngineering1
  6

  7

  8

  9

300
=
301
=
302
=
303
=
304
=
305
=
306
=
307
=
308
=
309
=
 40
0.0
 41
2451789.537469
 42
2451789.537561
  1

 90
        0
  0
DICTIONARY
  5
7A15C
102
{ACAD_REACTORS
330
7A15B
102
}
330
7A15B
100
AcDbDictionary
281
     1
  0
LAYOUT
  5
7A149
102
{ACAD_REACTORS
330
7A156
330
7A156
102
}
330
7A156
100
AcDbPlotSettings
  1

  2

  4

  6

 40
0.0
 41
0.0
 42
0.0
 43
0.0
 44
0.0
 45
0.0
 46
0.0
 47
0.0
 48
0.0
 49
0.0
140
0.0
141
0.0
142
1.0
143
1.0
 70
   688
 72
     0
 73
     0
 74
     5
  7

 75
    16
147
1.0
148
0.0
149
0.0
100
AcDbLayout
  1
Layout1
 70
     1
 71
     1
 10
0.0
 20
0.0
 11
12.0
 21
9.0
 12
0.0
 22
0.0
 32
0.0
 14
1.000000E+20
 24
1.000000E+20
 34
1.000000E+20
 15
-1.000000E+20
 25
-1.000000E+20
 35
-1.000000E+20
146
0.0
 13
0.0
 23
0.0
 33
0.0
 16
1.0
 26
0.0
 36
0.0
 17
0.0
 27
1.0
 37
0.0
 76
     0
330
7A146
  0
LAYOUT
  5
7A145
102
{ACAD_REACTORS
330
7A156
330
7A156
102
}
330
7A156
100
AcDbPlotSettings
  1

  2

  4

  6

 40
0.0
 41
0.0
 42
0.0
 43
0.0
 44
0.0
 45
0.0
 46
0.0
 47
0.0
 48
0.0
 49
0.0
140
0.0
141
0.0
142
1.0
143
1.0
 70
  1712
 72
     0
 73
     0
 74
     0
  7

 75
     0
147
1.0
148
0.0
149
0.0
100
AcDbLayout
  1
Model
 70
     1
 71
     0
 10
0.0
 20
0.0
 11
12.0
 21
9.0
 12
0.0
 22
0.0
 32
0.0
 14
0.0
 24
0.0
 34
0.0
 15
0.0
 25
0.0
 35
0.0
146
0.0
 13
0.0
 23
0.0
 33
0.0
 16
1.0
 26
0.0
 36
0.0
 17
0.0
 27
1.0
 37
0.0
 76
     0
330
7A142
  0
MLINESTYLE
  5
7A140
102
{ACAD_REACTORS
330
7A154
102
}
330
7A154
100
AcDbMlineStyle
  2
STANDARD
 70
     0
  3

 62
   256
 51
90.0
 52
90.0
 71
     2
 49
0.5
 62
   256
  6
BYLAYER
 49
-0.5
 62
   256
  6
BYLAYER
  0
ACDBPLACEHOLDER
  5
7A13B
102
{ACAD_REACTORS
330
7A158
102
}
330
7A158
  0
ENDSEC
  0
SECTION
  2
THUMBNAILIMAGE
 90
    16004
310
28000000B40000005300000001000800000000005C3A000000040000000400000001000005000000FFFFFF001018E0004800000090689000D8782800FFFFFF00FFFFFF00FFFFFF00FFFFFF00FFFFFF00FFFFFF00FFFFFF00FFFFFF00FFFFFF00FFFFFF00FFFFFF00FFFFFF00FFFFFF00FFFFFF00FFFFFF00FFFFFF00FFFFFF
310
00FFFFFF00FFFFFF00FFFFFF00FFFFFF00FFFFFF00FFFFFF00FFFFFF00FFFFFF00FFFFFF00FFFFFF00FFFFFF00FFFFFF00FFFFFF00FFFFFF00FFFFFF00FFFFFF00FFFFFF00FFFFFF00FFFFFF00FFFFFF00FFFFFF00FFFFFF00FFFFFF00FFFFFF00FFFFFF00FFFFFF00FFFFFF00FFFFFF00FFFFFF00FFFFFF00FFFFFF00FFFF
310
FF00FFFFFF00FFFFFF00FFFFFF00FFFFFF00FFFFFF00FFFFFF00FFFFFF00FFFFFF00FFFFFF00FFFFFF00FFFFFF00FFFFFF00FFFFFF00FFFFFF00FFFFFF00FFFFFF00FFFFFF00FFFFFF00FFFFFF00FFFFFF00FFFFFF00FFFFFF00FFFFFF00FFFFFF00FFFFFF00FFFFFF00FFFFFF00FFFFFF00FFFFFF00FFFFFF00FFFFFF00FF
310
FFFF00FFFFFF00FFFFFF00FFFFFF00FFFFFF00FFFFFF00FFFFFF00FFFFFF00FFFFFF00FFFFFF00FFFFFF00FFFFFF00FFFFFF00FFFFFF00FFFFFF00FFFFFF00FFFFFF00FFFFFF00FFFFFF00FFFFFF00FFFFFF00FFFFFF00FFFFFF00FFFFFF00FFFFFF00FFFFFF00FFFFFF00FFFFFF00FFFFFF00FFFFFF00FFFFFF00FFFFFF00
310
FFFFFF00FFFFFF00FFFFFF00FFFFFF00FFFFFF00FFFFFF00FFFFFF00FFFFFF00FFFFFF00FFFFFF00FFFFFF00FFFFFF00FFFFFF00FFFFFF00FFFFFF00FFFFFF00FFFFFF00FFFFFF00FFFFFF00FFFFFF00FFFFFF00FFFFFF00FFFFFF00FFFFFF00FFFFFF00FFFFFF00FFFFFF00FFFFFF00FFFFFF00FFFFFF00FFFFFF00FFFFFF
310
00FFFFFF00FFFFFF00FFFFFF00FFFFFF00FFFFFF00FFFFFF00FFFFFF00FFFFFF00FFFFFF00FFFFFF00FFFFFF00FFFFFF00FFFFFF00FFFFFF00FFFFFF00FFFFFF00FFFFFF00FFFFFF00FFFFFF00FFFFFF00FFFFFF00FFFFFF00FFFFFF00FFFFFF00FFFFFF00FFFFFF00FFFFFF00FFFFFF00FFFFFF00FFFFFF00FFFFFF00FFFF
310
FF00FFFFFF00FFFFFF00FFFFFF00FFFFFF00FFFFFF00FFFFFF00FFFFFF00FFFFFF00FFFFFF00FFFFFF00FFFFFF00FFFFFF00FFFFFF00FFFFFF00FFFFFF00FFFFFF00FFFFFF00FFFFFF00FFFFFF00FFFFFF00FFFFFF00FFFFFF00FFFFFF00FFFFFF00FFFFFF00FFFFFF00FFFFFF00FFFFFF00FFFFFF00FFFFFF00FFFFFF00FF
310
FFFF00FFFFFF00FFFFFF00FFFFFF00FFFFFF00FFFFFF00FFFFFF00FFFFFF00FFFFFF00FFFFFF00FFFFFF00FFFFFF00FFFFFF00FFFFFF00FFFFFF00FFFFFF00FFFFFF00FFFFFF00FFFFFF00FFFFFF00FFFFFF00FFFFFF00FFFFFF00FFFFFF00FFFFFF00FFFFFF00FFFFFF00FFFFFF00FFFFFF00FFFFFF00FFFFFF00FFFFFF00
310
FFFFFF00FFFFFF00FFFFFF00FFFFFF00FFFFFF00FFFFFF00FFFFFF00FFFFFF00FFFFFF00FFFFFF00FFFFFF00FFFFFF0003030303030303030303030303030303030303030303030303030303030303030303030303030303030303030303030303030303030303030303030303030303030303030303030303030303030303
310
03030303030303030303030303030303030303030303030303030303030303030303030303030303030303030303030303030303030303030303030303030303030303030303030303030303030303030303030303030303030303030303030303030303030303030303030303030303030303030303030303030303030303
310
03030303030303030303030303030303030303030303030303030303030303030303030303030303030303030303030303030303030301010303030303030303030303030303030303030303030303030303030303030303030303030303030303030303030303030303030303030303030303030303030303030303030303
310
03030303030303030303030303030303030303030303030303030303030303030303030303030303030303030303030303030303030303030303030303030303030303030303030303030303030303030303030303030303030303030303030303030303030303030303030101030303030303030303030303030303030303
310
03030303030303030303030303030303030303030303030303030303030303030303030303030303030303030303030303030303030303030303030303030303030303030303030303030303030303030303030303030303030303030303030303030303030303030303030303030303030303030303030303030303030303
310
03030303030303030303030303030303030303030303030303030303030303030303030303030303030303030303030303030303030303030303030303030303030303030303030303030303030303030303030303030303030303030303030303030303030303030303030303030303030303030303030303030303030303
310
03030303030303030303030303030303030303030303030303030303030303030303030303030303030303030303030303030303030303030303030303030303030303030303030303030303030303030303030303030303030303030303030303030303030303030303030303030303030303030303030303030303030303
310
03030303030303030303030303030303030303030303030303030303030303030303030303030303030303030303030303030303030303030303030303030303030303030303030303030303030303030303030303030303030303030303030303030303030303030303030303030303030303030303030303030303030303
310
03030303030303030303030303030303030303030303030303030303030303030303030303030303030303030303030303030303030303030303030303030303030303030303030303030303030303030303030303030303030303030303030303030303030303030303030303030303030303030303030303030303030303
310
03030303030303030303030303030303030303030303030303030303030303030303030303030303030303030303030303030303030303030303030303030303030303030303030303030303030303030303030303030303030303030303030303030303030303030303030303030303030303030303030303030303030303
310
03030303030303030303030303030303030303030303030303030303030303030303030303030303030303030303030303030303030303030303030303030303030303030303030303030303030303030303030303030303030303030303030303030303030303030303030303030303030303030303030303030303030303
310
03030303030303030303030303030303030303030303030303030303030303030303030303030303030303030303030303030303030303030303030303030303030303030303030303030303030303030303030303030303030303030303030303030303030303030303030303030303030303030303030303030303030303
310
03030303030303030303030303030303030303030303030303030303030303030303030303030303030303030303030303030303030303030303030303030303030303030303030303030303030303030303030303030303030303030303030303030303030303030303030303030303030303030303030303030303030303
310
03030303030303030303030303030303030303030303030303030303030303030303030303030303030303030303030303030303030303030303030303030303030303030303030303030303030303030303030303030303030303030303030303030303030303030303030303030303030303030303030303030303030303
310
03030303030303030303030303030303030303030303030303030303030303030303030303030303030303030303030303030303030303030303030303030303030303030303030303030303030303030303030303030303030303030303030303030303030303030303030303030303030303030303030303030303030303
310
03030303030303030303030303030303030303030303030303030303030303030303030303030303030303030303030303030303030303030303030303030303030303030303030303030303030303030303030303030303030303030303030303030303030303030303030303030303030303030303030303030303030303
310
03030303030303030303030303030303030303030303030303030303030303030303030303030303030303030303030303030303030303030303030303030303030303030303030303030303030303030303030303030303030303030303030303030303030303030303030303030303030303030303030303030303030303
310
03030303030303030303030303030303030303030303030303030303030303030303030303030303030303030303030303030303030303030303030303030303030303030303030303030303030303030303030303030303030303030303030303030303030303030303030303030303030303030303030303030303030303
310
03030303030303030303030303030303030303030303030303030303030303030303030303030303030303030303030303030303030303030303030303030303030303030303030303030303030303030303030303030303030303030303030303030303030303030303030303030303030303030303030303030303030303
310
03030303030303030303030303030303030303030303030303030303030303030303030303030303030303030303030303030303030303030303030303030303030303030303030303030303030303030303030303030303030303030303030303030303030303030303030303030303030303030303030303030303030303
310
03030303030303030303030303030303030303030303030303030303030303030303030303030303030303030303030303030303030303030303030303030303030303030303030303030303030303030303030303030303030303030303030303030303030303030303030303030303030303030303030303030303030303
310
03030303030303030303030303030303030303030303030303030303030303030303030303030303030303030303030303030303030303030303030303030303030303030303030303030303030303030303030303030303030303030303030303030303030303030303030303030303030303030303030303030303030303
310
03030303030303030303030303030303030303030303030303030303030303030303030303030303030303030303030303030303030303030303030303030303030303030303030303030303030303030303030303030303030303030303030303030303030303030303030303030303030303030303030303030303030303
310
03030303030303030303030303030303030303030303030303030303030303030303030303030303030303030303030303030303030303030303030303030303030303030303030303030303030303030303030303030303030303030303030303030303030303030303030303030303030303030303030303030303030303
310
03030303030303030303030303030303030303030303030303030303030303030303030303030303030303030303030303030303030303030303030303030303030303030303030303030303030303030303030303030303030303030303030303030303030303030303030303030303030303030303030303030303030303
310
03030303030303030303030303030303030303030303030303030303030303030303030303030303030303030303030303030303030303030303030303030303030303030303030303030303030303030303030303030303030303030303030303030303030303030303030303030303030303030303030303030303030303
310
03030303030303030303030303030303030303030303030303030303030303030303030303030303030303030303030303030303030303030303030303030303030303030303030303030303030303030303030303030303030303030303030303030303030303030303030303030303030303030303030303030303030303
310
03030303030303030303030303030303030303030303030303030303030303030303030303030303030303030303030303030303030303030303030303030303030303030303030303030303030303030303030303030303030303030303030303030303030303030303030303030303030303030303030303030303030303
310
03030303030303030303030303030303030303030303030303030303030303030303030303030303030303030303030303030303030303030303030303030303030303030303030303030303030303030303030303030303030303030303030303030303030303030303030303030303030303030303030303030303030303
310
03030303030303030303030303030303030303030303030303030303030303030303030303030303030303030303030303030303030303030303030303030301010303030303030303030303030303030303030303030303030303030303030303030303030303030303030303030303030303030303030303030303030303
310
03030303030303030303030303030303030303030303030303030303030303030303030303030303030303030303030303030303030303030303030303030303030303030303030303030303030303030303030303030303030303030303030303030303030303030303030303030303030303030101030303030303030303
310
03030303030303030303030303030303030303030303030303030303030303030303030303030303030303030303030303030303030303030303030303030303030303030303030303030303030303030303030303030303030303030303030303030303030303030303030303030303030303030303030303030303030303
310
03030303030303030303030303030303030303030303030303030303030303030303030303030303030303010303030303030303030303030303030303030303030303030303030303030303030303030303030303030303030303030303030303030303030303030303030303030303030303030303030303030303030303
310
03030303030303030303030303030303030303030303030303030303030303030303030303030303030303030303030303030303030303030303030303030303030303030303030303030303030303030303030303030303030303030303030303030303030303030303030303030303030303030303030303030303030303
310
03030303030303030303030303030303030303030303030303030303030303030303030303030303030303030303030303030303030303030303030303030303030303030303030303030303030303030303030303030303030303030303030303030303030303030303030303030303030303030303030303030303030303
310
03030303030303030303030303030303030303030303030303030303030303030303030303030303030303030303030303030303030303030303030303030303030303030303030303030303030303030303030303030303030303030303030303030303030303030303030303030303030303030303030303030303030303
310
03030303030303030303030303030303030303030303030303030303030303030303030303030303030303030303030303030303030303030303030303030303030303030303030303030303030303030303030303030303030303030303030303030303030303030303030303030303030303030303030303030303030303
310
03030303030303030303030303030303030303030303030303030303030303030303030303030303030303030303030303030303030303030303030303030303030303030303030303030303030303030303030303030303030303030303030303030303030303030303030303030303030303030303030303030303030303
310
03030303030303030303030303030303030303030303030303030303030303030303030303030303030303030303030303030303030303030303030303030303030303030303030303030303030303030303030303030303030303030303030303030303030303030303030303030303030303030303030303030303030303
310
03030303030303030303030303030303030303030303030303030303030303030303030303030303030303030303030303030303030303030303030303030303030303030303030303030303030303030303030303030303030303030303030303030303030303030303030303030303030303030303030303030303030303
310
03030303030303030303030303030303030303030303030303030303030303030303030303030303030303030303030303030303030303030303030303030303030303030303030303030303030303030303030303030303030303030303030303030303030303030303030303030303030303030303030303030303030303
310
03030303030303030303030303030303030303030303030303030303030303030303030303030303030303030303030303030303030303030303030303030303030303030303030303030303030303030303030303030303030303030303030303030303030303030303030303030303030303030303030303030303030303
310
03030303030303030303030303030303030303030303030303030303030303030303030303030303030303030303030303030303030303030303030303030303030303030303030303030303030303030303030303030303030303030303030303030303030303030303030303030303030303030303030303030303030303
310
03030303030303030303030303030303030303030303030303030303030303030303030303030303030303030303030303030303030303030303030303030303030303030303030303030303030303030303030303030303030303030303030303030303030303030303030303030303030303030303030303030303030303
310
03030303030303030303030303030303030303030303030303030303030303030303030303030303030303030303030303030303030303030303030303030303030303030303030303030303030303030303030303030303030303030303030303030303030303030303030303030303030303030303030303030303030303
310
03030303030303030303030303030303030303030303030303030303030303030303030303030303030303030303030303030303030303030303030303030303030303030303030303030303030303030303030303030303030303030303030303030303030303030303030303030303030303030303030303030303030303
310
03030303030303030303030303030303030303030303030303030303030303030303030303030303030303030303030303030303030303030303030303030303030303030303030303030303030303030303030303030303030303030303030303030303030303030303030303030303030303030303030303030303030303
310
03030303030303030303030303030303030303030303030303030303030303030303030303030303030303030303030303030303030303030303030303030303030303030303030303030303030303030303030303030303030303030303030303030303030303030303030303030303030303030303030303030303030303
310
03030303030303030303030303030303030303030303030303030303030303030303030303030303030303030303030303030303030303030303030303030303030303030303030303030303030303030303030303030303030303030303030303030303030303030303030303030303030303030303030303030303030303
310
03030303030303030303030303030303030303030303030303030303030303030303030303030303030303030303030303030303030303030303030303030303030303030303030303030303030303030303030303030303030303030303030303030303030303030303030303030303030303030303030303030303030303
310
03030303030303030303030303030303030303030303030303030303030303030303030303030303030303030303030303030303030303030303030303030303030303030303030303030303030303030303030303030303030303030303030303030303030303030303030303030303030303030303030303030303030303
310
03030303030303030303030303030303030303030303030303030303030303030303030303030303030303030303030303030303030303030303030303030303030303030303030303030303030303030303030303030303030303030303030303030303030303030303030303030303030303030303030303030303030303
310
03030303030303030303030303030303030303030303030303030303030303030303030303030303030303030303030303030303030303030303030303030303030303030303030303030303030303030303030303030303030303030303030303030303030303030303030303030303030303030303030303030303030303
310
03030303030303030303030303030303030303030303030303030303030303030303030303030303030303030303030303030303030303030303030303030303030303030303030303030303030303030303030303030303030303030303030303030303030303030303030303030303030303030303030303030303030303
310
03030303030303030303030303030303030303030303030303030303030303030303030303030303030303030303030303030303030303030303030303030303030303030303030303030303030303030303030303030303030303030303030303030303030303030303030303030303030303030303030303030303030303
310
03030303030303030303030303030303030303030303030303030303030303030303030303030303030303030303030303030303030303030303030303030303030303030303030303030303030303030303030303030303030303030303030303030303030303030303030303030303030303030303030303030303030303
310
03030303030303030303030303030303030303030303030303030303030303030303030301030303030303030303030303030303030303030303030303030303030303030303030303030303030303030303030303030303030303030303030303030303030303030303030303030303030303030303030303030303030303
310
03030303030303030303030303030303030303030303030303030303030303030303030303030303030303030303030303030303030303030303030303030303030303030303030303030303030303030303030303030303030101030303030303030303030303030303030303030303030303030303030303030303030303
310
03030303030303030303030303030303030303030303030303030303030303030303030303030303030303030303030303030303030303030303030303030303030303030303030303030303030303030303030303030303030303030303030303030303030303030303030303030303030303030303030303030303030303
310
03030303030303030303030303030301010303030303030303030303030303030303030303030303030303030303030303030303030303030303030303030303030303030303030303030303030303030303030303030303030303030303030303030303030303030303030303030303030303030303030303030303030303
310
03030303030303030303030303030303030303030303030303030303030303030303030303030303030303030303030303030303030303030303030303030303030303030303030303030303030303030303030303030303030303030303030303030303030303030303030303030303030303030303030303030303030303
310
03030303030303030303030303030303030303030303030303030303030303030303030303030303030303030303030303030303030303030303030303030303030303030303030303030303030303030303030303030303030303030303030303030303030303030303030303030303030303030303030303030303030303
310
03030303030303030303030303030303030303030303030303030303030303030303030303030303030303030303030303030303030303030303030303030303030303030303030303030303030303030303030303030303030303030303030303030303030303030303030303030303030303030303030303030303030303
310
03030303030303030303030303030303030303030303030303030303030303030303030303030303030303030303030303030303030303030303030303030303030303030303030303030303030303030303030303030303030303030303030303030303030303030303030303030303030303030303030303030303030303
310
03030303030303030303030303030303030303030303030303030303030303030303030303030303030303030303030303030303030303030303030303030303030303030303030303030303030303030303030303030303030303030303030303030303030303030303030303030303030303030303030303030303030303
310
03030303030303030303030303030303030303030303030303030303030303030303030303030303030303030303030303030303030303030303030303030303030303030303030303030303030303030303030303030303030303030303030303030303030303030303030303030303030303030303030303030303030303
310
03030303030303030303030303030303030303030303030303030303030303030303030303030303030303030303030303030303030303030303030303030303030303030303030303030303030303030303030303030303030303030303030303030303030303030303030303030303030303030303030303030303030303
310
03030303030303030303030303030303030303030303030303030303030303030303030303030303030303030303030303030303030303030303030303030303030303030303030303030303030303030303030303030303030303030303030303030303030303030303030303030303030303030303030303030303030303
310
03030303030303030303030303030303030303030303030303030303030303030303030303030303030303030303030303030303030303030303030303030303030303030303030303030303030303030303030303030303030303030303030303030303030303030303030303030303030303030303030303030303030303
310
03030303030303030303030303030303030303030303030303030303030303030303030303030303030303030303030303030303030303030303030303030303030303030303030303030303030303030303030303030303030303030303030303030303030303030303030303030303030303030303030303030303030303
310
03030303030303030303030303030303030303030303030303030303030303030303030303030303030303030303030303030303030303030303030303030303030303030303030303030303030303030303030303030303030303030303030303030303030303030303030303030303030303030303030303030303030303
310
03030303030303030303030303030303030303030303030303030303030303030303030303030303030303030303030303030303030303030303030303030303030303030303030303030303030303030303030303030303030303030303030303030303030303030303030303030303030303030303030303030303030303
310
03030303030303030303030303030303030303030303030303030303030303030303030303030303030303030303030303030303030303030303030303030303030303030303030303030303030303030303030303030303030303030303030303030303030303030303030303030303030303030303030303030303030303
310
03030303030303030303030303030303030303030303030303030303030303030303030303030303030303030303030303030303030303030303030303030303030303030303030303030303030303030303030303030303030303030303030303030303030303030303030303030303030303030303030303030303030303
310
03030303030303030303030303030303030303030303030303030303030303030303030303030303030303030303030303030303030303030303030303030303030303030303030303030303030303030303030303030303030303030303030303030303030303030303030303030303030303030303030303030303030303
310
03030303030303030303030303030303030303030303030303030303030303030303030303030303030303030303030303030303030303030303030303030303030303030303030303030303030303030303030303030303030303030303030303030303030303030303030303030303030303030303030303030303030303
310
03030303030303030303030303030303030303030303030303030303030303030303030303030303030303030303030303030303030303030303030303030303030303030303030303030303030303030303030303030303030303030303030303030303030303030303030303030303030303030303030303030303030303
310
03030303030303030303030303030303030303030303030303030303030303030303030303030303030303030303030303030303030303030303030303030303030303030303030303030303030303030303030303030303030303030303030303030303030303030303030303030303030303030303030303030303030303
310
03030303030303030303030303030303030303030303030303030303030303030303030303030303030303030303030303030303030303030303030303030303030303030303030303030303030303030303030303030303030303030303030303030303030303030303030303030303030303030303030303030303030303
310
03030303030303030303030303030303030303030303030303030303030303030303030303030303030303030303030303030303030303030303030303030303030303030303030303030303030303030303030303030303030303030303030303030303030303030303030303030303030303030303030303030303030303
310
03030303030303030303030303030303030303030303030303030303030303030303030303030303030303030303030303030303030303030303030303030303030303030303030303030303030303030303030303030303030303030303030303030303030303030303030303030303030303030303030303030303030303
310
03030303030303030303030303030303030303030303030303030303030303030303030303030303030303030303030303030303030303030303030303030303030303030303030303030303030303030303030303030303030303030303030303030303030303030303030303030303030303030303030303030303030303
310
03030303030303030303030303030303030303030303030303030303030303030303030303030303030303030303030303030303030303030303030303030303030303030303030303030303030303030303030303030303030303030303030303030303030303030303030303030303030303030303030303030303030303
310
03030303030303030303030303030303030303030303030303030303030303030303030303030303030303030301030303030303030303030303030303030303030303030303030303030303030303030303030303030303030303030303030303030303030303030303030303030303030303030303030303030303030303
310
03030303030303030303030303030303030303030303030303030303030303030303030303030303030303030303030303030303030303030303030303030303030303030303030303030303030303030303030303030303030303030303030303030101030303030303030303030303030303030303030303030303030303
310
03030303030303030303030303030303030303030303030303030303030303030303030303030303030303030303030303030303030303030303030303030303030303030303030303030303030303030303030303030303030303030303030303030303030303030303030303030303030303030303030303030303030303
310
03030303030303030303030303030303030303030303030301010303030303030303030303030303030303030303030303030303030303030303030303030303030303030303030303030303030303030303030303030303030303030303030303030303030303030303030303030303030303030303030303030303030303
310
03030303030303030303030303030303030303030303030303030303030303030303030303030303030303030303030303030303030303030303030303030303030303030303030303030303030303030303030303030303030303030303030303030303030303030303030303030303030303030303030303030303030303
310
03030303030303030303030303030303030303030303030303030303030303030303030303030303030303030303030303030303030303030303030303030303030303030303030303030303030303030303030303030303030303030303030303030303030303030303030303030303030303030303030303030303030303
310
03030303030303030303030303030303030303030303030303030303030303030303030303030303030303030303030303030303030303030303030303030303030303030303030303030303030303030303030303030303030303030303030303030303030303030303030303030303030303030303030303030303030303
310
03030303030303030303030303030303030303030303030303030303030303030303030303030303030303030303030303030303030303030303030303030303030303030303030303030303030303030303030303030303030303030303030303030303030303030303030303030303030303030303030303030303030303
310
03030303030303030303030303030303030303030303030303030303030303030303030303030303030303030303030303030303030303030303030303030303030303030303030303030303030303030303030303030303030303030303030303030303030303030303030303030303030303030303030303030303030303
310
03030303030303030303030303030303030303030303030303030303030303030303030303030303030303030303030303030303030303030303030303030303030303030303030303030303030303030303030303030303030303030303030303030303030303030303030303030303030303030303030303030303030303
310
03030303030303030303030303030303030303030303030303030303030303030303030303030303030303030303030303030303030303030303030303030303030303030303030303030303030303030303030303030303030303030303030303030303030303030303030303030303030303030303030303030303030303
310
03030303030303030303030303030303030303030303030303030303030303030303030303030303030303030303030303030303030303030303030303030303030303030303030303030303030303030303030303030303030303030303030303030303030303030303030303030303030303030303030303030303030303
310
03030303030303030303030303030303030303030303030303030303030303030303030303030303030303030303030303030303030303030303030303030303030303030303030303030303030303030303030303030303030303030303030303030303030303030303030303030303030303030303030303030303030303
310
03030303030303030303030303030303030303030303030303030303030303030303030303030303030303030303030303030303030303030303030303030303030303030303030303030303030303030303030303030303030303030303030303030303030303030303030303030303030303030303030303030303030303
310
03030303030303030303030303030303030303030303030303030303030303030303030303030303030303030303030303030303030303030303030303030303030303030303030303030303030303030303030303030303030303030303030303030303030303030303030303030303030303030303030303030303030303
310
03030303030303030303030303030303030303030303030303030303030303030303030303030303030303030303030303030303030303030303030303030303030303030303030303030303030303030303030303030303030303030303030303030303030303030303030303030303030303030303030303030303030303
310
03030303030303030303030303030303030303030303030303030303030303030303030303030303030303030303030303030303030303030303030303030303030303030303030303030303030303030303030303030303030303030303030303030303030303030303030303030303030303030303030303030303030303
310
03030303030303030303030303030303030303030303030303030303030303030303030303030303030303030303030303030303030303030303030303030303030303030303030303030303030303030303030303030303030303030303030303030303030303030303030303030303030303030303030303030303030303
310
03030303030303030303030303030303030303030303030303030303030303030303030303030303030303030303030303030303030303030303030303030303030303030303030303030303030303030303030303030303030303030303030303030303030303030303030303030303030303030303030303030303030303
310
03030303030303030303030303030303030303030303030303030303030303030303030303030303030303030303030303030303030303030303030303030303030303030303030303030303030303030303030303030303030303030303030303030303030303030303030303030303030303030303030303030303030303
310
03030303030303030303030303030303030303030303030303030303030303030303030303030303030303030303030303030303030303030303030303030303030303030303030303030303030303030303030303030303030303030303030303030303030303030303030303030303030303030303030303030303030303
310
03030303030303030303030303030303030303030303030303030303030303030303030303030303030303030303030303030303030303030303030303030303030303030303030303030303030303030303030303030303030303030303030303030303030303030303030303030303030303030303030303030303030303
310
03030303030303030303030303030303030303030303030303030303030303030303030303030303030303030303030303030303030303030303030303030303030303030303030303030303030303030303030303030303030303030303030303030303030303030303030303030303030303030303030303030303030303
310
03030303030303030303030303030303030303030303030303030303030303030303030303030303030303030303030303030303030303030303030303030303030303030303030303030303030303030303030303030303030303030303030303030303030303030303030303030303030303030303030303030303030303
310
03030303030303030303030303030303030303030303030303030303030303030303030303030303030303030303030303030303030303030303030303030303030303030303030303030303030303030303030303030303030303030303030303030303030303030303030303030303030303030303030303030303030303
310
03030303030303030303030303030303030303030303030303030303030303030303030303030303030303030303030303030303030303030303030303030303030303030303030303030303030303030303030303030303030303030303030303030303030303030303030303030303030303030303030303030303030303
310
03030303030303030303030303030303030303030303030303030303030303030303030303030303030303030303030303030303030303030303030303030303030303030303030303030303030303030303030303030303030303030303030303030303030303030303030303030303030303030303030303030303030303
310
03030303030303030303030303030303030303030303030303030303030303030303030303030303030303030303030303030303030303030303030303030303030303030303030303030303030303030303030303030303030303030303030303030303030303030303030303030303030303030303030303030303030303
310
03030303030303030303030303030303030303030303030303030303030303030303030303030303030303030303030303030303030303030303030303030303030303030303030101030303030303030303030303030303030303030303030303030303030303030303030303030303030303030303030303030303030303
310
03030303030303030303030303030303030303030303030303030303030303030303030303030303030303030303030303030303030303030303030303030303030303030303030303030303030303030303030303030303030303030303030303030303030303030303030303030303030303030303030303030303010103
310
03030303030303030303030303030303030303030303030303030303030303030303030303030303030303030303030303030303030303030303030303030303030303030303030303030303030303030303030303030303030303030303030303030303030303030303030303030303030303030303030303030303030303
310
03030303030303030303030303030303030303030303030303030303030303030303030303030303030303030303030303030303030303030303030303030303030303030303030303030303030303030303030303030303030303030303030303030303030303030303030303030303030303030303030303030303030303
310
03030303030303030303030303030303030303030303030303030303030303030303030303030303030303030303030303030303030303030303030303030303030303030303030303030303030303030303030303030303030303030303030303030303030303030303030303030303030303030303030303030303030303
310
03030303030303030303030303030303030303030303030303030303030303030303030303030303030303030303030303030303030303030303030303030303030303030303030303030303000000000000000000000000000000000000000000000000000000000000000000000000000000000000000000000000000000
310
00000000000000000000000000000000000000000000000000000000000000000000000000000000000000000000000000000000000000000000000000000000000000000000000000000000000000000000000000000000000000000000000000000000000000000000000000000000000000000000000000000000000000
310
0204
  0
ENDSEC
  0
EOF
