  0
SECTION
  2
HEADER
  9
$ACADVER
  1
AC1015
  9
$ACADMAINTVER
 70
     6
  9
$DWGCODEPAGE
  3
ANSI_1252
  9
$INSBASE
 10
0.0
 20
0.0
 30
0.0
  9
$EXTMIN
 10
3161.249
 20
167.776
 30
0.0
  9
$EXTMAX
 10
4961.25
 20
242.777
 30
0.0
  9
$LIMMIN
 10
458.123774
 20
-3397.849226
  9
$LIMMAX
 10
7664.375226
 20
3808.402226
  9
$ORTHOMODE
 70
     0
  9
$REGENMODE
 70
     1
  9
$FILLMODE
 70
     1
  9
$QTEXTMODE
 70
     0
  9
$MIRRTEXT
 70
     1
  9
$LTSCALE
 40
1.0
  9
$ATTMODE
 70
     1
  9
$TEXTSIZE
 40
100.0
  9
$TRACEWID
 40
0.05
  9
$TEXTSTYLE
  7
Standard
  9
$CLAYER
  8
Level 8
  9
$CELTYPE
  6
Continuous
  9
$CECOLOR
 62
    98
  9
$CELTSCALE
 40
1.0
  9
$DISPSILH
 70
     0
  9
$DIMSCALE
 40
1.0
  9
$DIMASZ
 40
100.0
  9
$DIMEXO
 40
50.0
  9
$DIMDLI
 40
0.0
  9
$DIMRND
 40
0.0
  9
$DIMDLE
 40
0.0
  9
$DIMEXE
 40
50.0
  9
$DIMTP
 40
0.0
  9
$DIMTM
 40
0.0
  9
$DIMTXT
 40
100.0
  9
$DIMCEN
 40
0.09
  9
$DIMTSZ
 40
0.0
  9
$DIMTOL
 70
     0
  9
$DIMLIM
 70
     0
  9
$DIMTIH
 70
     0
  9
$DIMTOH
 70
     0
  9
$DIMSE1
 70
     0
  9
$DIMSE2
 70
     0
  9
$DIMTAD
 70
     1
  9
$DIMZIN
 70
    11
  9
$DIMBLK
  1
TerminatorOpen_0.5
  9
$DIMASO
 70
     1
  9
$DIMSHO
 70
     1
  9
$DIMPOST
  1

  9
$DIMAPOST
  1

  9
$DIMALT
 70
     0
  9
$DIMALTD
 70
     4
  9
$DIMALTF
 40
25.4
  9
$DIMLFAC
 40
1.0
  9
$DIMTOFL
 70
     0
  9
$DIMTVP
 40
0.0
  9
$DIMTIX
 70
     0
  9
$DIMSOXD
 70
     0
  9
$DIMSAH
 70
     0
  9
$DIMBLK1
  1

  9
$DIMBLK2
  1

  9
$DIMSTYLE
  2
Standard
  9
$DIMCLRD
 70
     0
  9
$DIMCLRE
 70
     0
  9
$DIMCLRT
 70
     0
  9
$DIMTFAC
 40
1.0
  9
$DIMGAP
 40
50.0
  9
$DIMJUST
 70
     0
  9
$DIMSD1
 70
     0
  9
$DIMSD2
 70
     0
  9
$DIMTOLJ
 70
     0
  9
$DIMTZIN
 70
    11
  9
$DIMALTZ
 70
    15
  9
$DIMALTTZ
 70
    15
  9
$DIMUPT
 70
     0
  9
$DIMDEC
 70
     0
  9
$DIMTDEC
 70
     0
  9
$DIMALTU
 70
     2
  9
$DIMALTTD
 70
     4
  9
$DIMTXSTY
  7
Style-ENGINEERING
  9
$DIMAUNIT
 70
     0
  9
$DIMADEC
 70
     0
  9
$DIMALTRND
 40
0.0
  9
$DIMAZIN
 70
     3
  9
$DIMDSEP
 70
    46
  9
$DIMATFIT
 70
     3
  9
$DIMFRAC
 70
     2
  9
$DIMLDRBLK
  1
TerminatorOpen_0.5
  9
$DIMLUNIT
 70
     2
  9
$DIMLWD
 70
    -2
  9
$DIMLWE
 70
    -2
  9
$DIMTMOVE
 70
     0
  9
$LUNITS
 70
     2
  9
$LUPREC
 70
     0
  9
$SKETCHINC
 40
0.1
  9
$FILLETRAD
 40
0.5
  9
$AUNITS
 70
     0
  9
$AUPREC
 70
     0
  9
$MENU
  1
.
  9
$ELEVATION
 40
0.0
  9
$PELEVATION
 40
0.0
  9
$THICKNESS
 40
0.0
  9
$LIMCHECK
 70
     0
  9
$CHAMFERA
 40
0.5
  9
$CHAMFERB
 40
0.5
  9
$CHAMFERC
 40
1.0
  9
$CHAMFERD
 40
0.0
  9
$SKPOLY
 70
     0
  9
$TDCREATE
 40
2451789.870802037
  9
$TDUCREATE
 40
2451789.537468704
  9
$TDUPDATE
 40
2451789.87089463
  9
$TDUUPDATE
 40
2451789.537561297
  9
$TDINDWG
 40
0.0000927662
  9
$TDUSRTIMER
 40
0.0000925926
  9
$USRTIMER
 70
     1
  9
$ANGBASE
 50
0.0
  9
$ANGDIR
 70
     0
  9
$PDMODE
 70
     0
  9
$PDSIZE
 40
0.0
  9
$PLINEWID
 40
0.0
  9
$SPLFRAME
 70
     0
  9
$SPLINETYPE
 70
     6
  9
$SPLINESEGS
 70
     8
  9
$HANDSEED
  5
7A16F
  9
$SURFTAB1
 70
     6
  9
$SURFTAB2
 70
     6
  9
$SURFTYPE
 70
     6
  9
$SURFU
 70
     6
  9
$SURFV
 70
     6
  9
$UCSBASE
  2

  9
$UCSNAME
  2

  9
$UCSORG
 10
0.0
 20
0.0
 30
0.0
  9
$UCSXDIR
 10
1.0
 20
0.0
 30
0.0
  9
$UCSYDIR
 10
0.0
 20
1.0
 30
0.0
  9
$UCSORTHOREF
  2

  9
$UCSORTHOVIEW
 70
     0
  9
$UCSORGTOP
 10
0.0
 20
0.0
 30
0.0
  9
$UCSORGBOTTOM
 10
0.0
 20
0.0
 30
0.0
  9
$UCSORGLEFT
 10
0.0
 20
0.0
 30
0.0
  9
$UCSORGRIGHT
 10
0.0
 20
0.0
 30
0.0
  9
$UCSORGFRONT
 10
0.0
 20
0.0
 30
0.0
  9
$UCSORGBACK
 10
0.0
 20
0.0
 30
0.0
  9
$PUCSBASE
  2

  9
$PUCSNAME
  2

  9
$PUCSORG
 10
0.0
 20
0.0
 30
0.0
  9
$PUCSXDIR
 10
1.0
 20
0.0
 30
0.0
  9
$PUCSYDIR
 10
0.0
 20
1.0
 30
0.0
  9
$PUCSORTHOREF
  2

  9
$PUCSORTHOVIEW
 70
     0
  9
$PUCSORGTOP
 10
0.0
 20
0.0
 30
0.0
  9
$PUCSORGBOTTOM
 10
0.0
 20
0.0
 30
0.0
  9
$PUCSORGLEFT
 10
0.0
 20
0.0
 30
0.0
  9
$PUCSORGRIGHT
 10
0.0
 20
0.0
 30
0.0
  9
$PUCSORGFRONT
 10
0.0
 20
0.0
 30
0.0
  9
$PUCSORGBACK
 10
0.0
 20
0.0
 30
0.0
  9
$USERI1
 70
     0
  9
$USERI2
 70
     0
  9
$USERI3
 70
     0
  9
$USERI4
 70
     0
  9
$USERI5
 70
     0
  9
$USERR1
 40
0.0
  9
$USERR2
 40
0.0
  9
$USERR3
 40
0.0
  9
$USERR4
 40
0.0
  9
$USERR5
 40
0.0
  9
$WORLDVIEW
 70
     1
  9
$SHADEDGE
 70
     3
  9
$SHADEDIF
 70
    70
  9
$TILEMODE
 70
     1
  9
$MAXACTVP
 70
    64
  9
$PINSBASE
 10
0.0
 20
0.0
 30
0.0
  9
$PLIMCHECK
 70
     0
  9
$PEXTMIN
 10
1.000000E+20
 20
1.000000E+20
 30
1.000000E+20
  9
$PEXTMAX
 10
-1.000000E+20
 20
-1.000000E+20
 30
-1.000000E+20
  9
$PLIMMIN
 10
0.0
 20
0.0
  9
$PLIMMAX
 10
12.0
 20
9.0
  9
$UNITMODE
 70
     0
  9
$VISRETAIN
 70
     1
  9
$PLINEGEN
 70
     0
  9
$PSLTSCALE
 70
     0
  9
$TREEDEPTH
 70
  3020
  9
$CMLSTYLE
  2
Standard
  9
$CMLJUST
 70
     0
  9
$CMLSCALE
 40
1.0
  9
$PROXYGRAPHICS
 70
     1
  9
$MEASUREMENT
 70
     0
  9
$CELWEIGHT
370
     0
  9
$ENDCAPS
280
     0
  9
$JOINSTYLE
280
     0
  9
$LWDISPLAY
290
     1
  9
$INSUNITS
 70
     4
  9
$HYPERLINKBASE
  1

  9
$STYLESHEET
  1

  9
$XEDIT
290
     1
  9
$CEPSNTYPE
380
     0
  9
$PSTYLEMODE
290
     1
  9
$FINGERPRINTGUID
  2
{FDEAD576-A652-11D2-9A35-0060089B3A3F}
  9
$VERSIONGUID
  2
{A257D680-BC79-11D2-9A46-0060089B3A3F}
  9
$EXTNAMES
290
     1
  9
$PSVPSCALE
 40
0.0
  9
$OLESTARTUP
290
     0
  0
ENDSEC
  0
SECTION
  2
CLASSES
  0
CLASS
  1
ACDBDICTIONARYWDFLT
  2
AcDbDictionaryWithDefault
  3
ObjectDBX Classes
 90
        0
280
     0
281
     0
  0
CLASS
  1
ACDBPLACEHOLDER
  2
AcDbPlaceHolder
  3
ObjectDBX Classes
 90
        0
280
     0
281
     0
  0
CLASS
  1
LAYOUT
  2
AcDbLayout
  3
ObjectDBX Classes
 90
        0
280
     0
281
     0
  0
ENDSEC
  0
SECTION
  2
TABLES
  0
TABLE
  2
VPORT
  5
79F0A
330
0
100
AcDbSymbolTable
 70
     3
  0
VPORT
  5
4B
330
79F0A
100
AcDbSymbolTableRecord
100
AcDbViewportTableRecord
  2
*ACTIVE
 70
     0
 10
0.0
 20
0.0
 11
1.0
 21
1.0
 12
4456.498548
 22
220.030042
 13
0.0
 23
0.0
 14
1.0
 24
1.0
 15
1.0
 25
1.0
 16
0.0
 26
0.0
 36
1.0
 17
0.0
 27
0.0
 37
0.0
 40
2183.540975
 41
2.064189
 42
50.0
 43
0.0
 44
0.0
 50
0.0
 51
0.0
 71
     0
 72
   100
 73
     1
 74
     2
 75
     0
 76
     0
 77
     0
 78
     1
281
     0
 65
     1
110
0.0
120
0.0
130
0.0
111
1.0
121
0.0
131
0.0
112
0.0
122
1.0
132
0.0
 79
     0
146
0.0
  0
ENDTAB
  0
TABLE
  2
LTYPE
  5
79F06
330
0
100
AcDbSymbolTable
 70
     2
  0
LTYPE
  5
79F07
330
79F06
100
AcDbSymbolTableRecord
100
AcDbLinetypeTableRecord
  2
ByBlock
 70
     0
  3

 72
    65
 73
     0
 40
0.0
  0
LTYPE
  5
79EF8
330
79F06
100
AcDbSymbolTableRecord
100
AcDbLinetypeTableRecord
  2
ByLayer
 70
     0
  3

 72
    65
 73
     0
 40
0.0
  0
LTYPE
  5
79EF6
330
79F06
100
AcDbSymbolTableRecord
100
AcDbLinetypeTableRecord
  2
Continuous
 70
     0
  3
Solid line
 72
    65
 73
     0
 40
0.0
  0
LTYPE
  5
4E1B6
330
79F06
100
AcDbSymbolTableRecord
100
AcDbLinetypeTableRecord
  2
Continuous_1
 70
     0
  3

 72
    65
 73
     0
 40
0.0
  0
ENDTAB
  0
TABLE
  2
LAYER
  5
79F04
102
{ACAD_XDICTIONARY
360
79F15
102
}
330
0
100
AcDbSymbolTable
 70
    65
  0
LAYER
  5
79EF4
330
79F04
100
AcDbSymbolTableRecord
100
AcDbLayerTableRecord
  2
0
 70
     0
 62
     7
  6
Continuous
370
    -3
390
79EF5
  0
LAYER
  5
7
330
79F04
100
AcDbSymbolTableRecord
100
AcDbLayerTableRecord
  2
Level 1
 70
     0
 62
     7
  6
Continuous
370
     0
390
79EF5
  0
LAYER
  5
8
330
79F04
100
AcDbSymbolTableRecord
100
AcDbLayerTableRecord
  2
Level 2
 70
     0
 62
     7
  6
Continuous
370
     0
390
79EF5
  0
LAYER
  5
9
330
79F04
100
AcDbSymbolTableRecord
100
AcDbLayerTableRecord
  2
Level 3
 70
     0
 62
     7
  6
Continuous
370
     0
390
79EF5
  0
LAYER
  5
A
330
79F04
100
AcDbSymbolTableRecord
100
AcDbLayerTableRecord
  2
Level 4
 70
     0
 62
     7
  6
Continuous
370
     0
390
79EF5
  0
LAYER
  5
B
330
79F04
100
AcDbSymbolTableRecord
100
AcDbLayerTableRecord
  2
Level 5
 70
     0
 62
     7
  6
Continuous
370
     0
390
79EF5
  0
LAYER
  5
C
330
79F04
100
AcDbSymbolTableRecord
100
AcDbLayerTableRecord
  2
Level 6
 70
     0
 62
     7
  6
Continuous
370
     0
390
79EF5
  0
LAYER
  5
D
330
79F04
100
AcDbSymbolTableRecord
100
AcDbLayerTableRecord
  2
Level 7
 70
     0
 62
     7
  6
Continuous
370
     0
390
79EF5
  0
LAYER
  5
E
330
79F04
100
AcDbSymbolTableRecord
100
AcDbLayerTableRecord
  2
Level 8
 70
     0
 62
     7
  6
Continuous
370
     0
390
79EF5
  0
LAYER
  5
F
330
79F04
100
AcDbSymbolTableRecord
100
AcDbLayerTableRecord
  2
Level 9
 70
     0
 62
     7
  6
Continuous
370
     0
390
79EF5
  0
LAYER
  5
10
330
79F04
100
AcDbSymbolTableRecord
100
AcDbLayerTableRecord
  2
Level 10
 70
     0
 62
     7
  6
Continuous
370
     0
390
79EF5
  0
LAYER
  5
11
330
79F04
100
AcDbSymbolTableRecord
100
AcDbLayerTableRecord
  2
Level 11
 70
     0
 62
     7
  6
Continuous
370
     0
390
79EF5
  0
LAYER
  5
12
330
79F04
100
AcDbSymbolTableRecord
100
AcDbLayerTableRecord
  2
Level 12
 70
     0
 62
     7
  6
Continuous
370
     0
390
79EF5
  0
LAYER
  5
13
330
79F04
100
AcDbSymbolTableRecord
100
AcDbLayerTableRecord
  2
Level 13
 70
     0
 62
     7
  6
Continuous
370
     0
390
79EF5
  0
LAYER
  5
14
330
79F04
100
AcDbSymbolTableRecord
100
AcDbLayerTableRecord
  2
Level 14
 70
     0
 62
     7
  6
Continuous
370
     0
390
79EF5
  0
LAYER
  5
15
330
79F04
100
AcDbSymbolTableRecord
100
AcDbLayerTableRecord
  2
Level 15
 70
     0
 62
     7
  6
Continuous
370
     0
390
79EF5
  0
LAYER
  5
16
330
79F04
100
AcDbSymbolTableRecord
100
AcDbLayerTableRecord
  2
Level 16
 70
     0
 62
     7
  6
Continuous
370
     0
390
79EF5
  0
LAYER
  5
17
330
79F04
100
AcDbSymbolTableRecord
100
AcDbLayerTableRecord
  2
Level 17
 70
     0
 62
     7
  6
Continuous
370
     0
390
79EF5
  0
LAYER
  5
18
330
79F04
100
AcDbSymbolTableRecord
100
AcDbLayerTableRecord
  2
Level 18
 70
     0
 62
     7
  6
Continuous
370
     0
390
79EF5
  0
LAYER
  5
19
330
79F04
100
AcDbSymbolTableRecord
100
AcDbLayerTableRecord
  2
Level 19
 70
     0
 62
     7
  6
Continuous
370
     0
390
79EF5
  0
LAYER
  5
1A
330
79F04
100
AcDbSymbolTableRecord
100
AcDbLayerTableRecord
  2
Level 20
 70
     0
 62
     7
  6
Continuous
370
     0
390
79EF5
  0
LAYER
  5
1B
330
79F04
100
AcDbSymbolTableRecord
100
AcDbLayerTableRecord
  2
Level 21
 70
     0
 62
     7
  6
Continuous
370
     0
390
79EF5
  0
LAYER
  5
1C
330
79F04
100
AcDbSymbolTableRecord
100
AcDbLayerTableRecord
  2
Level 22
 70
     0
 62
     7
  6
Continuous
370
     0
390
79EF5
  0
LAYER
  5
1D
330
79F04
100
AcDbSymbolTableRecord
100
AcDbLayerTableRecord
  2
Level 23
 70
     0
 62
     7
  6
Continuous
370
     0
390
79EF5
  0
LAYER
  5
1E
330
79F04
100
AcDbSymbolTableRecord
100
AcDbLayerTableRecord
  2
Level 24
 70
     0
 62
     7
  6
Continuous
370
     0
390
79EF5
  0
LAYER
  5
1F
330
79F04
100
AcDbSymbolTableRecord
100
AcDbLayerTableRecord
  2
Level 25
 70
     0
 62
     7
  6
Continuous
370
     0
390
79EF5
  0
LAYER
  5
20
330
79F04
100
AcDbSymbolTableRecord
100
AcDbLayerTableRecord
  2
Level 26
 70
     0
 62
     7
  6
Continuous
370
     0
390
79EF5
  0
LAYER
  5
21
330
79F04
100
AcDbSymbolTableRecord
100
AcDbLayerTableRecord
  2
Level 27
 70
     0
 62
     7
  6
Continuous
370
     0
390
79EF5
  0
LAYER
  5
22
330
79F04
100
AcDbSymbolTableRecord
100
AcDbLayerTableRecord
  2
Level 28
 70
     0
 62
     7
  6
Continuous
370
     0
390
79EF5
  0
LAYER
  5
23
330
79F04
100
AcDbSymbolTableRecord
100
AcDbLayerTableRecord
  2
Level 29
 70
     0
 62
     7
  6
Continuous
370
     0
390
79EF5
  0
LAYER
  5
24
330
79F04
100
AcDbSymbolTableRecord
100
AcDbLayerTableRecord
  2
Level 30
 70
     0
 62
     7
  6
Continuous
370
     0
390
79EF5
  0
LAYER
  5
25
330
79F04
100
AcDbSymbolTableRecord
100
AcDbLayerTableRecord
  2
Level 31
 70
     0
 62
     7
  6
Continuous
370
     0
390
79EF5
  0
LAYER
  5
26
330
79F04
100
AcDbSymbolTableRecord
100
AcDbLayerTableRecord
  2
Level 32
 70
     0
 62
     7
  6
Continuous
370
     0
390
79EF5
  0
LAYER
  5
27
330
79F04
100
AcDbSymbolTableRecord
100
AcDbLayerTableRecord
  2
Level 33
 70
     0
 62
     7
  6
Continuous
370
     0
390
79EF5
  0
LAYER
  5
28
330
79F04
100
AcDbSymbolTableRecord
100
AcDbLayerTableRecord
  2
Level 34
 70
     0
 62
     7
  6
Continuous
370
     0
390
79EF5
  0
LAYER
  5
29
330
79F04
100
AcDbSymbolTableRecord
100
AcDbLayerTableRecord
  2
Level 35
 70
     0
 62
     7
  6
Continuous
370
     0
390
79EF5
  0
LAYER
  5
2A
330
79F04
100
AcDbSymbolTableRecord
100
AcDbLayerTableRecord
  2
Level 36
 70
     0
 62
     7
  6
Continuous
370
     0
390
79EF5
  0
LAYER
  5
2B
330
79F04
100
AcDbSymbolTableRecord
100
AcDbLayerTableRecord
  2
Level 37
 70
     0
 62
     7
  6
Continuous
370
     0
390
79EF5
  0
LAYER
  5
2C
330
79F04
100
AcDbSymbolTableRecord
100
AcDbLayerTableRecord
  2
Level 38
 70
     0
 62
     7
  6
Continuous
370
     0
390
79EF5
  0
LAYER
  5
2D
330
79F04
100
AcDbSymbolTableRecord
100
AcDbLayerTableRecord
  2
Level 39
 70
     0
 62
     7
  6
Continuous
370
     0
390
79EF5
  0
LAYER
  5
2E
330
79F04
100
AcDbSymbolTableRecord
100
AcDbLayerTableRecord
  2
Level 40
 70
     0
 62
     7
  6
Continuous
370
     0
390
79EF5
  0
LAYER
  5
2F
330
79F04
100
AcDbSymbolTableRecord
100
AcDbLayerTableRecord
  2
Level 41
 70
     0
 62
     7
  6
Continuous
370
     0
390
79EF5
  0
LAYER
  5
30
330
79F04
100
AcDbSymbolTableRecord
100
AcDbLayerTableRecord
  2
Level 42
 70
     0
 62
     7
  6
Continuous
370
     0
390
79EF5
  0
LAYER
  5
31
330
79F04
100
AcDbSymbolTableRecord
100
AcDbLayerTableRecord
  2
Level 43
 70
     0
 62
     7
  6
Continuous
370
     0
390
79EF5
  0
LAYER
  5
32
330
79F04
100
AcDbSymbolTableRecord
100
AcDbLayerTableRecord
  2
Level 44
 70
     0
 62
     7
  6
Continuous
370
     0
390
79EF5
  0
LAYER
  5
33
330
79F04
100
AcDbSymbolTableRecord
100
AcDbLayerTableRecord
  2
Level 45
 70
     0
 62
     7
  6
Continuous
370
     0
390
79EF5
  0
LAYER
  5
34
330
79F04
100
AcDbSymbolTableRecord
100
AcDbLayerTableRecord
  2
Level 46
 70
     0
 62
     7
  6
Continuous
370
     0
390
79EF5
  0
LAYER
  5
35
330
79F04
100
AcDbSymbolTableRecord
100
AcDbLayerTableRecord
  2
Level 47
 70
     0
 62
     7
  6
Continuous
370
     0
390
79EF5
  0
LAYER
  5
36
330
79F04
100
AcDbSymbolTableRecord
100
AcDbLayerTableRecord
  2
Level 48
 70
     0
 62
     7
  6
Continuous
370
     0
390
79EF5
  0
LAYER
  5
37
330
79F04
100
AcDbSymbolTableRecord
100
AcDbLayerTableRecord
  2
Level 49
 70
     0
 62
     7
  6
Continuous
370
     0
390
79EF5
  0
LAYER
  5
38
330
79F04
100
AcDbSymbolTableRecord
100
AcDbLayerTableRecord
  2
Level 50
 70
     0
 62
     7
  6
Continuous
370
     0
390
79EF5
  0
LAYER
  5
39
330
79F04
100
AcDbSymbolTableRecord
100
AcDbLayerTableRecord
  2
Level 51
 70
     0
 62
     7
  6
Continuous
370
     0
390
79EF5
  0
LAYER
  5
3A
330
79F04
100
AcDbSymbolTableRecord
100
AcDbLayerTableRecord
  2
Level 52
 70
     0
 62
     7
  6
Continuous
370
     0
390
79EF5
  0
LAYER
  5
3B
330
79F04
100
AcDbSymbolTableRecord
100
AcDbLayerTableRecord
  2
Level 53
 70
     0
 62
     7
  6
Continuous
370
     0
390
79EF5
  0
LAYER
  5
3C
330
79F04
100
AcDbSymbolTableRecord
100
AcDbLayerTableRecord
  2
Level 54
 70
     0
 62
     7
  6
Continuous
370
     0
390
79EF5
  0
LAYER
  5
3D
330
79F04
100
AcDbSymbolTableRecord
100
AcDbLayerTableRecord
  2
Level 55
 70
     0
 62
     7
  6
Continuous
370
     0
390
79EF5
  0
LAYER
  5
3E
330
79F04
100
AcDbSymbolTableRecord
100
AcDbLayerTableRecord
  2
Level 56
 70
     0
 62
     7
  6
Continuous
370
     0
390
79EF5
  0
LAYER
  5
3F
330
79F04
100
AcDbSymbolTableRecord
100
AcDbLayerTableRecord
  2
Level 57
 70
     0
 62
     7
  6
Continuous
370
     0
390
79EF5
  0
LAYER
  5
40
330
79F04
100
AcDbSymbolTableRecord
100
AcDbLayerTableRecord
  2
Level 58
 70
     0
 62
     7
  6
Continuous
370
     0
390
79EF5
  0
LAYER
  5
41
330
79F04
100
AcDbSymbolTableRecord
100
AcDbLayerTableRecord
  2
Level 59
 70
     0
 62
     7
  6
Continuous
370
     0
390
79EF5
  0
LAYER
  5
42
330
79F04
100
AcDbSymbolTableRecord
100
AcDbLayerTableRecord
  2
Level 60
 70
     0
 62
     7
  6
Continuous
370
     0
390
79EF5
  0
LAYER
  5
43
330
79F04
100
AcDbSymbolTableRecord
100
AcDbLayerTableRecord
  2
Level 61
 70
     0
 62
     7
  6
Continuous
370
     0
390
79EF5
  0
LAYER
  5
44
330
79F04
100
AcDbSymbolTableRecord
100
AcDbLayerTableRecord
  2
Level 62
 70
     0
 62
     7
  6
Continuous
370
     0
390
79EF5
  0
LAYER
  5
45
330
79F04
100
AcDbSymbolTableRecord
100
AcDbLayerTableRecord
  2
Level 63
 70
     0
 62
     7
  6
Continuous
370
     0
390
79EF5
  0
LAYER
  5
50CA0
330
79F04
100
AcDbSymbolTableRecord
100
AcDbLayerTableRecord
  2
25
 70
     0
 62
     7
  6
Continuous
370
     0
390
79EF5
  0
ENDTAB
  0
TABLE
  2
STYLE
  5
79F05
330
0
100
AcDbSymbolTable
 70
     2
  0
STYLE
  5
79EF7
330
79F05
100
AcDbSymbolTableRecord
100
AcDbTextStyleTableRecord
  2
Standard
 70
     0
 40
0.0
 41
1.0
 50
0.0
 71
     0
 42
100.0
  3
txt
  4

  0
STYLE
  5
79F1B
330
79F05
100
AcDbSymbolTableRecord
100
AcDbTextStyleTableRecord
  2
Style-ENGINEERING
 70
     0
 40
0.0
 41
1.0
 50
0.0
 71
     0
 42
0.2
  3
ENGINEERING.shx
  4

  0
ENDTAB
  0
TABLE
  2
VIEW
  5
79F08
330
0
100
AcDbSymbolTable
 70
     0
  0
ENDTAB
  0
TABLE
  2
UCS
  5
79F09
330
0
100
AcDbSymbolTable
 70
     0
  0
ENDTAB
  0
TABLE
  2
APPID
  5
79F0B
330
0
100
AcDbSymbolTable
 70
     1
  0
APPID
  5
79F13
330
79F0B
100
AcDbSymbolTableRecord
100
AcDbRegAppTableRecord
  2
ACAD
 70
     0
  0
ENDTAB
  0
TABLE
  2
DIMSTYLE
  5
79F0C
330
0
100
AcDbSymbolTable
 70
     1
100
AcDbDimStyleTable
  0
DIMSTYLE
105
79EF9
330
79F0C
100
AcDbSymbolTableRecord
100
AcDbDimStyleTableRecord
  2
Standard
 70
     0
340
79EF7
  0
ENDTAB
  0
TABLE
  2
BLOCK_RECORD
  5
79EFB
330
0
100
AcDbSymbolTable
 70
   152
  0
BLOCK_RECORD
  5
79EFC
330
79EFB
100
AcDbSymbolTableRecord
100
AcDbBlockTableRecord
  2
*Model_Space
340
79EFF
  0
BLOCK_RECORD
  5
79F00
330
79EFB
100
AcDbSymbolTableRecord
100
AcDbBlockTableRecord
  2
*Paper_Space
340
79F03
  0
BLOCK_RECORD
  5
79ED7
330
79EFB
100
AcDbSymbolTableRecord
100
AcDbBlockTableRecord
  2
*U0
340
0
  0
BLOCK_RECORD
  5
79EDD
330
79EFB
100
AcDbSymbolTableRecord
100
AcDbBlockTableRecord
  2
*U1
340
0
  0
BLOCK_RECORD
  5
79F1C
330
79EFB
100
AcDbSymbolTableRecord
100
AcDbBlockTableRecord
  2
TerminatorOpen_0.5
340
0
  0
BLOCK_RECORD
  5
79F23
330
79EFB
100
AcDbSymbolTableRecord
100
AcDbBlockTableRecord
  2
FT02
340
0
102
{BLKREFS
331
79B27
102
}
  0
BLOCK_RECORD
  5
79F26
330
79EFB
100
AcDbSymbolTableRecord
100
AcDbBlockTableRecord
  2
UNITE
340
0
102
{BLKREFS
331
79B28
102
}
  0
BLOCK_RECORD
  5
79F29
330
79EFB
100
AcDbSymbolTableRecord
100
AcDbBlockTableRecord
  2
Feature Solid
340
0
102
{BLKREFS
331
79B29
102
}
  0
BLOCK_RECORD
  5
79F2C
330
79EFB
100
AcDbSymbolTableRecord
100
AcDbBlockTableRecord
  2
DDPROJ
340
0
102
{BLKREFS
331
79B2A
102
}
  0
BLOCK_RECORD
  5
79F2F
330
79EFB
100
AcDbSymbolTableRecord
100
AcDbBlockTableRecord
  2
Feature Solid_1
340
0
102
{BLKREFS
331
79B30
102
}
  0
BLOCK_RECORD
  5
79F32
330
79EFB
100
AcDbSymbolTableRecord
100
AcDbBlockTableRecord
  2
DDPROJ_1
340
0
102
{BLKREFS
331
79B31
102
}
  0
BLOCK_RECORD
  5
79F35
330
79EFB
100
AcDbSymbolTableRecord
100
AcDbBlockTableRecord
  2
Feature Solid_2
340
0
102
{BLKREFS
331
79B37
102
}
  0
BLOCK_RECORD
  5
79F38
330
79EFB
100
AcDbSymbolTableRecord
100
AcDbBlockTableRecord
  2
UNITE_1
340
0
102
{BLKREFS
331
79B38
102
}
  0
BLOCK_RECORD
  5
79F3B
330
79EFB
100
AcDbSymbolTableRecord
100
AcDbBlockTableRecord
  2
Feature Solid_3
340
0
102
{BLKREFS
331
79B39
102
}
  0
BLOCK_RECORD
  5
79F3E
330
79EFB
100
AcDbSymbolTableRecord
100
AcDbBlockTableRecord
  2
CONE
340
0
102
{BLKREFS
331
79B3A
102
}
  0
BLOCK_RECORD
  5
79F41
330
79EFB
100
AcDbSymbolTableRecord
100
AcDbBlockTableRecord
  2
Feature Solid_4
340
0
102
{BLKREFS
331
79B4F
102
}
  0
BLOCK_RECORD
  5
79F44
330
79EFB
100
AcDbSymbolTableRecord
100
AcDbBlockTableRecord
  2
DDPROJ_2
340
0
102
{BLKREFS
331
79B50
102
}
  0
BLOCK_RECORD
  5
79F47
330
79EFB
100
AcDbSymbolTableRecord
100
AcDbBlockTableRecord
  2
UNITE_2
340
0
102
{BLKREFS
331
79B6B
102
}
  0
BLOCK_RECORD
  5
79F4A
330
79EFB
100
AcDbSymbolTableRecord
100
AcDbBlockTableRecord
  2
Feature Solid_5
340
0
102
{BLKREFS
331
79B6C
102
}
  0
BLOCK_RECORD
  5
79F4D
330
79EFB
100
AcDbSymbolTableRecord
100
AcDbBlockTableRecord
  2
DDPROJ_3
340
0
102
{BLKREFS
331
79B6D
102
}
  0
BLOCK_RECORD
  5
79F50
330
79EFB
100
AcDbSymbolTableRecord
100
AcDbBlockTableRecord
  2
Feature Solid_6
340
0
102
{BLKREFS
331
79B73
102
}
  0
BLOCK_RECORD
  5
79F53
330
79EFB
100
AcDbSymbolTableRecord
100
AcDbBlockTableRecord
  2
DDPROJ_4
340
0
102
{BLKREFS
331
79B74
102
}
  0
BLOCK_RECORD
  5
79F56
330
79EFB
100
AcDbSymbolTableRecord
100
AcDbBlockTableRecord
  2
Feature Solid_7
340
0
102
{BLKREFS
331
79B7A
102
}
  0
BLOCK_RECORD
  5
79F59
330
79EFB
100
AcDbSymbolTableRecord
100
AcDbBlockTableRecord
  2
UNITE_3
340
0
102
{BLKREFS
331
79B7B
102
}
  0
BLOCK_RECORD
  5
79F5C
330
79EFB
100
AcDbSymbolTableRecord
100
AcDbBlockTableRecord
  2
Feature Solid_8
340
0
102
{BLKREFS
331
79B7C
102
}
  0
BLOCK_RECORD
  5
79F5F
330
79EFB
100
AcDbSymbolTableRecord
100
AcDbBlockTableRecord
  2
CONE_1
340
0
102
{BLKREFS
331
79B7D
102
}
  0
BLOCK_RECORD
  5
79F62
330
79EFB
100
AcDbSymbolTableRecord
100
AcDbBlockTableRecord
  2
Feature Solid_9
340
0
102
{BLKREFS
331
79B92
102
}
  0
BLOCK_RECORD
  5
79F65
330
79EFB
100
AcDbSymbolTableRecord
100
AcDbBlockTableRecord
  2
DDPROJ_5
340
0
102
{BLKREFS
331
79B93
102
}
  0
BLOCK_RECORD
  5
79F68
330
79EFB
100
AcDbSymbolTableRecord
100
AcDbBlockTableRecord
  2
From Solid
340
0
102
{BLKREFS
331
79EE3
102
}
  0
BLOCK_RECORD
  5
79F6B
330
79EFB
100
AcDbSymbolTableRecord
100
AcDbBlockTableRecord
  2
From Solid_1
340
0
102
{BLKREFS
331
79EE4
102
}
  0
BLOCK_RECORD
  5
79F6E
330
79EFB
100
AcDbSymbolTableRecord
100
AcDbBlockTableRecord
  2
From Solid_2
340
0
102
{BLKREFS
331
79EE5
102
}
  0
BLOCK_RECORD
  5
79F71
330
79EFB
100
AcDbSymbolTableRecord
100
AcDbBlockTableRecord
  2
From Solid_3
340
0
102
{BLKREFS
331
79EE6
102
}
  0
BLOCK_RECORD
  5
79F74
330
79EFB
100
AcDbSymbolTableRecord
100
AcDbBlockTableRecord
  2
From Solid_4
340
0
102
{BLKREFS
331
79EE7
102
}
  0
BLOCK_RECORD
  5
79F77
330
79EFB
100
AcDbSymbolTableRecord
100
AcDbBlockTableRecord
  2
From Solid_5
340
0
102
{BLKREFS
331
79EE8
102
}
  0
BLOCK_RECORD
  5
79F7A
330
79EFB
100
AcDbSymbolTableRecord
100
AcDbBlockTableRecord
  2
From Solid_6
340
0
102
{BLKREFS
331
79EE9
102
}
  0
BLOCK_RECORD
  5
79F7D
330
79EFB
100
AcDbSymbolTableRecord
100
AcDbBlockTableRecord
  2
From Solid_7
340
0
102
{BLKREFS
331
79EEA
102
}
  0
BLOCK_RECORD
  5
79F80
330
79EFB
100
AcDbSymbolTableRecord
100
AcDbBlockTableRecord
  2
From Solid_8
340
0
102
{BLKREFS
331
79EEB
102
}
  0
BLOCK_RECORD
  5
79F83
330
79EFB
100
AcDbSymbolTableRecord
100
AcDbBlockTableRecord
  2
From Solid_9
340
0
102
{BLKREFS
331
79EEC
102
}
  0
BLOCK_RECORD
  5
79F86
330
79EFB
100
AcDbSymbolTableRecord
100
AcDbBlockTableRecord
  2
From Solid_10
340
0
102
{BLKREFS
331
79EED
102
}
  0
BLOCK_RECORD
  5
79F89
330
79EFB
100
AcDbSymbolTableRecord
100
AcDbBlockTableRecord
  2
From Solid_11
340
0
102
{BLKREFS
331
79EEE
102
}
  0
BLOCK_RECORD
  5
79F8C
330
79EFB
100
AcDbSymbolTableRecord
100
AcDbBlockTableRecord
  2
From Solid_12
340
0
102
{BLKREFS
331
79EEF
102
}
  0
BLOCK_RECORD
  5
79F8F
330
79EFB
100
AcDbSymbolTableRecord
100
AcDbBlockTableRecord
  2
From Solid_13
340
0
102
{BLKREFS
331
79EF0
102
}
  0
BLOCK_RECORD
  5
79F92
330
79EFB
100
AcDbSymbolTableRecord
100
AcDbBlockTableRecord
  2
From Solid_14
340
0
102
{BLKREFS
331
79EF1
102
}
  0
BLOCK_RECORD
  5
79F95
330
79EFB
100
AcDbSymbolTableRecord
100
AcDbBlockTableRecord
  2
From Solid_15
340
0
102
{BLKREFS
331
79EF2
102
}
  0
BLOCK_RECORD
  5
79F98
330
79EFB
100
AcDbSymbolTableRecord
100
AcDbBlockTableRecord
  2
UNITE_4
340
0
102
{BLKREFS
331
79C38
102
}
  0
BLOCK_RECORD
  5
79F9B
330
79EFB
100
AcDbSymbolTableRecord
100
AcDbBlockTableRecord
  2
Feature Solid_10
340
0
102
{BLKREFS
331
79C39
102
}
  0
BLOCK_RECORD
  5
79F9E
330
79EFB
100
AcDbSymbolTableRecord
100
AcDbBlockTableRecord
  2
DDPROJ_6
340
0
102
{BLKREFS
331
79C3A
102
}
  0
BLOCK_RECORD
  5
79FA1
330
79EFB
100
AcDbSymbolTableRecord
100
AcDbBlockTableRecord
  2
Feature Solid_11
340
0
102
{BLKREFS
331
79C40
102
}
  0
BLOCK_RECORD
  5
79FA4
330
79EFB
100
AcDbSymbolTableRecord
100
AcDbBlockTableRecord
  2
DDPROJ_7
340
0
102
{BLKREFS
331
79C41
102
}
  0
BLOCK_RECORD
  5
79FA7
330
79EFB
100
AcDbSymbolTableRecord
100
AcDbBlockTableRecord
  2
Feature Solid_12
340
0
102
{BLKREFS
331
79C47
102
}
  0
BLOCK_RECORD
  5
79FAA
330
79EFB
100
AcDbSymbolTableRecord
100
AcDbBlockTableRecord
  2
UNITE_5
340
0
102
{BLKREFS
331
79C48
102
}
  0
BLOCK_RECORD
  5
79FAD
330
79EFB
100
AcDbSymbolTableRecord
100
AcDbBlockTableRecord
  2
Feature Solid_13
340
0
102
{BLKREFS
331
79C49
102
}
  0
BLOCK_RECORD
  5
79FB0
330
79EFB
100
AcDbSymbolTableRecord
100
AcDbBlockTableRecord
  2
CONE_2
340
0
102
{BLKREFS
331
79C4A
102
}
  0
BLOCK_RECORD
  5
79FB3
330
79EFB
100
AcDbSymbolTableRecord
100
AcDbBlockTableRecord
  2
Feature Solid_14
340
0
102
{BLKREFS
331
79C5F
102
}
  0
BLOCK_RECORD
  5
79FB6
330
79EFB
100
AcDbSymbolTableRecord
100
AcDbBlockTableRecord
  2
DDPROJ_8
340
0
102
{BLKREFS
331
79C60
102
}
  0
BLOCK_RECORD
  5
79FB9
330
79EFB
100
AcDbSymbolTableRecord
100
AcDbBlockTableRecord
  2
UNITE_6
340
0
102
{BLKREFS
331
79C7B
102
}
  0
BLOCK_RECORD
  5
79FBC
330
79EFB
100
AcDbSymbolTableRecord
100
AcDbBlockTableRecord
  2
Feature Solid_15
340
0
102
{BLKREFS
331
79C7C
102
}
  0
BLOCK_RECORD
  5
79FBF
330
79EFB
100
AcDbSymbolTableRecord
100
AcDbBlockTableRecord
  2
DDPROJ_9
340
0
102
{BLKREFS
331
79C7D
102
}
  0
BLOCK_RECORD
  5
79FC2
330
79EFB
100
AcDbSymbolTableRecord
100
AcDbBlockTableRecord
  2
Feature Solid_16
340
0
102
{BLKREFS
331
79C83
102
}
  0
BLOCK_RECORD
  5
79FC5
330
79EFB
100
AcDbSymbolTableRecord
100
AcDbBlockTableRecord
  2
DDPROJ_10
340
0
102
{BLKREFS
331
79C84
102
}
  0
BLOCK_RECORD
  5
79FC8
330
79EFB
100
AcDbSymbolTableRecord
100
AcDbBlockTableRecord
  2
Feature Solid_17
340
0
102
{BLKREFS
331
79C8A
102
}
  0
BLOCK_RECORD
  5
79FCB
330
79EFB
100
AcDbSymbolTableRecord
100
AcDbBlockTableRecord
  2
UNITE_7
340
0
102
{BLKREFS
331
79C8B
102
}
  0
BLOCK_RECORD
  5
79FCE
330
79EFB
100
AcDbSymbolTableRecord
100
AcDbBlockTableRecord
  2
Feature Solid_18
340
0
102
{BLKREFS
331
79C8C
102
}
  0
BLOCK_RECORD
  5
79FD1
330
79EFB
100
AcDbSymbolTableRecord
100
AcDbBlockTableRecord
  2
CONE_3
340
0
102
{BLKREFS
331
79C8D
102
}
  0
BLOCK_RECORD
  5
79FD4
330
79EFB
100
AcDbSymbolTableRecord
100
AcDbBlockTableRecord
  2
Feature Solid_19
340
0
102
{BLKREFS
331
79CA2
102
}
  0
BLOCK_RECORD
  5
79FD7
330
79EFB
100
AcDbSymbolTableRecord
100
AcDbBlockTableRecord
  2
DDPROJ_11
340
0
102
{BLKREFS
331
79CA3
102
}
  0
BLOCK_RECORD
  5
79FDA
330
79EFB
100
AcDbSymbolTableRecord
100
AcDbBlockTableRecord
  2
UNITE_8
340
0
102
{BLKREFS
331
79CBE
102
}
  0
BLOCK_RECORD
  5
79FDD
330
79EFB
100
AcDbSymbolTableRecord
100
AcDbBlockTableRecord
  2
Feature Solid_20
340
0
102
{BLKREFS
331
79CBF
102
}
  0
BLOCK_RECORD
  5
79FE0
330
79EFB
100
AcDbSymbolTableRecord
100
AcDbBlockTableRecord
  2
DDPROJ_12
340
0
102
{BLKREFS
331
79CC0
102
}
  0
BLOCK_RECORD
  5
79FE3
330
79EFB
100
AcDbSymbolTableRecord
100
AcDbBlockTableRecord
  2
Feature Solid_21
340
0
102
{BLKREFS
331
79CC6
102
}
  0
BLOCK_RECORD
  5
79FE6
330
79EFB
100
AcDbSymbolTableRecord
100
AcDbBlockTableRecord
  2
DDPROJ_13
340
0
102
{BLKREFS
331
79CC7
102
}
  0
BLOCK_RECORD
  5
79FE9
330
79EFB
100
AcDbSymbolTableRecord
100
AcDbBlockTableRecord
  2
Feature Solid_22
340
0
102
{BLKREFS
331
79CCD
102
}
  0
BLOCK_RECORD
  5
79FEC
330
79EFB
100
AcDbSymbolTableRecord
100
AcDbBlockTableRecord
  2
UNITE_9
340
0
102
{BLKREFS
331
79CCE
102
}
  0
BLOCK_RECORD
  5
79FEF
330
79EFB
100
AcDbSymbolTableRecord
100
AcDbBlockTableRecord
  2
Feature Solid_23
340
0
102
{BLKREFS
331
79CCF
102
}
  0
BLOCK_RECORD
  5
79FF2
330
79EFB
100
AcDbSymbolTableRecord
100
AcDbBlockTableRecord
  2
CONE_4
340
0
102
{BLKREFS
331
79CD0
102
}
  0
BLOCK_RECORD
  5
79FF5
330
79EFB
100
AcDbSymbolTableRecord
100
AcDbBlockTableRecord
  2
Feature Solid_24
340
0
102
{BLKREFS
331
79CE5
102
}
  0
BLOCK_RECORD
  5
79FF8
330
79EFB
100
AcDbSymbolTableRecord
100
AcDbBlockTableRecord
  2
DDPROJ_14
340
0
102
{BLKREFS
331
79CE6
102
}
  0
BLOCK_RECORD
  5
79FFB
330
79EFB
100
AcDbSymbolTableRecord
100
AcDbBlockTableRecord
  2
UNITE_10
340
0
102
{BLKREFS
331
79D01
102
}
  0
BLOCK_RECORD
  5
79FFE
330
79EFB
100
AcDbSymbolTableRecord
100
AcDbBlockTableRecord
  2
Feature Solid_25
340
0
102
{BLKREFS
331
79D02
102
}
  0
BLOCK_RECORD
  5
7A001
330
79EFB
100
AcDbSymbolTableRecord
100
AcDbBlockTableRecord
  2
DDPROJ_15
340
0
102
{BLKREFS
331
79D03
102
}
  0
BLOCK_RECORD
  5
7A004
330
79EFB
100
AcDbSymbolTableRecord
100
AcDbBlockTableRecord
  2
Feature Solid_26
340
0
102
{BLKREFS
331
79D09
102
}
  0
BLOCK_RECORD
  5
7A007
330
79EFB
100
AcDbSymbolTableRecord
100
AcDbBlockTableRecord
  2
DDPROJ_16
340
0
102
{BLKREFS
331
79D0A
102
}
  0
BLOCK_RECORD
  5
7A00A
330
79EFB
100
AcDbSymbolTableRecord
100
AcDbBlockTableRecord
  2
Feature Solid_27
340
0
102
{BLKREFS
331
79D10
102
}
  0
BLOCK_RECORD
  5
7A00D
330
79EFB
100
AcDbSymbolTableRecord
100
AcDbBlockTableRecord
  2
UNITE_11
340
0
102
{BLKREFS
331
79D11
102
}
  0
BLOCK_RECORD
  5
7A010
330
79EFB
100
AcDbSymbolTableRecord
100
AcDbBlockTableRecord
  2
Feature Solid_28
340
0
102
{BLKREFS
331
79D12
102
}
  0
BLOCK_RECORD
  5
7A013
330
79EFB
100
AcDbSymbolTableRecord
100
AcDbBlockTableRecord
  2
CONE_5
340
0
102
{BLKREFS
331
79D13
102
}
  0
BLOCK_RECORD
  5
7A016
330
79EFB
100
AcDbSymbolTableRecord
100
AcDbBlockTableRecord
  2
Feature Solid_29
340
0
102
{BLKREFS
331
79D28
102
}
  0
BLOCK_RECORD
  5
7A019
330
79EFB
100
AcDbSymbolTableRecord
100
AcDbBlockTableRecord
  2
DDPROJ_17
340
0
102
{BLKREFS
331
79D29
102
}
  0
BLOCK_RECORD
  5
7A01C
330
79EFB
100
AcDbSymbolTableRecord
100
AcDbBlockTableRecord
  2
UNITE_12
340
0
102
{BLKREFS
331
79D44
102
}
  0
BLOCK_RECORD
  5
7A01F
330
79EFB
100
AcDbSymbolTableRecord
100
AcDbBlockTableRecord
  2
Feature Solid_30
340
0
102
{BLKREFS
331
79D45
102
}
  0
BLOCK_RECORD
  5
7A022
330
79EFB
100
AcDbSymbolTableRecord
100
AcDbBlockTableRecord
  2
DDPROJ_18
340
0
102
{BLKREFS
331
79D46
102
}
  0
BLOCK_RECORD
  5
7A025
330
79EFB
100
AcDbSymbolTableRecord
100
AcDbBlockTableRecord
  2
Feature Solid_31
340
0
102
{BLKREFS
331
79D4C
102
}
  0
BLOCK_RECORD
  5
7A028
330
79EFB
100
AcDbSymbolTableRecord
100
AcDbBlockTableRecord
  2
DDPROJ_19
340
0
102
{BLKREFS
331
79D4D
102
}
  0
BLOCK_RECORD
  5
7A02B
330
79EFB
100
AcDbSymbolTableRecord
100
AcDbBlockTableRecord
  2
Feature Solid_32
340
0
102
{BLKREFS
331
79D53
102
}
  0
BLOCK_RECORD
  5
7A02E
330
79EFB
100
AcDbSymbolTableRecord
100
AcDbBlockTableRecord
  2
UNITE_13
340
0
102
{BLKREFS
331
79D54
102
}
  0
BLOCK_RECORD
  5
7A031
330
79EFB
100
AcDbSymbolTableRecord
100
AcDbBlockTableRecord
  2
Feature Solid_33
340
0
102
{BLKREFS
331
79D55
102
}
  0
BLOCK_RECORD
  5
7A034
330
79EFB
100
AcDbSymbolTableRecord
100
AcDbBlockTableRecord
  2
CONE_6
340
0
102
{BLKREFS
331
79D56
102
}
  0
BLOCK_RECORD
  5
7A037
330
79EFB
100
AcDbSymbolTableRecord
100
AcDbBlockTableRecord
  2
Feature Solid_34
340
0
102
{BLKREFS
331
79D6B
102
}
  0
BLOCK_RECORD
  5
7A03A
330
79EFB
100
AcDbSymbolTableRecord
100
AcDbBlockTableRecord
  2
DDPROJ_20
340
0
102
{BLKREFS
331
79D6C
102
}
  0
BLOCK_RECORD
  5
7A03D
330
79EFB
100
AcDbSymbolTableRecord
100
AcDbBlockTableRecord
  2
UNITE_14
340
0
102
{BLKREFS
331
79D87
102
}
  0
BLOCK_RECORD
  5
7A040
330
79EFB
100
AcDbSymbolTableRecord
100
AcDbBlockTableRecord
  2
Feature Solid_35
340
0
102
{BLKREFS
331
79D88
102
}
  0
BLOCK_RECORD
  5
7A043
330
79EFB
100
AcDbSymbolTableRecord
100
AcDbBlockTableRecord
  2
DDPROJ_21
340
0
102
{BLKREFS
331
79D89
102
}
  0
BLOCK_RECORD
  5
7A046
330
79EFB
100
AcDbSymbolTableRecord
100
AcDbBlockTableRecord
  2
Feature Solid_36
340
0
102
{BLKREFS
331
79D8F
102
}
  0
BLOCK_RECORD
  5
7A049
330
79EFB
100
AcDbSymbolTableRecord
100
AcDbBlockTableRecord
  2
DDPROJ_22
340
0
102
{BLKREFS
331
79D90
102
}
  0
BLOCK_RECORD
  5
7A04C
330
79EFB
100
AcDbSymbolTableRecord
100
AcDbBlockTableRecord
  2
Feature Solid_37
340
0
102
{BLKREFS
331
79D96
102
}
  0
BLOCK_RECORD
  5
7A04F
330
79EFB
100
AcDbSymbolTableRecord
100
AcDbBlockTableRecord
  2
UNITE_15
340
0
102
{BLKREFS
331
79D97
102
}
  0
BLOCK_RECORD
  5
7A052
330
79EFB
100
AcDbSymbolTableRecord
100
AcDbBlockTableRecord
  2
Feature Solid_38
340
0
102
{BLKREFS
331
79D98
102
}
  0
BLOCK_RECORD
  5
7A055
330
79EFB
100
AcDbSymbolTableRecord
100
AcDbBlockTableRecord
  2
CONE_7
340
0
102
{BLKREFS
331
79D99
102
}
  0
BLOCK_RECORD
  5
7A058
330
79EFB
100
AcDbSymbolTableRecord
100
AcDbBlockTableRecord
  2
Feature Solid_39
340
0
102
{BLKREFS
331
79DAE
102
}
  0
BLOCK_RECORD
  5
7A05B
330
79EFB
100
AcDbSymbolTableRecord
100
AcDbBlockTableRecord
  2
DDPROJ_23
340
0
102
{BLKREFS
331
79DAF
102
}
  0
BLOCK_RECORD
  5
7A05E
330
79EFB
100
AcDbSymbolTableRecord
100
AcDbBlockTableRecord
  2
UNITE_16
340
0
102
{BLKREFS
331
79DCA
102
}
  0
BLOCK_RECORD
  5
7A061
330
79EFB
100
AcDbSymbolTableRecord
100
AcDbBlockTableRecord
  2
Feature Solid_40
340
0
102
{BLKREFS
331
79DCB
102
}
  0
BLOCK_RECORD
  5
7A064
330
79EFB
100
AcDbSymbolTableRecord
100
AcDbBlockTableRecord
  2
DDPROJ_24
340
0
102
{BLKREFS
331
79DCC
102
}
  0
BLOCK_RECORD
  5
7A067
330
79EFB
100
AcDbSymbolTableRecord
100
AcDbBlockTableRecord
  2
Feature Solid_41
340
0
102
{BLKREFS
331
79DD2
102
}
  0
BLOCK_RECORD
  5
7A06A
330
79EFB
100
AcDbSymbolTableRecord
100
AcDbBlockTableRecord
  2
DDPROJ_25
340
0
102
{BLKREFS
331
79DD3
102
}
  0
BLOCK_RECORD
  5
7A06D
330
79EFB
100
AcDbSymbolTableRecord
100
AcDbBlockTableRecord
  2
Feature Solid_42
340
0
102
{BLKREFS
331
79DD9
102
}
  0
BLOCK_RECORD
  5
7A070
330
79EFB
100
AcDbSymbolTableRecord
100
AcDbBlockTableRecord
  2
UNITE_17
340
0
102
{BLKREFS
331
79DDA
102
}
  0
BLOCK_RECORD
  5
7A073
330
79EFB
100
AcDbSymbolTableRecord
100
AcDbBlockTableRecord
  2
Feature Solid_43
340
0
102
{BLKREFS
331
79DDB
102
}
  0
BLOCK_RECORD
  5
7A076
330
79EFB
100
AcDbSymbolTableRecord
100
AcDbBlockTableRecord
  2
CONE_8
340
0
102
{BLKREFS
331
79DDC
102
}
  0
BLOCK_RECORD
  5
7A079
330
79EFB
100
AcDbSymbolTableRecord
100
AcDbBlockTableRecord
  2
Feature Solid_44
340
0
102
{BLKREFS
331
79DF1
102
}
  0
BLOCK_RECORD
  5
7A07C
330
79EFB
100
AcDbSymbolTableRecord
100
AcDbBlockTableRecord
  2
DDPROJ_26
340
0
102
{BLKREFS
331
79DF2
102
}
  0
BLOCK_RECORD
  5
7A07F
330
79EFB
100
AcDbSymbolTableRecord
100
AcDbBlockTableRecord
  2
UNITE_18
340
0
102
{BLKREFS
331
79E0D
102
}
  0
BLOCK_RECORD
  5
7A082
330
79EFB
100
AcDbSymbolTableRecord
100
AcDbBlockTableRecord
  2
Feature Solid_45
340
0
102
{BLKREFS
331
79E0E
102
}
  0
BLOCK_RECORD
  5
7A085
330
79EFB
100
AcDbSymbolTableRecord
100
AcDbBlockTableRecord
  2
DDPROJ_27
340
0
102
{BLKREFS
331
79E0F
102
}
  0
BLOCK_RECORD
  5
7A088
330
79EFB
100
AcDbSymbolTableRecord
100
AcDbBlockTableRecord
  2
Feature Solid_46
340
0
102
{BLKREFS
331
79E15
102
}
  0
BLOCK_RECORD
  5
7A08B
330
79EFB
100
AcDbSymbolTableRecord
100
AcDbBlockTableRecord
  2
DDPROJ_28
340
0
102
{BLKREFS
331
79E16
102
}
  0
BLOCK_RECORD
  5
7A08E
330
79EFB
100
AcDbSymbolTableRecord
100
AcDbBlockTableRecord
  2
Feature Solid_47
340
0
102
{BLKREFS
331
79E1C
102
}
  0
BLOCK_RECORD
  5
7A091
330
79EFB
100
AcDbSymbolTableRecord
100
AcDbBlockTableRecord
  2
UNITE_19
340
0
102
{BLKREFS
331
79E1D
102
}
  0
BLOCK_RECORD
  5
7A094
330
79EFB
100
AcDbSymbolTableRecord
100
AcDbBlockTableRecord
  2
Feature Solid_48
340
0
102
{BLKREFS
331
79E1E
102
}
  0
BLOCK_RECORD
  5
7A097
330
79EFB
100
AcDbSymbolTableRecord
100
AcDbBlockTableRecord
  2
CONE_9
340
0
102
{BLKREFS
331
79E1F
102
}
  0
BLOCK_RECORD
  5
7A09A
330
79EFB
100
AcDbSymbolTableRecord
100
AcDbBlockTableRecord
  2
Feature Solid_49
340
0
102
{BLKREFS
331
79E34
102
}
  0
BLOCK_RECORD
  5
7A09D
330
79EFB
100
AcDbSymbolTableRecord
100
AcDbBlockTableRecord
  2
DDPROJ_29
340
0
102
{BLKREFS
331
79E35
102
}
  0
BLOCK_RECORD
  5
7A0A0
330
79EFB
100
AcDbSymbolTableRecord
100
AcDbBlockTableRecord
  2
UNITE_20
340
0
102
{BLKREFS
331
79E50
102
}
  0
BLOCK_RECORD
  5
7A0A3
330
79EFB
100
AcDbSymbolTableRecord
100
AcDbBlockTableRecord
  2
Feature Solid_50
340
0
102
{BLKREFS
331
79E51
102
}
  0
BLOCK_RECORD
  5
7A0A6
330
79EFB
100
AcDbSymbolTableRecord
100
AcDbBlockTableRecord
  2
DDPROJ_30
340
0
102
{BLKREFS
331
79E52
102
}
  0
BLOCK_RECORD
  5
7A0A9
330
79EFB
100
AcDbSymbolTableRecord
100
AcDbBlockTableRecord
  2
Feature Solid_51
340
0
102
{BLKREFS
331
79E58
102
}
  0
BLOCK_RECORD
  5
7A0AC
330
79EFB
100
AcDbSymbolTableRecord
100
AcDbBlockTableRecord
  2
DDPROJ_31
340
0
102
{BLKREFS
331
79E59
102
}
  0
BLOCK_RECORD
  5
7A0AF
330
79EFB
100
AcDbSymbolTableRecord
100
AcDbBlockTableRecord
  2
Feature Solid_52
340
0
102
{BLKREFS
331
79E5F
102
}
  0
BLOCK_RECORD
  5
7A0B2
330
79EFB
100
AcDbSymbolTableRecord
100
AcDbBlockTableRecord
  2
UNITE_21
340
0
102
{BLKREFS
331
79E60
102
}
  0
BLOCK_RECORD
  5
7A0B5
330
79EFB
100
AcDbSymbolTableRecord
100
AcDbBlockTableRecord
  2
Feature Solid_53
340
0
102
{BLKREFS
331
79E61
102
}
  0
BLOCK_RECORD
  5
7A0B8
330
79EFB
100
AcDbSymbolTableRecord
100
AcDbBlockTableRecord
  2
CONE_10
340
0
102
{BLKREFS
331
79E62
102
}
  0
BLOCK_RECORD
  5
7A0BB
330
79EFB
100
AcDbSymbolTableRecord
100
AcDbBlockTableRecord
  2
Feature Solid_54
340
0
102
{BLKREFS
331
79E77
102
}
  0
BLOCK_RECORD
  5
7A0BE
330
79EFB
100
AcDbSymbolTableRecord
100
AcDbBlockTableRecord
  2
DDPROJ_32
340
0
102
{BLKREFS
331
79E78
102
}
  0
BLOCK_RECORD
  5
7A0C1
330
79EFB
100
AcDbSymbolTableRecord
100
AcDbBlockTableRecord
  2
UNITE_22
340
0
102
{BLKREFS
331
79E93
102
}
  0
BLOCK_RECORD
  5
7A0C4
330
79EFB
100
AcDbSymbolTableRecord
100
AcDbBlockTableRecord
  2
Feature Solid_55
340
0
102
{BLKREFS
331
79E94
102
}
  0
BLOCK_RECORD
  5
7A0C7
330
79EFB
100
AcDbSymbolTableRecord
100
AcDbBlockTableRecord
  2
DDPROJ_33
340
0
102
{BLKREFS
331
79E95
102
}
  0
BLOCK_RECORD
  5
7A0CA
330
79EFB
100
AcDbSymbolTableRecord
100
AcDbBlockTableRecord
  2
Feature Solid_56
340
0
102
{BLKREFS
331
79E9B
102
}
  0
BLOCK_RECORD
  5
7A0CD
330
79EFB
100
AcDbSymbolTableRecord
100
AcDbBlockTableRecord
  2
DDPROJ_34
340
0
102
{BLKREFS
331
79E9C
102
}
  0
BLOCK_RECORD
  5
7A0D0
330
79EFB
100
AcDbSymbolTableRecord
100
AcDbBlockTableRecord
  2
Feature Solid_57
340
0
102
{BLKREFS
331
79EA2
102
}
  0
BLOCK_RECORD
  5
7A0D3
330
79EFB
100
AcDbSymbolTableRecord
100
AcDbBlockTableRecord
  2
UNITE_23
340
0
102
{BLKREFS
331
79EA3
102
}
  0
BLOCK_RECORD
  5
7A0D6
330
79EFB
100
AcDbSymbolTableRecord
100
AcDbBlockTableRecord
  2
Feature Solid_58
340
0
102
{BLKREFS
331
79EA4
102
}
  0
BLOCK_RECORD
  5
7A0D9
330
79EFB
100
AcDbSymbolTableRecord
100
AcDbBlockTableRecord
  2
CONE_11
340
0
102
{BLKREFS
331
79EA5
102
}
  0
BLOCK_RECORD
  5
7A0DC
330
79EFB
100
AcDbSymbolTableRecord
100
AcDbBlockTableRecord
  2
Feature Solid_59
340
0
102
{BLKREFS
331
79EBA
102
}
  0
BLOCK_RECORD
  5
7A0DF
330
79EFB
100
AcDbSymbolTableRecord
100
AcDbBlockTableRecord
  2
DDPROJ_35
340
0
102
{BLKREFS
331
79EBB
102
}
  0
ENDTAB
  0
ENDSEC
  0
SECTION
  2
BLOCKS
  0
BLOCK
  5
79EFD
330
79EFC
100
AcDbEntity
  8
0
100
AcDbBlockBegin
  2
*Model_Space
 70
     0
 71
     0
 10
0.0
 20
0.0
 30
0.0
  3
*Model_Space
  1

  0
ENDBLK
  5
79EFE
330
79EFC
100
AcDbEntity
  8
0
100
AcDbBlockEnd
  0
BLOCK
  5
79F01
330
79F00
100
AcDbEntity
 67
     1
  8
0
100
AcDbBlockBegin
  2
*Paper_Space
 70
     0
 71
     0
 10
0.0
 20
0.0
 30
0.0
  3
*Paper_Space
  1

  0
ENDBLK
  5
79F02
330
79F00
100
AcDbEntity
 67
     1
  8
0
100
AcDbBlockEnd
  0
BLOCK
  5
79F17
330
79ED7
100
AcDbEntity
  8
0
100
AcDbBlockBegin
  2
*U0
 70
     1
 71
     0
 10
0.0
 20
0.0
 30
0.0
  3
*U0
  1

  0
LWPOLYLINE
  5
79ED8
330
79ED7
100
AcDbEntity
  8
0
100
AcDbPolyline
 90
        4
 70
   129
 43
0.0
 10
0.82
 20
0.0
 42
0.853659
 10
0.0
 20
0.0
 10
0.0
 20
-0.07
 10
0.82
 20
-0.07
  0
ENDBLK
  5
79F18
330
79ED7
100
AcDbEntity
  8
0
100
AcDbBlockEnd
  0
BLOCK
  5
79F19
330
79EDD
100
AcDbEntity
  8
0
100
AcDbBlockBegin
  2
*U1
 70
     1
 71
     0
 10
0.0
 20
0.0
 30
0.0
  3
*U1
  1

  0
LWPOLYLINE
  5
79EDE
330
79EDD
100
AcDbEntity
  8
0
100
AcDbPolyline
 90
        4
 70
   129
 43
0.0
 10
0.325
 20
0.325
 42
1.0
 10
0.325
 20
-0.325
 10
1.145
 20
-0.325
 42
1.0
 10
1.145
 20
0.325
  0
ENDBLK
  5
79F1A
330
79EDD
100
AcDbEntity
  8
0
100
AcDbBlockEnd
  0
BLOCK
  5
79F20
330
79F1C
100
AcDbEntity
  8
0
100
AcDbBlockBegin
  2
TerminatorOpen_0.5
 70
     0
 71
     0
 10
0.0
 20
0.0
 30
0.0
  3
TerminatorOpen_0.5
  1

  0
LINE
  5
79F1D
330
79F1C
100
AcDbEntity
  8
0
  6
ByBlock
 62
     0
370
    -2
100
AcDbLine
 10
0.0
 20
0.0
 30
0.0
 11
-1.0
 21
0.0
 31
0.0
  0
LINE
  5
79F1E
330
79F1C
100
AcDbEntity
  8
0
  6
ByBlock
 62
     0
370
    -2
100
AcDbLine
 10
0.0
 20
0.0
 30
0.0
 11
-1.0
 21
0.25
 31
0.0
  0
LINE
  5
79F1F
330
79F1C
100
AcDbEntity
  8
0
  6
ByBlock
 62
     0
370
    -2
100
AcDbLine
 10
0.0
 20
0.0
 30
0.0
 11
-1.0
 21
-0.25
 31
0.0
  0
ENDBLK
  5
79F21
330
79F1C
100
AcDbEntity
  8
0
100
AcDbBlockEnd
  0
BLOCK
  5
79F24
330
79F23
100
AcDbEntity
  8
0
100
AcDbBlockBegin
  2
FT02
 70
     0
 71
     0
 10
0.0
 20
0.0
 30
0.0
  3
FT02
  1

  0
INSERT
  5
79B28
330
79F23
100
AcDbEntity
  8
Level 26
 62
   133
370
     0
100
AcDbBlockReference
  2
UNITE
 10
36.32863
 20
215.851704
 30
0.0
 41
100.0
 42
100.0
 43
100.0
  0
INSERT
  5
79B6B
330
79F23
100
AcDbEntity
  8
Level 26
 62
   133
370
     0
100
AcDbBlockReference
  2
UNITE_2
 10
1688.67137
 20
215.851704
 30
0.0
 41
100.0
 42
100.0
 43
100.0
  0
LWPOLYLINE
  5
79BAE
330
79F23
100
AcDbEntity
  8
Level 25
  6
Continuous
 62
   174
370
    13
100
AcDbPolyline
 90
        4
 70
   129
 43
0.0
 10
-37.5
 20
37.5
 10
-37.5
 20
-37.5
 10
-37.5
 20
-37.5
 10
-37.5
 20
37.5
  0
LWPOLYLINE
  5
79BAF
330
79F23
100
AcDbEntity
  8
Level 25
  6
Continuous
 62
   174
370
    13
100
AcDbPolyline
 90
        4
 70
   129
 43
0.0
 10
-37.5
 20
-37.5
 10
37.5
 20
-37.5
 10
37.5
 20
-37.5
 10
-37.5
 20
-37.5
  0
LWPOLYLINE
  5
79BB0
330
79F23
100
AcDbEntity
  8
Level 25
  6
Continuous
 62
   174
370
    13
100
AcDbPolyline
 90
        4
 70
   129
 43
0.0
 10
37.5
 20
37.5
 10
-37.5
 20
37.5
 10
-37.5
 20
37.5
 10
37.5
 20
37.5
  0
LWPOLYLINE
  5
79BB1
330
79F23
100
AcDbEntity
  8
Level 25
  6
Continuous
 62
   174
370
    13
100
AcDbPolyline
 90
        4
 70
   129
 43
0.0
 10
37.5
 20
-37.5
 10
37.5
 20
37.5
 10
37.5
 20
37.5
 10
37.5
 20
-37.5
  0
LWPOLYLINE
  5
79BB2
330
79F23
100
AcDbEntity
  8
Level 26
  6
Continuous
 62
   163
370
    13
100
AcDbPolyline
 90
        4
 70
   129
 43
0.0
 10
37.5
 20
37.5
 10
-37.5
 20
37.5
 10
-37.5
 20
37.5
 10
37.5
 20
37.5
  0
LWPOLYLINE
  5
79BB3
330
79F23
100
AcDbEntity
  8
Level 26
  6
Continuous
 62
   163
370
    13
100
AcDbPolyline
 90
        4
 70
   129
 43
0.0
 10
37.5
 20
-37.5
 10
37.5
 20
37.5
 10
37.5
 20
37.5
 10
37.5
 20
-37.5
  0
LWPOLYLINE
  5
79BB4
330
79F23
100
AcDbEntity
  8
Level 26
  6
Continuous
 62
   163
370
    13
100
AcDbPolyline
 90
        4
 70
   129
 43
0.0
 10
-37.5
 20
-37.5
 10
37.5
 20
-37.5
 10
37.5
 20
-37.5
 10
-37.5
 20
-37.5
  0
LWPOLYLINE
  5
79BB5
330
79F23
100
AcDbEntity
  8
Level 26
  6
Continuous
 62
   163
370
    13
100
AcDbPolyline
 90
        4
 70
   129
 43
0.0
 10
-37.5
 20
37.5
 10
-37.5
 20
-37.5
 10
-37.5
 20
-37.5
 10
-37.5
 20
37.5
  0
LWPOLYLINE
  5
79BB6
330
79F23
100
AcDbEntity
  8
Level 25
  6
Continuous
 62
   174
370
    13
100
AcDbPolyline
 90
        4
 70
   129
 43
0.0
 10
1687.5
 20
37.5
 10
1687.5
 20
-37.5
 10
1687.5
 20
-37.5
 10
1687.5
 20
37.5
  0
LWPOLYLINE
  5
79BB7
330
79F23
100
AcDbEntity
  8
Level 25
  6
Continuous
 62
   174
370
    13
100
AcDbPolyline
 90
        4
 70
   129
 43
0.0
 10
1687.5
 20
-37.5
 10
1762.5
 20
-37.5
 10
1762.5
 20
-37.5
 10
1687.5
 20
-37.5
  0
LWPOLYLINE
  5
79BB8
330
79F23
100
AcDbEntity
  8
Level 25
  6
Continuous
 62
   174
370
    13
100
AcDbPolyline
 90
        4
 70
   129
 43
0.0
 10
1762.5
 20
37.5
 10
1687.5
 20
37.5
 10
1687.5
 20
37.5
 10
1762.5
 20
37.5
  0
LWPOLYLINE
  5
79BB9
330
79F23
100
AcDbEntity
  8
Level 25
  6
Continuous
 62
   174
370
    13
100
AcDbPolyline
 90
        4
 70
   129
 43
0.0
 10
1762.5
 20
-37.5
 10
1762.5
 20
37.5
 10
1762.5
 20
37.5
 10
1762.5
 20
-37.5
  0
LWPOLYLINE
  5
79BBA
330
79F23
100
AcDbEntity
  8
Level 26
  6
Continuous
 62
   163
370
    13
100
AcDbPolyline
 90
        4
 70
   129
 43
0.0
 10
1762.5
 20
37.5
 10
1687.5
 20
37.5
 10
1687.5
 20
37.5
 10
1762.5
 20
37.5
  0
LWPOLYLINE
  5
79BBB
330
79F23
100
AcDbEntity
  8
Level 26
  6
Continuous
 62
   163
370
    13
100
AcDbPolyline
 90
        4
 70
   129
 43
0.0
 10
1762.5
 20
-37.5
 10
1762.5
 20
37.5
 10
1762.5
 20
37.5
 10
1762.5
 20
-37.5
  0
LWPOLYLINE
  5
79BBC
330
79F23
100
AcDbEntity
  8
Level 26
  6
Continuous
 62
   163
370
    13
100
AcDbPolyline
 90
        4
 70
   129
 43
0.0
 10
1687.5
 20
-37.5
 10
1762.5
 20
-37.5
 10
1762.5
 20
-37.5
 10
1687.5
 20
-37.5
  0
LWPOLYLINE
  5
79BBD
330
79F23
100
AcDbEntity
  8
Level 26
  6
Continuous
 62
   163
370
    13
100
AcDbPolyline
 90
        4
 70
   129
 43
0.0
 10
1687.5
 20
37.5
 10
1687.5
 20
-37.5
 10
1687.5
 20
-37.5
 10
1687.5
 20
37.5
  0
INSERT
  5
79EE3
330
79F23
100
AcDbEntity
  8
Level 27
  6
Continuous
 62
    12
370
    13
100
AcDbBlockReference
  2
From Solid
 10
-3198.749439
 20
-205.276387
 30
0.0
  0
INSERT
  5
79EE4
330
79F23
100
AcDbEntity
  8
Level 27
  6
Continuous
 62
    12
370
    13
100
AcDbBlockReference
  2
From Solid_1
 10
-3198.749439
 20
-205.276387
 30
0.0
  0
INSERT
  5
79EE5
330
79F23
100
AcDbEntity
  8
Level 27
  6
Continuous
 62
    12
370
    13
100
AcDbBlockReference
  2
From Solid_2
 10
-3198.749439
 20
-205.276387
 30
0.0
  0
INSERT
  5
79EE6
330
79F23
100
AcDbEntity
  8
Level 27
  6
Continuous
 62
    12
370
    13
100
AcDbBlockReference
  2
From Solid_3
 10
-3198.749439
 20
-205.276387
 30
0.0
  0
INSERT
  5
79EE7
330
79F23
100
AcDbEntity
  8
Level 27
  6
Continuous
 62
    12
370
    13
100
AcDbBlockReference
  2
From Solid_4
 10
-3198.749439
 20
-205.276387
 30
0.0
  0
INSERT
  5
79EE8
330
79F23
100
AcDbEntity
  8
Level 27
  6
Continuous
 62
    12
370
    13
100
AcDbBlockReference
  2
From Solid_5
 10
-3198.749439
 20
-205.276387
 30
0.0
  0
INSERT
  5
79EE9
330
79F23
100
AcDbEntity
  8
Level 27
  6
Continuous
 62
    12
370
    13
100
AcDbBlockReference
  2
From Solid_6
 10
-3198.749439
 20
-205.276387
 30
0.0
  0
INSERT
  5
79EEA
330
79F23
100
AcDbEntity
  8
Level 27
  6
Continuous
 62
    12
370
    13
100
AcDbBlockReference
  2
From Solid_7
 10
-3198.749439
 20
-205.276387
 30
0.0
  0
INSERT
  5
79EEB
330
79F23
100
AcDbEntity
  8
Level 27
  6
Continuous
 62
    12
370
    13
100
AcDbBlockReference
  2
From Solid_8
 10
-3198.749439
 20
-205.276387
 30
0.0
  0
INSERT
  5
79EEC
330
79F23
100
AcDbEntity
  8
Level 27
  6
Continuous
 62
    12
370
    13
100
AcDbBlockReference
  2
From Solid_9
 10
-3198.749439
 20
-205.276387
 30
0.0
  0
INSERT
  5
79EED
330
79F23
100
AcDbEntity
  8
Level 27
  6
Continuous
 62
    12
370
    13
100
AcDbBlockReference
  2
From Solid_10
 10
-3198.749439
 20
-205.276387
 30
0.0
  0
INSERT
  5
79EEE
330
79F23
100
AcDbEntity
  8
Level 27
  6
Continuous
 62
    12
370
    13
100
AcDbBlockReference
  2
From Solid_11
 10
-3198.749439
 20
-205.276387
 30
0.0
  0
INSERT
  5
79EEF
330
79F23
100
AcDbEntity
  8
Level 27
  6
Continuous
 62
    12
370
    13
100
AcDbBlockReference
  2
From Solid_12
 10
-3198.749439
 20
-205.276387
 30
0.0
  0
INSERT
  5
79EF0
330
79F23
100
AcDbEntity
  8
Level 27
  6
Continuous
 62
    12
370
    13
100
AcDbBlockReference
  2
From Solid_13
 10
-3198.749439
 20
-205.276387
 30
0.0
  0
INSERT
  5
79EF1
330
79F23
100
AcDbEntity
  8
Level 27
  6
Continuous
 62
    12
370
    13
100
AcDbBlockReference
  2
From Solid_14
 10
-3198.749439
 20
-205.276387
 30
0.0
  0
INSERT
  5
79EF2
330
79F23
100
AcDbEntity
  8
Level 27
  6
Continuous
 62
    12
370
    13
100
AcDbBlockReference
  2
From Solid_15
 10
-3198.749439
 20
-205.276387
 30
0.0
  0
LWPOLYLINE
  5
79C2E
330
79F23
100
AcDbEntity
  8
Level 26
  6
Continuous
 62
   163
370
    13
100
AcDbPolyline
 90
        4
 70
   129
 43
0.0
 10
37.5
 20
37.5
 10
-37.5
 20
37.5
 10
-37.5
 20
-37.5
 10
37.5
 20
-37.5
  0
LWPOLYLINE
  5
79C33
330
79F23
100
AcDbEntity
  8
Level 26
  6
Continuous
 62
   163
370
    13
100
AcDbPolyline
 90
        4
 70
   129
 43
0.0
 10
1762.5
 20
37.5
 10
1687.5
 20
37.5
 10
1687.5
 20
-37.5
 10
1762.5
 20
-37.5
  0
INSERT
  5
79C38
330
79F23
100
AcDbEntity
  8
Level 26
 62
   133
370
     0
100
AcDbBlockReference
  2
UNITE_4
 10
36.32863
 20
215.851704
 30
0.0
 41
100.0
 42
100.0
 43
100.0
  0
INSERT
  5
79C7B
330
79F23
100
AcDbEntity
  8
Level 26
 62
   133
370
     0
100
AcDbBlockReference
  2
UNITE_6
 10
1688.67137
 20
215.851704
 30
0.0
 41
100.0
 42
100.0
 43
100.0
  0
INSERT
  5
79CBE
330
79F23
100
AcDbEntity
  8
Level 26
 62
   133
370
     0
100
AcDbBlockReference
  2
UNITE_8
 10
36.32863
 20
215.851704
 30
0.0
 41
100.0
 42
100.0
 43
100.0
  0
INSERT
  5
79D01
330
79F23
100
AcDbEntity
  8
Level 26
 62
   133
370
     0
100
AcDbBlockReference
  2
UNITE_10
 10
1688.67137
 20
215.851704
 30
0.0
 41
100.0
 42
100.0
 43
100.0
  0
INSERT
  5
79D44
330
79F23
100
AcDbEntity
  8
Level 26
 62
   133
370
     0
100
AcDbBlockReference
  2
UNITE_12
 10
36.32863
 20
215.851704
 30
0.0
 41
100.0
 42
100.0
 43
100.0
  0
INSERT
  5
79D87
330
79F23
100
AcDbEntity
  8
Level 26
 62
   133
370
     0
100
AcDbBlockReference
  2
UNITE_14
 10
1688.67137
 20
215.851704
 30
0.0
 41
100.0
 42
100.0
 43
100.0
  0
INSERT
  5
79DCA
330
79F23
100
AcDbEntity
  8
Level 26
 62
   133
370
     0
100
AcDbBlockReference
  2
UNITE_16
 10
1688.67137
 20
215.851704
 30
0.0
 41
100.0
 42
100.0
 43
100.0
  0
INSERT
  5
79E0D
330
79F23
100
AcDbEntity
  8
Level 26
 62
   133
370
     0
100
AcDbBlockReference
  2
UNITE_18
 10
36.32863
 20
215.851704
 30
0.0
 41
100.0
 42
100.0
 43
100.0
  0
INSERT
  5
79E50
330
79F23
100
AcDbEntity
  8
Level 26
 62
   133
370
     0
100
AcDbBlockReference
  2
UNITE_20
 10
1688.67137
 20
215.851704
 30
0.0
 41
100.0
 42
100.0
 43
100.0
  0
INSERT
  5
79E93
330
79F23
100
AcDbEntity
  8
Level 26
 62
   133
370
     0
100
AcDbBlockReference
  2
UNITE_22
 10
36.32863
 20
215.851704
 30
0.0
 41
100.0
 42
100.0
 43
100.0
  0
ENDBLK
  5
79F25
330
79F23
100
AcDbEntity
  8
0
100
AcDbBlockEnd
  0
BLOCK
  5
79F27
330
79F26
100
AcDbEntity
  8
0
100
AcDbBlockBegin
  2
UNITE
 70
     0
 71
     0
 10
0.0
 20
0.0
 30
0.0
  3
UNITE
  1

  0
INSERT
  5
79B29
330
79F26
100
AcDbEntity
  8
Level 26
 62
   133
370
     0
100
AcDbBlockReference
  2
Feature Solid
 10
0.0
 20
0.0
 30
0.0
  0
INSERT
  5
79B30
330
79F26
100
AcDbEntity
  8
Level 26
 62
   133
370
     0
100
AcDbBlockReference
  2
Feature Solid_1
 10
0.0
 20
-0.55
 30
0.0
  0
INSERT
  5
79B37
330
79F26
100
AcDbEntity
  8
Level 8
 62
   133
370
     0
100
AcDbBlockReference
  2
Feature Solid_2
 10
0.0
 20
0.0
 30
0.0
  0
ENDBLK
  5
79F28
330
79F26
100
AcDbEntity
  8
0
100
AcDbBlockEnd
  0
BLOCK
  5
79F2A
330
79F29
100
AcDbEntity
  8
0
100
AcDbBlockBegin
  2
Feature Solid
 70
     0
 71
     0
 10
0.0
 20
0.0
 30
0.0
  3
Feature Solid
  1

  0
INSERT
  5
79B2A
330
79F29
100
AcDbEntity
  8
Level 26
 62
   133
370
     0
100
AcDbBlockReference
  2
DDPROJ
 10
0.0
 20
0.0
 30
0.0
  0
ENDBLK
  5
79F2B
330
79F29
100
AcDbEntity
  8
0
100
AcDbBlockEnd
  0
BLOCK
  5
79F2D
330
79F2C
100
AcDbEntity
  8
0
100
AcDbBlockBegin
  2
DDPROJ
 70
     0
 71
     0
 10
0.0
 20
0.0
 30
0.0
  3
DDPROJ
  1

  0
POINT
  5
79B2B
330
79F2C
100
AcDbEntity
  8
Level 26
 62
   133
370
     0
100
AcDbPoint
 10
0.011714
 20
-1.833517
 30
0.0
  0
LINE
  5
79B2C
330
79F2C
100
AcDbEntity
  8
Level 26
 62
   133
370
     0
100
AcDbLine
 10
0.131714
 20
-1.933517
 30
0.0
 11
0.359125
 21
-1.933517
 31
0.0
  0
LINE
  5
79B2D
330
79F2C
100
AcDbEntity
  8
Level 26
 62
   133
370
     0
100
AcDbLine
 10
0.131714
 20
-1.833517
 30
0.0
 11
0.431714
 21
-1.833517
 31
0.0
  0
LINE
  5
79B2E
330
79F2C
100
AcDbEntity
  8
Level 26
 62
   133
370
     0
100
AcDbLine
 10
0.131714
 20
-1.833517
 30
0.0
 11
0.431714
 21
-1.833517
 31
0.0
  0
LINE
  5
79B2F
330
79F2C
100
AcDbEntity
  8
Level 26
 62
   133
370
     0
100
AcDbLine
 10
0.131714
 20
-1.933517
 30
0.0
 11
0.359125
 21
-1.933517
 31
0.0
  0
ENDBLK
  5
79F2E
330
79F2C
100
AcDbEntity
  8
0
100
AcDbBlockEnd
  0
BLOCK
  5
79F30
330
79F2F
100
AcDbEntity
  8
0
100
AcDbBlockBegin
  2
Feature Solid_1
 70
     0
 71
     0
 10
0.0
 20
0.0
 30
0.0
  3
Feature Solid_1
  1

  0
INSERT
  5
79B31
330
79F2F
100
AcDbEntity
  8
Level 26
 62
   133
370
     0
100
AcDbBlockReference
  2
DDPROJ_1
 10
0.0
 20
0.0
 30
0.0
  0
ENDBLK
  5
79F31
330
79F2F
100
AcDbEntity
  8
0
100
AcDbBlockEnd
  0
BLOCK
  5
79F33
330
79F32
100
AcDbEntity
  8
0
100
AcDbBlockBegin
  2
DDPROJ_1
 70
     0
 71
     0
 10
0.0
 20
0.0
 30
0.0
  3
DDPROJ_1
  1

  0
POINT
  5
79B32
330
79F32
100
AcDbEntity
  8
Level 26
 62
   133
370
     0
100
AcDbPoint
 10
0.011714
 20
-1.933517
 30
0.0
  0
LINE
  5
79B33
330
79F32
100
AcDbEntity
  8
Level 26
 62
   133
370
     0
100
AcDbLine
 10
0.131714
 20
-1.933517
 30
0.0
 11
0.431714
 21
-1.933517
 31
0.0
  0
LINE
  5
79B34
330
79F32
100
AcDbEntity
  8
Level 26
 62
   133
370
     0
100
AcDbLine
 10
0.131714
 20
-1.833517
 30
0.0
 11
0.359125
 21
-1.833517
 31
0.0
  0
LINE
  5
79B35
330
79F32
100
AcDbEntity
  8
Level 26
 62
   133
370
     0
100
AcDbLine
 10
0.131714
 20
-1.833517
 30
0.0
 11
0.359125
 21
-1.833517
 31
0.0
  0
LINE
  5
79B36
330
79F32
100
AcDbEntity
  8
Level 26
 62
   133
370
     0
100
AcDbLine
 10
0.131714
 20
-1.933517
 30
0.0
 11
0.431714
 21
-1.933517
 31
0.0
  0
ENDBLK
  5
79F34
330
79F32
100
AcDbEntity
  8
0
100
AcDbBlockEnd
  0
BLOCK
  5
79F36
330
79F35
100
AcDbEntity
  8
0
100
AcDbBlockBegin
  2
Feature Solid_2
 70
     0
 71
     0
 10
0.0
 20
0.0
 30
0.0
  3
Feature Solid_2
  1

  0
INSERT
  5
79B38
330
79F35
100
AcDbEntity
  8
Level 8
 62
   133
370
     0
100
AcDbBlockReference
  2
UNITE_1
 10
0.0
 20
0.0
 30
0.0
  0
ENDBLK
  5
79F37
330
79F35
100
AcDbEntity
  8
0
100
AcDbBlockEnd
  0
BLOCK
  5
79F39
330
79F38
100
AcDbEntity
  8
0
100
AcDbBlockBegin
  2
UNITE_1
 70
     0
 71
     0
 10
0.0
 20
0.0
 30
0.0
  3
UNITE_1
  1

  0
INSERT
  5
79B39
330
79F38
100
AcDbEntity
  8
Level 8
 62
   133
370
     0
100
AcDbBlockReference
  2
Feature Solid_3
 10
0.0
 20
0.0
 30
0.0
  0
INSERT
  5
79B4F
330
79F38
100
AcDbEntity
  8
Level 26
 62
   133
370
     0
100
AcDbBlockReference
  2
Feature Solid_4
 10
0.0
 20
0.0
 30
0.0
  0
ENDBLK
  5
79F3A
330
79F38
100
AcDbEntity
  8
0
100
AcDbBlockEnd
  0
BLOCK
  5
79F3C
330
79F3B
100
AcDbEntity
  8
0
100
AcDbBlockBegin
  2
Feature Solid_3
 70
     0
 71
     0
 10
0.0
 20
0.0
 30
0.0
  3
Feature Solid_3
  1

  0
INSERT
  5
79B3A
330
79F3B
100
AcDbEntity
  8
Level 8
 62
   133
370
     0
100
AcDbBlockReference
  2
CONE
 10
0.0
 20
0.0
 30
0.0
  0
ENDBLK
  5
79F3D
330
79F3B
100
AcDbEntity
  8
0
100
AcDbBlockEnd
  0
BLOCK
  5
79F3F
330
79F3E
100
AcDbEntity
  8
0
100
AcDbBlockBegin
  2
CONE
 70
     0
 71
     0
 10
0.0
 20
0.0
 30
0.0
  3
CONE
  1

  0
LINE
  5
79B3B
330
79F3E
100
AcDbEntity
  8
Level 8
 62
   133
370
     0
100
AcDbLine
 10
0.431714
 20
-1.833517
 30
0.0
 11
0.431714
 21
-2.483517
 31
0.0
  0
LINE
  5
79B3C
330
79F3E
100
AcDbEntity
  8
Level 8
 62
   133
370
     0
100
AcDbLine
 10
0.131714
 20
-2.383517
 30
0.0
 11
0.359125
 21
-2.383517
 31
0.0
  0
LINE
  5
79B3D
330
79F3E
100
AcDbEntity
  8
Level 8
 62
   133
370
     0
100
AcDbLine
 10
0.131714
 20
-2.383517
 30
0.0
 11
0.359125
 21
-2.383517
 31
0.0
  0
SPLINE
  5
79B3E
330
79F3E
100
AcDbEntity
  8
Level 8
 62
   133
370
     0
100
AcDbSpline
210
0.0
220
0.0
230
1.0
 70
     8
 71
     3
 72
    17
 73
    13
 74
     0
 42
0.0000000001
 43
0.00000001
 40
0.0
 40
0.0
 40
0.0
 40
0.0
 40
0.1188920175173181
 40
0.1188920175173181
 40
0.1188920175173181
 40
0.4370642450454728
 40
0.4370642450454728
 40
0.4370642450454728
 40
0.7708126268407274
 40
0.7708126268407274
 40
0.7708126268407274
 40
1.0
 40
1.0
 40
1.0
 40
1.0
 10
0.4317136962460353
 20
-2.483517035676399
 30
0.0
 10
0.4317136962460353
 20
-2.483517035676399
 30
0.0
 10
0.4312857853703704
 20
-2.482970961108962
 30
0.0
 10
0.4304413967249374
 20
-2.481890266834162
 30
0.0
 10
0.4281893687172271
 20
-2.479007999541993
 30
0.0
 10
0.4228496497948271
 20
-2.472181370284083
 30
0.0
 10
0.415280563715676
 20
-2.462245290317638
 30
0.0
 10
0.4073288034245479
 20
-2.451806866801185
 30
0.0
 10
0.3967863239604554
 20
-2.437764099143893
 30
0.0
 10
0.3850241073261032
 20
-2.42127018794613
 30
0.0
 10
0.3768999155639037
 20
-2.409877803190351
 30
0.0
 10
0.3681165556180162
 20
-2.397205829360038
 30
0.0
 10
0.359125348396347
 20
-2.383517035681363
 30
0.0
  0
SPLINE
  5
79B41
330
79F3E
100
AcDbEntity
  8
Level 8
 62
   133
370
     0
100
AcDbSpline
210
0.0
220
0.0
230
1.0
 70
     8
 71
     3
 72
    14
 73
    10
 74
     0
 42
0.0000000001
 43
0.00000001
 40
0.0
 40
0.0
 40
0.0
 40
0.0
 40
0.4155111778321488
 40
0.4155111778321488
 40
0.4155111778321488
 40
0.7657511632294429
 40
0.7657511632294429
 40
0.7657511632294429
 40
1.0
 40
1.0
 40
1.0
 40
1.0
 10
0.3591253483958496
 20
-2.38351703567638
 30
0.0
 10
0.3753273199526817
 20
-2.408183961970713
 30
0.0
 10
0.390935225137504
 20
-2.429723842876861
 30
0.0
 10
0.403294537228355
 20
-2.446330563598322
 30
0.0
 10
0.4137190532494017
 20
-2.460337575068316
 30
0.0
 10
0.4220439846593962
 20
-2.471094914404414
 30
0.0
 10
0.4268312321213159
 20
-2.477256738635805
 30
0.0
 10
0.4300308856967945
 20
-2.481375118370782
 30
0.0
 10
0.4317136962460353
 20
-2.483517035676399
 30
0.0
 10
0.4317136962460353
 20
-2.483517035676399
 30
0.0
  0
LINE
  5
79B44
330
79F3E
100
AcDbEntity
  8
Level 8
 62
   133
370
     0
100
AcDbLine
 10
0.431714
 20
-1.833517
 30
0.0
 11
0.431714
 21
-2.483517
 31
0.0
  0
SPLINE
  5
79B45
330
79F3E
100
AcDbEntity
  8
Level 8
 62
   133
370
     0
100
AcDbSpline
210
0.0
220
0.0
230
1.0
 70
     8
 71
     3
 72
    17
 73
    13
 74
     0
 42
0.0000000001
 43
0.00000001
 40
0.0
 40
0.0
 40
0.0
 40
0.0
 40
0.1188920175167992
 40
0.1188920175167992
 40
0.1188920175167992
 40
0.4370642450447248
 40
0.4370642450447248
 40
0.4370642450447248
 40
0.7708126268396294
 40
0.7708126268396294
 40
0.7708126268396294
 40
1.0
 40
1.0
 40
1.0
 40
1.0
 10
0.4317136962460353
 20
-1.83351703567625
 30
0.0
 10
0.4317136962460353
 20
-1.83351703567625
 30
0.0
 10
0.4312857853703775
 20
-1.834063110243678
 30
0.0
 10
0.4304413967249516
 20
-1.835143804518469
 30
0.0
 10
0.4281893687172556
 20
-1.838026071810629
 30
0.0
 10
0.4228496497948697
 20
-1.84485270106853
 30
0.0
 10
0.4152805637157329
 20
-1.854788781034974
 30
0.0
 10
0.4073288034246261
 20
-1.865227204551417
 30
0.0
 10
0.3967863239605407
 20
-1.879269972208701
 30
0.0
 10
0.3850241073262097
 20
-1.895763883406454
 30
0.0
 10
0.3768999155639747
 20
-1.907156268162289
 30
0.0
 10
0.3681165556180375
 20
-1.919828241992676
 30
0.0
 10
0.3591253483963257
 20
-1.933517035671435
 30
0.0
  0
LINE
  5
79B48
330
79F3E
100
AcDbEntity
  8
Level 8
 62
   133
370
     0
100
AcDbLine
 10
0.131714
 20
-1.933517
 30
0.0
 11
0.359125
 21
-1.933517
 31
0.0
  0
LINE
  5
79B49
330
79F3E
100
AcDbEntity
  8
Level 8
 62
   133
370
     0
100
AcDbLine
 10
0.131714
 20
-1.933517
 30
0.0
 11
0.359125
 21
-1.933517
 31
0.0
  0
SPLINE
  5
79B4A
330
79F3E
100
AcDbEntity
  8
Level 8
 62
   133
370
     0
100
AcDbSpline
210
0.0
220
0.0
230
1.0
 70
     8
 71
     3
 72
    14
 73
    10
 74
     0
 42
0.0000000001
 43
0.00000001
 40
0.0
 40
0.0
 40
0.0
 40
0.0
 40
0.4155111778320348
 40
0.4155111778320348
 40
0.4155111778320348
 40
0.7657511632291136
 40
0.7657511632291136
 40
0.7657511632291136
 40
1.0
 40
1.0
 40
1.0
 40
1.0
 10
0.3591253483956578
 20
-1.933517035676418
 30
0.0
 10
0.3753273199525111
 20
-1.908850109382067
 30
0.0
 10
0.390935225137369
 20
-1.887310228475882
 30
0.0
 10
0.4032945372282484
 20
-1.870703507754402
 30
0.0
 10
0.4137190532493023
 20
-1.85669649628439
 30
0.0
 10
0.4220439846593251
 20
-1.845939156948282
 30
0.0
 10
0.4268312321212662
 20
-1.839777332716864
 30
0.0
 10
0.4300308856967732
 20
-1.835658952981876
 30
0.0
 10
0.4317136962460282
 20
-1.83351703567625
 30
0.0
 10
0.4317136962460353
 20
-1.83351703567625
 30
0.0
  0
LINE
  5
79B4D
330
79F3E
100
AcDbEntity
  8
Level 8
 62
   133
370
     0
100
AcDbLine
 10
0.131714
 20
-2.158517
 30
0.0
 11
0.431714
 21
-2.158517
 31
0.0
  0
LINE
  5
79B4E
330
79F3E
100
AcDbEntity
  8
Level 8
 62
   133
370
     0
100
AcDbLine
 10
0.131714
 20
-2.158517
 30
0.0
 11
0.431714
 21
-2.158517
 31
0.0
  0
ENDBLK
  5
79F40
330
79F3E
100
AcDbEntity
  8
0
100
AcDbBlockEnd
  0
BLOCK
  5
79F42
330
79F41
100
AcDbEntity
  8
0
100
AcDbBlockBegin
  2
Feature Solid_4
 70
     0
 71
     0
 10
0.0
 20
0.0
 30
0.0
  3
Feature Solid_4
  1

  0
INSERT
  5
79B50
330
79F41
100
AcDbEntity
  8
Level 26
 62
   133
370
     0
100
AcDbBlockReference
  2
DDPROJ_2
 10
0.0
 20
0.0
 30
0.0
  0
ENDBLK
  5
79F43
330
79F41
100
AcDbEntity
  8
0
100
AcDbBlockEnd
  0
BLOCK
  5
79F45
330
79F44
100
AcDbEntity
  8
0
100
AcDbBlockBegin
  2
DDPROJ_2
 70
     0
 71
     0
 10
0.0
 20
0.0
 30
0.0
  3
DDPROJ_2
  1

  0
LINE
  5
79B51
330
79F44
100
AcDbEntity
  8
Level 26
 62
   133
370
     0
100
AcDbLine
 10
0.011714
 20
-1.833517
 30
0.0
 11
0.131714
 21
-1.833517
 31
0.0
  0
LINE
  5
79B52
330
79F44
100
AcDbEntity
  8
Level 26
 62
   133
370
     0
100
AcDbLine
 10
0.131714
 20
-1.833517
 30
0.0
 11
0.011714
 21
-1.833517
 31
0.0
  0
LINE
  5
79B53
330
79F44
100
AcDbEntity
  8
Level 26
 62
   133
370
     0
100
AcDbLine
 10
0.011714
 20
-2.483517
 30
0.0
 11
0.131714
 21
-2.483517
 31
0.0
  0
LINE
  5
79B54
330
79F44
100
AcDbEntity
  8
Level 26
 62
   133
370
     0
100
AcDbLine
 10
0.131714
 20
-2.483517
 30
0.0
 11
0.011714
 21
-2.483517
 31
0.0
  0
LINE
  5
79B55
330
79F44
100
AcDbEntity
  8
Level 26
 62
   133
370
     0
100
AcDbLine
 10
0.131714
 20
-1.933517
 30
0.0
 11
0.131714
 21
-2.383517
 31
0.0
  0
LINE
  5
79B56
330
79F44
100
AcDbEntity
  8
Level 26
 62
   133
370
     0
100
AcDbLine
 10
0.131714
 20
-1.933517
 30
0.0
 11
0.131714
 21
-2.383517
 31
0.0
  0
LINE
  5
79B57
330
79F44
100
AcDbEntity
  8
Level 26
 62
   133
370
     0
100
AcDbLine
 10
0.011714
 20
-1.833517
 30
0.0
 11
0.011714
 21
-2.483517
 31
0.0
  0
POINT
  5
79B58
330
79F44
100
AcDbEntity
  8
Level 26
 62
   133
370
     0
100
AcDbPoint
 10
0.131714
 20
-2.483517
 30
0.0
  0
LINE
  5
79B59
330
79F44
100
AcDbEntity
  8
Level 26
 62
   133
370
     0
100
AcDbLine
 10
0.011714
 20
-1.833517
 30
0.0
 11
0.011714
 21
-2.483517
 31
0.0
  0
LINE
  5
79B5A
330
79F44
100
AcDbEntity
  8
Level 26
 62
   133
370
     0
100
AcDbLine
 10
0.131714
 20
-1.833517
 30
0.0
 11
0.131714
 21
-2.483517
 31
0.0
  0
POINT
  5
79B5B
330
79F44
100
AcDbEntity
  8
Level 26
 62
   133
370
     0
100
AcDbPoint
 10
0.131714
 20
-1.833517
 30
0.0
  0
POINT
  5
79B5C
330
79F44
100
AcDbEntity
  8
Level 26
 62
   133
370
     0
100
AcDbPoint
 10
0.131714
 20
-2.483517
 30
0.0
  0
LINE
  5
79B5D
330
79F44
100
AcDbEntity
  8
Level 26
 62
   133
370
     0
100
AcDbLine
 10
0.131714
 20
-1.833517
 30
0.0
 11
0.131714
 21
-2.483517
 31
0.0
  0
POINT
  5
79B5E
330
79F44
100
AcDbEntity
  8
Level 26
 62
   133
370
     0
100
AcDbPoint
 10
0.131714
 20
-1.833517
 30
0.0
  0
POINT
  5
79B5F
330
79F44
100
AcDbEntity
  8
Level 26
 62
   133
370
     0
100
AcDbPoint
 10
0.131714
 20
-2.383517
 30
0.0
  0
POINT
  5
79B60
330
79F44
100
AcDbEntity
  8
Level 26
 62
   133
370
     0
100
AcDbPoint
 10
0.131714
 20
-2.383517
 30
0.0
  0
LINE
  5
79B61
330
79F44
100
AcDbEntity
  8
Level 26
 62
   133
370
     0
100
AcDbLine
 10
0.131714
 20
-2.483517
 30
0.0
 11
0.131714
 21
-2.383517
 31
0.0
  0
LINE
  5
79B62
330
79F44
100
AcDbEntity
  8
Level 26
 62
   133
370
     0
100
AcDbLine
 10
0.131714
 20
-2.483517
 30
0.0
 11
0.131714
 21
-2.383517
 31
0.0
  0
POINT
  5
79B63
330
79F44
100
AcDbEntity
  8
Level 26
 62
   133
370
     0
100
AcDbPoint
 10
0.131714
 20
-1.933517
 30
0.0
  0
LINE
  5
79B64
330
79F44
100
AcDbEntity
  8
Level 26
 62
   133
370
     0
100
AcDbLine
 10
0.131714
 20
-1.933517
 30
0.0
 11
0.131714
 21
-1.833517
 31
0.0
  0
POINT
  5
79B65
330
79F44
100
AcDbEntity
  8
Level 26
 62
   133
370
     0
100
AcDbPoint
 10
0.131714
 20
-1.933517
 30
0.0
  0
LINE
  5
79B66
330
79F44
100
AcDbEntity
  8
Level 26
 62
   133
370
     0
100
AcDbLine
 10
0.131714
 20
-1.933517
 30
0.0
 11
0.131714
 21
-1.833517
 31
0.0
  0
LINE
  5
79B67
330
79F44
100
AcDbEntity
  8
Level 26
 62
   133
370
     0
100
AcDbLine
 10
0.131714
 20
-2.158517
 30
0.0
 11
0.011714
 21
-2.158517
 31
0.0
  0
LINE
  5
79B68
330
79F44
100
AcDbEntity
  8
Level 26
 62
   133
370
     0
100
AcDbLine
 10
0.131714
 20
-2.483517
 30
0.0
 11
0.011714
 21
-2.483517
 31
0.0
  0
LINE
  5
79B69
330
79F44
100
AcDbEntity
  8
Level 26
 62
   133
370
     0
100
AcDbLine
 10
0.131714
 20
-2.158517
 30
0.0
 11
0.011714
 21
-2.158517
 31
0.0
  0
LINE
  5
79B6A
330
79F44
100
AcDbEntity
  8
Level 26
 62
   133
370
     0
100
AcDbLine
 10
0.131714
 20
-1.833517
 30
0.0
 11
0.011714
 21
-1.833517
 31
0.0
  0
ENDBLK
  5
79F46
330
79F44
100
AcDbEntity
  8
0
100
AcDbBlockEnd
  0
BLOCK
  5
79F48
330
79F47
100
AcDbEntity
  8
0
100
AcDbBlockBegin
  2
UNITE_2
 70
     0
 71
     0
 10
0.0
 20
0.0
 30
0.0
  3
UNITE_2
  1

  0
INSERT
  5
79B6C
330
79F47
100
AcDbEntity
  8
Level 26
 62
   133
370
     0
100
AcDbBlockReference
  2
Feature Solid_5
 10
0.0
 20
0.0
 30
0.0
  0
INSERT
  5
79B73
330
79F47
100
AcDbEntity
  8
Level 26
 62
   133
370
     0
100
AcDbBlockReference
  2
Feature Solid_6
 10
0.0
 20
-0.55
 30
0.0
  0
INSERT
  5
79B7A
330
79F47
100
AcDbEntity
  8
Level 8
 62
   133
370
     0
100
AcDbBlockReference
  2
Feature Solid_7
 10
0.0
 20
0.0
 30
0.0
  0
ENDBLK
  5
79F49
330
79F47
100
AcDbEntity
  8
0
100
AcDbBlockEnd
  0
BLOCK
  5
79F4B
330
79F4A
100
AcDbEntity
  8
0
100
AcDbBlockBegin
  2
Feature Solid_5
 70
     0
 71
     0
 10
0.0
 20
0.0
 30
0.0
  3
Feature Solid_5
  1

  0
INSERT
  5
79B6D
330
79F4A
100
AcDbEntity
  8
Level 26
 62
   133
370
     0
100
AcDbBlockReference
  2
DDPROJ_3
 10
0.0
 20
0.0
 30
0.0
  0
ENDBLK
  5
79F4C
330
79F4A
100
AcDbEntity
  8
0
100
AcDbBlockEnd
  0
BLOCK
  5
79F4E
330
79F4D
100
AcDbEntity
  8
0
100
AcDbBlockBegin
  2
DDPROJ_3
 70
     0
 71
     0
 10
0.0
 20
0.0
 30
0.0
  3
DDPROJ_3
  1

  0
POINT
  5
79B6E
330
79F4D
100
AcDbEntity
  8
Level 26
 62
   133
370
     0
100
AcDbPoint
 10
-0.011714
 20
-1.833517
 30
0.0
  0
LINE
  5
79B6F
330
79F4D
100
AcDbEntity
  8
Level 26
 62
   133
370
     0
100
AcDbLine
 10
-0.131714
 20
-1.933517
 30
0.0
 11
-0.359125
 21
-1.933517
 31
0.0
  0
LINE
  5
79B70
330
79F4D
100
AcDbEntity
  8
Level 26
 62
   133
370
     0
100
AcDbLine
 10
-0.131714
 20
-1.833517
 30
0.0
 11
-0.431714
 21
-1.833517
 31
0.0
  0
LINE
  5
79B71
330
79F4D
100
AcDbEntity
  8
Level 26
 62
   133
370
     0
100
AcDbLine
 10
-0.131714
 20
-1.833517
 30
0.0
 11
-0.431714
 21
-1.833517
 31
0.0
  0
LINE
  5
79B72
330
79F4D
100
AcDbEntity
  8
Level 26
 62
   133
370
     0
100
AcDbLine
 10
-0.131714
 20
-1.933517
 30
0.0
 11
-0.359125
 21
-1.933517
 31
0.0
  0
ENDBLK
  5
79F4F
330
79F4D
100
AcDbEntity
  8
0
100
AcDbBlockEnd
  0
BLOCK
  5
79F51
330
79F50
100
AcDbEntity
  8
0
100
AcDbBlockBegin
  2
Feature Solid_6
 70
     0
 71
     0
 10
0.0
 20
0.0
 30
0.0
  3
Feature Solid_6
  1

  0
INSERT
  5
79B74
330
79F50
100
AcDbEntity
  8
Level 26
 62
   133
370
     0
100
AcDbBlockReference
  2
DDPROJ_4
 10
0.0
 20
0.0
 30
0.0
  0
ENDBLK
  5
79F52
330
79F50
100
AcDbEntity
  8
0
100
AcDbBlockEnd
  0
BLOCK
  5
79F54
330
79F53
100
AcDbEntity
  8
0
100
AcDbBlockBegin
  2
DDPROJ_4
 70
     0
 71
     0
 10
0.0
 20
0.0
 30
0.0
  3
DDPROJ_4
  1

  0
POINT
  5
79B75
330
79F53
100
AcDbEntity
  8
Level 26
 62
   133
370
     0
100
AcDbPoint
 10
-0.011714
 20
-1.933517
 30
0.0
  0
LINE
  5
79B76
330
79F53
100
AcDbEntity
  8
Level 26
 62
   133
370
     0
100
AcDbLine
 10
-0.131714
 20
-1.933517
 30
0.0
 11
-0.431714
 21
-1.933517
 31
0.0
  0
LINE
  5
79B77
330
79F53
100
AcDbEntity
  8
Level 26
 62
   133
370
     0
100
AcDbLine
 10
-0.131714
 20
-1.833517
 30
0.0
 11
-0.359125
 21
-1.833517
 31
0.0
  0
LINE
  5
79B78
330
79F53
100
AcDbEntity
  8
Level 26
 62
   133
370
     0
100
AcDbLine
 10
-0.131714
 20
-1.833517
 30
0.0
 11
-0.359125
 21
-1.833517
 31
0.0
  0
LINE
  5
79B79
330
79F53
100
AcDbEntity
  8
Level 26
 62
   133
370
     0
100
AcDbLine
 10
-0.131714
 20
-1.933517
 30
0.0
 11
-0.431714
 21
-1.933517
 31
0.0
  0
ENDBLK
  5
79F55
330
79F53
100
AcDbEntity
  8
0
100
AcDbBlockEnd
  0
BLOCK
  5
79F57
330
79F56
100
AcDbEntity
  8
0
100
AcDbBlockBegin
  2
Feature Solid_7
 70
     0
 71
     0
 10
0.0
 20
0.0
 30
0.0
  3
Feature Solid_7
  1

  0
INSERT
  5
79B7B
330
79F56
100
AcDbEntity
  8
Level 8
 62
   133
370
     0
100
AcDbBlockReference
  2
UNITE_3
 10
0.0
 20
0.0
 30
0.0
  0
ENDBLK
  5
79F58
330
79F56
100
AcDbEntity
  8
0
100
AcDbBlockEnd
  0
BLOCK
  5
79F5A
330
79F59
100
AcDbEntity
  8
0
100
AcDbBlockBegin
  2
UNITE_3
 70
     0
 71
     0
 10
0.0
 20
0.0
 30
0.0
  3
UNITE_3
  1

  0
INSERT
  5
79B7C
330
79F59
100
AcDbEntity
  8
Level 8
 62
   133
370
     0
100
AcDbBlockReference
  2
Feature Solid_8
 10
0.0
 20
0.0
 30
0.0
  0
INSERT
  5
79B92
330
79F59
100
AcDbEntity
  8
Level 26
 62
   133
370
     0
100
AcDbBlockReference
  2
Feature Solid_9
 10
0.0
 20
0.0
 30
0.0
  0
ENDBLK
  5
79F5B
330
79F59
100
AcDbEntity
  8
0
100
AcDbBlockEnd
  0
BLOCK
  5
79F5D
330
79F5C
100
AcDbEntity
  8
0
100
AcDbBlockBegin
  2
Feature Solid_8
 70
     0
 71
     0
 10
0.0
 20
0.0
 30
0.0
  3
Feature Solid_8
  1

  0
INSERT
  5
79B7D
330
79F5C
100
AcDbEntity
  8
Level 8
 62
   133
370
     0
100
AcDbBlockReference
  2
CONE_1
 10
0.0
 20
0.0
 30
0.0
  0
ENDBLK
  5
79F5E
330
79F5C
100
AcDbEntity
  8
0
100
AcDbBlockEnd
  0
BLOCK
  5
79F60
330
79F5F
100
AcDbEntity
  8
0
100
AcDbBlockBegin
  2
CONE_1
 70
     0
 71
     0
 10
0.0
 20
0.0
 30
0.0
  3
CONE_1
  1

  0
LINE
  5
79B7E
330
79F5F
100
AcDbEntity
  8
Level 8
 62
   133
370
     0
100
AcDbLine
 10
-0.431714
 20
-1.833517
 30
0.0
 11
-0.431714
 21
-2.483517
 31
0.0
  0
LINE
  5
79B7F
330
79F5F
100
AcDbEntity
  8
Level 8
 62
   133
370
     0
100
AcDbLine
 10
-0.131714
 20
-2.383517
 30
0.0
 11
-0.359125
 21
-2.383517
 31
0.0
  0
LINE
  5
79B80
330
79F5F
100
AcDbEntity
  8
Level 8
 62
   133
370
     0
100
AcDbLine
 10
-0.131714
 20
-2.383517
 30
0.0
 11
-0.359125
 21
-2.383517
 31
0.0
  0
SPLINE
  5
79B81
330
79F5F
100
AcDbEntity
  8
Level 8
 62
   133
370
     0
100
AcDbSpline
210
0.0
220
0.0
230
1.0
 70
     8
 71
     3
 72
    17
 73
    13
 74
     0
 42
0.0000000001
 43
0.00000001
 40
0.0
 40
0.0
 40
0.0
 40
0.0
 40
0.1188920175173181
 40
0.1188920175173181
 40
0.1188920175173181
 40
0.4370642450454728
 40
0.4370642450454728
 40
0.4370642450454728
 40
0.7708126268407274
 40
0.7708126268407274
 40
0.7708126268407274
 40
1.0
 40
1.0
 40
1.0
 40
1.0
 10
-0.4317136962460495
 20
-2.483517035676399
 30
0.0
 10
-0.4317136962460353
 20
-2.483517035676399
 30
0.0
 10
-0.4312857853703775
 20
-2.482970961108962
 30
0.0
 10
-0.4304413967249445
 20
-2.481890266834162
 30
0.0
 10
-0.4281893687172342
 20
-2.479007999541993
 30
0.0
 10
-0.4228496497948271
 20
-2.472181370284083
 30
0.0
 10
-0.4152805637156831
 20
-2.462245290317638
 30
0.0
 10
-0.407328803424555
 20
-2.451806866801185
 30
0.0
 10
-0.3967863239604625
 20
-2.437764099143893
 30
0.0
 10
-0.3850241073261103
 20
-2.42127018794613
 30
0.0
 10
-0.3768999155639108
 20
-2.409877803190351
 30
0.0
 10
-0.3681165556180233
 20
-2.397205829360038
 30
0.0
 10
-0.3591253483963612
 20
-2.383517035681363
 30
0.0
  0
SPLINE
  5
79B84
330
79F5F
100
AcDbEntity
  8
Level 8
 62
   133
370
     0
100
AcDbSpline
210
0.0
220
0.0
230
1.0
 70
     8
 71
     3
 72
    14
 73
    10
 74
     0
 42
0.0000000001
 43
0.00000001
 40
0.0
 40
0.0
 40
0.0
 40
0.0
 40
0.4155111778321488
 40
0.4155111778321488
 40
0.4155111778321488
 40
0.7657511632294429
 40
0.7657511632294429
 40
0.7657511632294429
 40
1.0
 40
1.0
 40
1.0
 40
1.0
 10
-0.3591253483958568
 20
-2.38351703567638
 30
0.0
 10
-0.3753273199526888
 20
-2.408183961970713
 30
0.0
 10
-0.3909352251375111
 20
-2.429723842876861
 30
0.0
 10
-0.4032945372283692
 20
-2.446330563598322
 30
0.0
 10
-0.4137190532494088
 20
-2.460337575068316
 30
0.0
 10
-0.4220439846594104
 20
-2.471094914404414
 30
0.0
 10
-0.4268312321213301
 20
-2.477256738635805
 30
0.0
 10
-0.4300308856968016
 20
-2.481375118370782
 30
0.0
 10
-0.4317136962460495
 20
-2.483517035676399
 30
0.0
 10
-0.4317136962460495
 20
-2.483517035676399
 30
0.0
  0
LINE
  5
79B87
330
79F5F
100
AcDbEntity
  8
Level 8
 62
   133
370
     0
100
AcDbLine
 10
-0.431714
 20
-1.833517
 30
0.0
 11
-0.431714
 21
-2.483517
 31
0.0
  0
SPLINE
  5
79B88
330
79F5F
100
AcDbEntity
  8
Level 8
 62
   133
370
     0
100
AcDbSpline
210
0.0
220
0.0
230
1.0
 70
     8
 71
     3
 72
    17
 73
    13
 74
     0
 42
0.0000000001
 43
0.00000001
 40
0.0
 40
0.0
 40
0.0
 40
0.0
 40
0.1188920175167992
 40
0.1188920175167992
 40
0.1188920175167992
 40
0.4370642450447248
 40
0.4370642450447248
 40
0.4370642450447248
 40
0.7708126268396294
 40
0.7708126268396294
 40
0.7708126268396294
 40
1.0
 40
1.0
 40
1.0
 40
1.0
 10
-0.4317136962460353
 20
-1.83351703567625
 30
0.0
 10
-0.4317136962460353
 20
-1.83351703567625
 30
0.0
 10
-0.4312857853703846
 20
-1.834063110243678
 30
0.0
 10
-0.4304413967249587
 20
-1.835143804518469
 30
0.0
 10
-0.4281893687172627
 20
-1.838026071810629
 30
0.0
 10
-0.4228496497948839
 20
-1.84485270106853
 30
0.0
 10
-0.4152805637157471
 20
-1.854788781034974
 30
0.0
 10
-0.4073288034246332
 20
-1.865227204551417
 30
0.0
 10
-0.3967863239605549
 20
-1.879269972208701
 30
0.0
 10
-0.3850241073262168
 20
-1.895763883406454
 30
0.0
 10
-0.3768999155639889
 20
-1.907156268162289
 30
0.0
 10
-0.3681165556180517
 20
-1.919828241992676
 30
0.0
 10
-0.3591253483963328
 20
-1.933517035671435
 30
0.0
  0
LINE
  5
79B8B
330
79F5F
100
AcDbEntity
  8
Level 8
 62
   133
370
     0
100
AcDbLine
 10
-0.131714
 20
-1.933517
 30
0.0
 11
-0.359125
 21
-1.933517
 31
0.0
  0
LINE
  5
79B8C
330
79F5F
100
AcDbEntity
  8
Level 8
 62
   133
370
     0
100
AcDbLine
 10
-0.131714
 20
-1.933517
 30
0.0
 11
-0.359125
 21
-1.933517
 31
0.0
  0
SPLINE
  5
79B8D
330
79F5F
100
AcDbEntity
  8
Level 8
 62
   133
370
     0
100
AcDbSpline
210
0.0
220
0.0
230
1.0
 70
     8
 71
     3
 72
    14
 73
    10
 74
     0
 42
0.0000000001
 43
0.00000001
 40
0.0
 40
0.0
 40
0.0
 40
0.0
 40
0.4155111778320348
 40
0.4155111778320348
 40
0.4155111778320348
 40
0.7657511632291136
 40
0.7657511632291136
 40
0.7657511632291136
 40
1.0
 40
1.0
 40
1.0
 40
1.0
 10
-0.359125348395672
 20
-1.933517035676418
 30
0.0
 10
-0.3753273199525182
 20
-1.908850109382067
 30
0.0
 10
-0.3909352251373832
 20
-1.887310228475882
 30
0.0
 10
-0.4032945372282555
 20
-1.870703507754402
 30
0.0
 10
-0.4137190532493165
 20
-1.85669649628439
 30
0.0
 10
-0.4220439846593322
 20
-1.845939156948282
 30
0.0
 10
-0.4268312321212733
 20
-1.839777332716864
 30
0.0
 10
-0.4300308856967874
 20
-1.835658952981876
 30
0.0
 10
-0.4317136962460353
 20
-1.83351703567625
 30
0.0
 10
-0.4317136962460353
 20
-1.83351703567625
 30
0.0
  0
LINE
  5
79B90
330
79F5F
100
AcDbEntity
  8
Level 8
 62
   133
370
     0
100
AcDbLine
 10
-0.131714
 20
-2.158517
 30
0.0
 11
-0.431714
 21
-2.158517
 31
0.0
  0
LINE
  5
79B91
330
79F5F
100
AcDbEntity
  8
Level 8
 62
   133
370
     0
100
AcDbLine
 10
-0.131714
 20
-2.158517
 30
0.0
 11
-0.431714
 21
-2.158517
 31
0.0
  0
ENDBLK
  5
79F61
330
79F5F
100
AcDbEntity
  8
0
100
AcDbBlockEnd
  0
BLOCK
  5
79F63
330
79F62
100
AcDbEntity
  8
0
100
AcDbBlockBegin
  2
Feature Solid_9
 70
     0
 71
     0
 10
0.0
 20
0.0
 30
0.0
  3
Feature Solid_9
  1

  0
INSERT
  5
79B93
330
79F62
100
AcDbEntity
  8
Level 26
 62
   133
370
     0
100
AcDbBlockReference
  2
DDPROJ_5
 10
0.0
 20
0.0
 30
0.0
  0
ENDBLK
  5
79F64
330
79F62
100
AcDbEntity
  8
0
100
AcDbBlockEnd
  0
BLOCK
  5
79F66
330
79F65
100
AcDbEntity
  8
0
100
AcDbBlockBegin
  2
DDPROJ_5
 70
     0
 71
     0
 10
0.0
 20
0.0
 30
0.0
  3
DDPROJ_5
  1

  0
LINE
  5
79B94
330
79F65
100
AcDbEntity
  8
Level 26
 62
   133
370
     0
100
AcDbLine
 10
-0.011714
 20
-1.833517
 30
0.0
 11
-0.131714
 21
-1.833517
 31
0.0
  0
LINE
  5
79B95
330
79F65
100
AcDbEntity
  8
Level 26
 62
   133
370
     0
100
AcDbLine
 10
-0.131714
 20
-1.833517
 30
0.0
 11
-0.011714
 21
-1.833517
 31
0.0
  0
LINE
  5
79B96
330
79F65
100
AcDbEntity
  8
Level 26
 62
   133
370
     0
100
AcDbLine
 10
-0.011714
 20
-2.483517
 30
0.0
 11
-0.131714
 21
-2.483517
 31
0.0
  0
LINE
  5
79B97
330
79F65
100
AcDbEntity
  8
Level 26
 62
   133
370
     0
100
AcDbLine
 10
-0.131714
 20
-2.483517
 30
0.0
 11
-0.011714
 21
-2.483517
 31
0.0
  0
LINE
  5
79B98
330
79F65
100
AcDbEntity
  8
Level 26
 62
   133
370
     0
100
AcDbLine
 10
-0.131714
 20
-1.933517
 30
0.0
 11
-0.131714
 21
-2.383517
 31
0.0
  0
LINE
  5
79B99
330
79F65
100
AcDbEntity
  8
Level 26
 62
   133
370
     0
100
AcDbLine
 10
-0.131714
 20
-1.933517
 30
0.0
 11
-0.131714
 21
-2.383517
 31
0.0
  0
LINE
  5
79B9A
330
79F65
100
AcDbEntity
  8
Level 26
 62
   133
370
     0
100
AcDbLine
 10
-0.011714
 20
-1.833517
 30
0.0
 11
-0.011714
 21
-2.483517
 31
0.0
  0
POINT
  5
79B9B
330
79F65
100
AcDbEntity
  8
Level 26
 62
   133
370
     0
100
AcDbPoint
 10
-0.131714
 20
-2.483517
 30
0.0
  0
LINE
  5
79B9C
330
79F65
100
AcDbEntity
  8
Level 26
 62
   133
370
     0
100
AcDbLine
 10
-0.011714
 20
-1.833517
 30
0.0
 11
-0.011714
 21
-2.483517
 31
0.0
  0
LINE
  5
79B9D
330
79F65
100
AcDbEntity
  8
Level 26
 62
   133
370
     0
100
AcDbLine
 10
-0.131714
 20
-1.833517
 30
0.0
 11
-0.131714
 21
-2.483517
 31
0.0
  0
POINT
  5
79B9E
330
79F65
100
AcDbEntity
  8
Level 26
 62
   133
370
     0
100
AcDbPoint
 10
-0.131714
 20
-1.833517
 30
0.0
  0
POINT
  5
79B9F
330
79F65
100
AcDbEntity
  8
Level 26
 62
   133
370
     0
100
AcDbPoint
 10
-0.131714
 20
-2.483517
 30
0.0
  0
LINE
  5
79BA0
330
79F65
100
AcDbEntity
  8
Level 26
 62
   133
370
     0
100
AcDbLine
 10
-0.131714
 20
-1.833517
 30
0.0
 11
-0.131714
 21
-2.483517
 31
0.0
  0
POINT
  5
79BA1
330
79F65
100
AcDbEntity
  8
Level 26
 62
   133
370
     0
100
AcDbPoint
 10
-0.131714
 20
-1.833517
 30
0.0
  0
POINT
  5
79BA2
330
79F65
100
AcDbEntity
  8
Level 26
 62
   133
370
     0
100
AcDbPoint
 10
-0.131714
 20
-2.383517
 30
0.0
  0
POINT
  5
79BA3
330
79F65
100
AcDbEntity
  8
Level 26
 62
   133
370
     0
100
AcDbPoint
 10
-0.131714
 20
-2.383517
 30
0.0
  0
LINE
  5
79BA4
330
79F65
100
AcDbEntity
  8
Level 26
 62
   133
370
     0
100
AcDbLine
 10
-0.131714
 20
-2.483517
 30
0.0
 11
-0.131714
 21
-2.383517
 31
0.0
  0
LINE
  5
79BA5
330
79F65
100
AcDbEntity
  8
Level 26
 62
   133
370
     0
100
AcDbLine
 10
-0.131714
 20
-2.483517
 30
0.0
 11
-0.131714
 21
-2.383517
 31
0.0
  0
POINT
  5
79BA6
330
79F65
100
AcDbEntity
  8
Level 26
 62
   133
370
     0
100
AcDbPoint
 10
-0.131714
 20
-1.933517
 30
0.0
  0
LINE
  5
79BA7
330
79F65
100
AcDbEntity
  8
Level 26
 62
   133
370
     0
100
AcDbLine
 10
-0.131714
 20
-1.933517
 30
0.0
 11
-0.131714
 21
-1.833517
 31
0.0
  0
POINT
  5
79BA8
330
79F65
100
AcDbEntity
  8
Level 26
 62
   133
370
     0
100
AcDbPoint
 10
-0.131714
 20
-1.933517
 30
0.0
  0
LINE
  5
79BA9
330
79F65
100
AcDbEntity
  8
Level 26
 62
   133
370
     0
100
AcDbLine
 10
-0.131714
 20
-1.933517
 30
0.0
 11
-0.131714
 21
-1.833517
 31
0.0
  0
LINE
  5
79BAA
330
79F65
100
AcDbEntity
  8
Level 26
 62
   133
370
     0
100
AcDbLine
 10
-0.131714
 20
-2.158517
 30
0.0
 11
-0.011714
 21
-2.158517
 31
0.0
  0
LINE
  5
79BAB
330
79F65
100
AcDbEntity
  8
Level 26
 62
   133
370
     0
100
AcDbLine
 10
-0.131714
 20
-2.483517
 30
0.0
 11
-0.011714
 21
-2.483517
 31
0.0
  0
LINE
  5
79BAC
330
79F65
100
AcDbEntity
  8
Level 26
 62
   133
370
     0
100
AcDbLine
 10
-0.131714
 20
-2.158517
 30
0.0
 11
-0.011714
 21
-2.158517
 31
0.0
  0
LINE
  5
79BAD
330
79F65
100
AcDbEntity
  8
Level 26
 62
   133
370
     0
100
AcDbLine
 10
-0.131714
 20
-1.833517
 30
0.0
 11
-0.011714
 21
-1.833517
 31
0.0
  0
ENDBLK
  5
79F67
330
79F65
100
AcDbEntity
  8
0
100
AcDbBlockEnd
  0
BLOCK
  5
79F69
330
79F68
100
AcDbEntity
  8
0
100
AcDbBlockBegin
  2
From Solid
 70
     0
 71
     0
 10
0.0
 20
0.0
 30
0.0
  3
From Solid
  1

  0
LINE
  5
79BBF
330
79F68
100
AcDbEntity
  8
Level 27
  6
Continuous
 62
    12
370
    13
100
AcDbLine
 10
3236.249439
 20
222.276387
 30
0.0
 11
3236.249439
 21
188.276387
 31
0.0
  0
LINE
  5
79BC0
330
79F68
100
AcDbEntity
  8
Level 27
  6
Continuous
 62
    12
370
    13
100
AcDbLine
 10
4884.249439
 20
222.276387
 30
0.0
 11
4884.249439
 21
188.276387
 31
0.0
  0
LINE
  5
79BC1
330
79F68
100
AcDbEntity
  8
Level 27
  6
Continuous
 62
    12
370
    13
100
AcDbLine
 10
3236.249439
 20
222.276387
 30
0.0
 11
4884.249439
 21
222.276387
 31
0.0
  0
LINE
  5
79BC2
330
79F68
100
AcDbEntity
  8
Level 27
  6
Continuous
 62
    12
370
    13
100
AcDbLine
 10
3236.249439
 20
205.276387
 30
0.0
 11
4884.249439
 21
205.276387
 31
0.0
  0
LINE
  5
79BC3
330
79F68
100
AcDbEntity
  8
Level 27
  6
Continuous
 62
    12
370
    13
100
AcDbLine
 10
3236.249439
 20
188.276387
 30
0.0
 11
4884.249439
 21
188.276387
 31
0.0
  0
LINE
  5
79BC4
330
79F68
100
AcDbEntity
  8
Level 27
  6
Continuous
 62
    12
370
    13
100
AcDbLine
 10
3236.249439
 20
205.276387
 30
0.0
 11
4884.249439
 21
205.276387
 31
0.0
  0
ENDBLK
  5
79F6A
330
79F68
100
AcDbEntity
  8
0
100
AcDbBlockEnd
  0
BLOCK
  5
79F6C
330
79F6B
100
AcDbEntity
  8
0
100
AcDbBlockBegin
  2
From Solid_1
 70
     0
 71
     0
 10
0.0
 20
0.0
 30
0.0
  3
From Solid_1
  1

  0
LINE
  5
79BC6
330
79F6B
100
AcDbEntity
  8
Level 27
  6
Continuous
 62
    12
370
    13
100
AcDbLine
 10
3236.249439
 20
222.276387
 30
0.0
 11
3236.249439
 21
188.276387
 31
0.0
  0
LINE
  5
79BC7
330
79F6B
100
AcDbEntity
  8
Level 27
  6
Continuous
 62
    12
370
    13
100
AcDbLine
 10
4884.249439
 20
222.276387
 30
0.0
 11
4884.249439
 21
188.276387
 31
0.0
  0
LINE
  5
79BC8
330
79F6B
100
AcDbEntity
  8
Level 27
  6
Continuous
 62
    12
370
    13
100
AcDbLine
 10
3236.249439
 20
222.276387
 30
0.0
 11
4884.249439
 21
222.276387
 31
0.0
  0
LINE
  5
79BC9
330
79F6B
100
AcDbEntity
  8
Level 27
  6
Continuous
 62
    12
370
    13
100
AcDbLine
 10
3236.249439
 20
205.276387
 30
0.0
 11
4884.249439
 21
205.276387
 31
0.0
  0
LINE
  5
79BCA
330
79F6B
100
AcDbEntity
  8
Level 27
  6
Continuous
 62
    12
370
    13
100
AcDbLine
 10
3236.249439
 20
188.276387
 30
0.0
 11
4884.249439
 21
188.276387
 31
0.0
  0
LINE
  5
79BCB
330
79F6B
100
AcDbEntity
  8
Level 27
  6
Continuous
 62
    12
370
    13
100
AcDbLine
 10
3236.249439
 20
205.276387
 30
0.0
 11
4884.249439
 21
205.276387
 31
0.0
  0
ENDBLK
  5
79F6D
330
79F6B
100
AcDbEntity
  8
0
100
AcDbBlockEnd
  0
BLOCK
  5
79F6F
330
79F6E
100
AcDbEntity
  8
0
100
AcDbBlockBegin
  2
From Solid_2
 70
     0
 71
     0
 10
0.0
 20
0.0
 30
0.0
  3
From Solid_2
  1

  0
LINE
  5
79BCD
330
79F6E
100
AcDbEntity
  8
Level 27
  6
Continuous
 62
    12
370
    13
100
AcDbLine
 10
3236.249439
 20
222.276387
 30
0.0
 11
3236.249439
 21
188.276387
 31
0.0
  0
LINE
  5
79BCE
330
79F6E
100
AcDbEntity
  8
Level 27
  6
Continuous
 62
    12
370
    13
100
AcDbLine
 10
4884.249439
 20
222.276387
 30
0.0
 11
4884.249439
 21
188.276387
 31
0.0
  0
LINE
  5
79BCF
330
79F6E
100
AcDbEntity
  8
Level 27
  6
Continuous
 62
    12
370
    13
100
AcDbLine
 10
3236.249439
 20
222.276387
 30
0.0
 11
4884.249439
 21
222.276387
 31
0.0
  0
LINE
  5
79BD0
330
79F6E
100
AcDbEntity
  8
Level 27
  6
Continuous
 62
    12
370
    13
100
AcDbLine
 10
3236.249439
 20
205.276387
 30
0.0
 11
4884.249439
 21
205.276387
 31
0.0
  0
LINE
  5
79BD1
330
79F6E
100
AcDbEntity
  8
Level 27
  6
Continuous
 62
    12
370
    13
100
AcDbLine
 10
3236.249439
 20
188.276387
 30
0.0
 11
4884.249439
 21
188.276387
 31
0.0
  0
LINE
  5
79BD2
330
79F6E
100
AcDbEntity
  8
Level 27
  6
Continuous
 62
    12
370
    13
100
AcDbLine
 10
3236.249439
 20
205.276387
 30
0.0
 11
4884.249439
 21
205.276387
 31
0.0
  0
ENDBLK
  5
79F70
330
79F6E
100
AcDbEntity
  8
0
100
AcDbBlockEnd
  0
BLOCK
  5
79F72
330
79F71
100
AcDbEntity
  8
0
100
AcDbBlockBegin
  2
From Solid_3
 70
     0
 71
     0
 10
0.0
 20
0.0
 30
0.0
  3
From Solid_3
  1

  0
LINE
  5
79BD4
330
79F71
100
AcDbEntity
  8
Level 27
  6
Continuous
 62
    12
370
    13
100
AcDbLine
 10
3236.249439
 20
222.276387
 30
0.0
 11
3236.249439
 21
188.276387
 31
0.0
  0
LINE
  5
79BD5
330
79F71
100
AcDbEntity
  8
Level 27
  6
Continuous
 62
    12
370
    13
100
AcDbLine
 10
4884.249439
 20
222.276387
 30
0.0
 11
4884.249439
 21
188.276387
 31
0.0
  0
LINE
  5
79BD6
330
79F71
100
AcDbEntity
  8
Level 27
  6
Continuous
 62
    12
370
    13
100
AcDbLine
 10
3236.249439
 20
222.276387
 30
0.0
 11
4884.249439
 21
222.276387
 31
0.0
  0
LINE
  5
79BD7
330
79F71
100
AcDbEntity
  8
Level 27
  6
Continuous
 62
    12
370
    13
100
AcDbLine
 10
3236.249439
 20
205.276387
 30
0.0
 11
4884.249439
 21
205.276387
 31
0.0
  0
LINE
  5
79BD8
330
79F71
100
AcDbEntity
  8
Level 27
  6
Continuous
 62
    12
370
    13
100
AcDbLine
 10
3236.249439
 20
188.276387
 30
0.0
 11
4884.249439
 21
188.276387
 31
0.0
  0
LINE
  5
79BD9
330
79F71
100
AcDbEntity
  8
Level 27
  6
Continuous
 62
    12
370
    13
100
AcDbLine
 10
3236.249439
 20
205.276387
 30
0.0
 11
4884.249439
 21
205.276387
 31
0.0
  0
ENDBLK
  5
79F73
330
79F71
100
AcDbEntity
  8
0
100
AcDbBlockEnd
  0
BLOCK
  5
79F75
330
79F74
100
AcDbEntity
  8
0
100
AcDbBlockBegin
  2
From Solid_4
 70
     0
 71
     0
 10
0.0
 20
0.0
 30
0.0
  3
From Solid_4
  1

  0
LINE
  5
79BDB
330
79F74
100
AcDbEntity
  8
Level 27
  6
Continuous
 62
    12
370
    13
100
AcDbLine
 10
3236.249439
 20
222.276387
 30
0.0
 11
3236.249439
 21
188.276387
 31
0.0
  0
LINE
  5
79BDC
330
79F74
100
AcDbEntity
  8
Level 27
  6
Continuous
 62
    12
370
    13
100
AcDbLine
 10
4884.249439
 20
222.276387
 30
0.0
 11
4884.249439
 21
188.276387
 31
0.0
  0
LINE
  5
79BDD
330
79F74
100
AcDbEntity
  8
Level 27
  6
Continuous
 62
    12
370
    13
100
AcDbLine
 10
3236.249439
 20
222.276387
 30
0.0
 11
4884.249439
 21
222.276387
 31
0.0
  0
LINE
  5
79BDE
330
79F74
100
AcDbEntity
  8
Level 27
  6
Continuous
 62
    12
370
    13
100
AcDbLine
 10
3236.249439
 20
205.276387
 30
0.0
 11
4884.249439
 21
205.276387
 31
0.0
  0
LINE
  5
79BDF
330
79F74
100
AcDbEntity
  8
Level 27
  6
Continuous
 62
    12
370
    13
100
AcDbLine
 10
3236.249439
 20
188.276387
 30
0.0
 11
4884.249439
 21
188.276387
 31
0.0
  0
LINE
  5
79BE0
330
79F74
100
AcDbEntity
  8
Level 27
  6
Continuous
 62
    12
370
    13
100
AcDbLine
 10
3236.249439
 20
205.276387
 30
0.0
 11
4884.249439
 21
205.276387
 31
0.0
  0
ENDBLK
  5
79F76
330
79F74
100
AcDbEntity
  8
0
100
AcDbBlockEnd
  0
BLOCK
  5
79F78
330
79F77
100
AcDbEntity
  8
0
100
AcDbBlockBegin
  2
From Solid_5
 70
     0
 71
     0
 10
0.0
 20
0.0
 30
0.0
  3
From Solid_5
  1

  0
LINE
  5
79BE2
330
79F77
100
AcDbEntity
  8
Level 27
  6
Continuous
 62
    12
370
    13
100
AcDbLine
 10
3236.249439
 20
222.276387
 30
0.0
 11
3236.249439
 21
188.276387
 31
0.0
  0
LINE
  5
79BE3
330
79F77
100
AcDbEntity
  8
Level 27
  6
Continuous
 62
    12
370
    13
100
AcDbLine
 10
4884.249439
 20
222.276387
 30
0.0
 11
4884.249439
 21
188.276387
 31
0.0
  0
LINE
  5
79BE4
330
79F77
100
AcDbEntity
  8
Level 27
  6
Continuous
 62
    12
370
    13
100
AcDbLine
 10
3236.249439
 20
222.276387
 30
0.0
 11
4884.249439
 21
222.276387
 31
0.0
  0
LINE
  5
79BE5
330
79F77
100
AcDbEntity
  8
Level 27
  6
Continuous
 62
    12
370
    13
100
AcDbLine
 10
3236.249439
 20
205.276387
 30
0.0
 11
4884.249439
 21
205.276387
 31
0.0
  0
LINE
  5
79BE6
330
79F77
100
AcDbEntity
  8
Level 27
  6
Continuous
 62
    12
370
    13
100
AcDbLine
 10
3236.249439
 20
188.276387
 30
0.0
 11
4884.249439
 21
188.276387
 31
0.0
  0
LINE
  5
79BE7
330
79F77
100
AcDbEntity
  8
Level 27
  6
Continuous
 62
    12
370
    13
100
AcDbLine
 10
3236.249439
 20
205.276387
 30
0.0
 11
4884.249439
 21
205.276387
 31
0.0
  0
ENDBLK
  5
79F79
330
79F77
100
AcDbEntity
  8
0
100
AcDbBlockEnd
  0
BLOCK
  5
79F7B
330
79F7A
100
AcDbEntity
  8
0
100
AcDbBlockBegin
  2
From Solid_6
 70
     0
 71
     0
 10
0.0
 20
0.0
 30
0.0
  3
From Solid_6
  1

  0
CIRCLE
  5
79BE9
330
79F7A
100
AcDbEntity
  8
Level 27
  6
Continuous
 62
    12
370
    13
100
AcDbCircle
 10
3811.249439
 20
205.276387
 30
0.0
 40
17.00000000000001
  0
CIRCLE
  5
79BEA
330
79F7A
100
AcDbEntity
  8
Level 27
  6
Continuous
 62
    12
370
    13
100
AcDbCircle
 10
3811.249439
 20
205.276387
 30
0.0
 40
17.00000000000001
  0
POINT
  5
79BEB
330
79F7A
100
AcDbEntity
  8
Level 27
  6
Continuous
 62
    12
370
    13
100
AcDbPoint
 10
3811.249439
 20
222.276387
 30
0.0
  0
POINT
  5
79BEC
330
79F7A
100
AcDbEntity
  8
Level 27
  6
Continuous
 62
    12
370
    13
100
AcDbPoint
 10
3828.249439
 20
205.276387
 30
0.0
  0
POINT
  5
79BED
330
79F7A
100
AcDbEntity
  8
Level 27
  6
Continuous
 62
    12
370
    13
100
AcDbPoint
 10
3811.249439
 20
188.276387
 30
0.0
  0
POINT
  5
79BEE
330
79F7A
100
AcDbEntity
  8
Level 27
  6
Continuous
 62
    12
370
    13
100
AcDbPoint
 10
3794.249439
 20
205.276387
 30
0.0
  0
ENDBLK
  5
79F7C
330
79F7A
100
AcDbEntity
  8
0
100
AcDbBlockEnd
  0
BLOCK
  5
79F7E
330
79F7D
100
AcDbEntity
  8
0
100
AcDbBlockBegin
  2
From Solid_7
 70
     0
 71
     0
 10
0.0
 20
0.0
 30
0.0
  3
From Solid_7
  1

  0
CIRCLE
  5
79BF0
330
79F7D
100
AcDbEntity
  8
Level 27
  6
Continuous
 62
    12
370
    13
100
AcDbCircle
 10
3361.249439
 20
205.276387
 30
0.0
 40
17.00000000000001
  0
CIRCLE
  5
79BF1
330
79F7D
100
AcDbEntity
  8
Level 27
  6
Continuous
 62
    12
370
    13
100
AcDbCircle
 10
3361.249439
 20
205.276387
 30
0.0
 40
17.00000000000001
  0
POINT
  5
79BF2
330
79F7D
100
AcDbEntity
  8
Level 27
  6
Continuous
 62
    12
370
    13
100
AcDbPoint
 10
3361.249439
 20
188.276387
 30
0.0
  0
POINT
  5
79BF3
330
79F7D
100
AcDbEntity
  8
Level 27
  6
Continuous
 62
    12
370
    13
100
AcDbPoint
 10
3378.249439
 20
205.276387
 30
0.0
  0
POINT
  5
79BF4
330
79F7D
100
AcDbEntity
  8
Level 27
  6
Continuous
 62
    12
370
    13
100
AcDbPoint
 10
3361.249439
 20
222.276387
 30
0.0
  0
POINT
  5
79BF5
330
79F7D
100
AcDbEntity
  8
Level 27
  6
Continuous
 62
    12
370
    13
100
AcDbPoint
 10
3344.249439
 20
205.276387
 30
0.0
  0
ENDBLK
  5
79F7F
330
79F7D
100
AcDbEntity
  8
0
100
AcDbBlockEnd
  0
BLOCK
  5
79F81
330
79F80
100
AcDbEntity
  8
0
100
AcDbBlockBegin
  2
From Solid_8
 70
     0
 71
     0
 10
0.0
 20
0.0
 30
0.0
  3
From Solid_8
  1

  0
LINE
  5
79BF7
330
79F80
100
AcDbEntity
  8
Level 27
  6
Continuous
 62
    12
370
    13
100
AcDbLine
 10
3771.249439
 20
222.276387
 30
0.0
 11
3771.249439
 21
188.276387
 31
0.0
  0
LINE
  5
79BF8
330
79F80
100
AcDbEntity
  8
Level 27
  6
Continuous
 62
    12
370
    13
100
AcDbLine
 10
3401.249439
 20
222.276387
 30
0.0
 11
3401.249439
 21
188.276387
 31
0.0
  0
LINE
  5
79BF9
330
79F80
100
AcDbEntity
  8
Level 27
  6
Continuous
 62
    12
370
    13
100
AcDbLine
 10
3771.249439
 20
222.276387
 30
0.0
 11
3401.249439
 21
222.276387
 31
0.0
  0
LINE
  5
79BFA
330
79F80
100
AcDbEntity
  8
Level 27
  6
Continuous
 62
    12
370
    13
100
AcDbLine
 10
3771.249439
 20
205.276387
 30
0.0
 11
3401.249439
 21
205.276387
 31
0.0
  0
LINE
  5
79BFB
330
79F80
100
AcDbEntity
  8
Level 27
  6
Continuous
 62
    12
370
    13
100
AcDbLine
 10
3771.249439
 20
188.276387
 30
0.0
 11
3401.249439
 21
188.276387
 31
0.0
  0
LINE
  5
79BFC
330
79F80
100
AcDbEntity
  8
Level 27
  6
Continuous
 62
    12
370
    13
100
AcDbLine
 10
3771.249439
 20
205.276387
 30
0.0
 11
3401.249439
 21
205.276387
 31
0.0
  0
ENDBLK
  5
79F82
330
79F80
100
AcDbEntity
  8
0
100
AcDbBlockEnd
  0
BLOCK
  5
79F84
330
79F83
100
AcDbEntity
  8
0
100
AcDbBlockBegin
  2
From Solid_9
 70
     0
 71
     0
 10
0.0
 20
0.0
 30
0.0
  3
From Solid_9
  1

  0
LINE
  5
79BFE
330
79F83
100
AcDbEntity
  8
Level 27
  6
Continuous
 62
    12
370
    13
100
AcDbLine
 10
3771.249439
 20
222.276387
 30
0.0
 11
3771.249439
 21
188.276387
 31
0.0
  0
CIRCLE
  5
79BFF
330
79F83
100
AcDbEntity
  8
Level 27
  6
Continuous
 62
    12
370
    13
100
AcDbCircle
 10
3811.249439
 20
205.276387
 30
0.0
 40
17.00000000000001
  0
LINE
  5
79C00
330
79F83
100
AcDbEntity
  8
Level 27
  6
Continuous
 62
    12
370
    13
100
AcDbLine
 10
3771.249439
 20
222.276387
 30
0.0
 11
3811.249439
 21
222.276387
 31
0.0
  0
LINE
  5
79C01
330
79F83
100
AcDbEntity
  8
Level 27
  6
Continuous
 62
    12
370
    13
100
AcDbLine
 10
3771.249439
 20
205.276387
 30
0.0
 11
3828.249439
 21
205.276387
 31
0.0
  0
LINE
  5
79C02
330
79F83
100
AcDbEntity
  8
Level 27
  6
Continuous
 62
    12
370
    13
100
AcDbLine
 10
3771.249439
 20
188.276387
 30
0.0
 11
3811.249439
 21
188.276387
 31
0.0
  0
LINE
  5
79C03
330
79F83
100
AcDbEntity
  8
Level 27
  6
Continuous
 62
    12
370
    13
100
AcDbLine
 10
3771.249439
 20
205.276387
 30
0.0
 11
3794.249439
 21
205.276387
 31
0.0
  0
ENDBLK
  5
79F85
330
79F83
100
AcDbEntity
  8
0
100
AcDbBlockEnd
  0
BLOCK
  5
79F87
330
79F86
100
AcDbEntity
  8
0
100
AcDbBlockBegin
  2
From Solid_10
 70
     0
 71
     0
 10
0.0
 20
0.0
 30
0.0
  3
From Solid_10
  1

  0
CIRCLE
  5
79C05
330
79F86
100
AcDbEntity
  8
Level 27
  6
Continuous
 62
    12
370
    13
100
AcDbCircle
 10
3361.249439
 20
205.276387
 30
0.0
 40
17.00000000000001
  0
LINE
  5
79C06
330
79F86
100
AcDbEntity
  8
Level 27
  6
Continuous
 62
    12
370
    13
100
AcDbLine
 10
3401.249439
 20
222.276387
 30
0.0
 11
3401.249439
 21
188.276387
 31
0.0
  0
LINE
  5
79C07
330
79F86
100
AcDbEntity
  8
Level 27
  6
Continuous
 62
    12
370
    13
100
AcDbLine
 10
3401.249439
 20
222.276387
 30
0.0
 11
3361.249439
 21
222.276387
 31
0.0
  0
LINE
  5
79C08
330
79F86
100
AcDbEntity
  8
Level 27
  6
Continuous
 62
    12
370
    13
100
AcDbLine
 10
3401.249439
 20
205.276387
 30
0.0
 11
3344.249439
 21
205.276387
 31
0.0
  0
LINE
  5
79C09
330
79F86
100
AcDbEntity
  8
Level 27
  6
Continuous
 62
    12
370
    13
100
AcDbLine
 10
3401.249439
 20
188.276387
 30
0.0
 11
3361.249439
 21
188.276387
 31
0.0
  0
LINE
  5
79C0A
330
79F86
100
AcDbEntity
  8
Level 27
  6
Continuous
 62
    12
370
    13
100
AcDbLine
 10
3401.249439
 20
205.276387
 30
0.0
 11
3378.249439
 21
205.276387
 31
0.0
  0
ENDBLK
  5
79F88
330
79F86
100
AcDbEntity
  8
0
100
AcDbBlockEnd
  0
BLOCK
  5
79F8A
330
79F89
100
AcDbEntity
  8
0
100
AcDbBlockBegin
  2
From Solid_11
 70
     0
 71
     0
 10
0.0
 20
0.0
 30
0.0
  3
From Solid_11
  1

  0
CIRCLE
  5
79C0C
330
79F89
100
AcDbEntity
  8
Level 27
  6
Continuous
 62
    12
370
    13
100
AcDbCircle
 10
4761.249439
 20
205.276387
 30
0.0
 40
17.00000000000001
  0
CIRCLE
  5
79C0D
330
79F89
100
AcDbEntity
  8
Level 27
  6
Continuous
 62
    12
370
    13
100
AcDbCircle
 10
4761.249439
 20
205.276387
 30
0.0
 40
17.00000000000001
  0
POINT
  5
79C0E
330
79F89
100
AcDbEntity
  8
Level 27
  6
Continuous
 62
    12
370
    13
100
AcDbPoint
 10
4761.249439
 20
222.276387
 30
0.0
  0
POINT
  5
79C0F
330
79F89
100
AcDbEntity
  8
Level 27
  6
Continuous
 62
    12
370
    13
100
AcDbPoint
 10
4778.249439
 20
205.276387
 30
0.0
  0
POINT
  5
79C10
330
79F89
100
AcDbEntity
  8
Level 27
  6
Continuous
 62
    12
370
    13
100
AcDbPoint
 10
4761.249439
 20
188.276387
 30
0.0
  0
POINT
  5
79C11
330
79F89
100
AcDbEntity
  8
Level 27
  6
Continuous
 62
    12
370
    13
100
AcDbPoint
 10
4744.249439
 20
205.276387
 30
0.0
  0
ENDBLK
  5
79F8B
330
79F89
100
AcDbEntity
  8
0
100
AcDbBlockEnd
  0
BLOCK
  5
79F8D
330
79F8C
100
AcDbEntity
  8
0
100
AcDbBlockBegin
  2
From Solid_12
 70
     0
 71
     0
 10
0.0
 20
0.0
 30
0.0
  3
From Solid_12
  1

  0
CIRCLE
  5
79C13
330
79F8C
100
AcDbEntity
  8
Level 27
  6
Continuous
 62
    12
370
    13
100
AcDbCircle
 10
4311.249439
 20
205.276387
 30
0.0
 40
17.00000000000001
  0
CIRCLE
  5
79C14
330
79F8C
100
AcDbEntity
  8
Level 27
  6
Continuous
 62
    12
370
    13
100
AcDbCircle
 10
4311.249439
 20
205.276387
 30
0.0
 40
17.00000000000001
  0
POINT
  5
79C15
330
79F8C
100
AcDbEntity
  8
Level 27
  6
Continuous
 62
    12
370
    13
100
AcDbPoint
 10
4311.249439
 20
188.276387
 30
0.0
  0
POINT
  5
79C16
330
79F8C
100
AcDbEntity
  8
Level 27
  6
Continuous
 62
    12
370
    13
100
AcDbPoint
 10
4328.249439
 20
205.276387
 30
0.0
  0
POINT
  5
79C17
330
79F8C
100
AcDbEntity
  8
Level 27
  6
Continuous
 62
    12
370
    13
100
AcDbPoint
 10
4311.249439
 20
222.276387
 30
0.0
  0
POINT
  5
79C18
330
79F8C
100
AcDbEntity
  8
Level 27
  6
Continuous
 62
    12
370
    13
100
AcDbPoint
 10
4294.249439
 20
205.276387
 30
0.0
  0
ENDBLK
  5
79F8E
330
79F8C
100
AcDbEntity
  8
0
100
AcDbBlockEnd
  0
BLOCK
  5
79F90
330
79F8F
100
AcDbEntity
  8
0
100
AcDbBlockBegin
  2
From Solid_13
 70
     0
 71
     0
 10
0.0
 20
0.0
 30
0.0
  3
From Solid_13
  1

  0
LINE
  5
79C1A
330
79F8F
100
AcDbEntity
  8
Level 27
  6
Continuous
 62
    12
370
    13
100
AcDbLine
 10
4721.249439
 20
222.276387
 30
0.0
 11
4721.249439
 21
188.276387
 31
0.0
  0
LINE
  5
79C1B
330
79F8F
100
AcDbEntity
  8
Level 27
  6
Continuous
 62
    12
370
    13
100
AcDbLine
 10
4351.249439
 20
222.276387
 30
0.0
 11
4351.249439
 21
188.276387
 31
0.0
  0
LINE
  5
79C1C
330
79F8F
100
AcDbEntity
  8
Level 27
  6
Continuous
 62
    12
370
    13
100
AcDbLine
 10
4721.249439
 20
222.276387
 30
0.0
 11
4351.249439
 21
222.276387
 31
0.0
  0
LINE
  5
79C1D
330
79F8F
100
AcDbEntity
  8
Level 27
  6
Continuous
 62
    12
370
    13
100
AcDbLine
 10
4721.249439
 20
205.276387
 30
0.0
 11
4351.249439
 21
205.276387
 31
0.0
  0
LINE
  5
79C1E
330
79F8F
100
AcDbEntity
  8
Level 27
  6
Continuous
 62
    12
370
    13
100
AcDbLine
 10
4721.249439
 20
188.276387
 30
0.0
 11
4351.249439
 21
188.276387
 31
0.0
  0
LINE
  5
79C1F
330
79F8F
100
AcDbEntity
  8
Level 27
  6
Continuous
 62
    12
370
    13
100
AcDbLine
 10
4721.249439
 20
205.276387
 30
0.0
 11
4351.249439
 21
205.276387
 31
0.0
  0
ENDBLK
  5
79F91
330
79F8F
100
AcDbEntity
  8
0
100
AcDbBlockEnd
  0
BLOCK
  5
79F93
330
79F92
100
AcDbEntity
  8
0
100
AcDbBlockBegin
  2
From Solid_14
 70
     0
 71
     0
 10
0.0
 20
0.0
 30
0.0
  3
From Solid_14
  1

  0
LINE
  5
79C21
330
79F92
100
AcDbEntity
  8
Level 27
  6
Continuous
 62
    12
370
    13
100
AcDbLine
 10
4721.249439
 20
222.276387
 30
0.0
 11
4721.249439
 21
188.276387
 31
0.0
  0
CIRCLE
  5
79C22
330
79F92
100
AcDbEntity
  8
Level 27
  6
Continuous
 62
    12
370
    13
100
AcDbCircle
 10
4761.249439
 20
205.276387
 30
0.0
 40
17.00000000000001
  0
LINE
  5
79C23
330
79F92
100
AcDbEntity
  8
Level 27
  6
Continuous
 62
    12
370
    13
100
AcDbLine
 10
4721.249439
 20
222.276387
 30
0.0
 11
4761.249439
 21
222.276387
 31
0.0
  0
LINE
  5
79C24
330
79F92
100
AcDbEntity
  8
Level 27
  6
Continuous
 62
    12
370
    13
100
AcDbLine
 10
4721.249439
 20
205.276387
 30
0.0
 11
4778.249439
 21
205.276387
 31
0.0
  0
LINE
  5
79C25
330
79F92
100
AcDbEntity
  8
Level 27
  6
Continuous
 62
    12
370
    13
100
AcDbLine
 10
4721.249439
 20
188.276387
 30
0.0
 11
4761.249439
 21
188.276387
 31
0.0
  0
LINE
  5
79C26
330
79F92
100
AcDbEntity
  8
Level 27
  6
Continuous
 62
    12
370
    13
100
AcDbLine
 10
4721.249439
 20
205.276387
 30
0.0
 11
4744.249439
 21
205.276387
 31
0.0
  0
ENDBLK
  5
79F94
330
79F92
100
AcDbEntity
  8
0
100
AcDbBlockEnd
  0
BLOCK
  5
79F96
330
79F95
100
AcDbEntity
  8
0
100
AcDbBlockBegin
  2
From Solid_15
 70
     0
 71
     0
 10
0.0
 20
0.0
 30
0.0
  3
From Solid_15
  1

  0
CIRCLE
  5
79C28
330
79F95
100
AcDbEntity
  8
Level 27
  6
Continuous
 62
    12
370
    13
100
AcDbCircle
 10
4311.249439
 20
205.276387
 30
0.0
 40
17.00000000000001
  0
LINE
  5
79C29
330
79F95
100
AcDbEntity
  8
Level 27
  6
Continuous
 62
    12
370
    13
100
AcDbLine
 10
4351.249439
 20
222.276387
 30
0.0
 11
4351.249439
 21
188.276387
 31
0.0
  0
LINE
  5
79C2A
330
79F95
100
AcDbEntity
  8
Level 27
  6
Continuous
 62
    12
370
    13
100
AcDbLine
 10
4351.249439
 20
222.276387
 30
0.0
 11
4311.249439
 21
222.276387
 31
0.0
  0
LINE
  5
79C2B
330
79F95
100
AcDbEntity
  8
Level 27
  6
Continuous
 62
    12
370
    13
100
AcDbLine
 10
4351.249439
 20
205.276387
 30
0.0
 11
4294.249439
 21
205.276387
 31
0.0
  0
LINE
  5
79C2C
330
79F95
100
AcDbEntity
  8
Level 27
  6
Continuous
 62
    12
370
    13
100
AcDbLine
 10
4351.249439
 20
188.276387
 30
0.0
 11
4311.249439
 21
188.276387
 31
0.0
  0
LINE
  5
79C2D
330
79F95
100
AcDbEntity
  8
Level 27
  6
Continuous
 62
    12
370
    13
100
AcDbLine
 10
4351.249439
 20
205.276387
 30
0.0
 11
4328.249439
 21
205.276387
 31
0.0
  0
ENDBLK
  5
79F97
330
79F95
100
AcDbEntity
  8
0
100
AcDbBlockEnd
  0
BLOCK
  5
79F99
330
79F98
100
AcDbEntity
  8
0
100
AcDbBlockBegin
  2
UNITE_4
 70
     0
 71
     0
 10
0.0
 20
0.0
 30
0.0
  3
UNITE_4
  1

  0
INSERT
  5
79C39
330
79F98
100
AcDbEntity
  8
Level 26
 62
   133
370
     0
100
AcDbBlockReference
  2
Feature Solid_10
 10
0.0
 20
0.0
 30
0.0
  0
INSERT
  5
79C40
330
79F98
100
AcDbEntity
  8
Level 26
 62
   133
370
     0
100
AcDbBlockReference
  2
Feature Solid_11
 10
0.0
 20
-0.55
 30
0.0
  0
INSERT
  5
79C47
330
79F98
100
AcDbEntity
  8
Level 8
 62
   133
370
     0
100
AcDbBlockReference
  2
Feature Solid_12
 10
0.0
 20
0.0
 30
0.0
  0
ENDBLK
  5
79F9A
330
79F98
100
AcDbEntity
  8
0
100
AcDbBlockEnd
  0
BLOCK
  5
79F9C
330
79F9B
100
AcDbEntity
  8
0
100
AcDbBlockBegin
  2
Feature Solid_10
 70
     0
 71
     0
 10
0.0
 20
0.0
 30
0.0
  3
Feature Solid_10
  1

  0
INSERT
  5
79C3A
330
79F9B
100
AcDbEntity
  8
Level 26
 62
   133
370
     0
100
AcDbBlockReference
  2
DDPROJ_6
 10
0.0
 20
0.0
 30
0.0
  0
ENDBLK
  5
79F9D
330
79F9B
100
AcDbEntity
  8
0
100
AcDbBlockEnd
  0
BLOCK
  5
79F9F
330
79F9E
100
AcDbEntity
  8
0
100
AcDbBlockBegin
  2
DDPROJ_6
 70
     0
 71
     0
 10
0.0
 20
0.0
 30
0.0
  3
DDPROJ_6
  1

  0
POINT
  5
79C3B
330
79F9E
100
AcDbEntity
  8
Level 26
 62
   133
370
     0
100
AcDbPoint
 10
0.011714
 20
-1.833517
 30
0.0
  0
LINE
  5
79C3C
330
79F9E
100
AcDbEntity
  8
Level 26
 62
   133
370
     0
100
AcDbLine
 10
0.131714
 20
-1.933517
 30
0.0
 11
0.359125
 21
-1.933517
 31
0.0
  0
LINE
  5
79C3D
330
79F9E
100
AcDbEntity
  8
Level 26
 62
   133
370
     0
100
AcDbLine
 10
0.131714
 20
-1.833517
 30
0.0
 11
0.431714
 21
-1.833517
 31
0.0
  0
LINE
  5
79C3E
330
79F9E
100
AcDbEntity
  8
Level 26
 62
   133
370
     0
100
AcDbLine
 10
0.131714
 20
-1.833517
 30
0.0
 11
0.431714
 21
-1.833517
 31
0.0
  0
LINE
  5
79C3F
330
79F9E
100
AcDbEntity
  8
Level 26
 62
   133
370
     0
100
AcDbLine
 10
0.131714
 20
-1.933517
 30
0.0
 11
0.359125
 21
-1.933517
 31
0.0
  0
ENDBLK
  5
79FA0
330
79F9E
100
AcDbEntity
  8
0
100
AcDbBlockEnd
  0
BLOCK
  5
79FA2
330
79FA1
100
AcDbEntity
  8
0
100
AcDbBlockBegin
  2
Feature Solid_11
 70
     0
 71
     0
 10
0.0
 20
0.0
 30
0.0
  3
Feature Solid_11
  1

  0
INSERT
  5
79C41
330
79FA1
100
AcDbEntity
  8
Level 26
 62
   133
370
     0
100
AcDbBlockReference
  2
DDPROJ_7
 10
0.0
 20
0.0
 30
0.0
  0
ENDBLK
  5
79FA3
330
79FA1
100
AcDbEntity
  8
0
100
AcDbBlockEnd
  0
BLOCK
  5
79FA5
330
79FA4
100
AcDbEntity
  8
0
100
AcDbBlockBegin
  2
DDPROJ_7
 70
     0
 71
     0
 10
0.0
 20
0.0
 30
0.0
  3
DDPROJ_7
  1

  0
POINT
  5
79C42
330
79FA4
100
AcDbEntity
  8
Level 26
 62
   133
370
     0
100
AcDbPoint
 10
0.011714
 20
-1.933517
 30
0.0
  0
LINE
  5
79C43
330
79FA4
100
AcDbEntity
  8
Level 26
 62
   133
370
     0
100
AcDbLine
 10
0.131714
 20
-1.933517
 30
0.0
 11
0.431714
 21
-1.933517
 31
0.0
  0
LINE
  5
79C44
330
79FA4
100
AcDbEntity
  8
Level 26
 62
   133
370
     0
100
AcDbLine
 10
0.131714
 20
-1.833517
 30
0.0
 11
0.359125
 21
-1.833517
 31
0.0
  0
LINE
  5
79C45
330
79FA4
100
AcDbEntity
  8
Level 26
 62
   133
370
     0
100
AcDbLine
 10
0.131714
 20
-1.833517
 30
0.0
 11
0.359125
 21
-1.833517
 31
0.0
  0
LINE
  5
79C46
330
79FA4
100
AcDbEntity
  8
Level 26
 62
   133
370
     0
100
AcDbLine
 10
0.131714
 20
-1.933517
 30
0.0
 11
0.431714
 21
-1.933517
 31
0.0
  0
ENDBLK
  5
79FA6
330
79FA4
100
AcDbEntity
  8
0
100
AcDbBlockEnd
  0
BLOCK
  5
79FA8
330
79FA7
100
AcDbEntity
  8
0
100
AcDbBlockBegin
  2
Feature Solid_12
 70
     0
 71
     0
 10
0.0
 20
0.0
 30
0.0
  3
Feature Solid_12
  1

  0
INSERT
  5
79C48
330
79FA7
100
AcDbEntity
  8
Level 8
 62
   133
370
     0
100
AcDbBlockReference
  2
UNITE_5
 10
0.0
 20
0.0
 30
0.0
  0
ENDBLK
  5
79FA9
330
79FA7
100
AcDbEntity
  8
0
100
AcDbBlockEnd
  0
BLOCK
  5
79FAB
330
79FAA
100
AcDbEntity
  8
0
100
AcDbBlockBegin
  2
UNITE_5
 70
     0
 71
     0
 10
0.0
 20
0.0
 30
0.0
  3
UNITE_5
  1

  0
INSERT
  5
79C49
330
79FAA
100
AcDbEntity
  8
Level 8
 62
   133
370
     0
100
AcDbBlockReference
  2
Feature Solid_13
 10
0.0
 20
0.0
 30
0.0
  0
INSERT
  5
79C5F
330
79FAA
100
AcDbEntity
  8
Level 26
 62
   133
370
     0
100
AcDbBlockReference
  2
Feature Solid_14
 10
0.0
 20
0.0
 30
0.0
  0
ENDBLK
  5
79FAC
330
79FAA
100
AcDbEntity
  8
0
100
AcDbBlockEnd
  0
BLOCK
  5
79FAE
330
79FAD
100
AcDbEntity
  8
0
100
AcDbBlockBegin
  2
Feature Solid_13
 70
     0
 71
     0
 10
0.0
 20
0.0
 30
0.0
  3
Feature Solid_13
  1

  0
INSERT
  5
79C4A
330
79FAD
100
AcDbEntity
  8
Level 8
 62
   133
370
     0
100
AcDbBlockReference
  2
CONE_2
 10
0.0
 20
0.0
 30
0.0
  0
ENDBLK
  5
79FAF
330
79FAD
100
AcDbEntity
  8
0
100
AcDbBlockEnd
  0
BLOCK
  5
79FB1
330
79FB0
100
AcDbEntity
  8
0
100
AcDbBlockBegin
  2
CONE_2
 70
     0
 71
     0
 10
0.0
 20
0.0
 30
0.0
  3
CONE_2
  1

  0
LINE
  5
79C4B
330
79FB0
100
AcDbEntity
  8
Level 8
 62
   133
370
     0
100
AcDbLine
 10
0.431714
 20
-1.833517
 30
0.0
 11
0.431714
 21
-2.483517
 31
0.0
  0
LINE
  5
79C4C
330
79FB0
100
AcDbEntity
  8
Level 8
 62
   133
370
     0
100
AcDbLine
 10
0.131714
 20
-2.383517
 30
0.0
 11
0.359125
 21
-2.383517
 31
0.0
  0
LINE
  5
79C4D
330
79FB0
100
AcDbEntity
  8
Level 8
 62
   133
370
     0
100
AcDbLine
 10
0.131714
 20
-2.383517
 30
0.0
 11
0.359125
 21
-2.383517
 31
0.0
  0
SPLINE
  5
79C4E
330
79FB0
100
AcDbEntity
  8
Level 8
 62
   133
370
     0
100
AcDbSpline
210
0.0
220
0.0
230
1.0
 70
     8
 71
     3
 72
    17
 73
    13
 74
     0
 42
0.0000000001
 43
0.00000001
 40
0.0
 40
0.0
 40
0.0
 40
0.0
 40
0.1188920175173181
 40
0.1188920175173181
 40
0.1188920175173181
 40
0.4370642450454728
 40
0.4370642450454728
 40
0.4370642450454728
 40
0.7708126268407274
 40
0.7708126268407274
 40
0.7708126268407274
 40
1.0
 40
1.0
 40
1.0
 40
1.0
 10
0.4317136962460353
 20
-2.483517035676399
 30
0.0
 10
0.4317136962460353
 20
-2.483517035676399
 30
0.0
 10
0.4312857853703704
 20
-2.482970961108962
 30
0.0
 10
0.4304413967249374
 20
-2.481890266834162
 30
0.0
 10
0.4281893687172271
 20
-2.479007999541993
 30
0.0
 10
0.4228496497948271
 20
-2.472181370284083
 30
0.0
 10
0.415280563715676
 20
-2.462245290317638
 30
0.0
 10
0.4073288034245479
 20
-2.451806866801185
 30
0.0
 10
0.3967863239604554
 20
-2.437764099143893
 30
0.0
 10
0.3850241073261032
 20
-2.42127018794613
 30
0.0
 10
0.3768999155639037
 20
-2.409877803190351
 30
0.0
 10
0.3681165556180162
 20
-2.397205829360038
 30
0.0
 10
0.359125348396347
 20
-2.383517035681363
 30
0.0
  0
SPLINE
  5
79C51
330
79FB0
100
AcDbEntity
  8
Level 8
 62
   133
370
     0
100
AcDbSpline
210
0.0
220
0.0
230
1.0
 70
     8
 71
     3
 72
    14
 73
    10
 74
     0
 42
0.0000000001
 43
0.00000001
 40
0.0
 40
0.0
 40
0.0
 40
0.0
 40
0.4155111778321488
 40
0.4155111778321488
 40
0.4155111778321488
 40
0.7657511632294429
 40
0.7657511632294429
 40
0.7657511632294429
 40
1.0
 40
1.0
 40
1.0
 40
1.0
 10
0.3591253483958496
 20
-2.38351703567638
 30
0.0
 10
0.3753273199526817
 20
-2.408183961970713
 30
0.0
 10
0.390935225137504
 20
-2.429723842876861
 30
0.0
 10
0.403294537228355
 20
-2.446330563598322
 30
0.0
 10
0.4137190532494017
 20
-2.460337575068316
 30
0.0
 10
0.4220439846593962
 20
-2.471094914404414
 30
0.0
 10
0.4268312321213159
 20
-2.477256738635805
 30
0.0
 10
0.4300308856967945
 20
-2.481375118370782
 30
0.0
 10
0.4317136962460353
 20
-2.483517035676399
 30
0.0
 10
0.4317136962460353
 20
-2.483517035676399
 30
0.0
  0
LINE
  5
79C54
330
79FB0
100
AcDbEntity
  8
Level 8
 62
   133
370
     0
100
AcDbLine
 10
0.431714
 20
-1.833517
 30
0.0
 11
0.431714
 21
-2.483517
 31
0.0
  0
SPLINE
  5
79C55
330
79FB0
100
AcDbEntity
  8
Level 8
 62
   133
370
     0
100
AcDbSpline
210
0.0
220
0.0
230
1.0
 70
     8
 71
     3
 72
    17
 73
    13
 74
     0
 42
0.0000000001
 43
0.00000001
 40
0.0
 40
0.0
 40
0.0
 40
0.0
 40
0.1188920175167992
 40
0.1188920175167992
 40
0.1188920175167992
 40
0.4370642450447248
 40
0.4370642450447248
 40
0.4370642450447248
 40
0.7708126268396294
 40
0.7708126268396294
 40
0.7708126268396294
 40
1.0
 40
1.0
 40
1.0
 40
1.0
 10
0.4317136962460353
 20
-1.83351703567625
 30
0.0
 10
0.4317136962460353
 20
-1.83351703567625
 30
0.0
 10
0.4312857853703775
 20
-1.834063110243678
 30
0.0
 10
0.4304413967249516
 20
-1.835143804518469
 30
0.0
 10
0.4281893687172556
 20
-1.838026071810629
 30
0.0
 10
0.4228496497948697
 20
-1.84485270106853
 30
0.0
 10
0.4152805637157329
 20
-1.854788781034974
 30
0.0
 10
0.4073288034246261
 20
-1.865227204551417
 30
0.0
 10
0.3967863239605407
 20
-1.879269972208701
 30
0.0
 10
0.3850241073262097
 20
-1.895763883406454
 30
0.0
 10
0.3768999155639747
 20
-1.907156268162289
 30
0.0
 10
0.3681165556180375
 20
-1.919828241992676
 30
0.0
 10
0.3591253483963257
 20
-1.933517035671435
 30
0.0
  0
LINE
  5
79C58
330
79FB0
100
AcDbEntity
  8
Level 8
 62
   133
370
     0
100
AcDbLine
 10
0.131714
 20
-1.933517
 30
0.0
 11
0.359125
 21
-1.933517
 31
0.0
  0
LINE
  5
79C59
330
79FB0
100
AcDbEntity
  8
Level 8
 62
   133
370
     0
100
AcDbLine
 10
0.131714
 20
-1.933517
 30
0.0
 11
0.359125
 21
-1.933517
 31
0.0
  0
SPLINE
  5
79C5A
330
79FB0
100
AcDbEntity
  8
Level 8
 62
   133
370
     0
100
AcDbSpline
210
0.0
220
0.0
230
1.0
 70
     8
 71
     3
 72
    14
 73
    10
 74
     0
 42
0.0000000001
 43
0.00000001
 40
0.0
 40
0.0
 40
0.0
 40
0.0
 40
0.4155111778320348
 40
0.4155111778320348
 40
0.4155111778320348
 40
0.7657511632291136
 40
0.7657511632291136
 40
0.7657511632291136
 40
1.0
 40
1.0
 40
1.0
 40
1.0
 10
0.3591253483956578
 20
-1.933517035676418
 30
0.0
 10
0.3753273199525111
 20
-1.908850109382067
 30
0.0
 10
0.390935225137369
 20
-1.887310228475882
 30
0.0
 10
0.4032945372282484
 20
-1.870703507754402
 30
0.0
 10
0.4137190532493023
 20
-1.85669649628439
 30
0.0
 10
0.4220439846593251
 20
-1.845939156948282
 30
0.0
 10
0.4268312321212662
 20
-1.839777332716864
 30
0.0
 10
0.4300308856967732
 20
-1.835658952981876
 30
0.0
 10
0.4317136962460282
 20
-1.83351703567625
 30
0.0
 10
0.4317136962460353
 20
-1.83351703567625
 30
0.0
  0
LINE
  5
79C5D
330
79FB0
100
AcDbEntity
  8
Level 8
 62
   133
370
     0
100
AcDbLine
 10
0.131714
 20
-2.158517
 30
0.0
 11
0.431714
 21
-2.158517
 31
0.0
  0
LINE
  5
79C5E
330
79FB0
100
AcDbEntity
  8
Level 8
 62
   133
370
     0
100
AcDbLine
 10
0.131714
 20
-2.158517
 30
0.0
 11
0.431714
 21
-2.158517
 31
0.0
  0
ENDBLK
  5
79FB2
330
79FB0
100
AcDbEntity
  8
0
100
AcDbBlockEnd
  0
BLOCK
  5
79FB4
330
79FB3
100
AcDbEntity
  8
0
100
AcDbBlockBegin
  2
Feature Solid_14
 70
     0
 71
     0
 10
0.0
 20
0.0
 30
0.0
  3
Feature Solid_14
  1

  0
INSERT
  5
79C60
330
79FB3
100
AcDbEntity
  8
Level 26
 62
   133
370
     0
100
AcDbBlockReference
  2
DDPROJ_8
 10
0.0
 20
0.0
 30
0.0
  0
ENDBLK
  5
79FB5
330
79FB3
100
AcDbEntity
  8
0
100
AcDbBlockEnd
  0
BLOCK
  5
79FB7
330
79FB6
100
AcDbEntity
  8
0
100
AcDbBlockBegin
  2
DDPROJ_8
 70
     0
 71
     0
 10
0.0
 20
0.0
 30
0.0
  3
DDPROJ_8
  1

  0
LINE
  5
79C61
330
79FB6
100
AcDbEntity
  8
Level 26
 62
   133
370
     0
100
AcDbLine
 10
0.011714
 20
-1.833517
 30
0.0
 11
0.131714
 21
-1.833517
 31
0.0
  0
LINE
  5
79C62
330
79FB6
100
AcDbEntity
  8
Level 26
 62
   133
370
     0
100
AcDbLine
 10
0.131714
 20
-1.833517
 30
0.0
 11
0.011714
 21
-1.833517
 31
0.0
  0
LINE
  5
79C63
330
79FB6
100
AcDbEntity
  8
Level 26
 62
   133
370
     0
100
AcDbLine
 10
0.011714
 20
-2.483517
 30
0.0
 11
0.131714
 21
-2.483517
 31
0.0
  0
LINE
  5
79C64
330
79FB6
100
AcDbEntity
  8
Level 26
 62
   133
370
     0
100
AcDbLine
 10
0.131714
 20
-2.483517
 30
0.0
 11
0.011714
 21
-2.483517
 31
0.0
  0
LINE
  5
79C65
330
79FB6
100
AcDbEntity
  8
Level 26
 62
   133
370
     0
100
AcDbLine
 10
0.131714
 20
-1.933517
 30
0.0
 11
0.131714
 21
-2.383517
 31
0.0
  0
LINE
  5
79C66
330
79FB6
100
AcDbEntity
  8
Level 26
 62
   133
370
     0
100
AcDbLine
 10
0.131714
 20
-1.933517
 30
0.0
 11
0.131714
 21
-2.383517
 31
0.0
  0
LINE
  5
79C67
330
79FB6
100
AcDbEntity
  8
Level 26
 62
   133
370
     0
100
AcDbLine
 10
0.011714
 20
-1.833517
 30
0.0
 11
0.011714
 21
-2.483517
 31
0.0
  0
POINT
  5
79C68
330
79FB6
100
AcDbEntity
  8
Level 26
 62
   133
370
     0
100
AcDbPoint
 10
0.131714
 20
-2.483517
 30
0.0
  0
LINE
  5
79C69
330
79FB6
100
AcDbEntity
  8
Level 26
 62
   133
370
     0
100
AcDbLine
 10
0.011714
 20
-1.833517
 30
0.0
 11
0.011714
 21
-2.483517
 31
0.0
  0
LINE
  5
79C6A
330
79FB6
100
AcDbEntity
  8
Level 26
 62
   133
370
     0
100
AcDbLine
 10
0.131714
 20
-1.833517
 30
0.0
 11
0.131714
 21
-2.483517
 31
0.0
  0
POINT
  5
79C6B
330
79FB6
100
AcDbEntity
  8
Level 26
 62
   133
370
     0
100
AcDbPoint
 10
0.131714
 20
-1.833517
 30
0.0
  0
POINT
  5
79C6C
330
79FB6
100
AcDbEntity
  8
Level 26
 62
   133
370
     0
100
AcDbPoint
 10
0.131714
 20
-2.483517
 30
0.0
  0
LINE
  5
79C6D
330
79FB6
100
AcDbEntity
  8
Level 26
 62
   133
370
     0
100
AcDbLine
 10
0.131714
 20
-1.833517
 30
0.0
 11
0.131714
 21
-2.483517
 31
0.0
  0
POINT
  5
79C6E
330
79FB6
100
AcDbEntity
  8
Level 26
 62
   133
370
     0
100
AcDbPoint
 10
0.131714
 20
-1.833517
 30
0.0
  0
POINT
  5
79C6F
330
79FB6
100
AcDbEntity
  8
Level 26
 62
   133
370
     0
100
AcDbPoint
 10
0.131714
 20
-2.383517
 30
0.0
  0
POINT
  5
79C70
330
79FB6
100
AcDbEntity
  8
Level 26
 62
   133
370
     0
100
AcDbPoint
 10
0.131714
 20
-2.383517
 30
0.0
  0
LINE
  5
79C71
330
79FB6
100
AcDbEntity
  8
Level 26
 62
   133
370
     0
100
AcDbLine
 10
0.131714
 20
-2.483517
 30
0.0
 11
0.131714
 21
-2.383517
 31
0.0
  0
LINE
  5
79C72
330
79FB6
100
AcDbEntity
  8
Level 26
 62
   133
370
     0
100
AcDbLine
 10
0.131714
 20
-2.483517
 30
0.0
 11
0.131714
 21
-2.383517
 31
0.0
  0
POINT
  5
79C73
330
79FB6
100
AcDbEntity
  8
Level 26
 62
   133
370
     0
100
AcDbPoint
 10
0.131714
 20
-1.933517
 30
0.0
  0
LINE
  5
79C74
330
79FB6
100
AcDbEntity
  8
Level 26
 62
   133
370
     0
100
AcDbLine
 10
0.131714
 20
-1.933517
 30
0.0
 11
0.131714
 21
-1.833517
 31
0.0
  0
POINT
  5
79C75
330
79FB6
100
AcDbEntity
  8
Level 26
 62
   133
370
     0
100
AcDbPoint
 10
0.131714
 20
-1.933517
 30
0.0
  0
LINE
  5
79C76
330
79FB6
100
AcDbEntity
  8
Level 26
 62
   133
370
     0
100
AcDbLine
 10
0.131714
 20
-1.933517
 30
0.0
 11
0.131714
 21
-1.833517
 31
0.0
  0
LINE
  5
79C77
330
79FB6
100
AcDbEntity
  8
Level 26
 62
   133
370
     0
100
AcDbLine
 10
0.131714
 20
-2.158517
 30
0.0
 11
0.011714
 21
-2.158517
 31
0.0
  0
LINE
  5
79C78
330
79FB6
100
AcDbEntity
  8
Level 26
 62
   133
370
     0
100
AcDbLine
 10
0.131714
 20
-2.483517
 30
0.0
 11
0.011714
 21
-2.483517
 31
0.0
  0
LINE
  5
79C79
330
79FB6
100
AcDbEntity
  8
Level 26
 62
   133
370
     0
100
AcDbLine
 10
0.131714
 20
-2.158517
 30
0.0
 11
0.011714
 21
-2.158517
 31
0.0
  0
LINE
  5
79C7A
330
79FB6
100
AcDbEntity
  8
Level 26
 62
   133
370
     0
100
AcDbLine
 10
0.131714
 20
-1.833517
 30
0.0
 11
0.011714
 21
-1.833517
 31
0.0
  0
ENDBLK
  5
79FB8
330
79FB6
100
AcDbEntity
  8
0
100
AcDbBlockEnd
  0
BLOCK
  5
79FBA
330
79FB9
100
AcDbEntity
  8
0
100
AcDbBlockBegin
  2
UNITE_6
 70
     0
 71
     0
 10
0.0
 20
0.0
 30
0.0
  3
UNITE_6
  1

  0
INSERT
  5
79C7C
330
79FB9
100
AcDbEntity
  8
Level 26
 62
   133
370
     0
100
AcDbBlockReference
  2
Feature Solid_15
 10
0.0
 20
0.0
 30
0.0
  0
INSERT
  5
79C83
330
79FB9
100
AcDbEntity
  8
Level 26
 62
   133
370
     0
100
AcDbBlockReference
  2
Feature Solid_16
 10
0.0
 20
-0.55
 30
0.0
  0
INSERT
  5
79C8A
330
79FB9
100
AcDbEntity
  8
Level 8
 62
   133
370
     0
100
AcDbBlockReference
  2
Feature Solid_17
 10
0.0
 20
0.0
 30
0.0
  0
ENDBLK
  5
79FBB
330
79FB9
100
AcDbEntity
  8
0
100
AcDbBlockEnd
  0
BLOCK
  5
79FBD
330
79FBC
100
AcDbEntity
  8
0
100
AcDbBlockBegin
  2
Feature Solid_15
 70
     0
 71
     0
 10
0.0
 20
0.0
 30
0.0
  3
Feature Solid_15
  1

  0
INSERT
  5
79C7D
330
79FBC
100
AcDbEntity
  8
Level 26
 62
   133
370
     0
100
AcDbBlockReference
  2
DDPROJ_9
 10
0.0
 20
0.0
 30
0.0
  0
ENDBLK
  5
79FBE
330
79FBC
100
AcDbEntity
  8
0
100
AcDbBlockEnd
  0
BLOCK
  5
79FC0
330
79FBF
100
AcDbEntity
  8
0
100
AcDbBlockBegin
  2
DDPROJ_9
 70
     0
 71
     0
 10
0.0
 20
0.0
 30
0.0
  3
DDPROJ_9
  1

  0
POINT
  5
79C7E
330
79FBF
100
AcDbEntity
  8
Level 26
 62
   133
370
     0
100
AcDbPoint
 10
-0.011714
 20
-1.833517
 30
0.0
  0
LINE
  5
79C7F
330
79FBF
100
AcDbEntity
  8
Level 26
 62
   133
370
     0
100
AcDbLine
 10
-0.131714
 20
-1.933517
 30
0.0
 11
-0.359125
 21
-1.933517
 31
0.0
  0
LINE
  5
79C80
330
79FBF
100
AcDbEntity
  8
Level 26
 62
   133
370
     0
100
AcDbLine
 10
-0.131714
 20
-1.833517
 30
0.0
 11
-0.431714
 21
-1.833517
 31
0.0
  0
LINE
  5
79C81
330
79FBF
100
AcDbEntity
  8
Level 26
 62
   133
370
     0
100
AcDbLine
 10
-0.131714
 20
-1.833517
 30
0.0
 11
-0.431714
 21
-1.833517
 31
0.0
  0
LINE
  5
79C82
330
79FBF
100
AcDbEntity
  8
Level 26
 62
   133
370
     0
100
AcDbLine
 10
-0.131714
 20
-1.933517
 30
0.0
 11
-0.359125
 21
-1.933517
 31
0.0
  0
ENDBLK
  5
79FC1
330
79FBF
100
AcDbEntity
  8
0
100
AcDbBlockEnd
  0
BLOCK
  5
79FC3
330
79FC2
100
AcDbEntity
  8
0
100
AcDbBlockBegin
  2
Feature Solid_16
 70
     0
 71
     0
 10
0.0
 20
0.0
 30
0.0
  3
Feature Solid_16
  1

  0
INSERT
  5
79C84
330
79FC2
100
AcDbEntity
  8
Level 26
 62
   133
370
     0
100
AcDbBlockReference
  2
DDPROJ_10
 10
0.0
 20
0.0
 30
0.0
  0
ENDBLK
  5
79FC4
330
79FC2
100
AcDbEntity
  8
0
100
AcDbBlockEnd
  0
BLOCK
  5
79FC6
330
79FC5
100
AcDbEntity
  8
0
100
AcDbBlockBegin
  2
DDPROJ_10
 70
     0
 71
     0
 10
0.0
 20
0.0
 30
0.0
  3
DDPROJ_10
  1

  0
POINT
  5
79C85
330
79FC5
100
AcDbEntity
  8
Level 26
 62
   133
370
     0
100
AcDbPoint
 10
-0.011714
 20
-1.933517
 30
0.0
  0
LINE
  5
79C86
330
79FC5
100
AcDbEntity
  8
Level 26
 62
   133
370
     0
100
AcDbLine
 10
-0.131714
 20
-1.933517
 30
0.0
 11
-0.431714
 21
-1.933517
 31
0.0
  0
LINE
  5
79C87
330
79FC5
100
AcDbEntity
  8
Level 26
 62
   133
370
     0
100
AcDbLine
 10
-0.131714
 20
-1.833517
 30
0.0
 11
-0.359125
 21
-1.833517
 31
0.0
  0
LINE
  5
79C88
330
79FC5
100
AcDbEntity
  8
Level 26
 62
   133
370
     0
100
AcDbLine
 10
-0.131714
 20
-1.833517
 30
0.0
 11
-0.359125
 21
-1.833517
 31
0.0
  0
LINE
  5
79C89
330
79FC5
100
AcDbEntity
  8
Level 26
 62
   133
370
     0
100
AcDbLine
 10
-0.131714
 20
-1.933517
 30
0.0
 11
-0.431714
 21
-1.933517
 31
0.0
  0
ENDBLK
  5
79FC7
330
79FC5
100
AcDbEntity
  8
0
100
AcDbBlockEnd
  0
BLOCK
  5
79FC9
330
79FC8
100
AcDbEntity
  8
0
100
AcDbBlockBegin
  2
Feature Solid_17
 70
     0
 71
     0
 10
0.0
 20
0.0
 30
0.0
  3
Feature Solid_17
  1

  0
INSERT
  5
79C8B
330
79FC8
100
AcDbEntity
  8
Level 8
 62
   133
370
     0
100
AcDbBlockReference
  2
UNITE_7
 10
0.0
 20
0.0
 30
0.0
  0
ENDBLK
  5
79FCA
330
79FC8
100
AcDbEntity
  8
0
100
AcDbBlockEnd
  0
BLOCK
  5
79FCC
330
79FCB
100
AcDbEntity
  8
0
100
AcDbBlockBegin
  2
UNITE_7
 70
     0
 71
     0
 10
0.0
 20
0.0
 30
0.0
  3
UNITE_7
  1

  0
INSERT
  5
79C8C
330
79FCB
100
AcDbEntity
  8
Level 8
 62
   133
370
     0
100
AcDbBlockReference
  2
Feature Solid_18
 10
0.0
 20
0.0
 30
0.0
  0
INSERT
  5
79CA2
330
79FCB
100
AcDbEntity
  8
Level 26
 62
   133
370
     0
100
AcDbBlockReference
  2
Feature Solid_19
 10
0.0
 20
0.0
 30
0.0
  0
ENDBLK
  5
79FCD
330
79FCB
100
AcDbEntity
  8
0
100
AcDbBlockEnd
  0
BLOCK
  5
79FCF
330
79FCE
100
AcDbEntity
  8
0
100
AcDbBlockBegin
  2
Feature Solid_18
 70
     0
 71
     0
 10
0.0
 20
0.0
 30
0.0
  3
Feature Solid_18
  1

  0
INSERT
  5
79C8D
330
79FCE
100
AcDbEntity
  8
Level 8
 62
   133
370
     0
100
AcDbBlockReference
  2
CONE_3
 10
0.0
 20
0.0
 30
0.0
  0
ENDBLK
  5
79FD0
330
79FCE
100
AcDbEntity
  8
0
100
AcDbBlockEnd
  0
BLOCK
  5
79FD2
330
79FD1
100
AcDbEntity
  8
0
100
AcDbBlockBegin
  2
CONE_3
 70
     0
 71
     0
 10
0.0
 20
0.0
 30
0.0
  3
CONE_3
  1

  0
LINE
  5
79C8E
330
79FD1
100
AcDbEntity
  8
Level 8
 62
   133
370
     0
100
AcDbLine
 10
-0.431714
 20
-1.833517
 30
0.0
 11
-0.431714
 21
-2.483517
 31
0.0
  0
LINE
  5
79C8F
330
79FD1
100
AcDbEntity
  8
Level 8
 62
   133
370
     0
100
AcDbLine
 10
-0.131714
 20
-2.383517
 30
0.0
 11
-0.359125
 21
-2.383517
 31
0.0
  0
LINE
  5
79C90
330
79FD1
100
AcDbEntity
  8
Level 8
 62
   133
370
     0
100
AcDbLine
 10
-0.131714
 20
-2.383517
 30
0.0
 11
-0.359125
 21
-2.383517
 31
0.0
  0
SPLINE
  5
79C91
330
79FD1
100
AcDbEntity
  8
Level 8
 62
   133
370
     0
100
AcDbSpline
210
0.0
220
0.0
230
1.0
 70
     8
 71
     3
 72
    17
 73
    13
 74
     0
 42
0.0000000001
 43
0.00000001
 40
0.0
 40
0.0
 40
0.0
 40
0.0
 40
0.1188920175173181
 40
0.1188920175173181
 40
0.1188920175173181
 40
0.4370642450454728
 40
0.4370642450454728
 40
0.4370642450454728
 40
0.7708126268407274
 40
0.7708126268407274
 40
0.7708126268407274
 40
1.0
 40
1.0
 40
1.0
 40
1.0
 10
-0.4317136962460495
 20
-2.483517035676399
 30
0.0
 10
-0.4317136962460353
 20
-2.483517035676399
 30
0.0
 10
-0.4312857853703775
 20
-2.482970961108962
 30
0.0
 10
-0.4304413967249445
 20
-2.481890266834162
 30
0.0
 10
-0.4281893687172342
 20
-2.479007999541993
 30
0.0
 10
-0.4228496497948271
 20
-2.472181370284083
 30
0.0
 10
-0.4152805637156831
 20
-2.462245290317638
 30
0.0
 10
-0.407328803424555
 20
-2.451806866801185
 30
0.0
 10
-0.3967863239604625
 20
-2.437764099143893
 30
0.0
 10
-0.3850241073261103
 20
-2.42127018794613
 30
0.0
 10
-0.3768999155639108
 20
-2.409877803190351
 30
0.0
 10
-0.3681165556180233
 20
-2.397205829360038
 30
0.0
 10
-0.3591253483963612
 20
-2.383517035681363
 30
0.0
  0
SPLINE
  5
79C94
330
79FD1
100
AcDbEntity
  8
Level 8
 62
   133
370
     0
100
AcDbSpline
210
0.0
220
0.0
230
1.0
 70
     8
 71
     3
 72
    14
 73
    10
 74
     0
 42
0.0000000001
 43
0.00000001
 40
0.0
 40
0.0
 40
0.0
 40
0.0
 40
0.4155111778321488
 40
0.4155111778321488
 40
0.4155111778321488
 40
0.7657511632294429
 40
0.7657511632294429
 40
0.7657511632294429
 40
1.0
 40
1.0
 40
1.0
 40
1.0
 10
-0.3591253483958568
 20
-2.38351703567638
 30
0.0
 10
-0.3753273199526888
 20
-2.408183961970713
 30
0.0
 10
-0.3909352251375111
 20
-2.429723842876861
 30
0.0
 10
-0.4032945372283692
 20
-2.446330563598322
 30
0.0
 10
-0.4137190532494088
 20
-2.460337575068316
 30
0.0
 10
-0.4220439846594104
 20
-2.471094914404414
 30
0.0
 10
-0.4268312321213301
 20
-2.477256738635805
 30
0.0
 10
-0.4300308856968016
 20
-2.481375118370782
 30
0.0
 10
-0.4317136962460495
 20
-2.483517035676399
 30
0.0
 10
-0.4317136962460495
 20
-2.483517035676399
 30
0.0
  0
LINE
  5
79C97
330
79FD1
100
AcDbEntity
  8
Level 8
 62
   133
370
     0
100
AcDbLine
 10
-0.431714
 20
-1.833517
 30
0.0
 11
-0.431714
 21
-2.483517
 31
0.0
  0
SPLINE
  5
79C98
330
79FD1
100
AcDbEntity
  8
Level 8
 62
   133
370
     0
100
AcDbSpline
210
0.0
220
0.0
230
1.0
 70
     8
 71
     3
 72
    17
 73
    13
 74
     0
 42
0.0000000001
 43
0.00000001
 40
0.0
 40
0.0
 40
0.0
 40
0.0
 40
0.1188920175167992
 40
0.1188920175167992
 40
0.1188920175167992
 40
0.4370642450447248
 40
0.4370642450447248
 40
0.4370642450447248
 40
0.7708126268396294
 40
0.7708126268396294
 40
0.7708126268396294
 40
1.0
 40
1.0
 40
1.0
 40
1.0
 10
-0.4317136962460353
 20
-1.83351703567625
 30
0.0
 10
-0.4317136962460353
 20
-1.83351703567625
 30
0.0
 10
-0.4312857853703846
 20
-1.834063110243678
 30
0.0
 10
-0.4304413967249587
 20
-1.835143804518469
 30
0.0
 10
-0.4281893687172627
 20
-1.838026071810629
 30
0.0
 10
-0.4228496497948839
 20
-1.84485270106853
 30
0.0
 10
-0.4152805637157471
 20
-1.854788781034974
 30
0.0
 10
-0.4073288034246332
 20
-1.865227204551417
 30
0.0
 10
-0.3967863239605549
 20
-1.879269972208701
 30
0.0
 10
-0.3850241073262168
 20
-1.895763883406454
 30
0.0
 10
-0.3768999155639889
 20
-1.907156268162289
 30
0.0
 10
-0.3681165556180517
 20
-1.919828241992676
 30
0.0
 10
-0.3591253483963328
 20
-1.933517035671435
 30
0.0
  0
LINE
  5
79C9B
330
79FD1
100
AcDbEntity
  8
Level 8
 62
   133
370
     0
100
AcDbLine
 10
-0.131714
 20
-1.933517
 30
0.0
 11
-0.359125
 21
-1.933517
 31
0.0
  0
LINE
  5
79C9C
330
79FD1
100
AcDbEntity
  8
Level 8
 62
   133
370
     0
100
AcDbLine
 10
-0.131714
 20
-1.933517
 30
0.0
 11
-0.359125
 21
-1.933517
 31
0.0
  0
SPLINE
  5
79C9D
330
79FD1
100
AcDbEntity
  8
Level 8
 62
   133
370
     0
100
AcDbSpline
210
0.0
220
0.0
230
1.0
 70
     8
 71
     3
 72
    14
 73
    10
 74
     0
 42
0.0000000001
 43
0.00000001
 40
0.0
 40
0.0
 40
0.0
 40
0.0
 40
0.4155111778320348
 40
0.4155111778320348
 40
0.4155111778320348
 40
0.7657511632291136
 40
0.7657511632291136
 40
0.7657511632291136
 40
1.0
 40
1.0
 40
1.0
 40
1.0
 10
-0.359125348395672
 20
-1.933517035676418
 30
0.0
 10
-0.3753273199525182
 20
-1.908850109382067
 30
0.0
 10
-0.3909352251373832
 20
-1.887310228475882
 30
0.0
 10
-0.4032945372282555
 20
-1.870703507754402
 30
0.0
 10
-0.4137190532493165
 20
-1.85669649628439
 30
0.0
 10
-0.4220439846593322
 20
-1.845939156948282
 30
0.0
 10
-0.4268312321212733
 20
-1.839777332716864
 30
0.0
 10
-0.4300308856967874
 20
-1.835658952981876
 30
0.0
 10
-0.4317136962460353
 20
-1.83351703567625
 30
0.0
 10
-0.4317136962460353
 20
-1.83351703567625
 30
0.0
  0
LINE
  5
79CA0
330
79FD1
100
AcDbEntity
  8
Level 8
 62
   133
370
     0
100
AcDbLine
 10
-0.131714
 20
-2.158517
 30
0.0
 11
-0.431714
 21
-2.158517
 31
0.0
  0
LINE
  5
79CA1
330
79FD1
100
AcDbEntity
  8
Level 8
 62
   133
370
     0
100
AcDbLine
 10
-0.131714
 20
-2.158517
 30
0.0
 11
-0.431714
 21
-2.158517
 31
0.0
  0
ENDBLK
  5
79FD3
330
79FD1
100
AcDbEntity
  8
0
100
AcDbBlockEnd
  0
BLOCK
  5
79FD5
330
79FD4
100
AcDbEntity
  8
0
100
AcDbBlockBegin
  2
Feature Solid_19
 70
     0
 71
     0
 10
0.0
 20
0.0
 30
0.0
  3
Feature Solid_19
  1

  0
INSERT
  5
79CA3
330
79FD4
100
AcDbEntity
  8
Level 26
 62
   133
370
     0
100
AcDbBlockReference
  2
DDPROJ_11
 10
0.0
 20
0.0
 30
0.0
  0
ENDBLK
  5
79FD6
330
79FD4
100
AcDbEntity
  8
0
100
AcDbBlockEnd
  0
BLOCK
  5
79FD8
330
79FD7
100
AcDbEntity
  8
0
100
AcDbBlockBegin
  2
DDPROJ_11
 70
     0
 71
     0
 10
0.0
 20
0.0
 30
0.0
  3
DDPROJ_11
  1

  0
LINE
  5
79CA4
330
79FD7
100
AcDbEntity
  8
Level 26
 62
   133
370
     0
100
AcDbLine
 10
-0.011714
 20
-1.833517
 30
0.0
 11
-0.131714
 21
-1.833517
 31
0.0
  0
LINE
  5
79CA5
330
79FD7
100
AcDbEntity
  8
Level 26
 62
   133
370
     0
100
AcDbLine
 10
-0.131714
 20
-1.833517
 30
0.0
 11
-0.011714
 21
-1.833517
 31
0.0
  0
LINE
  5
79CA6
330
79FD7
100
AcDbEntity
  8
Level 26
 62
   133
370
     0
100
AcDbLine
 10
-0.011714
 20
-2.483517
 30
0.0
 11
-0.131714
 21
-2.483517
 31
0.0
  0
LINE
  5
79CA7
330
79FD7
100
AcDbEntity
  8
Level 26
 62
   133
370
     0
100
AcDbLine
 10
-0.131714
 20
-2.483517
 30
0.0
 11
-0.011714
 21
-2.483517
 31
0.0
  0
LINE
  5
79CA8
330
79FD7
100
AcDbEntity
  8
Level 26
 62
   133
370
     0
100
AcDbLine
 10
-0.131714
 20
-1.933517
 30
0.0
 11
-0.131714
 21
-2.383517
 31
0.0
  0
LINE
  5
79CA9
330
79FD7
100
AcDbEntity
  8
Level 26
 62
   133
370
     0
100
AcDbLine
 10
-0.131714
 20
-1.933517
 30
0.0
 11
-0.131714
 21
-2.383517
 31
0.0
  0
LINE
  5
79CAA
330
79FD7
100
AcDbEntity
  8
Level 26
 62
   133
370
     0
100
AcDbLine
 10
-0.011714
 20
-1.833517
 30
0.0
 11
-0.011714
 21
-2.483517
 31
0.0
  0
POINT
  5
79CAB
330
79FD7
100
AcDbEntity
  8
Level 26
 62
   133
370
     0
100
AcDbPoint
 10
-0.131714
 20
-2.483517
 30
0.0
  0
LINE
  5
79CAC
330
79FD7
100
AcDbEntity
  8
Level 26
 62
   133
370
     0
100
AcDbLine
 10
-0.011714
 20
-1.833517
 30
0.0
 11
-0.011714
 21
-2.483517
 31
0.0
  0
LINE
  5
79CAD
330
79FD7
100
AcDbEntity
  8
Level 26
 62
   133
370
     0
100
AcDbLine
 10
-0.131714
 20
-1.833517
 30
0.0
 11
-0.131714
 21
-2.483517
 31
0.0
  0
POINT
  5
79CAE
330
79FD7
100
AcDbEntity
  8
Level 26
 62
   133
370
     0
100
AcDbPoint
 10
-0.131714
 20
-1.833517
 30
0.0
  0
POINT
  5
79CAF
330
79FD7
100
AcDbEntity
  8
Level 26
 62
   133
370
     0
100
AcDbPoint
 10
-0.131714
 20
-2.483517
 30
0.0
  0
LINE
  5
79CB0
330
79FD7
100
AcDbEntity
  8
Level 26
 62
   133
370
     0
100
AcDbLine
 10
-0.131714
 20
-1.833517
 30
0.0
 11
-0.131714
 21
-2.483517
 31
0.0
  0
POINT
  5
79CB1
330
79FD7
100
AcDbEntity
  8
Level 26
 62
   133
370
     0
100
AcDbPoint
 10
-0.131714
 20
-1.833517
 30
0.0
  0
POINT
  5
79CB2
330
79FD7
100
AcDbEntity
  8
Level 26
 62
   133
370
     0
100
AcDbPoint
 10
-0.131714
 20
-2.383517
 30
0.0
  0
POINT
  5
79CB3
330
79FD7
100
AcDbEntity
  8
Level 26
 62
   133
370
     0
100
AcDbPoint
 10
-0.131714
 20
-2.383517
 30
0.0
  0
LINE
  5
79CB4
330
79FD7
100
AcDbEntity
  8
Level 26
 62
   133
370
     0
100
AcDbLine
 10
-0.131714
 20
-2.483517
 30
0.0
 11
-0.131714
 21
-2.383517
 31
0.0
  0
LINE
  5
79CB5
330
79FD7
100
AcDbEntity
  8
Level 26
 62
   133
370
     0
100
AcDbLine
 10
-0.131714
 20
-2.483517
 30
0.0
 11
-0.131714
 21
-2.383517
 31
0.0
  0
POINT
  5
79CB6
330
79FD7
100
AcDbEntity
  8
Level 26
 62
   133
370
     0
100
AcDbPoint
 10
-0.131714
 20
-1.933517
 30
0.0
  0
LINE
  5
79CB7
330
79FD7
100
AcDbEntity
  8
Level 26
 62
   133
370
     0
100
AcDbLine
 10
-0.131714
 20
-1.933517
 30
0.0
 11
-0.131714
 21
-1.833517
 31
0.0
  0
POINT
  5
79CB8
330
79FD7
100
AcDbEntity
  8
Level 26
 62
   133
370
     0
100
AcDbPoint
 10
-0.131714
 20
-1.933517
 30
0.0
  0
LINE
  5
79CB9
330
79FD7
100
AcDbEntity
  8
Level 26
 62
   133
370
     0
100
AcDbLine
 10
-0.131714
 20
-1.933517
 30
0.0
 11
-0.131714
 21
-1.833517
 31
0.0
  0
LINE
  5
79CBA
330
79FD7
100
AcDbEntity
  8
Level 26
 62
   133
370
     0
100
AcDbLine
 10
-0.131714
 20
-2.158517
 30
0.0
 11
-0.011714
 21
-2.158517
 31
0.0
  0
LINE
  5
79CBB
330
79FD7
100
AcDbEntity
  8
Level 26
 62
   133
370
     0
100
AcDbLine
 10
-0.131714
 20
-2.483517
 30
0.0
 11
-0.011714
 21
-2.483517
 31
0.0
  0
LINE
  5
79CBC
330
79FD7
100
AcDbEntity
  8
Level 26
 62
   133
370
     0
100
AcDbLine
 10
-0.131714
 20
-2.158517
 30
0.0
 11
-0.011714
 21
-2.158517
 31
0.0
  0
LINE
  5
79CBD
330
79FD7
100
AcDbEntity
  8
Level 26
 62
   133
370
     0
100
AcDbLine
 10
-0.131714
 20
-1.833517
 30
0.0
 11
-0.011714
 21
-1.833517
 31
0.0
  0
ENDBLK
  5
79FD9
330
79FD7
100
AcDbEntity
  8
0
100
AcDbBlockEnd
  0
BLOCK
  5
79FDB
330
79FDA
100
AcDbEntity
  8
0
100
AcDbBlockBegin
  2
UNITE_8
 70
     0
 71
     0
 10
0.0
 20
0.0
 30
0.0
  3
UNITE_8
  1

  0
INSERT
  5
79CBF
330
79FDA
100
AcDbEntity
  8
Level 26
 62
   133
370
     0
100
AcDbBlockReference
  2
Feature Solid_20
 10
0.0
 20
0.0
 30
0.0
  0
INSERT
  5
79CC6
330
79FDA
100
AcDbEntity
  8
Level 26
 62
   133
370
     0
100
AcDbBlockReference
  2
Feature Solid_21
 10
0.0
 20
-0.55
 30
0.0
  0
INSERT
  5
79CCD
330
79FDA
100
AcDbEntity
  8
Level 8
 62
   133
370
     0
100
AcDbBlockReference
  2
Feature Solid_22
 10
0.0
 20
0.0
 30
0.0
  0
ENDBLK
  5
79FDC
330
79FDA
100
AcDbEntity
  8
0
100
AcDbBlockEnd
  0
BLOCK
  5
79FDE
330
79FDD
100
AcDbEntity
  8
0
100
AcDbBlockBegin
  2
Feature Solid_20
 70
     0
 71
     0
 10
0.0
 20
0.0
 30
0.0
  3
Feature Solid_20
  1

  0
INSERT
  5
79CC0
330
79FDD
100
AcDbEntity
  8
Level 26
 62
   133
370
     0
100
AcDbBlockReference
  2
DDPROJ_12
 10
0.0
 20
0.0
 30
0.0
  0
ENDBLK
  5
79FDF
330
79FDD
100
AcDbEntity
  8
0
100
AcDbBlockEnd
  0
BLOCK
  5
79FE1
330
79FE0
100
AcDbEntity
  8
0
100
AcDbBlockBegin
  2
DDPROJ_12
 70
     0
 71
     0
 10
0.0
 20
0.0
 30
0.0
  3
DDPROJ_12
  1

  0
POINT
  5
79CC1
330
79FE0
100
AcDbEntity
  8
Level 26
 62
   133
370
     0
100
AcDbPoint
 10
0.011714
 20
-1.833517
 30
0.0
  0
LINE
  5
79CC2
330
79FE0
100
AcDbEntity
  8
Level 26
 62
   133
370
     0
100
AcDbLine
 10
0.131714
 20
-1.933517
 30
0.0
 11
0.359125
 21
-1.933517
 31
0.0
  0
LINE
  5
79CC3
330
79FE0
100
AcDbEntity
  8
Level 26
 62
   133
370
     0
100
AcDbLine
 10
0.131714
 20
-1.833517
 30
0.0
 11
0.431714
 21
-1.833517
 31
0.0
  0
LINE
  5
79CC4
330
79FE0
100
AcDbEntity
  8
Level 26
 62
   133
370
     0
100
AcDbLine
 10
0.131714
 20
-1.833517
 30
0.0
 11
0.431714
 21
-1.833517
 31
0.0
  0
LINE
  5
79CC5
330
79FE0
100
AcDbEntity
  8
Level 26
 62
   133
370
     0
100
AcDbLine
 10
0.131714
 20
-1.933517
 30
0.0
 11
0.359125
 21
-1.933517
 31
0.0
  0
ENDBLK
  5
79FE2
330
79FE0
100
AcDbEntity
  8
0
100
AcDbBlockEnd
  0
BLOCK
  5
79FE4
330
79FE3
100
AcDbEntity
  8
0
100
AcDbBlockBegin
  2
Feature Solid_21
 70
     0
 71
     0
 10
0.0
 20
0.0
 30
0.0
  3
Feature Solid_21
  1

  0
INSERT
  5
79CC7
330
79FE3
100
AcDbEntity
  8
Level 26
 62
   133
370
     0
100
AcDbBlockReference
  2
DDPROJ_13
 10
0.0
 20
0.0
 30
0.0
  0
ENDBLK
  5
79FE5
330
79FE3
100
AcDbEntity
  8
0
100
AcDbBlockEnd
  0
BLOCK
  5
79FE7
330
79FE6
100
AcDbEntity
  8
0
100
AcDbBlockBegin
  2
DDPROJ_13
 70
     0
 71
     0
 10
0.0
 20
0.0
 30
0.0
  3
DDPROJ_13
  1

  0
POINT
  5
79CC8
330
79FE6
100
AcDbEntity
  8
Level 26
 62
   133
370
     0
100
AcDbPoint
 10
0.011714
 20
-1.933517
 30
0.0
  0
LINE
  5
79CC9
330
79FE6
100
AcDbEntity
  8
Level 26
 62
   133
370
     0
100
AcDbLine
 10
0.131714
 20
-1.933517
 30
0.0
 11
0.431714
 21
-1.933517
 31
0.0
  0
LINE
  5
79CCA
330
79FE6
100
AcDbEntity
  8
Level 26
 62
   133
370
     0
100
AcDbLine
 10
0.131714
 20
-1.833517
 30
0.0
 11
0.359125
 21
-1.833517
 31
0.0
  0
LINE
  5
79CCB
330
79FE6
100
AcDbEntity
  8
Level 26
 62
   133
370
     0
100
AcDbLine
 10
0.131714
 20
-1.833517
 30
0.0
 11
0.359125
 21
-1.833517
 31
0.0
  0
LINE
  5
79CCC
330
79FE6
100
AcDbEntity
  8
Level 26
 62
   133
370
     0
100
AcDbLine
 10
0.131714
 20
-1.933517
 30
0.0
 11
0.431714
 21
-1.933517
 31
0.0
  0
ENDBLK
  5
79FE8
330
79FE6
100
AcDbEntity
  8
0
100
AcDbBlockEnd
  0
BLOCK
  5
79FEA
330
79FE9
100
AcDbEntity
  8
0
100
AcDbBlockBegin
  2
Feature Solid_22
 70
     0
 71
     0
 10
0.0
 20
0.0
 30
0.0
  3
Feature Solid_22
  1

  0
INSERT
  5
79CCE
330
79FE9
100
AcDbEntity
  8
Level 8
 62
   133
370
     0
100
AcDbBlockReference
  2
UNITE_9
 10
0.0
 20
0.0
 30
0.0
  0
ENDBLK
  5
79FEB
330
79FE9
100
AcDbEntity
  8
0
100
AcDbBlockEnd
  0
BLOCK
  5
79FED
330
79FEC
100
AcDbEntity
  8
0
100
AcDbBlockBegin
  2
UNITE_9
 70
     0
 71
     0
 10
0.0
 20
0.0
 30
0.0
  3
UNITE_9
  1

  0
INSERT
  5
79CCF
330
79FEC
100
AcDbEntity
  8
Level 8
 62
   133
370
     0
100
AcDbBlockReference
  2
Feature Solid_23
 10
0.0
 20
0.0
 30
0.0
  0
INSERT
  5
79CE5
330
79FEC
100
AcDbEntity
  8
Level 26
 62
   133
370
     0
100
AcDbBlockReference
  2
Feature Solid_24
 10
0.0
 20
0.0
 30
0.0
  0
ENDBLK
  5
79FEE
330
79FEC
100
AcDbEntity
  8
0
100
AcDbBlockEnd
  0
BLOCK
  5
79FF0
330
79FEF
100
AcDbEntity
  8
0
100
AcDbBlockBegin
  2
Feature Solid_23
 70
     0
 71
     0
 10
0.0
 20
0.0
 30
0.0
  3
Feature Solid_23
  1

  0
INSERT
  5
79CD0
330
79FEF
100
AcDbEntity
  8
Level 8
 62
   133
370
     0
100
AcDbBlockReference
  2
CONE_4
 10
0.0
 20
0.0
 30
0.0
  0
ENDBLK
  5
79FF1
330
79FEF
100
AcDbEntity
  8
0
100
AcDbBlockEnd
  0
BLOCK
  5
79FF3
330
79FF2
100
AcDbEntity
  8
0
100
AcDbBlockBegin
  2
CONE_4
 70
     0
 71
     0
 10
0.0
 20
0.0
 30
0.0
  3
CONE_4
  1

  0
LINE
  5
79CD1
330
79FF2
100
AcDbEntity
  8
Level 8
 62
   133
370
     0
100
AcDbLine
 10
0.431714
 20
-1.833517
 30
0.0
 11
0.431714
 21
-2.483517
 31
0.0
  0
LINE
  5
79CD2
330
79FF2
100
AcDbEntity
  8
Level 8
 62
   133
370
     0
100
AcDbLine
 10
0.131714
 20
-2.383517
 30
0.0
 11
0.359125
 21
-2.383517
 31
0.0
  0
LINE
  5
79CD3
330
79FF2
100
AcDbEntity
  8
Level 8
 62
   133
370
     0
100
AcDbLine
 10
0.131714
 20
-2.383517
 30
0.0
 11
0.359125
 21
-2.383517
 31
0.0
  0
SPLINE
  5
79CD4
330
79FF2
100
AcDbEntity
  8
Level 8
 62
   133
370
     0
100
AcDbSpline
210
0.0
220
0.0
230
1.0
 70
     8
 71
     3
 72
    17
 73
    13
 74
     0
 42
0.0000000001
 43
0.00000001
 40
0.0
 40
0.0
 40
0.0
 40
0.0
 40
0.1188920175173181
 40
0.1188920175173181
 40
0.1188920175173181
 40
0.4370642450454728
 40
0.4370642450454728
 40
0.4370642450454728
 40
0.7708126268407274
 40
0.7708126268407274
 40
0.7708126268407274
 40
1.0
 40
1.0
 40
1.0
 40
1.0
 10
0.4317136962460424
 20
-2.483517035676399
 30
0.0
 10
0.4317136962460353
 20
-2.483517035676399
 30
0.0
 10
0.4312857853703775
 20
-2.482970961108962
 30
0.0
 10
0.4304413967249445
 20
-2.481890266834162
 30
0.0
 10
0.4281893687172342
 20
-2.479007999541993
 30
0.0
 10
0.4228496497948342
 20
-2.472181370284083
 30
0.0
 10
0.4152805637156831
 20
-2.462245290317638
 30
0.0
 10
0.407328803424555
 20
-2.451806866801185
 30
0.0
 10
0.3967863239604554
 20
-2.437764099143893
 30
0.0
 10
0.3850241073261103
 20
-2.42127018794613
 30
0.0
 10
0.3768999155639108
 20
-2.409877803190351
 30
0.0
 10
0.3681165556180162
 20
-2.397205829360038
 30
0.0
 10
0.3591253483963541
 20
-2.383517035681363
 30
0.0
  0
SPLINE
  5
79CD7
330
79FF2
100
AcDbEntity
  8
Level 8
 62
   133
370
     0
100
AcDbSpline
210
0.0
220
0.0
230
1.0
 70
     8
 71
     3
 72
    14
 73
    10
 74
     0
 42
0.0000000001
 43
0.00000001
 40
0.0
 40
0.0
 40
0.0
 40
0.0
 40
0.4155111778321488
 40
0.4155111778321488
 40
0.4155111778321488
 40
0.7657511632294429
 40
0.7657511632294429
 40
0.7657511632294429
 40
1.0
 40
1.0
 40
1.0
 40
1.0
 10
0.3591253483958568
 20
-2.38351703567638
 30
0.0
 10
0.3753273199526888
 20
-2.408183961970713
 30
0.0
 10
0.3909352251375111
 20
-2.429723842876861
 30
0.0
 10
0.4032945372283621
 20
-2.446330563598322
 30
0.0
 10
0.4137190532494017
 20
-2.460337575068316
 30
0.0
 10
0.4220439846594033
 20
-2.471094914404414
 30
0.0
 10
0.426831232121323
 20
-2.477256738635805
 30
0.0
 10
0.4300308856968016
 20
-2.481375118370782
 30
0.0
 10
0.4317136962460424
 20
-2.483517035676399
 30
0.0
 10
0.4317136962460424
 20
-2.483517035676399
 30
0.0
  0
LINE
  5
79CDA
330
79FF2
100
AcDbEntity
  8
Level 8
 62
   133
370
     0
100
AcDbLine
 10
0.431714
 20
-1.833517
 30
0.0
 11
0.431714
 21
-2.483517
 31
0.0
  0
SPLINE
  5
79CDB
330
79FF2
100
AcDbEntity
  8
Level 8
 62
   133
370
     0
100
AcDbSpline
210
0.0
220
0.0
230
1.0
 70
     8
 71
     3
 72
    17
 73
    13
 74
     0
 42
0.0000000001
 43
0.00000001
 40
0.0
 40
0.0
 40
0.0
 40
0.0
 40
0.1188920175167992
 40
0.1188920175167992
 40
0.1188920175167992
 40
0.4370642450447248
 40
0.4370642450447248
 40
0.4370642450447248
 40
0.7708126268396294
 40
0.7708126268396294
 40
0.7708126268396294
 40
1.0
 40
1.0
 40
1.0
 40
1.0
 10
0.4317136962460353
 20
-1.83351703567625
 30
0.0
 10
0.4317136962460353
 20
-1.83351703567625
 30
0.0
 10
0.4312857853703846
 20
-1.834063110243678
 30
0.0
 10
0.4304413967249587
 20
-1.835143804518469
 30
0.0
 10
0.4281893687172627
 20
-1.838026071810629
 30
0.0
 10
0.4228496497948768
 20
-1.84485270106853
 30
0.0
 10
0.41528056371574
 20
-1.854788781034974
 30
0.0
 10
0.4073288034246261
 20
-1.865227204551417
 30
0.0
 10
0.3967863239605478
 20
-1.879269972208701
 30
0.0
 10
0.3850241073262168
 20
-1.895763883406454
 30
0.0
 10
0.3768999155639818
 20
-1.907156268162289
 30
0.0
 10
0.3681165556180446
 20
-1.919828241992676
 30
0.0
 10
0.3591253483963257
 20
-1.933517035671435
 30
0.0
  0
LINE
  5
79CDE
330
79FF2
100
AcDbEntity
  8
Level 8
 62
   133
370
     0
100
AcDbLine
 10
0.131714
 20
-1.933517
 30
0.0
 11
0.359125
 21
-1.933517
 31
0.0
  0
LINE
  5
79CDF
330
79FF2
100
AcDbEntity
  8
Level 8
 62
   133
370
     0
100
AcDbLine
 10
0.131714
 20
-1.933517
 30
0.0
 11
0.359125
 21
-1.933517
 31
0.0
  0
SPLINE
  5
79CE0
330
79FF2
100
AcDbEntity
  8
Level 8
 62
   133
370
     0
100
AcDbSpline
210
0.0
220
0.0
230
1.0
 70
     8
 71
     3
 72
    14
 73
    10
 74
     0
 42
0.0000000001
 43
0.00000001
 40
0.0
 40
0.0
 40
0.0
 40
0.0
 40
0.4155111778320348
 40
0.4155111778320348
 40
0.4155111778320348
 40
0.7657511632291136
 40
0.7657511632291136
 40
0.7657511632291136
 40
1.0
 40
1.0
 40
1.0
 40
1.0
 10
0.3591253483956649
 20
-1.933517035676418
 30
0.0
 10
0.3753273199525182
 20
-1.908850109382067
 30
0.0
 10
0.390935225137369
 20
-1.887310228475882
 30
0.0
 10
0.4032945372282484
 20
-1.870703507754402
 30
0.0
 10
0.4137190532493094
 20
-1.85669649628439
 30
0.0
 10
0.4220439846593322
 20
-1.845939156948282
 30
0.0
 10
0.4268312321212733
 20
-1.839777332716864
 30
0.0
 10
0.4300308856967803
 20
-1.835658952981876
 30
0.0
 10
0.4317136962460353
 20
-1.83351703567625
 30
0.0
 10
0.4317136962460353
 20
-1.83351703567625
 30
0.0
  0
LINE
  5
79CE3
330
79FF2
100
AcDbEntity
  8
Level 8
 62
   133
370
     0
100
AcDbLine
 10
0.131714
 20
-2.158517
 30
0.0
 11
0.431714
 21
-2.158517
 31
0.0
  0
LINE
  5
79CE4
330
79FF2
100
AcDbEntity
  8
Level 8
 62
   133
370
     0
100
AcDbLine
 10
0.131714
 20
-2.158517
 30
0.0
 11
0.431714
 21
-2.158517
 31
0.0
  0
ENDBLK
  5
79FF4
330
79FF2
100
AcDbEntity
  8
0
100
AcDbBlockEnd
  0
BLOCK
  5
79FF6
330
79FF5
100
AcDbEntity
  8
0
100
AcDbBlockBegin
  2
Feature Solid_24
 70
     0
 71
     0
 10
0.0
 20
0.0
 30
0.0
  3
Feature Solid_24
  1

  0
INSERT
  5
79CE6
330
79FF5
100
AcDbEntity
  8
Level 26
 62
   133
370
     0
100
AcDbBlockReference
  2
DDPROJ_14
 10
0.0
 20
0.0
 30
0.0
  0
ENDBLK
  5
79FF7
330
79FF5
100
AcDbEntity
  8
0
100
AcDbBlockEnd
  0
BLOCK
  5
79FF9
330
79FF8
100
AcDbEntity
  8
0
100
AcDbBlockBegin
  2
DDPROJ_14
 70
     0
 71
     0
 10
0.0
 20
0.0
 30
0.0
  3
DDPROJ_14
  1

  0
LINE
  5
79CE7
330
79FF8
100
AcDbEntity
  8
Level 26
 62
   133
370
     0
100
AcDbLine
 10
0.011714
 20
-1.833517
 30
0.0
 11
0.131714
 21
-1.833517
 31
0.0
  0
LINE
  5
79CE8
330
79FF8
100
AcDbEntity
  8
Level 26
 62
   133
370
     0
100
AcDbLine
 10
0.131714
 20
-1.833517
 30
0.0
 11
0.011714
 21
-1.833517
 31
0.0
  0
LINE
  5
79CE9
330
79FF8
100
AcDbEntity
  8
Level 26
 62
   133
370
     0
100
AcDbLine
 10
0.011714
 20
-2.483517
 30
0.0
 11
0.131714
 21
-2.483517
 31
0.0
  0
LINE
  5
79CEA
330
79FF8
100
AcDbEntity
  8
Level 26
 62
   133
370
     0
100
AcDbLine
 10
0.131714
 20
-2.483517
 30
0.0
 11
0.011714
 21
-2.483517
 31
0.0
  0
LINE
  5
79CEB
330
79FF8
100
AcDbEntity
  8
Level 26
 62
   133
370
     0
100
AcDbLine
 10
0.131714
 20
-1.933517
 30
0.0
 11
0.131714
 21
-2.383517
 31
0.0
  0
LINE
  5
79CEC
330
79FF8
100
AcDbEntity
  8
Level 26
 62
   133
370
     0
100
AcDbLine
 10
0.131714
 20
-1.933517
 30
0.0
 11
0.131714
 21
-2.383517
 31
0.0
  0
LINE
  5
79CED
330
79FF8
100
AcDbEntity
  8
Level 26
 62
   133
370
     0
100
AcDbLine
 10
0.011714
 20
-1.833517
 30
0.0
 11
0.011714
 21
-2.483517
 31
0.0
  0
POINT
  5
79CEE
330
79FF8
100
AcDbEntity
  8
Level 26
 62
   133
370
     0
100
AcDbPoint
 10
0.131714
 20
-2.483517
 30
0.0
  0
LINE
  5
79CEF
330
79FF8
100
AcDbEntity
  8
Level 26
 62
   133
370
     0
100
AcDbLine
 10
0.011714
 20
-1.833517
 30
0.0
 11
0.011714
 21
-2.483517
 31
0.0
  0
LINE
  5
79CF0
330
79FF8
100
AcDbEntity
  8
Level 26
 62
   133
370
     0
100
AcDbLine
 10
0.131714
 20
-1.833517
 30
0.0
 11
0.131714
 21
-2.483517
 31
0.0
  0
POINT
  5
79CF1
330
79FF8
100
AcDbEntity
  8
Level 26
 62
   133
370
     0
100
AcDbPoint
 10
0.131714
 20
-1.833517
 30
0.0
  0
POINT
  5
79CF2
330
79FF8
100
AcDbEntity
  8
Level 26
 62
   133
370
     0
100
AcDbPoint
 10
0.131714
 20
-2.483517
 30
0.0
  0
LINE
  5
79CF3
330
79FF8
100
AcDbEntity
  8
Level 26
 62
   133
370
     0
100
AcDbLine
 10
0.131714
 20
-1.833517
 30
0.0
 11
0.131714
 21
-2.483517
 31
0.0
  0
POINT
  5
79CF4
330
79FF8
100
AcDbEntity
  8
Level 26
 62
   133
370
     0
100
AcDbPoint
 10
0.131714
 20
-1.833517
 30
0.0
  0
POINT
  5
79CF5
330
79FF8
100
AcDbEntity
  8
Level 26
 62
   133
370
     0
100
AcDbPoint
 10
0.131714
 20
-2.383517
 30
0.0
  0
POINT
  5
79CF6
330
79FF8
100
AcDbEntity
  8
Level 26
 62
   133
370
     0
100
AcDbPoint
 10
0.131714
 20
-2.383517
 30
0.0
  0
LINE
  5
79CF7
330
79FF8
100
AcDbEntity
  8
Level 26
 62
   133
370
     0
100
AcDbLine
 10
0.131714
 20
-2.483517
 30
0.0
 11
0.131714
 21
-2.383517
 31
0.0
  0
LINE
  5
79CF8
330
79FF8
100
AcDbEntity
  8
Level 26
 62
   133
370
     0
100
AcDbLine
 10
0.131714
 20
-2.483517
 30
0.0
 11
0.131714
 21
-2.383517
 31
0.0
  0
POINT
  5
79CF9
330
79FF8
100
AcDbEntity
  8
Level 26
 62
   133
370
     0
100
AcDbPoint
 10
0.131714
 20
-1.933517
 30
0.0
  0
LINE
  5
79CFA
330
79FF8
100
AcDbEntity
  8
Level 26
 62
   133
370
     0
100
AcDbLine
 10
0.131714
 20
-1.933517
 30
0.0
 11
0.131714
 21
-1.833517
 31
0.0
  0
POINT
  5
79CFB
330
79FF8
100
AcDbEntity
  8
Level 26
 62
   133
370
     0
100
AcDbPoint
 10
0.131714
 20
-1.933517
 30
0.0
  0
LINE
  5
79CFC
330
79FF8
100
AcDbEntity
  8
Level 26
 62
   133
370
     0
100
AcDbLine
 10
0.131714
 20
-1.933517
 30
0.0
 11
0.131714
 21
-1.833517
 31
0.0
  0
LINE
  5
79CFD
330
79FF8
100
AcDbEntity
  8
Level 26
 62
   133
370
     0
100
AcDbLine
 10
0.131714
 20
-2.158517
 30
0.0
 11
0.011714
 21
-2.158517
 31
0.0
  0
LINE
  5
79CFE
330
79FF8
100
AcDbEntity
  8
Level 26
 62
   133
370
     0
100
AcDbLine
 10
0.131714
 20
-2.483517
 30
0.0
 11
0.011714
 21
-2.483517
 31
0.0
  0
LINE
  5
79CFF
330
79FF8
100
AcDbEntity
  8
Level 26
 62
   133
370
     0
100
AcDbLine
 10
0.131714
 20
-2.158517
 30
0.0
 11
0.011714
 21
-2.158517
 31
0.0
  0
LINE
  5
79D00
330
79FF8
100
AcDbEntity
  8
Level 26
 62
   133
370
     0
100
AcDbLine
 10
0.131714
 20
-1.833517
 30
0.0
 11
0.011714
 21
-1.833517
 31
0.0
  0
ENDBLK
  5
79FFA
330
79FF8
100
AcDbEntity
  8
0
100
AcDbBlockEnd
  0
BLOCK
  5
79FFC
330
79FFB
100
AcDbEntity
  8
0
100
AcDbBlockBegin
  2
UNITE_10
 70
     0
 71
     0
 10
0.0
 20
0.0
 30
0.0
  3
UNITE_10
  1

  0
INSERT
  5
79D02
330
79FFB
100
AcDbEntity
  8
Level 26
 62
   133
370
     0
100
AcDbBlockReference
  2
Feature Solid_25
 10
0.0
 20
0.0
 30
0.0
  0
INSERT
  5
79D09
330
79FFB
100
AcDbEntity
  8
Level 26
 62
   133
370
     0
100
AcDbBlockReference
  2
Feature Solid_26
 10
0.0
 20
-0.55
 30
0.0
  0
INSERT
  5
79D10
330
79FFB
100
AcDbEntity
  8
Level 8
 62
   133
370
     0
100
AcDbBlockReference
  2
Feature Solid_27
 10
0.0
 20
0.0
 30
0.0
  0
ENDBLK
  5
79FFD
330
79FFB
100
AcDbEntity
  8
0
100
AcDbBlockEnd
  0
BLOCK
  5
79FFF
330
79FFE
100
AcDbEntity
  8
0
100
AcDbBlockBegin
  2
Feature Solid_25
 70
     0
 71
     0
 10
0.0
 20
0.0
 30
0.0
  3
Feature Solid_25
  1

  0
INSERT
  5
79D03
330
79FFE
100
AcDbEntity
  8
Level 26
 62
   133
370
     0
100
AcDbBlockReference
  2
DDPROJ_15
 10
0.0
 20
0.0
 30
0.0
  0
ENDBLK
  5
7A000
330
79FFE
100
AcDbEntity
  8
0
100
AcDbBlockEnd
  0
BLOCK
  5
7A002
330
7A001
100
AcDbEntity
  8
0
100
AcDbBlockBegin
  2
DDPROJ_15
 70
     0
 71
     0
 10
0.0
 20
0.0
 30
0.0
  3
DDPROJ_15
  1

  0
POINT
  5
79D04
330
7A001
100
AcDbEntity
  8
Level 26
 62
   133
370
     0
100
AcDbPoint
 10
-0.011714
 20
-1.833517
 30
0.0
  0
LINE
  5
79D05
330
7A001
100
AcDbEntity
  8
Level 26
 62
   133
370
     0
100
AcDbLine
 10
-0.131714
 20
-1.933517
 30
0.0
 11
-0.359125
 21
-1.933517
 31
0.0
  0
LINE
  5
79D06
330
7A001
100
AcDbEntity
  8
Level 26
 62
   133
370
     0
100
AcDbLine
 10
-0.131714
 20
-1.833517
 30
0.0
 11
-0.431714
 21
-1.833517
 31
0.0
  0
LINE
  5
79D07
330
7A001
100
AcDbEntity
  8
Level 26
 62
   133
370
     0
100
AcDbLine
 10
-0.131714
 20
-1.833517
 30
0.0
 11
-0.431714
 21
-1.833517
 31
0.0
  0
LINE
  5
79D08
330
7A001
100
AcDbEntity
  8
Level 26
 62
   133
370
     0
100
AcDbLine
 10
-0.131714
 20
-1.933517
 30
0.0
 11
-0.359125
 21
-1.933517
 31
0.0
  0
ENDBLK
  5
7A003
330
7A001
100
AcDbEntity
  8
0
100
AcDbBlockEnd
  0
BLOCK
  5
7A005
330
7A004
100
AcDbEntity
  8
0
100
AcDbBlockBegin
  2
Feature Solid_26
 70
     0
 71
     0
 10
0.0
 20
0.0
 30
0.0
  3
Feature Solid_26
  1

  0
INSERT
  5
79D0A
330
7A004
100
AcDbEntity
  8
Level 26
 62
   133
370
     0
100
AcDbBlockReference
  2
DDPROJ_16
 10
0.0
 20
0.0
 30
0.0
  0
ENDBLK
  5
7A006
330
7A004
100
AcDbEntity
  8
0
100
AcDbBlockEnd
  0
BLOCK
  5
7A008
330
7A007
100
AcDbEntity
  8
0
100
AcDbBlockBegin
  2
DDPROJ_16
 70
     0
 71
     0
 10
0.0
 20
0.0
 30
0.0
  3
DDPROJ_16
  1

  0
POINT
  5
79D0B
330
7A007
100
AcDbEntity
  8
Level 26
 62
   133
370
     0
100
AcDbPoint
 10
-0.011714
 20
-1.933517
 30
0.0
  0
LINE
  5
79D0C
330
7A007
100
AcDbEntity
  8
Level 26
 62
   133
370
     0
100
AcDbLine
 10
-0.131714
 20
-1.933517
 30
0.0
 11
-0.431714
 21
-1.933517
 31
0.0
  0
LINE
  5
79D0D
330
7A007
100
AcDbEntity
  8
Level 26
 62
   133
370
     0
100
AcDbLine
 10
-0.131714
 20
-1.833517
 30
0.0
 11
-0.359125
 21
-1.833517
 31
0.0
  0
LINE
  5
79D0E
330
7A007
100
AcDbEntity
  8
Level 26
 62
   133
370
     0
100
AcDbLine
 10
-0.131714
 20
-1.833517
 30
0.0
 11
-0.359125
 21
-1.833517
 31
0.0
  0
LINE
  5
79D0F
330
7A007
100
AcDbEntity
  8
Level 26
 62
   133
370
     0
100
AcDbLine
 10
-0.131714
 20
-1.933517
 30
0.0
 11
-0.431714
 21
-1.933517
 31
0.0
  0
ENDBLK
  5
7A009
330
7A007
100
AcDbEntity
  8
0
100
AcDbBlockEnd
  0
BLOCK
  5
7A00B
330
7A00A
100
AcDbEntity
  8
0
100
AcDbBlockBegin
  2
Feature Solid_27
 70
     0
 71
     0
 10
0.0
 20
0.0
 30
0.0
  3
Feature Solid_27
  1

  0
INSERT
  5
79D11
330
7A00A
100
AcDbEntity
  8
Level 8
 62
   133
370
     0
100
AcDbBlockReference
  2
UNITE_11
 10
0.0
 20
0.0
 30
0.0
  0
ENDBLK
  5
7A00C
330
7A00A
100
AcDbEntity
  8
0
100
AcDbBlockEnd
  0
BLOCK
  5
7A00E
330
7A00D
100
AcDbEntity
  8
0
100
AcDbBlockBegin
  2
UNITE_11
 70
     0
 71
     0
 10
0.0
 20
0.0
 30
0.0
  3
UNITE_11
  1

  0
INSERT
  5
79D12
330
7A00D
100
AcDbEntity
  8
Level 8
 62
   133
370
     0
100
AcDbBlockReference
  2
Feature Solid_28
 10
0.0
 20
0.0
 30
0.0
  0
INSERT
  5
79D28
330
7A00D
100
AcDbEntity
  8
Level 26
 62
   133
370
     0
100
AcDbBlockReference
  2
Feature Solid_29
 10
0.0
 20
0.0
 30
0.0
  0
ENDBLK
  5
7A00F
330
7A00D
100
AcDbEntity
  8
0
100
AcDbBlockEnd
  0
BLOCK
  5
7A011
330
7A010
100
AcDbEntity
  8
0
100
AcDbBlockBegin
  2
Feature Solid_28
 70
     0
 71
     0
 10
0.0
 20
0.0
 30
0.0
  3
Feature Solid_28
  1

  0
INSERT
  5
79D13
330
7A010
100
AcDbEntity
  8
Level 8
 62
   133
370
     0
100
AcDbBlockReference
  2
CONE_5
 10
0.0
 20
0.0
 30
0.0
  0
ENDBLK
  5
7A012
330
7A010
100
AcDbEntity
  8
0
100
AcDbBlockEnd
  0
BLOCK
  5
7A014
330
7A013
100
AcDbEntity
  8
0
100
AcDbBlockBegin
  2
CONE_5
 70
     0
 71
     0
 10
0.0
 20
0.0
 30
0.0
  3
CONE_5
  1

  0
LINE
  5
79D14
330
7A013
100
AcDbEntity
  8
Level 8
 62
   133
370
     0
100
AcDbLine
 10
-0.431714
 20
-1.833517
 30
0.0
 11
-0.431714
 21
-2.483517
 31
0.0
  0
LINE
  5
79D15
330
7A013
100
AcDbEntity
  8
Level 8
 62
   133
370
     0
100
AcDbLine
 10
-0.131714
 20
-2.383517
 30
0.0
 11
-0.359125
 21
-2.383517
 31
0.0
  0
LINE
  5
79D16
330
7A013
100
AcDbEntity
  8
Level 8
 62
   133
370
     0
100
AcDbLine
 10
-0.131714
 20
-2.383517
 30
0.0
 11
-0.359125
 21
-2.383517
 31
0.0
  0
SPLINE
  5
79D17
330
7A013
100
AcDbEntity
  8
Level 8
 62
   133
370
     0
100
AcDbSpline
210
0.0
220
0.0
230
1.0
 70
     8
 71
     3
 72
    17
 73
    13
 74
     0
 42
0.0000000001
 43
0.00000001
 40
0.0
 40
0.0
 40
0.0
 40
0.0
 40
0.1188920175173181
 40
0.1188920175173181
 40
0.1188920175173181
 40
0.4370642450454728
 40
0.4370642450454728
 40
0.4370642450454728
 40
0.7708126268407274
 40
0.7708126268407274
 40
0.7708126268407274
 40
1.0
 40
1.0
 40
1.0
 40
1.0
 10
-0.4317136962460353
 20
-2.483517035676399
 30
0.0
 10
-0.4317136962460353
 20
-2.483517035676399
 30
0.0
 10
-0.4312857853703633
 20
-2.482970961108962
 30
0.0
 10
-0.4304413967249374
 20
-2.481890266834162
 30
0.0
 10
-0.42818936871722
 20
-2.479007999541993
 30
0.0
 10
-0.4228496497948271
 20
-2.472181370284083
 30
0.0
 10
-0.415280563715676
 20
-2.462245290317638
 30
0.0
 10
-0.4073288034245479
 20
-2.451806866801185
 30
0.0
 10
-0.3967863239604483
 20
-2.437764099143893
 30
0.0
 10
-0.3850241073261032
 20
-2.42127018794613
 30
0.0
 10
-0.3768999155639037
 20
-2.409877803190351
 30
0.0
 10
-0.368116555618009
 20
-2.397205829360038
 30
0.0
 10
-0.3591253483963399
 20
-2.383517035681363
 30
0.0
  0
SPLINE
  5
79D1A
330
7A013
100
AcDbEntity
  8
Level 8
 62
   133
370
     0
100
AcDbSpline
210
0.0
220
0.0
230
1.0
 70
     8
 71
     3
 72
    14
 73
    10
 74
     0
 42
0.0000000001
 43
0.00000001
 40
0.0
 40
0.0
 40
0.0
 40
0.0
 40
0.4155111778321488
 40
0.4155111778321488
 40
0.4155111778321488
 40
0.7657511632294429
 40
0.7657511632294429
 40
0.7657511632294429
 40
1.0
 40
1.0
 40
1.0
 40
1.0
 10
-0.3591253483958568
 20
-2.38351703567638
 30
0.0
 10
-0.3753273199526745
 20
-2.408183961970713
 30
0.0
 10
-0.3909352251375111
 20
-2.429723842876861
 30
0.0
 10
-0.403294537228355
 20
-2.446330563598322
 30
0.0
 10
-0.4137190532493946
 20
-2.460337575068316
 30
0.0
 10
-0.4220439846593891
 20
-2.471094914404414
 30
0.0
 10
-0.4268312321213088
 20
-2.477256738635805
 30
0.0
 10
-0.4300308856967945
 20
-2.481375118370782
 30
0.0
 10
-0.4317136962460353
 20
-2.483517035676399
 30
0.0
 10
-0.4317136962460353
 20
-2.483517035676399
 30
0.0
  0
LINE
  5
79D1D
330
7A013
100
AcDbEntity
  8
Level 8
 62
   133
370
     0
100
AcDbLine
 10
-0.431714
 20
-1.833517
 30
0.0
 11
-0.431714
 21
-2.483517
 31
0.0
  0
SPLINE
  5
79D1E
330
7A013
100
AcDbEntity
  8
Level 8
 62
   133
370
     0
100
AcDbSpline
210
0.0
220
0.0
230
1.0
 70
     8
 71
     3
 72
    17
 73
    13
 74
     0
 42
0.0000000001
 43
0.00000001
 40
0.0
 40
0.0
 40
0.0
 40
0.0
 40
0.1188920175167992
 40
0.1188920175167992
 40
0.1188920175167992
 40
0.4370642450447248
 40
0.4370642450447248
 40
0.4370642450447248
 40
0.7708126268396294
 40
0.7708126268396294
 40
0.7708126268396294
 40
1.0
 40
1.0
 40
1.0
 40
1.0
 10
-0.4317136962460353
 20
-1.83351703567625
 30
0.0
 10
-0.4317136962460353
 20
-1.83351703567625
 30
0.0
 10
-0.4312857853703775
 20
-1.834063110243678
 30
0.0
 10
-0.4304413967249516
 20
-1.835143804518469
 30
0.0
 10
-0.4281893687172627
 20
-1.838026071810629
 30
0.0
 10
-0.4228496497948626
 20
-1.84485270106853
 30
0.0
 10
-0.4152805637157329
 20
-1.854788781034974
 30
0.0
 10
-0.407328803424619
 20
-1.865227204551417
 30
0.0
 10
-0.3967863239605336
 20
-1.879269972208701
 30
0.0
 10
-0.3850241073262097
 20
-1.895763883406454
 30
0.0
 10
-0.3768999155639676
 20
-1.907156268162289
 30
0.0
 10
-0.3681165556180304
 20
-1.919828241992676
 30
0.0
 10
-0.3591253483963186
 20
-1.933517035671435
 30
0.0
  0
LINE
  5
79D21
330
7A013
100
AcDbEntity
  8
Level 8
 62
   133
370
     0
100
AcDbLine
 10
-0.131714
 20
-1.933517
 30
0.0
 11
-0.359125
 21
-1.933517
 31
0.0
  0
LINE
  5
79D22
330
7A013
100
AcDbEntity
  8
Level 8
 62
   133
370
     0
100
AcDbLine
 10
-0.131714
 20
-1.933517
 30
0.0
 11
-0.359125
 21
-1.933517
 31
0.0
  0
SPLINE
  5
79D23
330
7A013
100
AcDbEntity
  8
Level 8
 62
   133
370
     0
100
AcDbSpline
210
0.0
220
0.0
230
1.0
 70
     8
 71
     3
 72
    14
 73
    10
 74
     0
 42
0.0000000001
 43
0.00000001
 40
0.0
 40
0.0
 40
0.0
 40
0.0
 40
0.4155111778320348
 40
0.4155111778320348
 40
0.4155111778320348
 40
0.7657511632291136
 40
0.7657511632291136
 40
0.7657511632291136
 40
1.0
 40
1.0
 40
1.0
 40
1.0
 10
-0.3591253483956507
 20
-1.933517035676418
 30
0.0
 10
-0.3753273199525111
 20
-1.908850109382067
 30
0.0
 10
-0.3909352251373619
 20
-1.887310228475882
 30
0.0
 10
-0.4032945372282413
 20
-1.870703507754402
 30
0.0
 10
-0.4137190532493023
 20
-1.85669649628439
 30
0.0
 10
-0.4220439846593251
 20
-1.845939156948282
 30
0.0
 10
-0.4268312321212662
 20
-1.839777332716864
 30
0.0
 10
-0.4300308856967661
 20
-1.835658952981876
 30
0.0
 10
-0.4317136962460282
 20
-1.83351703567625
 30
0.0
 10
-0.4317136962460353
 20
-1.83351703567625
 30
0.0
  0
LINE
  5
79D26
330
7A013
100
AcDbEntity
  8
Level 8
 62
   133
370
     0
100
AcDbLine
 10
-0.131714
 20
-2.158517
 30
0.0
 11
-0.431714
 21
-2.158517
 31
0.0
  0
LINE
  5
79D27
330
7A013
100
AcDbEntity
  8
Level 8
 62
   133
370
     0
100
AcDbLine
 10
-0.131714
 20
-2.158517
 30
0.0
 11
-0.431714
 21
-2.158517
 31
0.0
  0
ENDBLK
  5
7A015
330
7A013
100
AcDbEntity
  8
0
100
AcDbBlockEnd
  0
BLOCK
  5
7A017
330
7A016
100
AcDbEntity
  8
0
100
AcDbBlockBegin
  2
Feature Solid_29
 70
     0
 71
     0
 10
0.0
 20
0.0
 30
0.0
  3
Feature Solid_29
  1

  0
INSERT
  5
79D29
330
7A016
100
AcDbEntity
  8
Level 26
 62
   133
370
     0
100
AcDbBlockReference
  2
DDPROJ_17
 10
0.0
 20
0.0
 30
0.0
  0
ENDBLK
  5
7A018
330
7A016
100
AcDbEntity
  8
0
100
AcDbBlockEnd
  0
BLOCK
  5
7A01A
330
7A019
100
AcDbEntity
  8
0
100
AcDbBlockBegin
  2
DDPROJ_17
 70
     0
 71
     0
 10
0.0
 20
0.0
 30
0.0
  3
DDPROJ_17
  1

  0
LINE
  5
79D2A
330
7A019
100
AcDbEntity
  8
Level 26
 62
   133
370
     0
100
AcDbLine
 10
-0.011714
 20
-1.833517
 30
0.0
 11
-0.131714
 21
-1.833517
 31
0.0
  0
LINE
  5
79D2B
330
7A019
100
AcDbEntity
  8
Level 26
 62
   133
370
     0
100
AcDbLine
 10
-0.131714
 20
-1.833517
 30
0.0
 11
-0.011714
 21
-1.833517
 31
0.0
  0
LINE
  5
79D2C
330
7A019
100
AcDbEntity
  8
Level 26
 62
   133
370
     0
100
AcDbLine
 10
-0.011714
 20
-2.483517
 30
0.0
 11
-0.131714
 21
-2.483517
 31
0.0
  0
LINE
  5
79D2D
330
7A019
100
AcDbEntity
  8
Level 26
 62
   133
370
     0
100
AcDbLine
 10
-0.131714
 20
-2.483517
 30
0.0
 11
-0.011714
 21
-2.483517
 31
0.0
  0
LINE
  5
79D2E
330
7A019
100
AcDbEntity
  8
Level 26
 62
   133
370
     0
100
AcDbLine
 10
-0.131714
 20
-1.933517
 30
0.0
 11
-0.131714
 21
-2.383517
 31
0.0
  0
LINE
  5
79D2F
330
7A019
100
AcDbEntity
  8
Level 26
 62
   133
370
     0
100
AcDbLine
 10
-0.131714
 20
-1.933517
 30
0.0
 11
-0.131714
 21
-2.383517
 31
0.0
  0
LINE
  5
79D30
330
7A019
100
AcDbEntity
  8
Level 26
 62
   133
370
     0
100
AcDbLine
 10
-0.011714
 20
-1.833517
 30
0.0
 11
-0.011714
 21
-2.483517
 31
0.0
  0
POINT
  5
79D31
330
7A019
100
AcDbEntity
  8
Level 26
 62
   133
370
     0
100
AcDbPoint
 10
-0.131714
 20
-2.483517
 30
0.0
  0
LINE
  5
79D32
330
7A019
100
AcDbEntity
  8
Level 26
 62
   133
370
     0
100
AcDbLine
 10
-0.011714
 20
-1.833517
 30
0.0
 11
-0.011714
 21
-2.483517
 31
0.0
  0
LINE
  5
79D33
330
7A019
100
AcDbEntity
  8
Level 26
 62
   133
370
     0
100
AcDbLine
 10
-0.131714
 20
-1.833517
 30
0.0
 11
-0.131714
 21
-2.483517
 31
0.0
  0
POINT
  5
79D34
330
7A019
100
AcDbEntity
  8
Level 26
 62
   133
370
     0
100
AcDbPoint
 10
-0.131714
 20
-1.833517
 30
0.0
  0
POINT
  5
79D35
330
7A019
100
AcDbEntity
  8
Level 26
 62
   133
370
     0
100
AcDbPoint
 10
-0.131714
 20
-2.483517
 30
0.0
  0
LINE
  5
79D36
330
7A019
100
AcDbEntity
  8
Level 26
 62
   133
370
     0
100
AcDbLine
 10
-0.131714
 20
-1.833517
 30
0.0
 11
-0.131714
 21
-2.483517
 31
0.0
  0
POINT
  5
79D37
330
7A019
100
AcDbEntity
  8
Level 26
 62
   133
370
     0
100
AcDbPoint
 10
-0.131714
 20
-1.833517
 30
0.0
  0
POINT
  5
79D38
330
7A019
100
AcDbEntity
  8
Level 26
 62
   133
370
     0
100
AcDbPoint
 10
-0.131714
 20
-2.383517
 30
0.0
  0
POINT
  5
79D39
330
7A019
100
AcDbEntity
  8
Level 26
 62
   133
370
     0
100
AcDbPoint
 10
-0.131714
 20
-2.383517
 30
0.0
  0
LINE
  5
79D3A
330
7A019
100
AcDbEntity
  8
Level 26
 62
   133
370
     0
100
AcDbLine
 10
-0.131714
 20
-2.483517
 30
0.0
 11
-0.131714
 21
-2.383517
 31
0.0
  0
LINE
  5
79D3B
330
7A019
100
AcDbEntity
  8
Level 26
 62
   133
370
     0
100
AcDbLine
 10
-0.131714
 20
-2.483517
 30
0.0
 11
-0.131714
 21
-2.383517
 31
0.0
  0
POINT
  5
79D3C
330
7A019
100
AcDbEntity
  8
Level 26
 62
   133
370
     0
100
AcDbPoint
 10
-0.131714
 20
-1.933517
 30
0.0
  0
LINE
  5
79D3D
330
7A019
100
AcDbEntity
  8
Level 26
 62
   133
370
     0
100
AcDbLine
 10
-0.131714
 20
-1.933517
 30
0.0
 11
-0.131714
 21
-1.833517
 31
0.0
  0
POINT
  5
79D3E
330
7A019
100
AcDbEntity
  8
Level 26
 62
   133
370
     0
100
AcDbPoint
 10
-0.131714
 20
-1.933517
 30
0.0
  0
LINE
  5
79D3F
330
7A019
100
AcDbEntity
  8
Level 26
 62
   133
370
     0
100
AcDbLine
 10
-0.131714
 20
-1.933517
 30
0.0
 11
-0.131714
 21
-1.833517
 31
0.0
  0
LINE
  5
79D40
330
7A019
100
AcDbEntity
  8
Level 26
 62
   133
370
     0
100
AcDbLine
 10
-0.131714
 20
-2.158517
 30
0.0
 11
-0.011714
 21
-2.158517
 31
0.0
  0
LINE
  5
79D41
330
7A019
100
AcDbEntity
  8
Level 26
 62
   133
370
     0
100
AcDbLine
 10
-0.131714
 20
-2.483517
 30
0.0
 11
-0.011714
 21
-2.483517
 31
0.0
  0
LINE
  5
79D42
330
7A019
100
AcDbEntity
  8
Level 26
 62
   133
370
     0
100
AcDbLine
 10
-0.131714
 20
-2.158517
 30
0.0
 11
-0.011714
 21
-2.158517
 31
0.0
  0
LINE
  5
79D43
330
7A019
100
AcDbEntity
  8
Level 26
 62
   133
370
     0
100
AcDbLine
 10
-0.131714
 20
-1.833517
 30
0.0
 11
-0.011714
 21
-1.833517
 31
0.0
  0
ENDBLK
  5
7A01B
330
7A019
100
AcDbEntity
  8
0
100
AcDbBlockEnd
  0
BLOCK
  5
7A01D
330
7A01C
100
AcDbEntity
  8
0
100
AcDbBlockBegin
  2
UNITE_12
 70
     0
 71
     0
 10
0.0
 20
0.0
 30
0.0
  3
UNITE_12
  1

  0
INSERT
  5
79D45
330
7A01C
100
AcDbEntity
  8
Level 26
 62
   133
370
     0
100
AcDbBlockReference
  2
Feature Solid_30
 10
0.0
 20
0.0
 30
0.0
  0
INSERT
  5
79D4C
330
7A01C
100
AcDbEntity
  8
Level 26
 62
   133
370
     0
100
AcDbBlockReference
  2
Feature Solid_31
 10
0.0
 20
-0.55
 30
0.0
  0
INSERT
  5
79D53
330
7A01C
100
AcDbEntity
  8
Level 8
 62
   133
370
     0
100
AcDbBlockReference
  2
Feature Solid_32
 10
0.0
 20
0.0
 30
0.0
  0
ENDBLK
  5
7A01E
330
7A01C
100
AcDbEntity
  8
0
100
AcDbBlockEnd
  0
BLOCK
  5
7A020
330
7A01F
100
AcDbEntity
  8
0
100
AcDbBlockBegin
  2
Feature Solid_30
 70
     0
 71
     0
 10
0.0
 20
0.0
 30
0.0
  3
Feature Solid_30
  1

  0
INSERT
  5
79D46
330
7A01F
100
AcDbEntity
  8
Level 26
 62
   133
370
     0
100
AcDbBlockReference
  2
DDPROJ_18
 10
0.0
 20
0.0
 30
0.0
  0
ENDBLK
  5
7A021
330
7A01F
100
AcDbEntity
  8
0
100
AcDbBlockEnd
  0
BLOCK
  5
7A023
330
7A022
100
AcDbEntity
  8
0
100
AcDbBlockBegin
  2
DDPROJ_18
 70
     0
 71
     0
 10
0.0
 20
0.0
 30
0.0
  3
DDPROJ_18
  1

  0
POINT
  5
79D47
330
7A022
100
AcDbEntity
  8
Level 26
 62
   133
370
     0
100
AcDbPoint
 10
0.011714
 20
-1.833517
 30
0.0
  0
LINE
  5
79D48
330
7A022
100
AcDbEntity
  8
Level 26
 62
   133
370
     0
100
AcDbLine
 10
0.131714
 20
-1.933517
 30
0.0
 11
0.359125
 21
-1.933517
 31
0.0
  0
LINE
  5
79D49
330
7A022
100
AcDbEntity
  8
Level 26
 62
   133
370
     0
100
AcDbLine
 10
0.131714
 20
-1.833517
 30
0.0
 11
0.431714
 21
-1.833517
 31
0.0
  0
LINE
  5
79D4A
330
7A022
100
AcDbEntity
  8
Level 26
 62
   133
370
     0
100
AcDbLine
 10
0.131714
 20
-1.833517
 30
0.0
 11
0.431714
 21
-1.833517
 31
0.0
  0
LINE
  5
79D4B
330
7A022
100
AcDbEntity
  8
Level 26
 62
   133
370
     0
100
AcDbLine
 10
0.131714
 20
-1.933517
 30
0.0
 11
0.359125
 21
-1.933517
 31
0.0
  0
ENDBLK
  5
7A024
330
7A022
100
AcDbEntity
  8
0
100
AcDbBlockEnd
  0
BLOCK
  5
7A026
330
7A025
100
AcDbEntity
  8
0
100
AcDbBlockBegin
  2
Feature Solid_31
 70
     0
 71
     0
 10
0.0
 20
0.0
 30
0.0
  3
Feature Solid_31
  1

  0
INSERT
  5
79D4D
330
7A025
100
AcDbEntity
  8
Level 26
 62
   133
370
     0
100
AcDbBlockReference
  2
DDPROJ_19
 10
0.0
 20
0.0
 30
0.0
  0
ENDBLK
  5
7A027
330
7A025
100
AcDbEntity
  8
0
100
AcDbBlockEnd
  0
BLOCK
  5
7A029
330
7A028
100
AcDbEntity
  8
0
100
AcDbBlockBegin
  2
DDPROJ_19
 70
     0
 71
     0
 10
0.0
 20
0.0
 30
0.0
  3
DDPROJ_19
  1

  0
POINT
  5
79D4E
330
7A028
100
AcDbEntity
  8
Level 26
 62
   133
370
     0
100
AcDbPoint
 10
0.011714
 20
-1.933517
 30
0.0
  0
LINE
  5
79D4F
330
7A028
100
AcDbEntity
  8
Level 26
 62
   133
370
     0
100
AcDbLine
 10
0.131714
 20
-1.933517
 30
0.0
 11
0.431714
 21
-1.933517
 31
0.0
  0
LINE
  5
79D50
330
7A028
100
AcDbEntity
  8
Level 26
 62
   133
370
     0
100
AcDbLine
 10
0.131714
 20
-1.833517
 30
0.0
 11
0.359125
 21
-1.833517
 31
0.0
  0
LINE
  5
79D51
330
7A028
100
AcDbEntity
  8
Level 26
 62
   133
370
     0
100
AcDbLine
 10
0.131714
 20
-1.833517
 30
0.0
 11
0.359125
 21
-1.833517
 31
0.0
  0
LINE
  5
79D52
330
7A028
100
AcDbEntity
  8
Level 26
 62
   133
370
     0
100
AcDbLine
 10
0.131714
 20
-1.933517
 30
0.0
 11
0.431714
 21
-1.933517
 31
0.0
  0
ENDBLK
  5
7A02A
330
7A028
100
AcDbEntity
  8
0
100
AcDbBlockEnd
  0
BLOCK
  5
7A02C
330
7A02B
100
AcDbEntity
  8
0
100
AcDbBlockBegin
  2
Feature Solid_32
 70
     0
 71
     0
 10
0.0
 20
0.0
 30
0.0
  3
Feature Solid_32
  1

  0
INSERT
  5
79D54
330
7A02B
100
AcDbEntity
  8
Level 8
 62
   133
370
     0
100
AcDbBlockReference
  2
UNITE_13
 10
0.0
 20
0.0
 30
0.0
  0
ENDBLK
  5
7A02D
330
7A02B
100
AcDbEntity
  8
0
100
AcDbBlockEnd
  0
BLOCK
  5
7A02F
330
7A02E
100
AcDbEntity
  8
0
100
AcDbBlockBegin
  2
UNITE_13
 70
     0
 71
     0
 10
0.0
 20
0.0
 30
0.0
  3
UNITE_13
  1

  0
INSERT
  5
79D55
330
7A02E
100
AcDbEntity
  8
Level 8
 62
   133
370
     0
100
AcDbBlockReference
  2
Feature Solid_33
 10
0.0
 20
0.0
 30
0.0
  0
INSERT
  5
79D6B
330
7A02E
100
AcDbEntity
  8
Level 26
 62
   133
370
     0
100
AcDbBlockReference
  2
Feature Solid_34
 10
0.0
 20
0.0
 30
0.0
  0
ENDBLK
  5
7A030
330
7A02E
100
AcDbEntity
  8
0
100
AcDbBlockEnd
  0
BLOCK
  5
7A032
330
7A031
100
AcDbEntity
  8
0
100
AcDbBlockBegin
  2
Feature Solid_33
 70
     0
 71
     0
 10
0.0
 20
0.0
 30
0.0
  3
Feature Solid_33
  1

  0
INSERT
  5
79D56
330
7A031
100
AcDbEntity
  8
Level 8
 62
   133
370
     0
100
AcDbBlockReference
  2
CONE_6
 10
0.0
 20
0.0
 30
0.0
  0
ENDBLK
  5
7A033
330
7A031
100
AcDbEntity
  8
0
100
AcDbBlockEnd
  0
BLOCK
  5
7A035
330
7A034
100
AcDbEntity
  8
0
100
AcDbBlockBegin
  2
CONE_6
 70
     0
 71
     0
 10
0.0
 20
0.0
 30
0.0
  3
CONE_6
  1

  0
LINE
  5
79D57
330
7A034
100
AcDbEntity
  8
Level 8
 62
   133
370
     0
100
AcDbLine
 10
0.431714
 20
-1.833517
 30
0.0
 11
0.431714
 21
-2.483517
 31
0.0
  0
LINE
  5
79D58
330
7A034
100
AcDbEntity
  8
Level 8
 62
   133
370
     0
100
AcDbLine
 10
0.131714
 20
-2.383517
 30
0.0
 11
0.359125
 21
-2.383517
 31
0.0
  0
LINE
  5
79D59
330
7A034
100
AcDbEntity
  8
Level 8
 62
   133
370
     0
100
AcDbLine
 10
0.131714
 20
-2.383517
 30
0.0
 11
0.359125
 21
-2.383517
 31
0.0
  0
SPLINE
  5
79D5A
330
7A034
100
AcDbEntity
  8
Level 8
 62
   133
370
     0
100
AcDbSpline
210
0.0
220
0.0
230
1.0
 70
     8
 71
     3
 72
    17
 73
    13
 74
     0
 42
0.0000000001
 43
0.00000001
 40
0.0
 40
0.0
 40
0.0
 40
0.0
 40
0.1188920175173181
 40
0.1188920175173181
 40
0.1188920175173181
 40
0.4370642450454728
 40
0.4370642450454728
 40
0.4370642450454728
 40
0.7708126268407274
 40
0.7708126268407274
 40
0.7708126268407274
 40
1.0
 40
1.0
 40
1.0
 40
1.0
 10
0.4317136962460353
 20
-2.4835170356764
 30
0.0
 10
0.4317136962460353
 20
-2.4835170356764
 30
0.0
 10
0.4312857853703704
 20
-2.482970961108962
 30
0.0
 10
0.4304413967249374
 20
-2.481890266834163
 30
0.0
 10
0.4281893687172271
 20
-2.479007999541993
 30
0.0
 10
0.4228496497948271
 20
-2.472181370284083
 30
0.0
 10
0.415280563715676
 20
-2.462245290317638
 30
0.0
 10
0.4073288034245479
 20
-2.451806866801186
 30
0.0
 10
0.3967863239604554
 20
-2.437764099143893
 30
0.0
 10
0.3850241073261032
 20
-2.42127018794613
 30
0.0
 10
0.3768999155639037
 20
-2.409877803190351
 30
0.0
 10
0.3681165556180162
 20
-2.397205829360039
 30
0.0
 10
0.359125348396347
 20
-2.383517035681364
 30
0.0
  0
SPLINE
  5
79D5D
330
7A034
100
AcDbEntity
  8
Level 8
 62
   133
370
     0
100
AcDbSpline
210
0.0
220
0.0
230
1.0
 70
     8
 71
     3
 72
    14
 73
    10
 74
     0
 42
0.0000000001
 43
0.00000001
 40
0.0
 40
0.0
 40
0.0
 40
0.0
 40
0.4155111778321488
 40
0.4155111778321488
 40
0.4155111778321488
 40
0.7657511632294429
 40
0.7657511632294429
 40
0.7657511632294429
 40
1.0
 40
1.0
 40
1.0
 40
1.0
 10
0.3591253483958496
 20
-2.383517035676381
 30
0.0
 10
0.3753273199526817
 20
-2.408183961970713
 30
0.0
 10
0.390935225137504
 20
-2.429723842876861
 30
0.0
 10
0.403294537228355
 20
-2.446330563598322
 30
0.0
 10
0.4137190532494017
 20
-2.460337575068316
 30
0.0
 10
0.4220439846593962
 20
-2.471094914404415
 30
0.0
 10
0.4268312321213159
 20
-2.477256738635805
 30
0.0
 10
0.4300308856967945
 20
-2.481375118370783
 30
0.0
 10
0.4317136962460353
 20
-2.4835170356764
 30
0.0
 10
0.4317136962460353
 20
-2.4835170356764
 30
0.0
  0
LINE
  5
79D60
330
7A034
100
AcDbEntity
  8
Level 8
 62
   133
370
     0
100
AcDbLine
 10
0.431714
 20
-1.833517
 30
0.0
 11
0.431714
 21
-2.483517
 31
0.0
  0
SPLINE
  5
79D61
330
7A034
100
AcDbEntity
  8
Level 8
 62
   133
370
     0
100
AcDbSpline
210
0.0
220
0.0
230
1.0
 70
     8
 71
     3
 72
    17
 73
    13
 74
     0
 42
0.0000000001
 43
0.00000001
 40
0.0
 40
0.0
 40
0.0
 40
0.0
 40
0.1188920175167992
 40
0.1188920175167992
 40
0.1188920175167992
 40
0.4370642450447248
 40
0.4370642450447248
 40
0.4370642450447248
 40
0.7708126268396294
 40
0.7708126268396294
 40
0.7708126268396294
 40
1.0
 40
1.0
 40
1.0
 40
1.0
 10
0.4317136962460353
 20
-1.833517035676251
 30
0.0
 10
0.4317136962460353
 20
-1.833517035676251
 30
0.0
 10
0.4312857853703775
 20
-1.834063110243678
 30
0.0
 10
0.4304413967249516
 20
-1.835143804518469
 30
0.0
 10
0.4281893687172556
 20
-1.83802607181063
 30
0.0
 10
0.4228496497948697
 20
-1.84485270106853
 30
0.0
 10
0.4152805637157329
 20
-1.854788781034975
 30
0.0
 10
0.4073288034246261
 20
-1.865227204551418
 30
0.0
 10
0.3967863239605407
 20
-1.879269972208701
 30
0.0
 10
0.3850241073262097
 20
-1.895763883406455
 30
0.0
 10
0.3768999155639747
 20
-1.90715626816229
 30
0.0
 10
0.3681165556180375
 20
-1.919828241992677
 30
0.0
 10
0.3591253483963257
 20
-1.933517035671436
 30
0.0
  0
LINE
  5
79D64
330
7A034
100
AcDbEntity
  8
Level 8
 62
   133
370
     0
100
AcDbLine
 10
0.131714
 20
-1.933517
 30
0.0
 11
0.359125
 21
-1.933517
 31
0.0
  0
LINE
  5
79D65
330
7A034
100
AcDbEntity
  8
Level 8
 62
   133
370
     0
100
AcDbLine
 10
0.131714
 20
-1.933517
 30
0.0
 11
0.359125
 21
-1.933517
 31
0.0
  0
SPLINE
  5
79D66
330
7A034
100
AcDbEntity
  8
Level 8
 62
   133
370
     0
100
AcDbSpline
210
0.0
220
0.0
230
1.0
 70
     8
 71
     3
 72
    14
 73
    10
 74
     0
 42
0.0000000001
 43
0.00000001
 40
0.0
 40
0.0
 40
0.0
 40
0.0
 40
0.4155111778320348
 40
0.4155111778320348
 40
0.4155111778320348
 40
0.7657511632291136
 40
0.7657511632291136
 40
0.7657511632291136
 40
1.0
 40
1.0
 40
1.0
 40
1.0
 10
0.3591253483956578
 20
-1.933517035676418
 30
0.0
 10
0.3753273199525111
 20
-1.908850109382067
 30
0.0
 10
0.390935225137369
 20
-1.887310228475882
 30
0.0
 10
0.4032945372282484
 20
-1.870703507754402
 30
0.0
 10
0.4137190532493023
 20
-1.85669649628439
 30
0.0
 10
0.4220439846593251
 20
-1.845939156948282
 30
0.0
 10
0.4268312321212662
 20
-1.839777332716864
 30
0.0
 10
0.4300308856967732
 20
-1.835658952981877
 30
0.0
 10
0.4317136962460282
 20
-1.833517035676251
 30
0.0
 10
0.4317136962460353
 20
-1.833517035676251
 30
0.0
  0
LINE
  5
79D69
330
7A034
100
AcDbEntity
  8
Level 8
 62
   133
370
     0
100
AcDbLine
 10
0.131714
 20
-2.158517
 30
0.0
 11
0.431714
 21
-2.158517
 31
0.0
  0
LINE
  5
79D6A
330
7A034
100
AcDbEntity
  8
Level 8
 62
   133
370
     0
100
AcDbLine
 10
0.131714
 20
-2.158517
 30
0.0
 11
0.431714
 21
-2.158517
 31
0.0
  0
ENDBLK
  5
7A036
330
7A034
100
AcDbEntity
  8
0
100
AcDbBlockEnd
  0
BLOCK
  5
7A038
330
7A037
100
AcDbEntity
  8
0
100
AcDbBlockBegin
  2
Feature Solid_34
 70
     0
 71
     0
 10
0.0
 20
0.0
 30
0.0
  3
Feature Solid_34
  1

  0
INSERT
  5
79D6C
330
7A037
100
AcDbEntity
  8
Level 26
 62
   133
370
     0
100
AcDbBlockReference
  2
DDPROJ_20
 10
0.0
 20
0.0
 30
0.0
  0
ENDBLK
  5
7A039
330
7A037
100
AcDbEntity
  8
0
100
AcDbBlockEnd
  0
BLOCK
  5
7A03B
330
7A03A
100
AcDbEntity
  8
0
100
AcDbBlockBegin
  2
DDPROJ_20
 70
     0
 71
     0
 10
0.0
 20
0.0
 30
0.0
  3
DDPROJ_20
  1

  0
LINE
  5
79D6D
330
7A03A
100
AcDbEntity
  8
Level 26
 62
   133
370
     0
100
AcDbLine
 10
0.011714
 20
-1.833517
 30
0.0
 11
0.131714
 21
-1.833517
 31
0.0
  0
LINE
  5
79D6E
330
7A03A
100
AcDbEntity
  8
Level 26
 62
   133
370
     0
100
AcDbLine
 10
0.131714
 20
-1.833517
 30
0.0
 11
0.011714
 21
-1.833517
 31
0.0
  0
LINE
  5
79D6F
330
7A03A
100
AcDbEntity
  8
Level 26
 62
   133
370
     0
100
AcDbLine
 10
0.011714
 20
-2.483517
 30
0.0
 11
0.131714
 21
-2.483517
 31
0.0
  0
LINE
  5
79D70
330
7A03A
100
AcDbEntity
  8
Level 26
 62
   133
370
     0
100
AcDbLine
 10
0.131714
 20
-2.483517
 30
0.0
 11
0.011714
 21
-2.483517
 31
0.0
  0
LINE
  5
79D71
330
7A03A
100
AcDbEntity
  8
Level 26
 62
   133
370
     0
100
AcDbLine
 10
0.131714
 20
-1.933517
 30
0.0
 11
0.131714
 21
-2.383517
 31
0.0
  0
LINE
  5
79D72
330
7A03A
100
AcDbEntity
  8
Level 26
 62
   133
370
     0
100
AcDbLine
 10
0.131714
 20
-1.933517
 30
0.0
 11
0.131714
 21
-2.383517
 31
0.0
  0
LINE
  5
79D73
330
7A03A
100
AcDbEntity
  8
Level 26
 62
   133
370
     0
100
AcDbLine
 10
0.011714
 20
-1.833517
 30
0.0
 11
0.011714
 21
-2.483517
 31
0.0
  0
POINT
  5
79D74
330
7A03A
100
AcDbEntity
  8
Level 26
 62
   133
370
     0
100
AcDbPoint
 10
0.131714
 20
-2.483517
 30
0.0
  0
LINE
  5
79D75
330
7A03A
100
AcDbEntity
  8
Level 26
 62
   133
370
     0
100
AcDbLine
 10
0.011714
 20
-1.833517
 30
0.0
 11
0.011714
 21
-2.483517
 31
0.0
  0
LINE
  5
79D76
330
7A03A
100
AcDbEntity
  8
Level 26
 62
   133
370
     0
100
AcDbLine
 10
0.131714
 20
-1.833517
 30
0.0
 11
0.131714
 21
-2.483517
 31
0.0
  0
POINT
  5
79D77
330
7A03A
100
AcDbEntity
  8
Level 26
 62
   133
370
     0
100
AcDbPoint
 10
0.131714
 20
-1.833517
 30
0.0
  0
POINT
  5
79D78
330
7A03A
100
AcDbEntity
  8
Level 26
 62
   133
370
     0
100
AcDbPoint
 10
0.131714
 20
-2.483517
 30
0.0
  0
LINE
  5
79D79
330
7A03A
100
AcDbEntity
  8
Level 26
 62
   133
370
     0
100
AcDbLine
 10
0.131714
 20
-1.833517
 30
0.0
 11
0.131714
 21
-2.483517
 31
0.0
  0
POINT
  5
79D7A
330
7A03A
100
AcDbEntity
  8
Level 26
 62
   133
370
     0
100
AcDbPoint
 10
0.131714
 20
-1.833517
 30
0.0
  0
POINT
  5
79D7B
330
7A03A
100
AcDbEntity
  8
Level 26
 62
   133
370
     0
100
AcDbPoint
 10
0.131714
 20
-2.383517
 30
0.0
  0
POINT
  5
79D7C
330
7A03A
100
AcDbEntity
  8
Level 26
 62
   133
370
     0
100
AcDbPoint
 10
0.131714
 20
-2.383517
 30
0.0
  0
LINE
  5
79D7D
330
7A03A
100
AcDbEntity
  8
Level 26
 62
   133
370
     0
100
AcDbLine
 10
0.131714
 20
-2.483517
 30
0.0
 11
0.131714
 21
-2.383517
 31
0.0
  0
LINE
  5
79D7E
330
7A03A
100
AcDbEntity
  8
Level 26
 62
   133
370
     0
100
AcDbLine
 10
0.131714
 20
-2.483517
 30
0.0
 11
0.131714
 21
-2.383517
 31
0.0
  0
POINT
  5
79D7F
330
7A03A
100
AcDbEntity
  8
Level 26
 62
   133
370
     0
100
AcDbPoint
 10
0.131714
 20
-1.933517
 30
0.0
  0
LINE
  5
79D80
330
7A03A
100
AcDbEntity
  8
Level 26
 62
   133
370
     0
100
AcDbLine
 10
0.131714
 20
-1.933517
 30
0.0
 11
0.131714
 21
-1.833517
 31
0.0
  0
POINT
  5
79D81
330
7A03A
100
AcDbEntity
  8
Level 26
 62
   133
370
     0
100
AcDbPoint
 10
0.131714
 20
-1.933517
 30
0.0
  0
LINE
  5
79D82
330
7A03A
100
AcDbEntity
  8
Level 26
 62
   133
370
     0
100
AcDbLine
 10
0.131714
 20
-1.933517
 30
0.0
 11
0.131714
 21
-1.833517
 31
0.0
  0
LINE
  5
79D83
330
7A03A
100
AcDbEntity
  8
Level 26
 62
   133
370
     0
100
AcDbLine
 10
0.131714
 20
-2.158517
 30
0.0
 11
0.011714
 21
-2.158517
 31
0.0
  0
LINE
  5
79D84
330
7A03A
100
AcDbEntity
  8
Level 26
 62
   133
370
     0
100
AcDbLine
 10
0.131714
 20
-2.483517
 30
0.0
 11
0.011714
 21
-2.483517
 31
0.0
  0
LINE
  5
79D85
330
7A03A
100
AcDbEntity
  8
Level 26
 62
   133
370
     0
100
AcDbLine
 10
0.131714
 20
-2.158517
 30
0.0
 11
0.011714
 21
-2.158517
 31
0.0
  0
LINE
  5
79D86
330
7A03A
100
AcDbEntity
  8
Level 26
 62
   133
370
     0
100
AcDbLine
 10
0.131714
 20
-1.833517
 30
0.0
 11
0.011714
 21
-1.833517
 31
0.0
  0
ENDBLK
  5
7A03C
330
7A03A
100
AcDbEntity
  8
0
100
AcDbBlockEnd
  0
BLOCK
  5
7A03E
330
7A03D
100
AcDbEntity
  8
0
100
AcDbBlockBegin
  2
UNITE_14
 70
     0
 71
     0
 10
0.0
 20
0.0
 30
0.0
  3
UNITE_14
  1

  0
INSERT
  5
79D88
330
7A03D
100
AcDbEntity
  8
Level 26
 62
   133
370
     0
100
AcDbBlockReference
  2
Feature Solid_35
 10
0.0
 20
0.0
 30
0.0
  0
INSERT
  5
79D8F
330
7A03D
100
AcDbEntity
  8
Level 26
 62
   133
370
     0
100
AcDbBlockReference
  2
Feature Solid_36
 10
0.0
 20
-0.55
 30
0.0
  0
INSERT
  5
79D96
330
7A03D
100
AcDbEntity
  8
Level 8
 62
   133
370
     0
100
AcDbBlockReference
  2
Feature Solid_37
 10
0.0
 20
0.0
 30
0.0
  0
ENDBLK
  5
7A03F
330
7A03D
100
AcDbEntity
  8
0
100
AcDbBlockEnd
  0
BLOCK
  5
7A041
330
7A040
100
AcDbEntity
  8
0
100
AcDbBlockBegin
  2
Feature Solid_35
 70
     0
 71
     0
 10
0.0
 20
0.0
 30
0.0
  3
Feature Solid_35
  1

  0
INSERT
  5
79D89
330
7A040
100
AcDbEntity
  8
Level 26
 62
   133
370
     0
100
AcDbBlockReference
  2
DDPROJ_21
 10
0.0
 20
0.0
 30
0.0
  0
ENDBLK
  5
7A042
330
7A040
100
AcDbEntity
  8
0
100
AcDbBlockEnd
  0
BLOCK
  5
7A044
330
7A043
100
AcDbEntity
  8
0
100
AcDbBlockBegin
  2
DDPROJ_21
 70
     0
 71
     0
 10
0.0
 20
0.0
 30
0.0
  3
DDPROJ_21
  1

  0
POINT
  5
79D8A
330
7A043
100
AcDbEntity
  8
Level 26
 62
   133
370
     0
100
AcDbPoint
 10
-0.011714
 20
-1.833517
 30
0.0
  0
LINE
  5
79D8B
330
7A043
100
AcDbEntity
  8
Level 26
 62
   133
370
     0
100
AcDbLine
 10
-0.131714
 20
-1.933517
 30
0.0
 11
-0.359125
 21
-1.933517
 31
0.0
  0
LINE
  5
79D8C
330
7A043
100
AcDbEntity
  8
Level 26
 62
   133
370
     0
100
AcDbLine
 10
-0.131714
 20
-1.833517
 30
0.0
 11
-0.431714
 21
-1.833517
 31
0.0
  0
LINE
  5
79D8D
330
7A043
100
AcDbEntity
  8
Level 26
 62
   133
370
     0
100
AcDbLine
 10
-0.131714
 20
-1.833517
 30
0.0
 11
-0.431714
 21
-1.833517
 31
0.0
  0
LINE
  5
79D8E
330
7A043
100
AcDbEntity
  8
Level 26
 62
   133
370
     0
100
AcDbLine
 10
-0.131714
 20
-1.933517
 30
0.0
 11
-0.359125
 21
-1.933517
 31
0.0
  0
ENDBLK
  5
7A045
330
7A043
100
AcDbEntity
  8
0
100
AcDbBlockEnd
  0
BLOCK
  5
7A047
330
7A046
100
AcDbEntity
  8
0
100
AcDbBlockBegin
  2
Feature Solid_36
 70
     0
 71
     0
 10
0.0
 20
0.0
 30
0.0
  3
Feature Solid_36
  1

  0
INSERT
  5
79D90
330
7A046
100
AcDbEntity
  8
Level 26
 62
   133
370
     0
100
AcDbBlockReference
  2
DDPROJ_22
 10
0.0
 20
0.0
 30
0.0
  0
ENDBLK
  5
7A048
330
7A046
100
AcDbEntity
  8
0
100
AcDbBlockEnd
  0
BLOCK
  5
7A04A
330
7A049
100
AcDbEntity
  8
0
100
AcDbBlockBegin
  2
DDPROJ_22
 70
     0
 71
     0
 10
0.0
 20
0.0
 30
0.0
  3
DDPROJ_22
  1

  0
POINT
  5
79D91
330
7A049
100
AcDbEntity
  8
Level 26
 62
   133
370
     0
100
AcDbPoint
 10
-0.011714
 20
-1.933517
 30
0.0
  0
LINE
  5
79D92
330
7A049
100
AcDbEntity
  8
Level 26
 62
   133
370
     0
100
AcDbLine
 10
-0.131714
 20
-1.933517
 30
0.0
 11
-0.431714
 21
-1.933517
 31
0.0
  0
LINE
  5
79D93
330
7A049
100
AcDbEntity
  8
Level 26
 62
   133
370
     0
100
AcDbLine
 10
-0.131714
 20
-1.833517
 30
0.0
 11
-0.359125
 21
-1.833517
 31
0.0
  0
LINE
  5
79D94
330
7A049
100
AcDbEntity
  8
Level 26
 62
   133
370
     0
100
AcDbLine
 10
-0.131714
 20
-1.833517
 30
0.0
 11
-0.359125
 21
-1.833517
 31
0.0
  0
LINE
  5
79D95
330
7A049
100
AcDbEntity
  8
Level 26
 62
   133
370
     0
100
AcDbLine
 10
-0.131714
 20
-1.933517
 30
0.0
 11
-0.431714
 21
-1.933517
 31
0.0
  0
ENDBLK
  5
7A04B
330
7A049
100
AcDbEntity
  8
0
100
AcDbBlockEnd
  0
BLOCK
  5
7A04D
330
7A04C
100
AcDbEntity
  8
0
100
AcDbBlockBegin
  2
Feature Solid_37
 70
     0
 71
     0
 10
0.0
 20
0.0
 30
0.0
  3
Feature Solid_37
  1

  0
INSERT
  5
79D97
330
7A04C
100
AcDbEntity
  8
Level 8
 62
   133
370
     0
100
AcDbBlockReference
  2
UNITE_15
 10
0.0
 20
0.0
 30
0.0
  0
ENDBLK
  5
7A04E
330
7A04C
100
AcDbEntity
  8
0
100
AcDbBlockEnd
  0
BLOCK
  5
7A050
330
7A04F
100
AcDbEntity
  8
0
100
AcDbBlockBegin
  2
UNITE_15
 70
     0
 71
     0
 10
0.0
 20
0.0
 30
0.0
  3
UNITE_15
  1

  0
INSERT
  5
79D98
330
7A04F
100
AcDbEntity
  8
Level 8
 62
   133
370
     0
100
AcDbBlockReference
  2
Feature Solid_38
 10
0.0
 20
0.0
 30
0.0
  0
INSERT
  5
79DAE
330
7A04F
100
AcDbEntity
  8
Level 26
 62
   133
370
     0
100
AcDbBlockReference
  2
Feature Solid_39
 10
0.0
 20
0.0
 30
0.0
  0
ENDBLK
  5
7A051
330
7A04F
100
AcDbEntity
  8
0
100
AcDbBlockEnd
  0
BLOCK
  5
7A053
330
7A052
100
AcDbEntity
  8
0
100
AcDbBlockBegin
  2
Feature Solid_38
 70
     0
 71
     0
 10
0.0
 20
0.0
 30
0.0
  3
Feature Solid_38
  1

  0
INSERT
  5
79D99
330
7A052
100
AcDbEntity
  8
Level 8
 62
   133
370
     0
100
AcDbBlockReference
  2
CONE_7
 10
0.0
 20
0.0
 30
0.0
  0
ENDBLK
  5
7A054
330
7A052
100
AcDbEntity
  8
0
100
AcDbBlockEnd
  0
BLOCK
  5
7A056
330
7A055
100
AcDbEntity
  8
0
100
AcDbBlockBegin
  2
CONE_7
 70
     0
 71
     0
 10
0.0
 20
0.0
 30
0.0
  3
CONE_7
  1

  0
LINE
  5
79D9A
330
7A055
100
AcDbEntity
  8
Level 8
 62
   133
370
     0
100
AcDbLine
 10
-0.431714
 20
-1.833517
 30
0.0
 11
-0.431714
 21
-2.483517
 31
0.0
  0
LINE
  5
79D9B
330
7A055
100
AcDbEntity
  8
Level 8
 62
   133
370
     0
100
AcDbLine
 10
-0.131714
 20
-2.383517
 30
0.0
 11
-0.359125
 21
-2.383517
 31
0.0
  0
LINE
  5
79D9C
330
7A055
100
AcDbEntity
  8
Level 8
 62
   133
370
     0
100
AcDbLine
 10
-0.131714
 20
-2.383517
 30
0.0
 11
-0.359125
 21
-2.383517
 31
0.0
  0
SPLINE
  5
79D9D
330
7A055
100
AcDbEntity
  8
Level 8
 62
   133
370
     0
100
AcDbSpline
210
0.0
220
0.0
230
1.0
 70
     8
 71
     3
 72
    17
 73
    13
 74
     0
 42
0.0000000001
 43
0.00000001
 40
0.0
 40
0.0
 40
0.0
 40
0.0
 40
0.1188920175173181
 40
0.1188920175173181
 40
0.1188920175173181
 40
0.4370642450454728
 40
0.4370642450454728
 40
0.4370642450454728
 40
0.7708126268407274
 40
0.7708126268407274
 40
0.7708126268407274
 40
1.0
 40
1.0
 40
1.0
 40
1.0
 10
-0.4317136962460495
 20
-2.4835170356764
 30
0.0
 10
-0.4317136962460353
 20
-2.4835170356764
 30
0.0
 10
-0.4312857853703775
 20
-2.482970961108962
 30
0.0
 10
-0.4304413967249445
 20
-2.481890266834163
 30
0.0
 10
-0.4281893687172342
 20
-2.479007999541993
 30
0.0
 10
-0.4228496497948271
 20
-2.472181370284083
 30
0.0
 10
-0.4152805637156831
 20
-2.462245290317638
 30
0.0
 10
-0.407328803424555
 20
-2.451806866801186
 30
0.0
 10
-0.3967863239604625
 20
-2.437764099143893
 30
0.0
 10
-0.3850241073261103
 20
-2.42127018794613
 30
0.0
 10
-0.3768999155639108
 20
-2.409877803190351
 30
0.0
 10
-0.3681165556180233
 20
-2.397205829360039
 30
0.0
 10
-0.3591253483963612
 20
-2.383517035681364
 30
0.0
  0
SPLINE
  5
79DA0
330
7A055
100
AcDbEntity
  8
Level 8
 62
   133
370
     0
100
AcDbSpline
210
0.0
220
0.0
230
1.0
 70
     8
 71
     3
 72
    14
 73
    10
 74
     0
 42
0.0000000001
 43
0.00000001
 40
0.0
 40
0.0
 40
0.0
 40
0.0
 40
0.4155111778321488
 40
0.4155111778321488
 40
0.4155111778321488
 40
0.7657511632294429
 40
0.7657511632294429
 40
0.7657511632294429
 40
1.0
 40
1.0
 40
1.0
 40
1.0
 10
-0.3591253483958568
 20
-2.383517035676381
 30
0.0
 10
-0.3753273199526888
 20
-2.408183961970713
 30
0.0
 10
-0.3909352251375111
 20
-2.429723842876861
 30
0.0
 10
-0.4032945372283692
 20
-2.446330563598322
 30
0.0
 10
-0.4137190532494088
 20
-2.460337575068316
 30
0.0
 10
-0.4220439846594104
 20
-2.471094914404415
 30
0.0
 10
-0.4268312321213301
 20
-2.477256738635805
 30
0.0
 10
-0.4300308856968016
 20
-2.481375118370783
 30
0.0
 10
-0.4317136962460495
 20
-2.4835170356764
 30
0.0
 10
-0.4317136962460495
 20
-2.4835170356764
 30
0.0
  0
LINE
  5
79DA3
330
7A055
100
AcDbEntity
  8
Level 8
 62
   133
370
     0
100
AcDbLine
 10
-0.431714
 20
-1.833517
 30
0.0
 11
-0.431714
 21
-2.483517
 31
0.0
  0
SPLINE
  5
79DA4
330
7A055
100
AcDbEntity
  8
Level 8
 62
   133
370
     0
100
AcDbSpline
210
0.0
220
0.0
230
1.0
 70
     8
 71
     3
 72
    17
 73
    13
 74
     0
 42
0.0000000001
 43
0.00000001
 40
0.0
 40
0.0
 40
0.0
 40
0.0
 40
0.1188920175167992
 40
0.1188920175167992
 40
0.1188920175167992
 40
0.4370642450447248
 40
0.4370642450447248
 40
0.4370642450447248
 40
0.7708126268396294
 40
0.7708126268396294
 40
0.7708126268396294
 40
1.0
 40
1.0
 40
1.0
 40
1.0
 10
-0.4317136962460353
 20
-1.833517035676251
 30
0.0
 10
-0.4317136962460353
 20
-1.833517035676251
 30
0.0
 10
-0.4312857853703846
 20
-1.834063110243678
 30
0.0
 10
-0.4304413967249587
 20
-1.835143804518469
 30
0.0
 10
-0.4281893687172627
 20
-1.83802607181063
 30
0.0
 10
-0.4228496497948839
 20
-1.84485270106853
 30
0.0
 10
-0.4152805637157471
 20
-1.854788781034975
 30
0.0
 10
-0.4073288034246332
 20
-1.865227204551418
 30
0.0
 10
-0.3967863239605549
 20
-1.879269972208701
 30
0.0
 10
-0.3850241073262168
 20
-1.895763883406455
 30
0.0
 10
-0.3768999155639889
 20
-1.90715626816229
 30
0.0
 10
-0.3681165556180517
 20
-1.919828241992677
 30
0.0
 10
-0.3591253483963328
 20
-1.933517035671436
 30
0.0
  0
LINE
  5
79DA7
330
7A055
100
AcDbEntity
  8
Level 8
 62
   133
370
     0
100
AcDbLine
 10
-0.131714
 20
-1.933517
 30
0.0
 11
-0.359125
 21
-1.933517
 31
0.0
  0
LINE
  5
79DA8
330
7A055
100
AcDbEntity
  8
Level 8
 62
   133
370
     0
100
AcDbLine
 10
-0.131714
 20
-1.933517
 30
0.0
 11
-0.359125
 21
-1.933517
 31
0.0
  0
SPLINE
  5
79DA9
330
7A055
100
AcDbEntity
  8
Level 8
 62
   133
370
     0
100
AcDbSpline
210
0.0
220
0.0
230
1.0
 70
     8
 71
     3
 72
    14
 73
    10
 74
     0
 42
0.0000000001
 43
0.00000001
 40
0.0
 40
0.0
 40
0.0
 40
0.0
 40
0.4155111778320348
 40
0.4155111778320348
 40
0.4155111778320348
 40
0.7657511632291136
 40
0.7657511632291136
 40
0.7657511632291136
 40
1.0
 40
1.0
 40
1.0
 40
1.0
 10
-0.359125348395672
 20
-1.933517035676418
 30
0.0
 10
-0.3753273199525182
 20
-1.908850109382067
 30
0.0
 10
-0.3909352251373832
 20
-1.887310228475882
 30
0.0
 10
-0.4032945372282555
 20
-1.870703507754402
 30
0.0
 10
-0.4137190532493165
 20
-1.85669649628439
 30
0.0
 10
-0.4220439846593322
 20
-1.845939156948282
 30
0.0
 10
-0.4268312321212733
 20
-1.839777332716864
 30
0.0
 10
-0.4300308856967874
 20
-1.835658952981877
 30
0.0
 10
-0.4317136962460353
 20
-1.833517035676251
 30
0.0
 10
-0.4317136962460353
 20
-1.833517035676251
 30
0.0
  0
LINE
  5
79DAC
330
7A055
100
AcDbEntity
  8
Level 8
 62
   133
370
     0
100
AcDbLine
 10
-0.131714
 20
-2.158517
 30
0.0
 11
-0.431714
 21
-2.158517
 31
0.0
  0
LINE
  5
79DAD
330
7A055
100
AcDbEntity
  8
Level 8
 62
   133
370
     0
100
AcDbLine
 10
-0.131714
 20
-2.158517
 30
0.0
 11
-0.431714
 21
-2.158517
 31
0.0
  0
ENDBLK
  5
7A057
330
7A055
100
AcDbEntity
  8
0
100
AcDbBlockEnd
  0
BLOCK
  5
7A059
330
7A058
100
AcDbEntity
  8
0
100
AcDbBlockBegin
  2
Feature Solid_39
 70
     0
 71
     0
 10
0.0
 20
0.0
 30
0.0
  3
Feature Solid_39
  1

  0
INSERT
  5
79DAF
330
7A058
100
AcDbEntity
  8
Level 26
 62
   133
370
     0
100
AcDbBlockReference
  2
DDPROJ_23
 10
0.0
 20
0.0
 30
0.0
  0
ENDBLK
  5
7A05A
330
7A058
100
AcDbEntity
  8
0
100
AcDbBlockEnd
  0
BLOCK
  5
7A05C
330
7A05B
100
AcDbEntity
  8
0
100
AcDbBlockBegin
  2
DDPROJ_23
 70
     0
 71
     0
 10
0.0
 20
0.0
 30
0.0
  3
DDPROJ_23
  1

  0
LINE
  5
79DB0
330
7A05B
100
AcDbEntity
  8
Level 26
 62
   133
370
     0
100
AcDbLine
 10
-0.011714
 20
-1.833517
 30
0.0
 11
-0.131714
 21
-1.833517
 31
0.0
  0
LINE
  5
79DB1
330
7A05B
100
AcDbEntity
  8
Level 26
 62
   133
370
     0
100
AcDbLine
 10
-0.131714
 20
-1.833517
 30
0.0
 11
-0.011714
 21
-1.833517
 31
0.0
  0
LINE
  5
79DB2
330
7A05B
100
AcDbEntity
  8
Level 26
 62
   133
370
     0
100
AcDbLine
 10
-0.011714
 20
-2.483517
 30
0.0
 11
-0.131714
 21
-2.483517
 31
0.0
  0
LINE
  5
79DB3
330
7A05B
100
AcDbEntity
  8
Level 26
 62
   133
370
     0
100
AcDbLine
 10
-0.131714
 20
-2.483517
 30
0.0
 11
-0.011714
 21
-2.483517
 31
0.0
  0
LINE
  5
79DB4
330
7A05B
100
AcDbEntity
  8
Level 26
 62
   133
370
     0
100
AcDbLine
 10
-0.131714
 20
-1.933517
 30
0.0
 11
-0.131714
 21
-2.383517
 31
0.0
  0
LINE
  5
79DB5
330
7A05B
100
AcDbEntity
  8
Level 26
 62
   133
370
     0
100
AcDbLine
 10
-0.131714
 20
-1.933517
 30
0.0
 11
-0.131714
 21
-2.383517
 31
0.0
  0
LINE
  5
79DB6
330
7A05B
100
AcDbEntity
  8
Level 26
 62
   133
370
     0
100
AcDbLine
 10
-0.011714
 20
-1.833517
 30
0.0
 11
-0.011714
 21
-2.483517
 31
0.0
  0
POINT
  5
79DB7
330
7A05B
100
AcDbEntity
  8
Level 26
 62
   133
370
     0
100
AcDbPoint
 10
-0.131714
 20
-2.483517
 30
0.0
  0
LINE
  5
79DB8
330
7A05B
100
AcDbEntity
  8
Level 26
 62
   133
370
     0
100
AcDbLine
 10
-0.011714
 20
-1.833517
 30
0.0
 11
-0.011714
 21
-2.483517
 31
0.0
  0
LINE
  5
79DB9
330
7A05B
100
AcDbEntity
  8
Level 26
 62
   133
370
     0
100
AcDbLine
 10
-0.131714
 20
-1.833517
 30
0.0
 11
-0.131714
 21
-2.483517
 31
0.0
  0
POINT
  5
79DBA
330
7A05B
100
AcDbEntity
  8
Level 26
 62
   133
370
     0
100
AcDbPoint
 10
-0.131714
 20
-1.833517
 30
0.0
  0
POINT
  5
79DBB
330
7A05B
100
AcDbEntity
  8
Level 26
 62
   133
370
     0
100
AcDbPoint
 10
-0.131714
 20
-2.483517
 30
0.0
  0
LINE
  5
79DBC
330
7A05B
100
AcDbEntity
  8
Level 26
 62
   133
370
     0
100
AcDbLine
 10
-0.131714
 20
-1.833517
 30
0.0
 11
-0.131714
 21
-2.483517
 31
0.0
  0
POINT
  5
79DBD
330
7A05B
100
AcDbEntity
  8
Level 26
 62
   133
370
     0
100
AcDbPoint
 10
-0.131714
 20
-1.833517
 30
0.0
  0
POINT
  5
79DBE
330
7A05B
100
AcDbEntity
  8
Level 26
 62
   133
370
     0
100
AcDbPoint
 10
-0.131714
 20
-2.383517
 30
0.0
  0
POINT
  5
79DBF
330
7A05B
100
AcDbEntity
  8
Level 26
 62
   133
370
     0
100
AcDbPoint
 10
-0.131714
 20
-2.383517
 30
0.0
  0
LINE
  5
79DC0
330
7A05B
100
AcDbEntity
  8
Level 26
 62
   133
370
     0
100
AcDbLine
 10
-0.131714
 20
-2.483517
 30
0.0
 11
-0.131714
 21
-2.383517
 31
0.0
  0
LINE
  5
79DC1
330
7A05B
100
AcDbEntity
  8
Level 26
 62
   133
370
     0
100
AcDbLine
 10
-0.131714
 20
-2.483517
 30
0.0
 11
-0.131714
 21
-2.383517
 31
0.0
  0
POINT
  5
79DC2
330
7A05B
100
AcDbEntity
  8
Level 26
 62
   133
370
     0
100
AcDbPoint
 10
-0.131714
 20
-1.933517
 30
0.0
  0
LINE
  5
79DC3
330
7A05B
100
AcDbEntity
  8
Level 26
 62
   133
370
     0
100
AcDbLine
 10
-0.131714
 20
-1.933517
 30
0.0
 11
-0.131714
 21
-1.833517
 31
0.0
  0
POINT
  5
79DC4
330
7A05B
100
AcDbEntity
  8
Level 26
 62
   133
370
     0
100
AcDbPoint
 10
-0.131714
 20
-1.933517
 30
0.0
  0
LINE
  5
79DC5
330
7A05B
100
AcDbEntity
  8
Level 26
 62
   133
370
     0
100
AcDbLine
 10
-0.131714
 20
-1.933517
 30
0.0
 11
-0.131714
 21
-1.833517
 31
0.0
  0
LINE
  5
79DC6
330
7A05B
100
AcDbEntity
  8
Level 26
 62
   133
370
     0
100
AcDbLine
 10
-0.131714
 20
-2.158517
 30
0.0
 11
-0.011714
 21
-2.158517
 31
0.0
  0
LINE
  5
79DC7
330
7A05B
100
AcDbEntity
  8
Level 26
 62
   133
370
     0
100
AcDbLine
 10
-0.131714
 20
-2.483517
 30
0.0
 11
-0.011714
 21
-2.483517
 31
0.0
  0
LINE
  5
79DC8
330
7A05B
100
AcDbEntity
  8
Level 26
 62
   133
370
     0
100
AcDbLine
 10
-0.131714
 20
-2.158517
 30
0.0
 11
-0.011714
 21
-2.158517
 31
0.0
  0
LINE
  5
79DC9
330
7A05B
100
AcDbEntity
  8
Level 26
 62
   133
370
     0
100
AcDbLine
 10
-0.131714
 20
-1.833517
 30
0.0
 11
-0.011714
 21
-1.833517
 31
0.0
  0
ENDBLK
  5
7A05D
330
7A05B
100
AcDbEntity
  8
0
100
AcDbBlockEnd
  0
BLOCK
  5
7A05F
330
7A05E
100
AcDbEntity
  8
0
100
AcDbBlockBegin
  2
UNITE_16
 70
     0
 71
     0
 10
0.0
 20
0.0
 30
0.0
  3
UNITE_16
  1

  0
INSERT
  5
79DCB
330
7A05E
100
AcDbEntity
  8
Level 26
 62
   133
370
     0
100
AcDbBlockReference
  2
Feature Solid_40
 10
0.0
 20
0.0
 30
0.0
  0
INSERT
  5
79DD2
330
7A05E
100
AcDbEntity
  8
Level 26
 62
   133
370
     0
100
AcDbBlockReference
  2
Feature Solid_41
 10
0.0
 20
-0.55
 30
0.0
  0
INSERT
  5
79DD9
330
7A05E
100
AcDbEntity
  8
Level 8
 62
   133
370
     0
100
AcDbBlockReference
  2
Feature Solid_42
 10
0.0
 20
0.0
 30
0.0
  0
ENDBLK
  5
7A060
330
7A05E
100
AcDbEntity
  8
0
100
AcDbBlockEnd
  0
BLOCK
  5
7A062
330
7A061
100
AcDbEntity
  8
0
100
AcDbBlockBegin
  2
Feature Solid_40
 70
     0
 71
     0
 10
0.0
 20
0.0
 30
0.0
  3
Feature Solid_40
  1

  0
INSERT
  5
79DCC
330
7A061
100
AcDbEntity
  8
Level 26
 62
   133
370
     0
100
AcDbBlockReference
  2
DDPROJ_24
 10
0.0
 20
0.0
 30
0.0
  0
ENDBLK
  5
7A063
330
7A061
100
AcDbEntity
  8
0
100
AcDbBlockEnd
  0
BLOCK
  5
7A065
330
7A064
100
AcDbEntity
  8
0
100
AcDbBlockBegin
  2
DDPROJ_24
 70
     0
 71
     0
 10
0.0
 20
0.0
 30
0.0
  3
DDPROJ_24
  1

  0
POINT
  5
79DCD
330
7A064
100
AcDbEntity
  8
Level 26
 62
   133
370
     0
100
AcDbPoint
 10
-0.011714
 20
-1.833517
 30
0.0
  0
LINE
  5
79DCE
330
7A064
100
AcDbEntity
  8
Level 26
 62
   133
370
     0
100
AcDbLine
 10
-0.131714
 20
-1.933517
 30
0.0
 11
-0.359125
 21
-1.933517
 31
0.0
  0
LINE
  5
79DCF
330
7A064
100
AcDbEntity
  8
Level 26
 62
   133
370
     0
100
AcDbLine
 10
-0.131714
 20
-1.833517
 30
0.0
 11
-0.431714
 21
-1.833517
 31
0.0
  0
LINE
  5
79DD0
330
7A064
100
AcDbEntity
  8
Level 26
 62
   133
370
     0
100
AcDbLine
 10
-0.131714
 20
-1.833517
 30
0.0
 11
-0.431714
 21
-1.833517
 31
0.0
  0
LINE
  5
79DD1
330
7A064
100
AcDbEntity
  8
Level 26
 62
   133
370
     0
100
AcDbLine
 10
-0.131714
 20
-1.933517
 30
0.0
 11
-0.359125
 21
-1.933517
 31
0.0
  0
ENDBLK
  5
7A066
330
7A064
100
AcDbEntity
  8
0
100
AcDbBlockEnd
  0
BLOCK
  5
7A068
330
7A067
100
AcDbEntity
  8
0
100
AcDbBlockBegin
  2
Feature Solid_41
 70
     0
 71
     0
 10
0.0
 20
0.0
 30
0.0
  3
Feature Solid_41
  1

  0
INSERT
  5
79DD3
330
7A067
100
AcDbEntity
  8
Level 26
 62
   133
370
     0
100
AcDbBlockReference
  2
DDPROJ_25
 10
0.0
 20
0.0
 30
0.0
  0
ENDBLK
  5
7A069
330
7A067
100
AcDbEntity
  8
0
100
AcDbBlockEnd
  0
BLOCK
  5
7A06B
330
7A06A
100
AcDbEntity
  8
0
100
AcDbBlockBegin
  2
DDPROJ_25
 70
     0
 71
     0
 10
0.0
 20
0.0
 30
0.0
  3
DDPROJ_25
  1

  0
POINT
  5
79DD4
330
7A06A
100
AcDbEntity
  8
Level 26
 62
   133
370
     0
100
AcDbPoint
 10
-0.011714
 20
-1.933517
 30
0.0
  0
LINE
  5
79DD5
330
7A06A
100
AcDbEntity
  8
Level 26
 62
   133
370
     0
100
AcDbLine
 10
-0.131714
 20
-1.933517
 30
0.0
 11
-0.431714
 21
-1.933517
 31
0.0
  0
LINE
  5
79DD6
330
7A06A
100
AcDbEntity
  8
Level 26
 62
   133
370
     0
100
AcDbLine
 10
-0.131714
 20
-1.833517
 30
0.0
 11
-0.359125
 21
-1.833517
 31
0.0
  0
LINE
  5
79DD7
330
7A06A
100
AcDbEntity
  8
Level 26
 62
   133
370
     0
100
AcDbLine
 10
-0.131714
 20
-1.833517
 30
0.0
 11
-0.359125
 21
-1.833517
 31
0.0
  0
LINE
  5
79DD8
330
7A06A
100
AcDbEntity
  8
Level 26
 62
   133
370
     0
100
AcDbLine
 10
-0.131714
 20
-1.933517
 30
0.0
 11
-0.431714
 21
-1.933517
 31
0.0
  0
ENDBLK
  5
7A06C
330
7A06A
100
AcDbEntity
  8
0
100
AcDbBlockEnd
  0
BLOCK
  5
7A06E
330
7A06D
100
AcDbEntity
  8
0
100
AcDbBlockBegin
  2
Feature Solid_42
 70
     0
 71
     0
 10
0.0
 20
0.0
 30
0.0
  3
Feature Solid_42
  1

  0
INSERT
  5
79DDA
330
7A06D
100
AcDbEntity
  8
Level 8
 62
   133
370
     0
100
AcDbBlockReference
  2
UNITE_17
 10
0.0
 20
0.0
 30
0.0
  0
ENDBLK
  5
7A06F
330
7A06D
100
AcDbEntity
  8
0
100
AcDbBlockEnd
  0
BLOCK
  5
7A071
330
7A070
100
AcDbEntity
  8
0
100
AcDbBlockBegin
  2
UNITE_17
 70
     0
 71
     0
 10
0.0
 20
0.0
 30
0.0
  3
UNITE_17
  1

  0
INSERT
  5
79DDB
330
7A070
100
AcDbEntity
  8
Level 8
 62
   133
370
     0
100
AcDbBlockReference
  2
Feature Solid_43
 10
0.0
 20
0.0
 30
0.0
  0
INSERT
  5
79DF1
330
7A070
100
AcDbEntity
  8
Level 26
 62
   133
370
     0
100
AcDbBlockReference
  2
Feature Solid_44
 10
0.0
 20
0.0
 30
0.0
  0
ENDBLK
  5
7A072
330
7A070
100
AcDbEntity
  8
0
100
AcDbBlockEnd
  0
BLOCK
  5
7A074
330
7A073
100
AcDbEntity
  8
0
100
AcDbBlockBegin
  2
Feature Solid_43
 70
     0
 71
     0
 10
0.0
 20
0.0
 30
0.0
  3
Feature Solid_43
  1

  0
INSERT
  5
79DDC
330
7A073
100
AcDbEntity
  8
Level 8
 62
   133
370
     0
100
AcDbBlockReference
  2
CONE_8
 10
0.0
 20
0.0
 30
0.0
  0
ENDBLK
  5
7A075
330
7A073
100
AcDbEntity
  8
0
100
AcDbBlockEnd
  0
BLOCK
  5
7A077
330
7A076
100
AcDbEntity
  8
0
100
AcDbBlockBegin
  2
CONE_8
 70
     0
 71
     0
 10
0.0
 20
0.0
 30
0.0
  3
CONE_8
  1

  0
LINE
  5
79DDD
330
7A076
100
AcDbEntity
  8
Level 8
 62
   133
370
     0
100
AcDbLine
 10
-0.431714
 20
-1.833517
 30
0.0
 11
-0.431714
 21
-2.483517
 31
0.0
  0
LINE
  5
79DDE
330
7A076
100
AcDbEntity
  8
Level 8
 62
   133
370
     0
100
AcDbLine
 10
-0.131714
 20
-2.383517
 30
0.0
 11
-0.359125
 21
-2.383517
 31
0.0
  0
LINE
  5
79DDF
330
7A076
100
AcDbEntity
  8
Level 8
 62
   133
370
     0
100
AcDbLine
 10
-0.131714
 20
-2.383517
 30
0.0
 11
-0.359125
 21
-2.383517
 31
0.0
  0
SPLINE
  5
79DE0
330
7A076
100
AcDbEntity
  8
Level 8
 62
   133
370
     0
100
AcDbSpline
210
0.0
220
0.0
230
1.0
 70
     8
 71
     3
 72
    17
 73
    13
 74
     0
 42
0.0000000001
 43
0.00000001
 40
0.0
 40
0.0
 40
0.0
 40
0.0
 40
0.1188920175173181
 40
0.1188920175173181
 40
0.1188920175173181
 40
0.4370642450454728
 40
0.4370642450454728
 40
0.4370642450454728
 40
0.7708126268407274
 40
0.7708126268407274
 40
0.7708126268407274
 40
1.0
 40
1.0
 40
1.0
 40
1.0
 10
-0.4317136962460495
 20
-2.4835170356764
 30
0.0
 10
-0.4317136962460353
 20
-2.4835170356764
 30
0.0
 10
-0.4312857853703775
 20
-2.482970961108962
 30
0.0
 10
-0.4304413967249445
 20
-2.481890266834163
 30
0.0
 10
-0.4281893687172342
 20
-2.479007999541993
 30
0.0
 10
-0.4228496497948271
 20
-2.472181370284083
 30
0.0
 10
-0.4152805637156831
 20
-2.462245290317638
 30
0.0
 10
-0.407328803424555
 20
-2.451806866801186
 30
0.0
 10
-0.3967863239604625
 20
-2.437764099143893
 30
0.0
 10
-0.3850241073261103
 20
-2.42127018794613
 30
0.0
 10
-0.3768999155639108
 20
-2.409877803190351
 30
0.0
 10
-0.3681165556180233
 20
-2.397205829360039
 30
0.0
 10
-0.3591253483963612
 20
-2.383517035681364
 30
0.0
  0
SPLINE
  5
79DE3
330
7A076
100
AcDbEntity
  8
Level 8
 62
   133
370
     0
100
AcDbSpline
210
0.0
220
0.0
230
1.0
 70
     8
 71
     3
 72
    14
 73
    10
 74
     0
 42
0.0000000001
 43
0.00000001
 40
0.0
 40
0.0
 40
0.0
 40
0.0
 40
0.4155111778321488
 40
0.4155111778321488
 40
0.4155111778321488
 40
0.7657511632294429
 40
0.7657511632294429
 40
0.7657511632294429
 40
1.0
 40
1.0
 40
1.0
 40
1.0
 10
-0.3591253483958568
 20
-2.383517035676381
 30
0.0
 10
-0.3753273199526888
 20
-2.408183961970713
 30
0.0
 10
-0.3909352251375111
 20
-2.429723842876861
 30
0.0
 10
-0.4032945372283692
 20
-2.446330563598322
 30
0.0
 10
-0.4137190532494088
 20
-2.460337575068316
 30
0.0
 10
-0.4220439846594104
 20
-2.471094914404415
 30
0.0
 10
-0.4268312321213301
 20
-2.477256738635805
 30
0.0
 10
-0.4300308856968016
 20
-2.481375118370783
 30
0.0
 10
-0.4317136962460495
 20
-2.4835170356764
 30
0.0
 10
-0.4317136962460495
 20
-2.4835170356764
 30
0.0
  0
LINE
  5
79DE6
330
7A076
100
AcDbEntity
  8
Level 8
 62
   133
370
     0
100
AcDbLine
 10
-0.431714
 20
-1.833517
 30
0.0
 11
-0.431714
 21
-2.483517
 31
0.0
  0
SPLINE
  5
79DE7
330
7A076
100
AcDbEntity
  8
Level 8
 62
   133
370
     0
100
AcDbSpline
210
0.0
220
0.0
230
1.0
 70
     8
 71
     3
 72
    17
 73
    13
 74
     0
 42
0.0000000001
 43
0.00000001
 40
0.0
 40
0.0
 40
0.0
 40
0.0
 40
0.1188920175167992
 40
0.1188920175167992
 40
0.1188920175167992
 40
0.4370642450447248
 40
0.4370642450447248
 40
0.4370642450447248
 40
0.7708126268396294
 40
0.7708126268396294
 40
0.7708126268396294
 40
1.0
 40
1.0
 40
1.0
 40
1.0
 10
-0.4317136962460353
 20
-1.833517035676251
 30
0.0
 10
-0.4317136962460353
 20
-1.833517035676251
 30
0.0
 10
-0.4312857853703846
 20
-1.834063110243678
 30
0.0
 10
-0.4304413967249587
 20
-1.835143804518469
 30
0.0
 10
-0.4281893687172627
 20
-1.83802607181063
 30
0.0
 10
-0.4228496497948839
 20
-1.84485270106853
 30
0.0
 10
-0.4152805637157471
 20
-1.854788781034975
 30
0.0
 10
-0.4073288034246332
 20
-1.865227204551418
 30
0.0
 10
-0.3967863239605549
 20
-1.879269972208701
 30
0.0
 10
-0.3850241073262168
 20
-1.895763883406455
 30
0.0
 10
-0.3768999155639889
 20
-1.90715626816229
 30
0.0
 10
-0.3681165556180517
 20
-1.919828241992677
 30
0.0
 10
-0.3591253483963328
 20
-1.933517035671436
 30
0.0
  0
LINE
  5
79DEA
330
7A076
100
AcDbEntity
  8
Level 8
 62
   133
370
     0
100
AcDbLine
 10
-0.131714
 20
-1.933517
 30
0.0
 11
-0.359125
 21
-1.933517
 31
0.0
  0
LINE
  5
79DEB
330
7A076
100
AcDbEntity
  8
Level 8
 62
   133
370
     0
100
AcDbLine
 10
-0.131714
 20
-1.933517
 30
0.0
 11
-0.359125
 21
-1.933517
 31
0.0
  0
SPLINE
  5
79DEC
330
7A076
100
AcDbEntity
  8
Level 8
 62
   133
370
     0
100
AcDbSpline
210
0.0
220
0.0
230
1.0
 70
     8
 71
     3
 72
    14
 73
    10
 74
     0
 42
0.0000000001
 43
0.00000001
 40
0.0
 40
0.0
 40
0.0
 40
0.0
 40
0.4155111778320348
 40
0.4155111778320348
 40
0.4155111778320348
 40
0.7657511632291136
 40
0.7657511632291136
 40
0.7657511632291136
 40
1.0
 40
1.0
 40
1.0
 40
1.0
 10
-0.359125348395672
 20
-1.933517035676418
 30
0.0
 10
-0.3753273199525182
 20
-1.908850109382067
 30
0.0
 10
-0.3909352251373832
 20
-1.887310228475882
 30
0.0
 10
-0.4032945372282555
 20
-1.870703507754402
 30
0.0
 10
-0.4137190532493165
 20
-1.85669649628439
 30
0.0
 10
-0.4220439846593322
 20
-1.845939156948282
 30
0.0
 10
-0.4268312321212733
 20
-1.839777332716864
 30
0.0
 10
-0.4300308856967874
 20
-1.835658952981877
 30
0.0
 10
-0.4317136962460353
 20
-1.833517035676251
 30
0.0
 10
-0.4317136962460353
 20
-1.833517035676251
 30
0.0
  0
LINE
  5
79DEF
330
7A076
100
AcDbEntity
  8
Level 8
 62
   133
370
     0
100
AcDbLine
 10
-0.131714
 20
-2.158517
 30
0.0
 11
-0.431714
 21
-2.158517
 31
0.0
  0
LINE
  5
79DF0
330
7A076
100
AcDbEntity
  8
Level 8
 62
   133
370
     0
100
AcDbLine
 10
-0.131714
 20
-2.158517
 30
0.0
 11
-0.431714
 21
-2.158517
 31
0.0
  0
ENDBLK
  5
7A078
330
7A076
100
AcDbEntity
  8
0
100
AcDbBlockEnd
  0
BLOCK
  5
7A07A
330
7A079
100
AcDbEntity
  8
0
100
AcDbBlockBegin
  2
Feature Solid_44
 70
     0
 71
     0
 10
0.0
 20
0.0
 30
0.0
  3
Feature Solid_44
  1

  0
INSERT
  5
79DF2
330
7A079
100
AcDbEntity
  8
Level 26
 62
   133
370
     0
100
AcDbBlockReference
  2
DDPROJ_26
 10
0.0
 20
0.0
 30
0.0
  0
ENDBLK
  5
7A07B
330
7A079
100
AcDbEntity
  8
0
100
AcDbBlockEnd
  0
BLOCK
  5
7A07D
330
7A07C
100
AcDbEntity
  8
0
100
AcDbBlockBegin
  2
DDPROJ_26
 70
     0
 71
     0
 10
0.0
 20
0.0
 30
0.0
  3
DDPROJ_26
  1

  0
LINE
  5
79DF3
330
7A07C
100
AcDbEntity
  8
Level 26
 62
   133
370
     0
100
AcDbLine
 10
-0.011714
 20
-1.833517
 30
0.0
 11
-0.131714
 21
-1.833517
 31
0.0
  0
LINE
  5
79DF4
330
7A07C
100
AcDbEntity
  8
Level 26
 62
   133
370
     0
100
AcDbLine
 10
-0.131714
 20
-1.833517
 30
0.0
 11
-0.011714
 21
-1.833517
 31
0.0
  0
LINE
  5
79DF5
330
7A07C
100
AcDbEntity
  8
Level 26
 62
   133
370
     0
100
AcDbLine
 10
-0.011714
 20
-2.483517
 30
0.0
 11
-0.131714
 21
-2.483517
 31
0.0
  0
LINE
  5
79DF6
330
7A07C
100
AcDbEntity
  8
Level 26
 62
   133
370
     0
100
AcDbLine
 10
-0.131714
 20
-2.483517
 30
0.0
 11
-0.011714
 21
-2.483517
 31
0.0
  0
LINE
  5
79DF7
330
7A07C
100
AcDbEntity
  8
Level 26
 62
   133
370
     0
100
AcDbLine
 10
-0.131714
 20
-1.933517
 30
0.0
 11
-0.131714
 21
-2.383517
 31
0.0
  0
LINE
  5
79DF8
330
7A07C
100
AcDbEntity
  8
Level 26
 62
   133
370
     0
100
AcDbLine
 10
-0.131714
 20
-1.933517
 30
0.0
 11
-0.131714
 21
-2.383517
 31
0.0
  0
LINE
  5
79DF9
330
7A07C
100
AcDbEntity
  8
Level 26
 62
   133
370
     0
100
AcDbLine
 10
-0.011714
 20
-1.833517
 30
0.0
 11
-0.011714
 21
-2.483517
 31
0.0
  0
POINT
  5
79DFA
330
7A07C
100
AcDbEntity
  8
Level 26
 62
   133
370
     0
100
AcDbPoint
 10
-0.131714
 20
-2.483517
 30
0.0
  0
LINE
  5
79DFB
330
7A07C
100
AcDbEntity
  8
Level 26
 62
   133
370
     0
100
AcDbLine
 10
-0.011714
 20
-1.833517
 30
0.0
 11
-0.011714
 21
-2.483517
 31
0.0
  0
LINE
  5
79DFC
330
7A07C
100
AcDbEntity
  8
Level 26
 62
   133
370
     0
100
AcDbLine
 10
-0.131714
 20
-1.833517
 30
0.0
 11
-0.131714
 21
-2.483517
 31
0.0
  0
POINT
  5
79DFD
330
7A07C
100
AcDbEntity
  8
Level 26
 62
   133
370
     0
100
AcDbPoint
 10
-0.131714
 20
-1.833517
 30
0.0
  0
POINT
  5
79DFE
330
7A07C
100
AcDbEntity
  8
Level 26
 62
   133
370
     0
100
AcDbPoint
 10
-0.131714
 20
-2.483517
 30
0.0
  0
LINE
  5
79DFF
330
7A07C
100
AcDbEntity
  8
Level 26
 62
   133
370
     0
100
AcDbLine
 10
-0.131714
 20
-1.833517
 30
0.0
 11
-0.131714
 21
-2.483517
 31
0.0
  0
POINT
  5
79E00
330
7A07C
100
AcDbEntity
  8
Level 26
 62
   133
370
     0
100
AcDbPoint
 10
-0.131714
 20
-1.833517
 30
0.0
  0
POINT
  5
79E01
330
7A07C
100
AcDbEntity
  8
Level 26
 62
   133
370
     0
100
AcDbPoint
 10
-0.131714
 20
-2.383517
 30
0.0
  0
POINT
  5
79E02
330
7A07C
100
AcDbEntity
  8
Level 26
 62
   133
370
     0
100
AcDbPoint
 10
-0.131714
 20
-2.383517
 30
0.0
  0
LINE
  5
79E03
330
7A07C
100
AcDbEntity
  8
Level 26
 62
   133
370
     0
100
AcDbLine
 10
-0.131714
 20
-2.483517
 30
0.0
 11
-0.131714
 21
-2.383517
 31
0.0
  0
LINE
  5
79E04
330
7A07C
100
AcDbEntity
  8
Level 26
 62
   133
370
     0
100
AcDbLine
 10
-0.131714
 20
-2.483517
 30
0.0
 11
-0.131714
 21
-2.383517
 31
0.0
  0
POINT
  5
79E05
330
7A07C
100
AcDbEntity
  8
Level 26
 62
   133
370
     0
100
AcDbPoint
 10
-0.131714
 20
-1.933517
 30
0.0
  0
LINE
  5
79E06
330
7A07C
100
AcDbEntity
  8
Level 26
 62
   133
370
     0
100
AcDbLine
 10
-0.131714
 20
-1.933517
 30
0.0
 11
-0.131714
 21
-1.833517
 31
0.0
  0
POINT
  5
79E07
330
7A07C
100
AcDbEntity
  8
Level 26
 62
   133
370
     0
100
AcDbPoint
 10
-0.131714
 20
-1.933517
 30
0.0
  0
LINE
  5
79E08
330
7A07C
100
AcDbEntity
  8
Level 26
 62
   133
370
     0
100
AcDbLine
 10
-0.131714
 20
-1.933517
 30
0.0
 11
-0.131714
 21
-1.833517
 31
0.0
  0
LINE
  5
79E09
330
7A07C
100
AcDbEntity
  8
Level 26
 62
   133
370
     0
100
AcDbLine
 10
-0.131714
 20
-2.158517
 30
0.0
 11
-0.011714
 21
-2.158517
 31
0.0
  0
LINE
  5
79E0A
330
7A07C
100
AcDbEntity
  8
Level 26
 62
   133
370
     0
100
AcDbLine
 10
-0.131714
 20
-2.483517
 30
0.0
 11
-0.011714
 21
-2.483517
 31
0.0
  0
LINE
  5
79E0B
330
7A07C
100
AcDbEntity
  8
Level 26
 62
   133
370
     0
100
AcDbLine
 10
-0.131714
 20
-2.158517
 30
0.0
 11
-0.011714
 21
-2.158517
 31
0.0
  0
LINE
  5
79E0C
330
7A07C
100
AcDbEntity
  8
Level 26
 62
   133
370
     0
100
AcDbLine
 10
-0.131714
 20
-1.833517
 30
0.0
 11
-0.011714
 21
-1.833517
 31
0.0
  0
ENDBLK
  5
7A07E
330
7A07C
100
AcDbEntity
  8
0
100
AcDbBlockEnd
  0
BLOCK
  5
7A080
330
7A07F
100
AcDbEntity
  8
0
100
AcDbBlockBegin
  2
UNITE_18
 70
     0
 71
     0
 10
0.0
 20
0.0
 30
0.0
  3
UNITE_18
  1

  0
INSERT
  5
79E0E
330
7A07F
100
AcDbEntity
  8
Level 26
 62
   133
370
     0
100
AcDbBlockReference
  2
Feature Solid_45
 10
0.0
 20
0.0
 30
0.0
  0
INSERT
  5
79E15
330
7A07F
100
AcDbEntity
  8
Level 26
 62
   133
370
     0
100
AcDbBlockReference
  2
Feature Solid_46
 10
0.0
 20
-0.55
 30
0.0
  0
INSERT
  5
79E1C
330
7A07F
100
AcDbEntity
  8
Level 8
 62
   133
370
     0
100
AcDbBlockReference
  2
Feature Solid_47
 10
0.0
 20
0.0
 30
0.0
  0
ENDBLK
  5
7A081
330
7A07F
100
AcDbEntity
  8
0
100
AcDbBlockEnd
  0
BLOCK
  5
7A083
330
7A082
100
AcDbEntity
  8
0
100
AcDbBlockBegin
  2
Feature Solid_45
 70
     0
 71
     0
 10
0.0
 20
0.0
 30
0.0
  3
Feature Solid_45
  1

  0
INSERT
  5
79E0F
330
7A082
100
AcDbEntity
  8
Level 26
 62
   133
370
     0
100
AcDbBlockReference
  2
DDPROJ_27
 10
0.0
 20
0.0
 30
0.0
  0
ENDBLK
  5
7A084
330
7A082
100
AcDbEntity
  8
0
100
AcDbBlockEnd
  0
BLOCK
  5
7A086
330
7A085
100
AcDbEntity
  8
0
100
AcDbBlockBegin
  2
DDPROJ_27
 70
     0
 71
     0
 10
0.0
 20
0.0
 30
0.0
  3
DDPROJ_27
  1

  0
POINT
  5
79E10
330
7A085
100
AcDbEntity
  8
Level 26
 62
   133
370
     0
100
AcDbPoint
 10
0.011714
 20
-1.833517
 30
0.0
  0
LINE
  5
79E11
330
7A085
100
AcDbEntity
  8
Level 26
 62
   133
370
     0
100
AcDbLine
 10
0.131714
 20
-1.933517
 30
0.0
 11
0.359125
 21
-1.933517
 31
0.0
  0
LINE
  5
79E12
330
7A085
100
AcDbEntity
  8
Level 26
 62
   133
370
     0
100
AcDbLine
 10
0.131714
 20
-1.833517
 30
0.0
 11
0.431714
 21
-1.833517
 31
0.0
  0
LINE
  5
79E13
330
7A085
100
AcDbEntity
  8
Level 26
 62
   133
370
     0
100
AcDbLine
 10
0.131714
 20
-1.833517
 30
0.0
 11
0.431714
 21
-1.833517
 31
0.0
  0
LINE
  5
79E14
330
7A085
100
AcDbEntity
  8
Level 26
 62
   133
370
     0
100
AcDbLine
 10
0.131714
 20
-1.933517
 30
0.0
 11
0.359125
 21
-1.933517
 31
0.0
  0
ENDBLK
  5
7A087
330
7A085
100
AcDbEntity
  8
0
100
AcDbBlockEnd
  0
BLOCK
  5
7A089
330
7A088
100
AcDbEntity
  8
0
100
AcDbBlockBegin
  2
Feature Solid_46
 70
     0
 71
     0
 10
0.0
 20
0.0
 30
0.0
  3
Feature Solid_46
  1

  0
INSERT
  5
79E16
330
7A088
100
AcDbEntity
  8
Level 26
 62
   133
370
     0
100
AcDbBlockReference
  2
DDPROJ_28
 10
0.0
 20
0.0
 30
0.0
  0
ENDBLK
  5
7A08A
330
7A088
100
AcDbEntity
  8
0
100
AcDbBlockEnd
  0
BLOCK
  5
7A08C
330
7A08B
100
AcDbEntity
  8
0
100
AcDbBlockBegin
  2
DDPROJ_28
 70
     0
 71
     0
 10
0.0
 20
0.0
 30
0.0
  3
DDPROJ_28
  1

  0
POINT
  5
79E17
330
7A08B
100
AcDbEntity
  8
Level 26
 62
   133
370
     0
100
AcDbPoint
 10
0.011714
 20
-1.933517
 30
0.0
  0
LINE
  5
79E18
330
7A08B
100
AcDbEntity
  8
Level 26
 62
   133
370
     0
100
AcDbLine
 10
0.131714
 20
-1.933517
 30
0.0
 11
0.431714
 21
-1.933517
 31
0.0
  0
LINE
  5
79E19
330
7A08B
100
AcDbEntity
  8
Level 26
 62
   133
370
     0
100
AcDbLine
 10
0.131714
 20
-1.833517
 30
0.0
 11
0.359125
 21
-1.833517
 31
0.0
  0
LINE
  5
79E1A
330
7A08B
100
AcDbEntity
  8
Level 26
 62
   133
370
     0
100
AcDbLine
 10
0.131714
 20
-1.833517
 30
0.0
 11
0.359125
 21
-1.833517
 31
0.0
  0
LINE
  5
79E1B
330
7A08B
100
AcDbEntity
  8
Level 26
 62
   133
370
     0
100
AcDbLine
 10
0.131714
 20
-1.933517
 30
0.0
 11
0.431714
 21
-1.933517
 31
0.0
  0
ENDBLK
  5
7A08D
330
7A08B
100
AcDbEntity
  8
0
100
AcDbBlockEnd
  0
BLOCK
  5
7A08F
330
7A08E
100
AcDbEntity
  8
0
100
AcDbBlockBegin
  2
Feature Solid_47
 70
     0
 71
     0
 10
0.0
 20
0.0
 30
0.0
  3
Feature Solid_47
  1

  0
INSERT
  5
79E1D
330
7A08E
100
AcDbEntity
  8
Level 8
 62
   133
370
     0
100
AcDbBlockReference
  2
UNITE_19
 10
0.0
 20
0.0
 30
0.0
  0
ENDBLK
  5
7A090
330
7A08E
100
AcDbEntity
  8
0
100
AcDbBlockEnd
  0
BLOCK
  5
7A092
330
7A091
100
AcDbEntity
  8
0
100
AcDbBlockBegin
  2
UNITE_19
 70
     0
 71
     0
 10
0.0
 20
0.0
 30
0.0
  3
UNITE_19
  1

  0
INSERT
  5
79E1E
330
7A091
100
AcDbEntity
  8
Level 8
 62
   133
370
     0
100
AcDbBlockReference
  2
Feature Solid_48
 10
0.0
 20
0.0
 30
0.0
  0
INSERT
  5
79E34
330
7A091
100
AcDbEntity
  8
Level 26
 62
   133
370
     0
100
AcDbBlockReference
  2
Feature Solid_49
 10
0.0
 20
0.0
 30
0.0
  0
ENDBLK
  5
7A093
330
7A091
100
AcDbEntity
  8
0
100
AcDbBlockEnd
  0
BLOCK
  5
7A095
330
7A094
100
AcDbEntity
  8
0
100
AcDbBlockBegin
  2
Feature Solid_48
 70
     0
 71
     0
 10
0.0
 20
0.0
 30
0.0
  3
Feature Solid_48
  1

  0
INSERT
  5
79E1F
330
7A094
100
AcDbEntity
  8
Level 8
 62
   133
370
     0
100
AcDbBlockReference
  2
CONE_9
 10
0.0
 20
0.0
 30
0.0
  0
ENDBLK
  5
7A096
330
7A094
100
AcDbEntity
  8
0
100
AcDbBlockEnd
  0
BLOCK
  5
7A098
330
7A097
100
AcDbEntity
  8
0
100
AcDbBlockBegin
  2
CONE_9
 70
     0
 71
     0
 10
0.0
 20
0.0
 30
0.0
  3
CONE_9
  1

  0
LINE
  5
79E20
330
7A097
100
AcDbEntity
  8
Level 8
 62
   133
370
     0
100
AcDbLine
 10
0.431714
 20
-1.833517
 30
0.0
 11
0.431714
 21
-2.483517
 31
0.0
  0
LINE
  5
79E21
330
7A097
100
AcDbEntity
  8
Level 8
 62
   133
370
     0
100
AcDbLine
 10
0.131714
 20
-2.383517
 30
0.0
 11
0.359125
 21
-2.383517
 31
0.0
  0
LINE
  5
79E22
330
7A097
100
AcDbEntity
  8
Level 8
 62
   133
370
     0
100
AcDbLine
 10
0.131714
 20
-2.383517
 30
0.0
 11
0.359125
 21
-2.383517
 31
0.0
  0
SPLINE
  5
79E23
330
7A097
100
AcDbEntity
  8
Level 8
 62
   133
370
     0
100
AcDbSpline
210
0.0
220
0.0
230
1.0
 70
     8
 71
     3
 72
    17
 73
    13
 74
     0
 42
0.0000000001
 43
0.00000001
 40
0.0
 40
0.0
 40
0.0
 40
0.0
 40
0.1188920175173181
 40
0.1188920175173181
 40
0.1188920175173181
 40
0.4370642450454728
 40
0.4370642450454728
 40
0.4370642450454728
 40
0.7708126268407274
 40
0.7708126268407274
 40
0.7708126268407274
 40
1.0
 40
1.0
 40
1.0
 40
1.0
 10
0.4317136962460353
 20
-2.4835170356764
 30
0.0
 10
0.4317136962460353
 20
-2.4835170356764
 30
0.0
 10
0.4312857853703704
 20
-2.482970961108962
 30
0.0
 10
0.4304413967249374
 20
-2.481890266834163
 30
0.0
 10
0.4281893687172271
 20
-2.479007999541993
 30
0.0
 10
0.4228496497948271
 20
-2.472181370284083
 30
0.0
 10
0.415280563715676
 20
-2.462245290317638
 30
0.0
 10
0.4073288034245479
 20
-2.451806866801186
 30
0.0
 10
0.3967863239604554
 20
-2.437764099143893
 30
0.0
 10
0.3850241073261032
 20
-2.42127018794613
 30
0.0
 10
0.3768999155639037
 20
-2.409877803190351
 30
0.0
 10
0.3681165556180162
 20
-2.397205829360039
 30
0.0
 10
0.359125348396347
 20
-2.383517035681364
 30
0.0
  0
SPLINE
  5
79E26
330
7A097
100
AcDbEntity
  8
Level 8
 62
   133
370
     0
100
AcDbSpline
210
0.0
220
0.0
230
1.0
 70
     8
 71
     3
 72
    14
 73
    10
 74
     0
 42
0.0000000001
 43
0.00000001
 40
0.0
 40
0.0
 40
0.0
 40
0.0
 40
0.4155111778321488
 40
0.4155111778321488
 40
0.4155111778321488
 40
0.7657511632294429
 40
0.7657511632294429
 40
0.7657511632294429
 40
1.0
 40
1.0
 40
1.0
 40
1.0
 10
0.3591253483958496
 20
-2.383517035676381
 30
0.0
 10
0.3753273199526817
 20
-2.408183961970713
 30
0.0
 10
0.390935225137504
 20
-2.429723842876861
 30
0.0
 10
0.403294537228355
 20
-2.446330563598322
 30
0.0
 10
0.4137190532494017
 20
-2.460337575068316
 30
0.0
 10
0.4220439846593962
 20
-2.471094914404415
 30
0.0
 10
0.4268312321213159
 20
-2.477256738635805
 30
0.0
 10
0.4300308856967945
 20
-2.481375118370783
 30
0.0
 10
0.4317136962460353
 20
-2.4835170356764
 30
0.0
 10
0.4317136962460353
 20
-2.4835170356764
 30
0.0
  0
LINE
  5
79E29
330
7A097
100
AcDbEntity
  8
Level 8
 62
   133
370
     0
100
AcDbLine
 10
0.431714
 20
-1.833517
 30
0.0
 11
0.431714
 21
-2.483517
 31
0.0
  0
SPLINE
  5
79E2A
330
7A097
100
AcDbEntity
  8
Level 8
 62
   133
370
     0
100
AcDbSpline
210
0.0
220
0.0
230
1.0
 70
     8
 71
     3
 72
    17
 73
    13
 74
     0
 42
0.0000000001
 43
0.00000001
 40
0.0
 40
0.0
 40
0.0
 40
0.0
 40
0.1188920175167992
 40
0.1188920175167992
 40
0.1188920175167992
 40
0.4370642450447248
 40
0.4370642450447248
 40
0.4370642450447248
 40
0.7708126268396294
 40
0.7708126268396294
 40
0.7708126268396294
 40
1.0
 40
1.0
 40
1.0
 40
1.0
 10
0.4317136962460353
 20
-1.833517035676251
 30
0.0
 10
0.4317136962460353
 20
-1.833517035676251
 30
0.0
 10
0.4312857853703775
 20
-1.834063110243678
 30
0.0
 10
0.4304413967249516
 20
-1.835143804518469
 30
0.0
 10
0.4281893687172556
 20
-1.83802607181063
 30
0.0
 10
0.4228496497948697
 20
-1.84485270106853
 30
0.0
 10
0.4152805637157329
 20
-1.854788781034975
 30
0.0
 10
0.4073288034246261
 20
-1.865227204551418
 30
0.0
 10
0.3967863239605407
 20
-1.879269972208701
 30
0.0
 10
0.3850241073262097
 20
-1.895763883406455
 30
0.0
 10
0.3768999155639747
 20
-1.90715626816229
 30
0.0
 10
0.3681165556180375
 20
-1.919828241992677
 30
0.0
 10
0.3591253483963257
 20
-1.933517035671436
 30
0.0
  0
LINE
  5
79E2D
330
7A097
100
AcDbEntity
  8
Level 8
 62
   133
370
     0
100
AcDbLine
 10
0.131714
 20
-1.933517
 30
0.0
 11
0.359125
 21
-1.933517
 31
0.0
  0
LINE
  5
79E2E
330
7A097
100
AcDbEntity
  8
Level 8
 62
   133
370
     0
100
AcDbLine
 10
0.131714
 20
-1.933517
 30
0.0
 11
0.359125
 21
-1.933517
 31
0.0
  0
SPLINE
  5
79E2F
330
7A097
100
AcDbEntity
  8
Level 8
 62
   133
370
     0
100
AcDbSpline
210
0.0
220
0.0
230
1.0
 70
     8
 71
     3
 72
    14
 73
    10
 74
     0
 42
0.0000000001
 43
0.00000001
 40
0.0
 40
0.0
 40
0.0
 40
0.0
 40
0.4155111778320348
 40
0.4155111778320348
 40
0.4155111778320348
 40
0.7657511632291136
 40
0.7657511632291136
 40
0.7657511632291136
 40
1.0
 40
1.0
 40
1.0
 40
1.0
 10
0.3591253483956578
 20
-1.933517035676418
 30
0.0
 10
0.3753273199525111
 20
-1.908850109382067
 30
0.0
 10
0.390935225137369
 20
-1.887310228475882
 30
0.0
 10
0.4032945372282484
 20
-1.870703507754402
 30
0.0
 10
0.4137190532493023
 20
-1.85669649628439
 30
0.0
 10
0.4220439846593251
 20
-1.845939156948282
 30
0.0
 10
0.4268312321212662
 20
-1.839777332716864
 30
0.0
 10
0.4300308856967732
 20
-1.835658952981877
 30
0.0
 10
0.4317136962460282
 20
-1.833517035676251
 30
0.0
 10
0.4317136962460353
 20
-1.833517035676251
 30
0.0
  0
LINE
  5
79E32
330
7A097
100
AcDbEntity
  8
Level 8
 62
   133
370
     0
100
AcDbLine
 10
0.131714
 20
-2.158517
 30
0.0
 11
0.431714
 21
-2.158517
 31
0.0
  0
LINE
  5
79E33
330
7A097
100
AcDbEntity
  8
Level 8
 62
   133
370
     0
100
AcDbLine
 10
0.131714
 20
-2.158517
 30
0.0
 11
0.431714
 21
-2.158517
 31
0.0
  0
ENDBLK
  5
7A099
330
7A097
100
AcDbEntity
  8
0
100
AcDbBlockEnd
  0
BLOCK
  5
7A09B
330
7A09A
100
AcDbEntity
  8
0
100
AcDbBlockBegin
  2
Feature Solid_49
 70
     0
 71
     0
 10
0.0
 20
0.0
 30
0.0
  3
Feature Solid_49
  1

  0
INSERT
  5
79E35
330
7A09A
100
AcDbEntity
  8
Level 26
 62
   133
370
     0
100
AcDbBlockReference
  2
DDPROJ_29
 10
0.0
 20
0.0
 30
0.0
  0
ENDBLK
  5
7A09C
330
7A09A
100
AcDbEntity
  8
0
100
AcDbBlockEnd
  0
BLOCK
  5
7A09E
330
7A09D
100
AcDbEntity
  8
0
100
AcDbBlockBegin
  2
DDPROJ_29
 70
     0
 71
     0
 10
0.0
 20
0.0
 30
0.0
  3
DDPROJ_29
  1

  0
LINE
  5
79E36
330
7A09D
100
AcDbEntity
  8
Level 26
 62
   133
370
     0
100
AcDbLine
 10
0.011714
 20
-1.833517
 30
0.0
 11
0.131714
 21
-1.833517
 31
0.0
  0
LINE
  5
79E37
330
7A09D
100
AcDbEntity
  8
Level 26
 62
   133
370
     0
100
AcDbLine
 10
0.131714
 20
-1.833517
 30
0.0
 11
0.011714
 21
-1.833517
 31
0.0
  0
LINE
  5
79E38
330
7A09D
100
AcDbEntity
  8
Level 26
 62
   133
370
     0
100
AcDbLine
 10
0.011714
 20
-2.483517
 30
0.0
 11
0.131714
 21
-2.483517
 31
0.0
  0
LINE
  5
79E39
330
7A09D
100
AcDbEntity
  8
Level 26
 62
   133
370
     0
100
AcDbLine
 10
0.131714
 20
-2.483517
 30
0.0
 11
0.011714
 21
-2.483517
 31
0.0
  0
LINE
  5
79E3A
330
7A09D
100
AcDbEntity
  8
Level 26
 62
   133
370
     0
100
AcDbLine
 10
0.131714
 20
-1.933517
 30
0.0
 11
0.131714
 21
-2.383517
 31
0.0
  0
LINE
  5
79E3B
330
7A09D
100
AcDbEntity
  8
Level 26
 62
   133
370
     0
100
AcDbLine
 10
0.131714
 20
-1.933517
 30
0.0
 11
0.131714
 21
-2.383517
 31
0.0
  0
LINE
  5
79E3C
330
7A09D
100
AcDbEntity
  8
Level 26
 62
   133
370
     0
100
AcDbLine
 10
0.011714
 20
-1.833517
 30
0.0
 11
0.011714
 21
-2.483517
 31
0.0
  0
POINT
  5
79E3D
330
7A09D
100
AcDbEntity
  8
Level 26
 62
   133
370
     0
100
AcDbPoint
 10
0.131714
 20
-2.483517
 30
0.0
  0
LINE
  5
79E3E
330
7A09D
100
AcDbEntity
  8
Level 26
 62
   133
370
     0
100
AcDbLine
 10
0.011714
 20
-1.833517
 30
0.0
 11
0.011714
 21
-2.483517
 31
0.0
  0
LINE
  5
79E3F
330
7A09D
100
AcDbEntity
  8
Level 26
 62
   133
370
     0
100
AcDbLine
 10
0.131714
 20
-1.833517
 30
0.0
 11
0.131714
 21
-2.483517
 31
0.0
  0
POINT
  5
79E40
330
7A09D
100
AcDbEntity
  8
Level 26
 62
   133
370
     0
100
AcDbPoint
 10
0.131714
 20
-1.833517
 30
0.0
  0
POINT
  5
79E41
330
7A09D
100
AcDbEntity
  8
Level 26
 62
   133
370
     0
100
AcDbPoint
 10
0.131714
 20
-2.483517
 30
0.0
  0
LINE
  5
79E42
330
7A09D
100
AcDbEntity
  8
Level 26
 62
   133
370
     0
100
AcDbLine
 10
0.131714
 20
-1.833517
 30
0.0
 11
0.131714
 21
-2.483517
 31
0.0
  0
POINT
  5
79E43
330
7A09D
100
AcDbEntity
  8
Level 26
 62
   133
370
     0
100
AcDbPoint
 10
0.131714
 20
-1.833517
 30
0.0
  0
POINT
  5
79E44
330
7A09D
100
AcDbEntity
  8
Level 26
 62
   133
370
     0
100
AcDbPoint
 10
0.131714
 20
-2.383517
 30
0.0
  0
POINT
  5
79E45
330
7A09D
100
AcDbEntity
  8
Level 26
 62
   133
370
     0
100
AcDbPoint
 10
0.131714
 20
-2.383517
 30
0.0
  0
LINE
  5
79E46
330
7A09D
100
AcDbEntity
  8
Level 26
 62
   133
370
     0
100
AcDbLine
 10
0.131714
 20
-2.483517
 30
0.0
 11
0.131714
 21
-2.383517
 31
0.0
  0
LINE
  5
79E47
330
7A09D
100
AcDbEntity
  8
Level 26
 62
   133
370
     0
100
AcDbLine
 10
0.131714
 20
-2.483517
 30
0.0
 11
0.131714
 21
-2.383517
 31
0.0
  0
POINT
  5
79E48
330
7A09D
100
AcDbEntity
  8
Level 26
 62
   133
370
     0
100
AcDbPoint
 10
0.131714
 20
-1.933517
 30
0.0
  0
LINE
  5
79E49
330
7A09D
100
AcDbEntity
  8
Level 26
 62
   133
370
     0
100
AcDbLine
 10
0.131714
 20
-1.933517
 30
0.0
 11
0.131714
 21
-1.833517
 31
0.0
  0
POINT
  5
79E4A
330
7A09D
100
AcDbEntity
  8
Level 26
 62
   133
370
     0
100
AcDbPoint
 10
0.131714
 20
-1.933517
 30
0.0
  0
LINE
  5
79E4B
330
7A09D
100
AcDbEntity
  8
Level 26
 62
   133
370
     0
100
AcDbLine
 10
0.131714
 20
-1.933517
 30
0.0
 11
0.131714
 21
-1.833517
 31
0.0
  0
LINE
  5
79E4C
330
7A09D
100
AcDbEntity
  8
Level 26
 62
   133
370
     0
100
AcDbLine
 10
0.131714
 20
-2.158517
 30
0.0
 11
0.011714
 21
-2.158517
 31
0.0
  0
LINE
  5
79E4D
330
7A09D
100
AcDbEntity
  8
Level 26
 62
   133
370
     0
100
AcDbLine
 10
0.131714
 20
-2.483517
 30
0.0
 11
0.011714
 21
-2.483517
 31
0.0
  0
LINE
  5
79E4E
330
7A09D
100
AcDbEntity
  8
Level 26
 62
   133
370
     0
100
AcDbLine
 10
0.131714
 20
-2.158517
 30
0.0
 11
0.011714
 21
-2.158517
 31
0.0
  0
LINE
  5
79E4F
330
7A09D
100
AcDbEntity
  8
Level 26
 62
   133
370
     0
100
AcDbLine
 10
0.131714
 20
-1.833517
 30
0.0
 11
0.011714
 21
-1.833517
 31
0.0
  0
ENDBLK
  5
7A09F
330
7A09D
100
AcDbEntity
  8
0
100
AcDbBlockEnd
  0
BLOCK
  5
7A0A1
330
7A0A0
100
AcDbEntity
  8
0
100
AcDbBlockBegin
  2
UNITE_20
 70
     0
 71
     0
 10
0.0
 20
0.0
 30
0.0
  3
UNITE_20
  1

  0
INSERT
  5
79E51
330
7A0A0
100
AcDbEntity
  8
Level 26
 62
   133
370
     0
100
AcDbBlockReference
  2
Feature Solid_50
 10
0.0
 20
0.0
 30
0.0
  0
INSERT
  5
79E58
330
7A0A0
100
AcDbEntity
  8
Level 26
 62
   133
370
     0
100
AcDbBlockReference
  2
Feature Solid_51
 10
0.0
 20
-0.55
 30
0.0
  0
INSERT
  5
79E5F
330
7A0A0
100
AcDbEntity
  8
Level 8
 62
   133
370
     0
100
AcDbBlockReference
  2
Feature Solid_52
 10
0.0
 20
0.0
 30
0.0
  0
ENDBLK
  5
7A0A2
330
7A0A0
100
AcDbEntity
  8
0
100
AcDbBlockEnd
  0
BLOCK
  5
7A0A4
330
7A0A3
100
AcDbEntity
  8
0
100
AcDbBlockBegin
  2
Feature Solid_50
 70
     0
 71
     0
 10
0.0
 20
0.0
 30
0.0
  3
Feature Solid_50
  1

  0
INSERT
  5
79E52
330
7A0A3
100
AcDbEntity
  8
Level 26
 62
   133
370
     0
100
AcDbBlockReference
  2
DDPROJ_30
 10
0.0
 20
0.0
 30
0.0
  0
ENDBLK
  5
7A0A5
330
7A0A3
100
AcDbEntity
  8
0
100
AcDbBlockEnd
  0
BLOCK
  5
7A0A7
330
7A0A6
100
AcDbEntity
  8
0
100
AcDbBlockBegin
  2
DDPROJ_30
 70
     0
 71
     0
 10
0.0
 20
0.0
 30
0.0
  3
DDPROJ_30
  1

  0
POINT
  5
79E53
330
7A0A6
100
AcDbEntity
  8
Level 26
 62
   133
370
     0
100
AcDbPoint
 10
-0.011714
 20
-1.833517
 30
0.0
  0
LINE
  5
79E54
330
7A0A6
100
AcDbEntity
  8
Level 26
 62
   133
370
     0
100
AcDbLine
 10
-0.131714
 20
-1.933517
 30
0.0
 11
-0.359125
 21
-1.933517
 31
0.0
  0
LINE
  5
79E55
330
7A0A6
100
AcDbEntity
  8
Level 26
 62
   133
370
     0
100
AcDbLine
 10
-0.131714
 20
-1.833517
 30
0.0
 11
-0.431714
 21
-1.833517
 31
0.0
  0
LINE
  5
79E56
330
7A0A6
100
AcDbEntity
  8
Level 26
 62
   133
370
     0
100
AcDbLine
 10
-0.131714
 20
-1.833517
 30
0.0
 11
-0.431714
 21
-1.833517
 31
0.0
  0
LINE
  5
79E57
330
7A0A6
100
AcDbEntity
  8
Level 26
 62
   133
370
     0
100
AcDbLine
 10
-0.131714
 20
-1.933517
 30
0.0
 11
-0.359125
 21
-1.933517
 31
0.0
  0
ENDBLK
  5
7A0A8
330
7A0A6
100
AcDbEntity
  8
0
100
AcDbBlockEnd
  0
BLOCK
  5
7A0AA
330
7A0A9
100
AcDbEntity
  8
0
100
AcDbBlockBegin
  2
Feature Solid_51
 70
     0
 71
     0
 10
0.0
 20
0.0
 30
0.0
  3
Feature Solid_51
  1

  0
INSERT
  5
79E59
330
7A0A9
100
AcDbEntity
  8
Level 26
 62
   133
370
     0
100
AcDbBlockReference
  2
DDPROJ_31
 10
0.0
 20
0.0
 30
0.0
  0
ENDBLK
  5
7A0AB
330
7A0A9
100
AcDbEntity
  8
0
100
AcDbBlockEnd
  0
BLOCK
  5
7A0AD
330
7A0AC
100
AcDbEntity
  8
0
100
AcDbBlockBegin
  2
DDPROJ_31
 70
     0
 71
     0
 10
0.0
 20
0.0
 30
0.0
  3
DDPROJ_31
  1

  0
POINT
  5
79E5A
330
7A0AC
100
AcDbEntity
  8
Level 26
 62
   133
370
     0
100
AcDbPoint
 10
-0.011714
 20
-1.933517
 30
0.0
  0
LINE
  5
79E5B
330
7A0AC
100
AcDbEntity
  8
Level 26
 62
   133
370
     0
100
AcDbLine
 10
-0.131714
 20
-1.933517
 30
0.0
 11
-0.431714
 21
-1.933517
 31
0.0
  0
LINE
  5
79E5C
330
7A0AC
100
AcDbEntity
  8
Level 26
 62
   133
370
     0
100
AcDbLine
 10
-0.131714
 20
-1.833517
 30
0.0
 11
-0.359125
 21
-1.833517
 31
0.0
  0
LINE
  5
79E5D
330
7A0AC
100
AcDbEntity
  8
Level 26
 62
   133
370
     0
100
AcDbLine
 10
-0.131714
 20
-1.833517
 30
0.0
 11
-0.359125
 21
-1.833517
 31
0.0
  0
LINE
  5
79E5E
330
7A0AC
100
AcDbEntity
  8
Level 26
 62
   133
370
     0
100
AcDbLine
 10
-0.131714
 20
-1.933517
 30
0.0
 11
-0.431714
 21
-1.933517
 31
0.0
  0
ENDBLK
  5
7A0AE
330
7A0AC
100
AcDbEntity
  8
0
100
AcDbBlockEnd
  0
BLOCK
  5
7A0B0
330
7A0AF
100
AcDbEntity
  8
0
100
AcDbBlockBegin
  2
Feature Solid_52
 70
     0
 71
     0
 10
0.0
 20
0.0
 30
0.0
  3
Feature Solid_52
  1

  0
INSERT
  5
79E60
330
7A0AF
100
AcDbEntity
  8
Level 8
 62
   133
370
     0
100
AcDbBlockReference
  2
UNITE_21
 10
0.0
 20
0.0
 30
0.0
  0
ENDBLK
  5
7A0B1
330
7A0AF
100
AcDbEntity
  8
0
100
AcDbBlockEnd
  0
BLOCK
  5
7A0B3
330
7A0B2
100
AcDbEntity
  8
0
100
AcDbBlockBegin
  2
UNITE_21
 70
     0
 71
     0
 10
0.0
 20
0.0
 30
0.0
  3
UNITE_21
  1

  0
INSERT
  5
79E61
330
7A0B2
100
AcDbEntity
  8
Level 8
 62
   133
370
     0
100
AcDbBlockReference
  2
Feature Solid_53
 10
0.0
 20
0.0
 30
0.0
  0
INSERT
  5
79E77
330
7A0B2
100
AcDbEntity
  8
Level 26
 62
   133
370
     0
100
AcDbBlockReference
  2
Feature Solid_54
 10
0.0
 20
0.0
 30
0.0
  0
ENDBLK
  5
7A0B4
330
7A0B2
100
AcDbEntity
  8
0
100
AcDbBlockEnd
  0
BLOCK
  5
7A0B6
330
7A0B5
100
AcDbEntity
  8
0
100
AcDbBlockBegin
  2
Feature Solid_53
 70
     0
 71
     0
 10
0.0
 20
0.0
 30
0.0
  3
Feature Solid_53
  1

  0
INSERT
  5
79E62
330
7A0B5
100
AcDbEntity
  8
Level 8
 62
   133
370
     0
100
AcDbBlockReference
  2
CONE_10
 10
0.0
 20
0.0
 30
0.0
  0
ENDBLK
  5
7A0B7
330
7A0B5
100
AcDbEntity
  8
0
100
AcDbBlockEnd
  0
BLOCK
  5
7A0B9
330
7A0B8
100
AcDbEntity
  8
0
100
AcDbBlockBegin
  2
CONE_10
 70
     0
 71
     0
 10
0.0
 20
0.0
 30
0.0
  3
CONE_10
  1

  0
LINE
  5
79E63
330
7A0B8
100
AcDbEntity
  8
Level 8
 62
   133
370
     0
100
AcDbLine
 10
-0.431714
 20
-1.833517
 30
0.0
 11
-0.431714
 21
-2.483517
 31
0.0
  0
LINE
  5
79E64
330
7A0B8
100
AcDbEntity
  8
Level 8
 62
   133
370
     0
100
AcDbLine
 10
-0.131714
 20
-2.383517
 30
0.0
 11
-0.359125
 21
-2.383517
 31
0.0
  0
LINE
  5
79E65
330
7A0B8
100
AcDbEntity
  8
Level 8
 62
   133
370
     0
100
AcDbLine
 10
-0.131714
 20
-2.383517
 30
0.0
 11
-0.359125
 21
-2.383517
 31
0.0
  0
SPLINE
  5
79E66
330
7A0B8
100
AcDbEntity
  8
Level 8
 62
   133
370
     0
100
AcDbSpline
210
0.0
220
0.0
230
1.0
 70
     8
 71
     3
 72
    17
 73
    13
 74
     0
 42
0.0000000001
 43
0.00000001
 40
0.0
 40
0.0
 40
0.0
 40
0.0
 40
0.1188920175173181
 40
0.1188920175173181
 40
0.1188920175173181
 40
0.4370642450454728
 40
0.4370642450454728
 40
0.4370642450454728
 40
0.7708126268407274
 40
0.7708126268407274
 40
0.7708126268407274
 40
1.0
 40
1.0
 40
1.0
 40
1.0
 10
-0.4317136962460353
 20
-2.4835170356764
 30
0.0
 10
-0.4317136962460353
 20
-2.4835170356764
 30
0.0
 10
-0.4312857853703633
 20
-2.482970961108962
 30
0.0
 10
-0.4304413967249374
 20
-2.481890266834163
 30
0.0
 10
-0.42818936871722
 20
-2.479007999541993
 30
0.0
 10
-0.4228496497948271
 20
-2.472181370284083
 30
0.0
 10
-0.415280563715676
 20
-2.462245290317638
 30
0.0
 10
-0.4073288034245479
 20
-2.451806866801186
 30
0.0
 10
-0.3967863239604483
 20
-2.437764099143893
 30
0.0
 10
-0.3850241073261032
 20
-2.42127018794613
 30
0.0
 10
-0.3768999155639037
 20
-2.409877803190351
 30
0.0
 10
-0.368116555618009
 20
-2.397205829360038
 30
0.0
 10
-0.3591253483963399
 20
-2.383517035681364
 30
0.0
  0
SPLINE
  5
79E69
330
7A0B8
100
AcDbEntity
  8
Level 8
 62
   133
370
     0
100
AcDbSpline
210
0.0
220
0.0
230
1.0
 70
     8
 71
     3
 72
    14
 73
    10
 74
     0
 42
0.0000000001
 43
0.00000001
 40
0.0
 40
0.0
 40
0.0
 40
0.0
 40
0.4155111778321488
 40
0.4155111778321488
 40
0.4155111778321488
 40
0.7657511632294429
 40
0.7657511632294429
 40
0.7657511632294429
 40
1.0
 40
1.0
 40
1.0
 40
1.0
 10
-0.3591253483958568
 20
-2.383517035676381
 30
0.0
 10
-0.3753273199526745
 20
-2.408183961970713
 30
0.0
 10
-0.3909352251375111
 20
-2.429723842876861
 30
0.0
 10
-0.403294537228355
 20
-2.446330563598322
 30
0.0
 10
-0.4137190532493946
 20
-2.460337575068316
 30
0.0
 10
-0.4220439846593891
 20
-2.471094914404415
 30
0.0
 10
-0.4268312321213088
 20
-2.477256738635805
 30
0.0
 10
-0.4300308856967945
 20
-2.481375118370783
 30
0.0
 10
-0.4317136962460353
 20
-2.4835170356764
 30
0.0
 10
-0.4317136962460353
 20
-2.4835170356764
 30
0.0
  0
LINE
  5
79E6C
330
7A0B8
100
AcDbEntity
  8
Level 8
 62
   133
370
     0
100
AcDbLine
 10
-0.431714
 20
-1.833517
 30
0.0
 11
-0.431714
 21
-2.483517
 31
0.0
  0
SPLINE
  5
79E6D
330
7A0B8
100
AcDbEntity
  8
Level 8
 62
   133
370
     0
100
AcDbSpline
210
0.0
220
0.0
230
1.0
 70
     8
 71
     3
 72
    17
 73
    13
 74
     0
 42
0.0000000001
 43
0.00000001
 40
0.0
 40
0.0
 40
0.0
 40
0.0
 40
0.1188920175167992
 40
0.1188920175167992
 40
0.1188920175167992
 40
0.4370642450447248
 40
0.4370642450447248
 40
0.4370642450447248
 40
0.7708126268396294
 40
0.7708126268396294
 40
0.7708126268396294
 40
1.0
 40
1.0
 40
1.0
 40
1.0
 10
-0.4317136962460353
 20
-1.833517035676251
 30
0.0
 10
-0.4317136962460353
 20
-1.833517035676251
 30
0.0
 10
-0.4312857853703775
 20
-1.834063110243678
 30
0.0
 10
-0.4304413967249516
 20
-1.835143804518469
 30
0.0
 10
-0.4281893687172627
 20
-1.83802607181063
 30
0.0
 10
-0.4228496497948626
 20
-1.84485270106853
 30
0.0
 10
-0.4152805637157329
 20
-1.854788781034975
 30
0.0
 10
-0.407328803424619
 20
-1.865227204551418
 30
0.0
 10
-0.3967863239605336
 20
-1.879269972208701
 30
0.0
 10
-0.3850241073262097
 20
-1.895763883406455
 30
0.0
 10
-0.3768999155639676
 20
-1.90715626816229
 30
0.0
 10
-0.3681165556180304
 20
-1.919828241992677
 30
0.0
 10
-0.3591253483963186
 20
-1.933517035671436
 30
0.0
  0
LINE
  5
79E70
330
7A0B8
100
AcDbEntity
  8
Level 8
 62
   133
370
     0
100
AcDbLine
 10
-0.131714
 20
-1.933517
 30
0.0
 11
-0.359125
 21
-1.933517
 31
0.0
  0
LINE
  5
79E71
330
7A0B8
100
AcDbEntity
  8
Level 8
 62
   133
370
     0
100
AcDbLine
 10
-0.131714
 20
-1.933517
 30
0.0
 11
-0.359125
 21
-1.933517
 31
0.0
  0
SPLINE
  5
79E72
330
7A0B8
100
AcDbEntity
  8
Level 8
 62
   133
370
     0
100
AcDbSpline
210
0.0
220
0.0
230
1.0
 70
     8
 71
     3
 72
    14
 73
    10
 74
     0
 42
0.0000000001
 43
0.00000001
 40
0.0
 40
0.0
 40
0.0
 40
0.0
 40
0.4155111778320348
 40
0.4155111778320348
 40
0.4155111778320348
 40
0.7657511632291136
 40
0.7657511632291136
 40
0.7657511632291136
 40
1.0
 40
1.0
 40
1.0
 40
1.0
 10
-0.3591253483956507
 20
-1.933517035676418
 30
0.0
 10
-0.3753273199525111
 20
-1.908850109382067
 30
0.0
 10
-0.3909352251373619
 20
-1.887310228475882
 30
0.0
 10
-0.4032945372282413
 20
-1.870703507754402
 30
0.0
 10
-0.4137190532493023
 20
-1.85669649628439
 30
0.0
 10
-0.4220439846593251
 20
-1.845939156948282
 30
0.0
 10
-0.4268312321212662
 20
-1.839777332716864
 30
0.0
 10
-0.4300308856967661
 20
-1.835658952981877
 30
0.0
 10
-0.4317136962460282
 20
-1.833517035676251
 30
0.0
 10
-0.4317136962460353
 20
-1.833517035676251
 30
0.0
  0
LINE
  5
79E75
330
7A0B8
100
AcDbEntity
  8
Level 8
 62
   133
370
     0
100
AcDbLine
 10
-0.131714
 20
-2.158517
 30
0.0
 11
-0.431714
 21
-2.158517
 31
0.0
  0
LINE
  5
79E76
330
7A0B8
100
AcDbEntity
  8
Level 8
 62
   133
370
     0
100
AcDbLine
 10
-0.131714
 20
-2.158517
 30
0.0
 11
-0.431714
 21
-2.158517
 31
0.0
  0
ENDBLK
  5
7A0BA
330
7A0B8
100
AcDbEntity
  8
0
100
AcDbBlockEnd
  0
BLOCK
  5
7A0BC
330
7A0BB
100
AcDbEntity
  8
0
100
AcDbBlockBegin
  2
Feature Solid_54
 70
     0
 71
     0
 10
0.0
 20
0.0
 30
0.0
  3
Feature Solid_54
  1

  0
INSERT
  5
79E78
330
7A0BB
100
AcDbEntity
  8
Level 26
 62
   133
370
     0
100
AcDbBlockReference
  2
DDPROJ_32
 10
0.0
 20
0.0
 30
0.0
  0
ENDBLK
  5
7A0BD
330
7A0BB
100
AcDbEntity
  8
0
100
AcDbBlockEnd
  0
BLOCK
  5
7A0BF
330
7A0BE
100
AcDbEntity
  8
0
100
AcDbBlockBegin
  2
DDPROJ_32
 70
     0
 71
     0
 10
0.0
 20
0.0
 30
0.0
  3
DDPROJ_32
  1

  0
LINE
  5
79E79
330
7A0BE
100
AcDbEntity
  8
Level 26
 62
   133
370
     0
100
AcDbLine
 10
-0.011714
 20
-1.833517
 30
0.0
 11
-0.131714
 21
-1.833517
 31
0.0
  0
LINE
  5
79E7A
330
7A0BE
100
AcDbEntity
  8
Level 26
 62
   133
370
     0
100
AcDbLine
 10
-0.131714
 20
-1.833517
 30
0.0
 11
-0.011714
 21
-1.833517
 31
0.0
  0
LINE
  5
79E7B
330
7A0BE
100
AcDbEntity
  8
Level 26
 62
   133
370
     0
100
AcDbLine
 10
-0.011714
 20
-2.483517
 30
0.0
 11
-0.131714
 21
-2.483517
 31
0.0
  0
LINE
  5
79E7C
330
7A0BE
100
AcDbEntity
  8
Level 26
 62
   133
370
     0
100
AcDbLine
 10
-0.131714
 20
-2.483517
 30
0.0
 11
-0.011714
 21
-2.483517
 31
0.0
  0
LINE
  5
79E7D
330
7A0BE
100
AcDbEntity
  8
Level 26
 62
   133
370
     0
100
AcDbLine
 10
-0.131714
 20
-1.933517
 30
0.0
 11
-0.131714
 21
-2.383517
 31
0.0
  0
LINE
  5
79E7E
330
7A0BE
100
AcDbEntity
  8
Level 26
 62
   133
370
     0
100
AcDbLine
 10
-0.131714
 20
-1.933517
 30
0.0
 11
-0.131714
 21
-2.383517
 31
0.0
  0
LINE
  5
79E7F
330
7A0BE
100
AcDbEntity
  8
Level 26
 62
   133
370
     0
100
AcDbLine
 10
-0.011714
 20
-1.833517
 30
0.0
 11
-0.011714
 21
-2.483517
 31
0.0
  0
POINT
  5
79E80
330
7A0BE
100
AcDbEntity
  8
Level 26
 62
   133
370
     0
100
AcDbPoint
 10
-0.131714
 20
-2.483517
 30
0.0
  0
LINE
  5
79E81
330
7A0BE
100
AcDbEntity
  8
Level 26
 62
   133
370
     0
100
AcDbLine
 10
-0.011714
 20
-1.833517
 30
0.0
 11
-0.011714
 21
-2.483517
 31
0.0
  0
LINE
  5
79E82
330
7A0BE
100
AcDbEntity
  8
Level 26
 62
   133
370
     0
100
AcDbLine
 10
-0.131714
 20
-1.833517
 30
0.0
 11
-0.131714
 21
-2.483517
 31
0.0
  0
POINT
  5
79E83
330
7A0BE
100
AcDbEntity
  8
Level 26
 62
   133
370
     0
100
AcDbPoint
 10
-0.131714
 20
-1.833517
 30
0.0
  0
POINT
  5
79E84
330
7A0BE
100
AcDbEntity
  8
Level 26
 62
   133
370
     0
100
AcDbPoint
 10
-0.131714
 20
-2.483517
 30
0.0
  0
LINE
  5
79E85
330
7A0BE
100
AcDbEntity
  8
Level 26
 62
   133
370
     0
100
AcDbLine
 10
-0.131714
 20
-1.833517
 30
0.0
 11
-0.131714
 21
-2.483517
 31
0.0
  0
POINT
  5
79E86
330
7A0BE
100
AcDbEntity
  8
Level 26
 62
   133
370
     0
100
AcDbPoint
 10
-0.131714
 20
-1.833517
 30
0.0
  0
POINT
  5
79E87
330
7A0BE
100
AcDbEntity
  8
Level 26
 62
   133
370
     0
100
AcDbPoint
 10
-0.131714
 20
-2.383517
 30
0.0
  0
POINT
  5
79E88
330
7A0BE
100
AcDbEntity
  8
Level 26
 62
   133
370
     0
100
AcDbPoint
 10
-0.131714
 20
-2.383517
 30
0.0
  0
LINE
  5
79E89
330
7A0BE
100
AcDbEntity
  8
Level 26
 62
   133
370
     0
100
AcDbLine
 10
-0.131714
 20
-2.483517
 30
0.0
 11
-0.131714
 21
-2.383517
 31
0.0
  0
LINE
  5
79E8A
330
7A0BE
100
AcDbEntity
  8
Level 26
 62
   133
370
     0
100
AcDbLine
 10
-0.131714
 20
-2.483517
 30
0.0
 11
-0.131714
 21
-2.383517
 31
0.0
  0
POINT
  5
79E8B
330
7A0BE
100
AcDbEntity
  8
Level 26
 62
   133
370
     0
100
AcDbPoint
 10
-0.131714
 20
-1.933517
 30
0.0
  0
LINE
  5
79E8C
330
7A0BE
100
AcDbEntity
  8
Level 26
 62
   133
370
     0
100
AcDbLine
 10
-0.131714
 20
-1.933517
 30
0.0
 11
-0.131714
 21
-1.833517
 31
0.0
  0
POINT
  5
79E8D
330
7A0BE
100
AcDbEntity
  8
Level 26
 62
   133
370
     0
100
AcDbPoint
 10
-0.131714
 20
-1.933517
 30
0.0
  0
LINE
  5
79E8E
330
7A0BE
100
AcDbEntity
  8
Level 26
 62
   133
370
     0
100
AcDbLine
 10
-0.131714
 20
-1.933517
 30
0.0
 11
-0.131714
 21
-1.833517
 31
0.0
  0
LINE
  5
79E8F
330
7A0BE
100
AcDbEntity
  8
Level 26
 62
   133
370
     0
100
AcDbLine
 10
-0.131714
 20
-2.158517
 30
0.0
 11
-0.011714
 21
-2.158517
 31
0.0
  0
LINE
  5
79E90
330
7A0BE
100
AcDbEntity
  8
Level 26
 62
   133
370
     0
100
AcDbLine
 10
-0.131714
 20
-2.483517
 30
0.0
 11
-0.011714
 21
-2.483517
 31
0.0
  0
LINE
  5
79E91
330
7A0BE
100
AcDbEntity
  8
Level 26
 62
   133
370
     0
100
AcDbLine
 10
-0.131714
 20
-2.158517
 30
0.0
 11
-0.011714
 21
-2.158517
 31
0.0
  0
LINE
  5
79E92
330
7A0BE
100
AcDbEntity
  8
Level 26
 62
   133
370
     0
100
AcDbLine
 10
-0.131714
 20
-1.833517
 30
0.0
 11
-0.011714
 21
-1.833517
 31
0.0
  0
ENDBLK
  5
7A0C0
330
7A0BE
100
AcDbEntity
  8
0
100
AcDbBlockEnd
  0
BLOCK
  5
7A0C2
330
7A0C1
100
AcDbEntity
  8
0
100
AcDbBlockBegin
  2
UNITE_22
 70
     0
 71
     0
 10
0.0
 20
0.0
 30
0.0
  3
UNITE_22
  1

  0
INSERT
  5
79E94
330
7A0C1
100
AcDbEntity
  8
Level 26
 62
   133
370
     0
100
AcDbBlockReference
  2
Feature Solid_55
 10
0.0
 20
0.0
 30
0.0
  0
INSERT
  5
79E9B
330
7A0C1
100
AcDbEntity
  8
Level 26
 62
   133
370
     0
100
AcDbBlockReference
  2
Feature Solid_56
 10
0.0
 20
-0.55
 30
0.0
  0
INSERT
  5
79EA2
330
7A0C1
100
AcDbEntity
  8
Level 8
 62
   133
370
     0
100
AcDbBlockReference
  2
Feature Solid_57
 10
0.0
 20
0.0
 30
0.0
  0
ENDBLK
  5
7A0C3
330
7A0C1
100
AcDbEntity
  8
0
100
AcDbBlockEnd
  0
BLOCK
  5
7A0C5
330
7A0C4
100
AcDbEntity
  8
0
100
AcDbBlockBegin
  2
Feature Solid_55
 70
     0
 71
     0
 10
0.0
 20
0.0
 30
0.0
  3
Feature Solid_55
  1

  0
INSERT
  5
79E95
330
7A0C4
100
AcDbEntity
  8
Level 26
 62
   133
370
     0
100
AcDbBlockReference
  2
DDPROJ_33
 10
0.0
 20
0.0
 30
0.0
  0
ENDBLK
  5
7A0C6
330
7A0C4
100
AcDbEntity
  8
0
100
AcDbBlockEnd
  0
BLOCK
  5
7A0C8
330
7A0C7
100
AcDbEntity
  8
0
100
AcDbBlockBegin
  2
DDPROJ_33
 70
     0
 71
     0
 10
0.0
 20
0.0
 30
0.0
  3
DDPROJ_33
  1

  0
POINT
  5
79E96
330
7A0C7
100
AcDbEntity
  8
Level 26
 62
   133
370
     0
100
AcDbPoint
 10
0.011714
 20
-1.833517
 30
0.0
  0
LINE
  5
79E97
330
7A0C7
100
AcDbEntity
  8
Level 26
 62
   133
370
     0
100
AcDbLine
 10
0.131714
 20
-1.933517
 30
0.0
 11
0.359125
 21
-1.933517
 31
0.0
  0
LINE
  5
79E98
330
7A0C7
100
AcDbEntity
  8
Level 26
 62
   133
370
     0
100
AcDbLine
 10
0.131714
 20
-1.833517
 30
0.0
 11
0.431714
 21
-1.833517
 31
0.0
  0
LINE
  5
79E99
330
7A0C7
100
AcDbEntity
  8
Level 26
 62
   133
370
     0
100
AcDbLine
 10
0.131714
 20
-1.833517
 30
0.0
 11
0.431714
 21
-1.833517
 31
0.0
  0
LINE
  5
79E9A
330
7A0C7
100
AcDbEntity
  8
Level 26
 62
   133
370
     0
100
AcDbLine
 10
0.131714
 20
-1.933517
 30
0.0
 11
0.359125
 21
-1.933517
 31
0.0
  0
ENDBLK
  5
7A0C9
330
7A0C7
100
AcDbEntity
  8
0
100
AcDbBlockEnd
  0
BLOCK
  5
7A0CB
330
7A0CA
100
AcDbEntity
  8
0
100
AcDbBlockBegin
  2
Feature Solid_56
 70
     0
 71
     0
 10
0.0
 20
0.0
 30
0.0
  3
Feature Solid_56
  1

  0
INSERT
  5
79E9C
330
7A0CA
100
AcDbEntity
  8
Level 26
 62
   133
370
     0
100
AcDbBlockReference
  2
DDPROJ_34
 10
0.0
 20
0.0
 30
0.0
  0
ENDBLK
  5
7A0CC
330
7A0CA
100
AcDbEntity
  8
0
100
AcDbBlockEnd
  0
BLOCK
  5
7A0CE
330
7A0CD
100
AcDbEntity
  8
0
100
AcDbBlockBegin
  2
DDPROJ_34
 70
     0
 71
     0
 10
0.0
 20
0.0
 30
0.0
  3
DDPROJ_34
  1

  0
POINT
  5
79E9D
330
7A0CD
100
AcDbEntity
  8
Level 26
 62
   133
370
     0
100
AcDbPoint
 10
0.011714
 20
-1.933517
 30
0.0
  0
LINE
  5
79E9E
330
7A0CD
100
AcDbEntity
  8
Level 26
 62
   133
370
     0
100
AcDbLine
 10
0.131714
 20
-1.933517
 30
0.0
 11
0.431714
 21
-1.933517
 31
0.0
  0
LINE
  5
79E9F
330
7A0CD
100
AcDbEntity
  8
Level 26
 62
   133
370
     0
100
AcDbLine
 10
0.131714
 20
-1.833517
 30
0.0
 11
0.359125
 21
-1.833517
 31
0.0
  0
LINE
  5
79EA0
330
7A0CD
100
AcDbEntity
  8
Level 26
 62
   133
370
     0
100
AcDbLine
 10
0.131714
 20
-1.833517
 30
0.0
 11
0.359125
 21
-1.833517
 31
0.0
  0
LINE
  5
79EA1
330
7A0CD
100
AcDbEntity
  8
Level 26
 62
   133
370
     0
100
AcDbLine
 10
0.131714
 20
-1.933517
 30
0.0
 11
0.431714
 21
-1.933517
 31
0.0
  0
ENDBLK
  5
7A0CF
330
7A0CD
100
AcDbEntity
  8
0
100
AcDbBlockEnd
  0
BLOCK
  5
7A0D1
330
7A0D0
100
AcDbEntity
  8
0
100
AcDbBlockBegin
  2
Feature Solid_57
 70
     0
 71
     0
 10
0.0
 20
0.0
 30
0.0
  3
Feature Solid_57
  1

  0
INSERT
  5
79EA3
330
7A0D0
100
AcDbEntity
  8
Level 8
 62
   133
370
     0
100
AcDbBlockReference
  2
UNITE_23
 10
0.0
 20
0.0
 30
0.0
  0
ENDBLK
  5
7A0D2
330
7A0D0
100
AcDbEntity
  8
0
100
AcDbBlockEnd
  0
BLOCK
  5
7A0D4
330
7A0D3
100
AcDbEntity
  8
0
100
AcDbBlockBegin
  2
UNITE_23
 70
     0
 71
     0
 10
0.0
 20
0.0
 30
0.0
  3
UNITE_23
  1

  0
INSERT
  5
79EA4
330
7A0D3
100
AcDbEntity
  8
Level 8
 62
   133
370
     0
100
AcDbBlockReference
  2
Feature Solid_58
 10
0.0
 20
0.0
 30
0.0
  0
INSERT
  5
79EBA
330
7A0D3
100
AcDbEntity
  8
Level 26
 62
   133
370
     0
100
AcDbBlockReference
  2
Feature Solid_59
 10
0.0
 20
0.0
 30
0.0
  0
ENDBLK
  5
7A0D5
330
7A0D3
100
AcDbEntity
  8
0
100
AcDbBlockEnd
  0
BLOCK
  5
7A0D7
330
7A0D6
100
AcDbEntity
  8
0
100
AcDbBlockBegin
  2
Feature Solid_58
 70
     0
 71
     0
 10
0.0
 20
0.0
 30
0.0
  3
Feature Solid_58
  1

  0
INSERT
  5
79EA5
330
7A0D6
100
AcDbEntity
  8
Level 8
 62
   133
370
     0
100
AcDbBlockReference
  2
CONE_11
 10
0.0
 20
0.0
 30
0.0
  0
ENDBLK
  5
7A0D8
330
7A0D6
100
AcDbEntity
  8
0
100
AcDbBlockEnd
  0
BLOCK
  5
7A0DA
330
7A0D9
100
AcDbEntity
  8
0
100
AcDbBlockBegin
  2
CONE_11
 70
     0
 71
     0
 10
0.0
 20
0.0
 30
0.0
  3
CONE_11
  1

  0
LINE
  5
79EA6
330
7A0D9
100
AcDbEntity
  8
Level 8
 62
   133
370
     0
100
AcDbLine
 10
0.431714
 20
-1.833517
 30
0.0
 11
0.431714
 21
-2.483517
 31
0.0
  0
LINE
  5
79EA7
330
7A0D9
100
AcDbEntity
  8
Level 8
 62
   133
370
     0
100
AcDbLine
 10
0.131714
 20
-2.383517
 30
0.0
 11
0.359125
 21
-2.383517
 31
0.0
  0
LINE
  5
79EA8
330
7A0D9
100
AcDbEntity
  8
Level 8
 62
   133
370
     0
100
AcDbLine
 10
0.131714
 20
-2.383517
 30
0.0
 11
0.359125
 21
-2.383517
 31
0.0
  0
SPLINE
  5
79EA9
330
7A0D9
100
AcDbEntity
  8
Level 8
 62
   133
370
     0
100
AcDbSpline
210
0.0
220
0.0
230
1.0
 70
     8
 71
     3
 72
    17
 73
    13
 74
     0
 42
0.0000000001
 43
0.00000001
 40
0.0
 40
0.0
 40
0.0
 40
0.0
 40
0.1188920175173181
 40
0.1188920175173181
 40
0.1188920175173181
 40
0.4370642450454728
 40
0.4370642450454728
 40
0.4370642450454728
 40
0.7708126268407274
 40
0.7708126268407274
 40
0.7708126268407274
 40
1.0
 40
1.0
 40
1.0
 40
1.0
 10
0.4317136962460424
 20
-2.4835170356764
 30
0.0
 10
0.4317136962460353
 20
-2.4835170356764
 30
0.0
 10
0.4312857853703775
 20
-2.482970961108962
 30
0.0
 10
0.4304413967249445
 20
-2.481890266834163
 30
0.0
 10
0.4281893687172342
 20
-2.479007999541993
 30
0.0
 10
0.4228496497948342
 20
-2.472181370284083
 30
0.0
 10
0.4152805637156831
 20
-2.462245290317638
 30
0.0
 10
0.407328803424555
 20
-2.451806866801186
 30
0.0
 10
0.3967863239604554
 20
-2.437764099143893
 30
0.0
 10
0.3850241073261103
 20
-2.42127018794613
 30
0.0
 10
0.3768999155639108
 20
-2.409877803190351
 30
0.0
 10
0.3681165556180162
 20
-2.397205829360038
 30
0.0
 10
0.3591253483963541
 20
-2.383517035681364
 30
0.0
  0
SPLINE
  5
79EAC
330
7A0D9
100
AcDbEntity
  8
Level 8
 62
   133
370
     0
100
AcDbSpline
210
0.0
220
0.0
230
1.0
 70
     8
 71
     3
 72
    14
 73
    10
 74
     0
 42
0.0000000001
 43
0.00000001
 40
0.0
 40
0.0
 40
0.0
 40
0.0
 40
0.4155111778321488
 40
0.4155111778321488
 40
0.4155111778321488
 40
0.7657511632294429
 40
0.7657511632294429
 40
0.7657511632294429
 40
1.0
 40
1.0
 40
1.0
 40
1.0
 10
0.3591253483958568
 20
-2.383517035676381
 30
0.0
 10
0.3753273199526888
 20
-2.408183961970713
 30
0.0
 10
0.3909352251375111
 20
-2.429723842876861
 30
0.0
 10
0.4032945372283621
 20
-2.446330563598322
 30
0.0
 10
0.4137190532494017
 20
-2.460337575068316
 30
0.0
 10
0.4220439846594033
 20
-2.471094914404415
 30
0.0
 10
0.426831232121323
 20
-2.477256738635805
 30
0.0
 10
0.4300308856968016
 20
-2.481375118370783
 30
0.0
 10
0.4317136962460424
 20
-2.4835170356764
 30
0.0
 10
0.4317136962460424
 20
-2.4835170356764
 30
0.0
  0
LINE
  5
79EAF
330
7A0D9
100
AcDbEntity
  8
Level 8
 62
   133
370
     0
100
AcDbLine
 10
0.431714
 20
-1.833517
 30
0.0
 11
0.431714
 21
-2.483517
 31
0.0
  0
SPLINE
  5
79EB0
330
7A0D9
100
AcDbEntity
  8
Level 8
 62
   133
370
     0
100
AcDbSpline
210
0.0
220
0.0
230
1.0
 70
     8
 71
     3
 72
    17
 73
    13
 74
     0
 42
0.0000000001
 43
0.00000001
 40
0.0
 40
0.0
 40
0.0
 40
0.0
 40
0.1188920175167992
 40
0.1188920175167992
 40
0.1188920175167992
 40
0.4370642450447248
 40
0.4370642450447248
 40
0.4370642450447248
 40
0.7708126268396294
 40
0.7708126268396294
 40
0.7708126268396294
 40
1.0
 40
1.0
 40
1.0
 40
1.0
 10
0.4317136962460353
 20
-1.833517035676251
 30
0.0
 10
0.4317136962460353
 20
-1.833517035676251
 30
0.0
 10
0.4312857853703846
 20
-1.834063110243678
 30
0.0
 10
0.4304413967249587
 20
-1.835143804518469
 30
0.0
 10
0.4281893687172627
 20
-1.83802607181063
 30
0.0
 10
0.4228496497948768
 20
-1.84485270106853
 30
0.0
 10
0.41528056371574
 20
-1.854788781034975
 30
0.0
 10
0.4073288034246261
 20
-1.865227204551418
 30
0.0
 10
0.3967863239605478
 20
-1.879269972208701
 30
0.0
 10
0.3850241073262168
 20
-1.895763883406455
 30
0.0
 10
0.3768999155639818
 20
-1.90715626816229
 30
0.0
 10
0.3681165556180446
 20
-1.919828241992677
 30
0.0
 10
0.3591253483963257
 20
-1.933517035671436
 30
0.0
  0
LINE
  5
79EB3
330
7A0D9
100
AcDbEntity
  8
Level 8
 62
   133
370
     0
100
AcDbLine
 10
0.131714
 20
-1.933517
 30
0.0
 11
0.359125
 21
-1.933517
 31
0.0
  0
LINE
  5
79EB4
330
7A0D9
100
AcDbEntity
  8
Level 8
 62
   133
370
     0
100
AcDbLine
 10
0.131714
 20
-1.933517
 30
0.0
 11
0.359125
 21
-1.933517
 31
0.0
  0
SPLINE
  5
79EB5
330
7A0D9
100
AcDbEntity
  8
Level 8
 62
   133
370
     0
100
AcDbSpline
210
0.0
220
0.0
230
1.0
 70
     8
 71
     3
 72
    14
 73
    10
 74
     0
 42
0.0000000001
 43
0.00000001
 40
0.0
 40
0.0
 40
0.0
 40
0.0
 40
0.4155111778320348
 40
0.4155111778320348
 40
0.4155111778320348
 40
0.7657511632291136
 40
0.7657511632291136
 40
0.7657511632291136
 40
1.0
 40
1.0
 40
1.0
 40
1.0
 10
0.3591253483956649
 20
-1.933517035676418
 30
0.0
 10
0.3753273199525182
 20
-1.908850109382067
 30
0.0
 10
0.390935225137369
 20
-1.887310228475882
 30
0.0
 10
0.4032945372282484
 20
-1.870703507754402
 30
0.0
 10
0.4137190532493094
 20
-1.85669649628439
 30
0.0
 10
0.4220439846593322
 20
-1.845939156948282
 30
0.0
 10
0.4268312321212733
 20
-1.839777332716864
 30
0.0
 10
0.4300308856967803
 20
-1.835658952981877
 30
0.0
 10
0.4317136962460353
 20
-1.833517035676251
 30
0.0
 10
0.4317136962460353
 20
-1.833517035676251
 30
0.0
  0
LINE
  5
79EB8
330
7A0D9
100
AcDbEntity
  8
Level 8
 62
   133
370
     0
100
AcDbLine
 10
0.131714
 20
-2.158517
 30
0.0
 11
0.431714
 21
-2.158517
 31
0.0
  0
LINE
  5
79EB9
330
7A0D9
100
AcDbEntity
  8
Level 8
 62
   133
370
     0
100
AcDbLine
 10
0.131714
 20
-2.158517
 30
0.0
 11
0.431714
 21
-2.158517
 31
0.0
  0
ENDBLK
  5
7A0DB
330
7A0D9
100
AcDbEntity
  8
0
100
AcDbBlockEnd
  0
BLOCK
  5
7A0DD
330
7A0DC
100
AcDbEntity
  8
0
100
AcDbBlockBegin
  2
Feature Solid_59
 70
     0
 71
     0
 10
0.0
 20
0.0
 30
0.0
  3
Feature Solid_59
  1

  0
INSERT
  5
79EBB
330
7A0DC
100
AcDbEntity
  8
Level 26
 62
   133
370
     0
100
AcDbBlockReference
  2
DDPROJ_35
 10
0.0
 20
0.0
 30
0.0
  0
ENDBLK
  5
7A0DE
330
7A0DC
100
AcDbEntity
  8
0
100
AcDbBlockEnd
  0
BLOCK
  5
7A0E0
330
7A0DF
100
AcDbEntity
  8
0
100
AcDbBlockBegin
  2
DDPROJ_35
 70
     0
 71
     0
 10
0.0
 20
0.0
 30
0.0
  3
DDPROJ_35
  1

  0
LINE
  5
79EBC
330
7A0DF
100
AcDbEntity
  8
Level 26
 62
   133
370
     0
100
AcDbLine
 10
0.011714
 20
-1.833517
 30
0.0
 11
0.131714
 21
-1.833517
 31
0.0
  0
LINE
  5
79EBD
330
7A0DF
100
AcDbEntity
  8
Level 26
 62
   133
370
     0
100
AcDbLine
 10
0.131714
 20
-1.833517
 30
0.0
 11
0.011714
 21
-1.833517
 31
0.0
  0
LINE
  5
79EBE
330
7A0DF
100
AcDbEntity
  8
Level 26
 62
   133
370
     0
100
AcDbLine
 10
0.011714
 20
-2.483517
 30
0.0
 11
0.131714
 21
-2.483517
 31
0.0
  0
LINE
  5
79EBF
330
7A0DF
100
AcDbEntity
  8
Level 26
 62
   133
370
     0
100
AcDbLine
 10
0.131714
 20
-2.483517
 30
0.0
 11
0.011714
 21
-2.483517
 31
0.0
  0
LINE
  5
79EC0
330
7A0DF
100
AcDbEntity
  8
Level 26
 62
   133
370
     0
100
AcDbLine
 10
0.131714
 20
-1.933517
 30
0.0
 11
0.131714
 21
-2.383517
 31
0.0
  0
LINE
  5
79EC1
330
7A0DF
100
AcDbEntity
  8
Level 26
 62
   133
370
     0
100
AcDbLine
 10
0.131714
 20
-1.933517
 30
0.0
 11
0.131714
 21
-2.383517
 31
0.0
  0
LINE
  5
79EC2
330
7A0DF
100
AcDbEntity
  8
Level 26
 62
   133
370
     0
100
AcDbLine
 10
0.011714
 20
-1.833517
 30
0.0
 11
0.011714
 21
-2.483517
 31
0.0
  0
POINT
  5
79EC3
330
7A0DF
100
AcDbEntity
  8
Level 26
 62
   133
370
     0
100
AcDbPoint
 10
0.131714
 20
-2.483517
 30
0.0
  0
LINE
  5
79EC4
330
7A0DF
100
AcDbEntity
  8
Level 26
 62
   133
370
     0
100
AcDbLine
 10
0.011714
 20
-1.833517
 30
0.0
 11
0.011714
 21
-2.483517
 31
0.0
  0
LINE
  5
79EC5
330
7A0DF
100
AcDbEntity
  8
Level 26
 62
   133
370
     0
100
AcDbLine
 10
0.131714
 20
-1.833517
 30
0.0
 11
0.131714
 21
-2.483517
 31
0.0
  0
POINT
  5
79EC6
330
7A0DF
100
AcDbEntity
  8
Level 26
 62
   133
370
     0
100
AcDbPoint
 10
0.131714
 20
-1.833517
 30
0.0
  0
POINT
  5
79EC7
330
7A0DF
100
AcDbEntity
  8
Level 26
 62
   133
370
     0
100
AcDbPoint
 10
0.131714
 20
-2.483517
 30
0.0
  0
LINE
  5
79EC8
330
7A0DF
100
AcDbEntity
  8
Level 26
 62
   133
370
     0
100
AcDbLine
 10
0.131714
 20
-1.833517
 30
0.0
 11
0.131714
 21
-2.483517
 31
0.0
  0
POINT
  5
79EC9
330
7A0DF
100
AcDbEntity
  8
Level 26
 62
   133
370
     0
100
AcDbPoint
 10
0.131714
 20
-1.833517
 30
0.0
  0
POINT
  5
79ECA
330
7A0DF
100
AcDbEntity
  8
Level 26
 62
   133
370
     0
100
AcDbPoint
 10
0.131714
 20
-2.383517
 30
0.0
  0
POINT
  5
79ECB
330
7A0DF
100
AcDbEntity
  8
Level 26
 62
   133
370
     0
100
AcDbPoint
 10
0.131714
 20
-2.383517
 30
0.0
  0
LINE
  5
79ECC
330
7A0DF
100
AcDbEntity
  8
Level 26
 62
   133
370
     0
100
AcDbLine
 10
0.131714
 20
-2.483517
 30
0.0
 11
0.131714
 21
-2.383517
 31
0.0
  0
LINE
  5
79ECD
330
7A0DF
100
AcDbEntity
  8
Level 26
 62
   133
370
     0
100
AcDbLine
 10
0.131714
 20
-2.483517
 30
0.0
 11
0.131714
 21
-2.383517
 31
0.0
  0
POINT
  5
79ECE
330
7A0DF
100
AcDbEntity
  8
Level 26
 62
   133
370
     0
100
AcDbPoint
 10
0.131714
 20
-1.933517
 30
0.0
  0
LINE
  5
79ECF
330
7A0DF
100
AcDbEntity
  8
Level 26
 62
   133
370
     0
100
AcDbLine
 10
0.131714
 20
-1.933517
 30
0.0
 11
0.131714
 21
-1.833517
 31
0.0
  0
POINT
  5
79ED0
330
7A0DF
100
AcDbEntity
  8
Level 26
 62
   133
370
     0
100
AcDbPoint
 10
0.131714
 20
-1.933517
 30
0.0
  0
LINE
  5
79ED1
330
7A0DF
100
AcDbEntity
  8
Level 26
 62
   133
370
     0
100
AcDbLine
 10
0.131714
 20
-1.933517
 30
0.0
 11
0.131714
 21
-1.833517
 31
0.0
  0
LINE
  5
79ED2
330
7A0DF
100
AcDbEntity
  8
Level 26
 62
   133
370
     0
100
AcDbLine
 10
0.131714
 20
-2.158517
 30
0.0
 11
0.011714
 21
-2.158517
 31
0.0
  0
LINE
  5
79ED3
330
7A0DF
100
AcDbEntity
  8
Level 26
 62
   133
370
     0
100
AcDbLine
 10
0.131714
 20
-2.483517
 30
0.0
 11
0.011714
 21
-2.483517
 31
0.0
  0
LINE
  5
79ED4
330
7A0DF
100
AcDbEntity
  8
Level 26
 62
   133
370
     0
100
AcDbLine
 10
0.131714
 20
-2.158517
 30
0.0
 11
0.011714
 21
-2.158517
 31
0.0
  0
LINE
  5
79ED5
330
7A0DF
100
AcDbEntity
  8
Level 26
 62
   133
370
     0
100
AcDbLine
 10
0.131714
 20
-1.833517
 30
0.0
 11
0.011714
 21
-1.833517
 31
0.0
  0
ENDBLK
  5
7A0E1
330
7A0DF
100
AcDbEntity
  8
0
100
AcDbBlockEnd
  0
ENDSEC
  0
SECTION
  2
ENTITIES
  0
INSERT
  5
79B27
330
79EFC
100
AcDbEntity
  8
Level 26
 62
   133
370
     0
100
AcDbBlockReference
  2
FT02
 10
3198.749439
 20
205.276387
 30
0.0
  0
ENDSEC
  0
SECTION
  2
OBJECTS
  0
DICTIONARY
  5
79F0F
330
0
100
AcDbDictionary
281
     1
  3
ACAD_GROUP
350
79F0D
  3
ACAD_LAYOUT
350
79F10
  3
ACAD_MLINESTYLE
350
79F0E
  3
ACAD_PLOTSETTINGS
350
79F11
  3
ACAD_PLOTSTYLENAME
350
79F12
  3
ACAD_TABLESTYLE
350
7A0E7
  3
AcadDim
350
79F22
  3
DWGPROPS
350
7A16E
  0
DICTIONARY
  5
79F15
330
79F04
100
AcDbDictionary
280
     1
281
     1
  3
ACAD_LAYERFILTERS
360
79F16
  0
DICTIONARY
  5
79F0D
102
{ACAD_REACTORS
330
79F0F
102
}
330
79F0F
100
AcDbDictionary
281
     1
  0
DICTIONARY
  5
79F10
102
{ACAD_REACTORS
330
79F0F
102
}
330
79F0F
100
AcDbDictionary
281
     1
  3
Layout1
350
79F03
  3
Model
350
79EFF
  0
DICTIONARY
  5
79F0E
102
{ACAD_REACTORS
330
79F0F
102
}
330
79F0F
100
AcDbDictionary
281
     1
  3
Standard
350
79EFA
  0
DICTIONARY
  5
79F11
102
{ACAD_REACTORS
330
79F0F
102
}
330
79F0F
100
AcDbDictionary
281
     1
  0
ACDBDICTIONARYWDFLT
  5
79F12
102
{ACAD_REACTORS
330
79F0F
102
}
330
79F0F
100
AcDbDictionary
281
     1
  3
Normal
350
79EF5
100
AcDbDictionaryWithDefault
340
79EF5
  0
DICTIONARY
  5
7A0E7
102
{ACAD_REACTORS
330
79F0F
102
}
330
79F0F
100
AcDbDictionary
281
     1
  0
XRECORD
  5
79F22
102
{ACAD_REACTORS
330
79F0F
102
}
330
79F0F
100
AcDbXrecord
280
     1
 90
   990106
  3
 
 60
     0
 61
     0
 62
     1
 63
     1
 64
     0
 65
     0
 66
     0
 67
     3
 68
     1
 69
     1
 70
     0
 71
     0
 72
     0
 40
0.0
170
     0
  0
XRECORD
  5
7A16E
102
{ACAD_REACTORS
330
79F0F
102
}
330
79F0F
100
AcDbXrecord
280
     1
  1
DWGPROPS COOKIE
  2

  3

  4
WAEngineering1
  6

  7

  8

  9

300
=
301
=
302
=
303
=
304
=
305
=
306
=
307
=
308
=
309
=
 40
0.0
 41
2451789.537469
 42
2451789.537561
  1

 90
        0
  0
DICTIONARY
  5
79F16
102
{ACAD_REACTORS
330
79F15
102
}
330
79F15
100
AcDbDictionary
281
     1
  0
LAYOUT
  5
79F03
102
{ACAD_REACTORS
330
79F10
330
79F10
102
}
330
79F10
100
AcDbPlotSettings
  1

  2

  4

  6

 40
0.0
 41
0.0
 42
0.0
 43
0.0
 44
0.0
 45
0.0
 46
0.0
 47
0.0
 48
0.0
 49
0.0
140
0.0
141
0.0
142
1.0
143
1.0
 70
   688
 72
     0
 73
     0
 74
     5
  7

 75
    16
147
1.0
148
0.0
149
0.0
100
AcDbLayout
  1
Layout1
 70
     1
 71
     1
 10
0.0
 20
0.0
 11
12.0
 21
9.0
 12
0.0
 22
0.0
 32
0.0
 14
1.000000E+20
 24
1.000000E+20
 34
1.000000E+20
 15
-1.000000E+20
 25
-1.000000E+20
 35
-1.000000E+20
146
0.0
 13
0.0
 23
0.0
 33
0.0
 16
1.0
 26
0.0
 36
0.0
 17
0.0
 27
1.0
 37
0.0
 76
     0
330
79F00
  0
LAYOUT
  5
79EFF
102
{ACAD_REACTORS
330
79F10
330
79F10
102
}
330
79F10
100
AcDbPlotSettings
  1

  2

  4

  6

 40
0.0
 41
0.0
 42
0.0
 43
0.0
 44
0.0
 45
0.0
 46
0.0
 47
0.0
 48
0.0
 49
0.0
140
0.0
141
0.0
142
1.0
143
1.0
 70
  1712
 72
     0
 73
     0
 74
     0
  7

 75
     0
147
1.0
148
0.0
149
0.0
100
AcDbLayout
  1
Model
 70
     1
 71
     0
 10
0.0
 20
0.0
 11
12.0
 21
9.0
 12
0.0
 22
0.0
 32
0.0
 14
0.0
 24
0.0
 34
0.0
 15
0.0
 25
0.0
 35
0.0
146
0.0
 13
0.0
 23
0.0
 33
0.0
 16
1.0
 26
0.0
 36
0.0
 17
0.0
 27
1.0
 37
0.0
 76
     0
330
79EFC
  0
MLINESTYLE
  5
79EFA
102
{ACAD_REACTORS
330
79F0E
102
}
330
79F0E
100
AcDbMlineStyle
  2
STANDARD
 70
     0
  3

 62
   256
 51
90.0
 52
90.0
 71
     2
 49
0.5
 62
   256
  6
BYLAYER
 49
-0.5
 62
   256
  6
BYLAYER
  0
ACDBPLACEHOLDER
  5
79EF5
102
{ACAD_REACTORS
330
79F12
102
}
330
79F12
  0
ENDSEC
  0
SECTION
  2
THUMBNAILIMAGE
 90
    16004
310
28000000B40000005300000001000800000000005C3A000000040000000400000001000007000000FFFFFF0048000000D87828000000B80090689000B0A09800B8B89800FFFFFF00FFFFFF00FFFFFF00FFFFFF00FFFFFF00FFFFFF00FFFFFF00FFFFFF00FFFFFF00FFFFFF00FFFFFF00FFFFFF00FFFFFF00FFFFFF00FFFFFF
310
00FFFFFF00FFFFFF00FFFFFF00FFFFFF00FFFFFF00FFFFFF00FFFFFF00FFFFFF00FFFFFF00FFFFFF00FFFFFF00FFFFFF00FFFFFF00FFFFFF00FFFFFF00FFFFFF00FFFFFF00FFFFFF00FFFFFF00FFFFFF00FFFFFF00FFFFFF00FFFFFF00FFFFFF00FFFFFF00FFFFFF00FFFFFF00FFFFFF00FFFFFF00FFFFFF00FFFFFF00FFFF
310
FF00FFFFFF00FFFFFF00FFFFFF00FFFFFF00FFFFFF00FFFFFF00FFFFFF00FFFFFF00FFFFFF00FFFFFF00FFFFFF00FFFFFF00FFFFFF00FFFFFF00FFFFFF00FFFFFF00FFFFFF00FFFFFF00FFFFFF00FFFFFF00FFFFFF00FFFFFF00FFFFFF00FFFFFF00FFFFFF00FFFFFF00FFFFFF00FFFFFF00FFFFFF00FFFFFF00FFFFFF00FF
310
FFFF00FFFFFF00FFFFFF00FFFFFF00FFFFFF00FFFFFF00FFFFFF00FFFFFF00FFFFFF00FFFFFF00FFFFFF00FFFFFF00FFFFFF00FFFFFF00FFFFFF00FFFFFF00FFFFFF00FFFFFF00FFFFFF00FFFFFF00FFFFFF00FFFFFF00FFFFFF00FFFFFF00FFFFFF00FFFFFF00FFFFFF00FFFFFF00FFFFFF00FFFFFF00FFFFFF00FFFFFF00
310
FFFFFF00FFFFFF00FFFFFF00FFFFFF00FFFFFF00FFFFFF00FFFFFF00FFFFFF00FFFFFF00FFFFFF00FFFFFF00FFFFFF00FFFFFF00FFFFFF00FFFFFF00FFFFFF00FFFFFF00FFFFFF00FFFFFF00FFFFFF00FFFFFF00FFFFFF00FFFFFF00FFFFFF00FFFFFF00FFFFFF00FFFFFF00FFFFFF00FFFFFF00FFFFFF00FFFFFF00FFFFFF
310
00FFFFFF00FFFFFF00FFFFFF00FFFFFF00FFFFFF00FFFFFF00FFFFFF00FFFFFF00FFFFFF00FFFFFF00FFFFFF00FFFFFF00FFFFFF00FFFFFF00FFFFFF00FFFFFF00FFFFFF00FFFFFF00FFFFFF00FFFFFF00FFFFFF00FFFFFF00FFFFFF00FFFFFF00FFFFFF00FFFFFF00FFFFFF00FFFFFF00FFFFFF00FFFFFF00FFFFFF00FFFF
310
FF00FFFFFF00FFFFFF00FFFFFF00FFFFFF00FFFFFF00FFFFFF00FFFFFF00FFFFFF00FFFFFF00FFFFFF00FFFFFF00FFFFFF00FFFFFF00FFFFFF00FFFFFF00FFFFFF00FFFFFF00FFFFFF00FFFFFF00FFFFFF00FFFFFF00FFFFFF00FFFFFF00FFFFFF00FFFFFF00FFFFFF00FFFFFF00FFFFFF00FFFFFF00FFFFFF00FFFFFF00FF
310
FFFF00FFFFFF00FFFFFF00FFFFFF00FFFFFF00FFFFFF00FFFFFF00FFFFFF00FFFFFF00FFFFFF00FFFFFF00FFFFFF00FFFFFF00FFFFFF00FFFFFF00FFFFFF00FFFFFF00FFFFFF00FFFFFF00FFFFFF00FFFFFF00FFFFFF00FFFFFF00FFFFFF00FFFFFF00FFFFFF00FFFFFF00FFFFFF00FFFFFF00FFFFFF00FFFFFF00FFFFFF00
310
FFFFFF00FFFFFF00FFFFFF00FFFFFF00FFFFFF00FFFFFF00FFFFFF00FFFFFF00FFFFFF00FFFFFF00FFFFFF00FFFFFF0004040404040404040404040404040404040404040404040404040404040404040404040404040404040404040404040404040404040404040404040404040404040404040404040404040404040404
310
04040404040404040404040404040404040404040404040404040404040404040404040404040404040404040404040404040404040404040404040404040404040404040404040404040404040404040404040404040404040404040404040404040404040404040404040404040404040404040404040404040404040404
310
04040404040404040404040404040404040404040404040404040404040404040404040404040404040404040404040404040404040404040404040404040404040404040404040404040404040404040404040404040404040404040404040404040404040404040404040404040404040404040404040404040404040404
310
04040404040404040404040404040404040404040404040404040404040404040404040404040404040404040404040404040404040404040404040404040404040404040404040404040404040404040404040404040404040404040404040404040404040404040404040404040404040404040404040404040404040404
310
04040404040404040404040404040404040404040404040404040404040404040404040404040404040404040404040404040404040404040404040404040404040404040404040404040404040404040404040404040404040404040404040404040404040404040404040404040404040404040404040404040404040404
310
04040404040404040404040404040404040404040404040404040404040404040404040404040404040404040404040404040404040404040404040404040404040404040404040404040404040404040404040404040404040404040404040404040404040404040404040404040404040404040404040404040404040404
310
04040404040404040404040404040404040404040404040404040404040404040404040404040404040404040404040404040404040404040404040404040404040404040404040404040404040404040404040404040404040404040404040404040404040404040404040404040404040404040404040404040404040404
310
04040404040404040404040404040404040404040404040404040404040404040404040404040404040404040404040404040404040404040404040404040404040404040404040404040404040404040404040404040404040404040404040404040404040404040404040404040404040404040404040404040404040404
310
04040404040404040404040404040404040404040404040404040404040404040404040404040404040404040404040404040404040404040404040404040404040404040404040404040404040404040404040404040404040404040404040404040404040404040404040404040404040404040404040404040404040404
310
04040404040404040404040404040404040404040404040404040404040404040404040404040404040404040404040404040404040404040404040404040404040404040404040404040404040404040404040404040404040404040404040404040404040404040404040404040404040404040404040404040404040404
310
04040404040404040404040404040404040404040404040404040404040404040404040404040404040404040404040404040404040404040404040404040404040404040404040404040404040404040404040404040404040404040404040404040404040404040404040404040404040404040404040404040404040404
310
04040404040404040404040404040404040404040404040404040404040404040404040404040404040404040404040404040404040404040404040404040404040404040404040404040404040404040404040404040404040404040404040404040404040404040404040404040404040404040404040404040404040404
310
04040404040404040404040404040404040404040404040404040404040404040404040404040404040404040404040404040404040404040404040404040404040404040404040404040404040404040404040404040404040404040404040404040404040404040404040404040404040404040404040404040404040404
310
04040404040404040404040404040404040404040404040404040404040404040404040404040404040404040404040404040404040404040404040404040404040404040404040404040404040404040404040404040404040404040404040404040404040404040404040404040404040404040404040404040404040404
310
04040404040404040404040404040404040404040404040404040404040404040404040404040404040404040404040404040404040404040404040404040404040404040404040404040404040404040404040404040404040404040404040404040404040404040404040404040404040404040404040404040404040404
310
04040404040404040404040404040404040404040404040404040404040404040404040404040404040404040404040404040404040404040404040404040404040404040404040404040404040404040404040404040404040404040404040404040404040404040404040404040404040404040404040404040404040404
310
04040404040404040404040404040404040404040404040404040404040404040404040404040404040404040404040404040404040404040404040404040404040404040404040404040404040404040404040404040404040404040404040404040404040404040404040404040404040404040404040404040404040404
310
04040404040404040404040404040404040404040404040404040404040404040404040404040404040404040404040404040404040404040404040404040404040404040404040404040404040404040404040404040404040404040404040404040404040404040404040404040404040404040404040404040404040404
310
04040404040404040404040404040404040404040404040404040404040404040404040404040404040404040404040404040404040404040404040404040404040404040404040404040404040404040404040404040404040404040404040404040404040404040404040404040404040404040404040404040404040404
310
04040404040404040404040404040404040404040404040404040404040404040404040404040404040404040404040404040404040404040404040404040404040404040404040404040404040404040404040404040404040404040404040404040404040404040404040404040404040404040404040404040404040404
310
04040404040404040404040404040404040404040404040404040404040404040404040404040404040404040404040404040404040404040404040404040404040404040404040404040404040404040404040404040404040404040404040404040404040404040404040404040404040404040404040404040404040404
310
04040404040404040404040404040404040404040404040404040404040404040404040404040404040404040404040404040404040404040404040404040404040404040404040404040404040404040404040404040404040404040404040404040404040404040404040404040404040404040404040404040404040404
310
04040404040404040404040404040404040404040404040404040404040404040404040404040404040404040404040404040404040404040404040404040404040404040404040404040404040404040404040404040404040404040404040404040404040404040404040404040404040404040404040404040404040404
310
04040404040404040404040404040404040404040404040404040404040404040404040404040404040404040404040404040404040404040404040404040404040404040404040404040404040404040404040404040404040404040404040404040404040404040404040404040404040404040404040404040404040404
310
04040404040404040404040404040404040404040404040404040404040404040404040404040404040404040404040404040404040404040404040404040404040404040404040404040404040404040404040404040404040404040404040404040404040404040404040404040404040404040404040404040404040404
310
04040404040404040404040404040404040404040404040404040404040404040404040404040404040404040404040404040404040404040404040404040404040404040404040404040404040404040404040404040404040404040404040404040404040404040404040404040404040404040404040404040404040404
310
04040404040404040404040404040404040404040404040404040404040404040404040404040404040404040404040404040404040404040404040404040404040404040404040404040404040404040404040404040404040404040404040404040404040404040404040404040404040404040404040404040404040404
310
04040404040404040404040404040404040404040404040404040404040404040404040404040404040404040404040404040404040404040404040404040404040404040404040404040404040404040404040404040404040404040404040404040404040404040404040404040404040404040404040404040404040404
310
04040404040404040404040404040404040404040404040404040404040404040404040404040404040404040404040404040404040404040404040404040404040404040404040404040404040404040404040404040404040404040404040404040404040404040404040404040404040404040404040404040404040404
310
04040404040404040404040404040404040404040404040404040404040404040404040404040404040404040404040404040404040404040404040404040404040404040404040404040404040404040404040404040404040404040404040404040404040404040404040404040404040404040404040404040404040404
310
04040404040404040404040404040404040404040404040404040404040404040404040404040404040404040404040404040404040404040404040404040404040404040404040404040404040404040404040404040404040404040404040404040404040404040404040404040404040404040404040404040404040404
310
04040404040404040404040404040404040404040404040404040404040404040404040404040404040404040404040404040404040404040404040404040404040404040404040404040404040404040404040404040404040404040404040404040404040404040404040404040404040404040404040404040404040404
310
04040404040404040404040404040404040404040404040404040404040404040404040404040404040404040404040404040404040404040404040404040404040404040404040404040404040404040404040404040404040404040404040404040404040404040404040404040404040404040404040404040404040404
310
04040404040404040404040404040404040404040404040404040404040404040404040404040404040404040404040404040404040404040404040404040404040404040404040404040404040404040404040404040404040404040404040404040404040404040404040404040404040404040404040404040404040404
310
04040404040404040404040404040404040404040404040404040404040404040404040404040404040404040404040404040404040404040404040404040404040404040404040404040404040404040404040404040404040404040404040404040404040404040404040404040404040404040404040404040404040404
310
04040404040404040404040404040404040404040404040404040404040404040404040404040404040404040404040404040404040404040404040404040404040404040404040404040404040404040404040404040404040404040404040404040404040404040404040404040404040404040404040404040404040404
310
04040404040404040404040404040404040404040404040404040404040404040404040404040404040404040404040404040404040404040404040404040404040404040404040404040404040404040404040404040404040404040404040404040404040404040404040404040404040404040404040404040404040404
310
04040404040404040404040404040404040404040404040404040404040404040404040404040404040404040404040404040404040404040404040404040404040404040404040404040404040404040404040404040404040404040404040404040404040404040404040404040404040404040404040404040404040404
310
04040404040404040404040404040404040404040404040404040404040404040404040404040404040404040404040404040404040404040404040404040404040404040404040404040404040404040404040404040404040404040404040404040404040404040404040404040404040404040404040404040404040404
310
04040404040404040404040404040404040404040404040404040404040404040404040404040404040404040404040404040404040404040404040404040404040404040404040404040404040404040404040404040404040404040404040404040404040404040404040404040404040404040404040404040404040404
310
04040404040404040404040404040404040404040404040404040404040404040404040404040404040404040404040404040404040404040404040404040404040404040404040404040404040404040404040404040404040404040404040404040404040404040404040404040404040404040404040404040404040404
310
04040404040404040404040404040404040404040404040404040404040404040404040404040404040404040404040404040404040404040404040404040404040404040404040404040404040404040404040404040404040404040404040404040404040404040404040404040404040404040404040404040404040404
310
04040404040404040404040404040404040404040404040404040404040404040404040404040404040404040404040404040404040404040404040404040404040404040404040404040404040404040404040404040404040404040404040404040404040404040404040404040404040404040404040404040404040404
310
04040404040404040404040404040404040404040404040404040404040404040404040404040404040404040404040404040404040404040404040404040404040404040404040404040404040404040404040404040404040404040404040404040404040404040404040404040404040404040404040404040404040404
310
04040404040404040404040404040404040404040404040404040404040404040404040404040404040404040404040404040404040404040404040404040404040404040404040404040404040404040404040404040404040404040404040404040404040404040404040404040404040404040404040404040404040404
310
04040404040404040404040404040404040404040404040404040404040404040404040404040404040404040404040404040404040404040404040404040404040404040404040404040404040404040404040404040404040404040404040404040404040404040404040404040404040404040404040404040404040404
310
04040404040404040404040404040404040404040404040404040404040404040404040404040404040404040404040404040404040404040404040404040404040404040404040404040404040404040404040404040404040404040404040404040404040404040404040404040404040404040404040404040404040404
310
04040404040404040404040404040404040404040404040404040404040404040404040404040404040404040404040404040404040404040404040404040404040404040404040404040404040404040404040404040404040404040404040404040404040404040404040404040404040404040404040404040404040404
310
04040404040404040404040404040404040404040404040404040404040404040404040404040404040404040404040404040404040404040404040404040404040404040404040404040404040404040404040404040404040404040404040404040404040404040404040404040404040404040404040404040404040404
310
04040404040404040404040404040404040404040404040404040404040404040404040404040404040404040404040404040404040404040404040404040404040404040404040404040404040404040404040404040404040404040404040404040404040404040404040404040404040404040404040404040404040404
310
04040404040404040404040404040404040404040404040404040404040404040404040404040404040404040404040404040404040404040404040404040404040404040404040404040404040404040404040404040404040404040404040404040404040404040404040404040404040404040404040404040404040404
310
04040404040404040404040404040404040404040404040404040404040404040404040404040404040404040404040404040404040404040404040404040404040404040404040404040404040404040404040404040404040404040404040404040404040404040404040404040404040404040404040404040404040404
310
04040404040404040404040404040404040404040404040404040404040404040404040404040404040404040404040404040404040404040404040404040404040404040404040404040404040404040404040404040404040404040404040404040404040404040404040404040404040404040404040404040404040404
310
04040404040404040404040404040404040404040404040404040404040404040404040404040404040404040404040404040404040404040404040404040404040404040404040404040404040404040404040404040404040404040404040404040404040404040404040404040404040404040404040404040404040404
310
04040404040404040404040404040404040404040404040404040404040404040404040404040404040404040404040404040404040404040404040404040404040404040404040404040404040404040404040404040404040404040404040404040404040404040404040404040404040404040404040404040404040404
310
04040404040404040404040404040404040404040404040404040404040404040404040404040404040404040404040404040404040404040404040404040404040404040404040404040404040404040404040404040404040404040404040404040404040404040404040404040404040404040404040404040404040404
310
04040404040404040404040404040404040404040404040404040404040404040404040404040404040404040404040404040404040404040404040404040404040404040404040404040404040404040404040404040404040404040404040404040404040404040404040404040404040404040404040404040404040404
310
04040404040404040404040404040404040404040404040404040404040404040404040404040404040404040404050505050606060404040404040404040404040404040404040404040404040404040404040404040404040404040404040404040404040404040404040404040404040406060605050504040404040404
310
04040404040404040404040404040404040404040404040404040404040404040404040404040404040404040404040404040404040404040404040404040404040404040404040404040404040404040404040404040404040404040404040404040405050505060606030303030303030303030303030303030303030303
310
03030303030303030303030303030303030303030303030303030303030303030303030303030303060606050505040404040404040404040404040404040404040404040404040404040404040404040404040404040404040404040404040404040404040404040404040404040404040404040404040404040404040404
310
04040404040404040404040404040404040404040404040404050504050606060303030303030303030303030303030303030303030303030303030303030303030303030303030303030303030303030303030303030303030303030306060604050504040404040404040404040404040404040404040404040404040404
310
04040404040404040404040404040404040404040404040404040404040404040404040404040404040404040404040404040404040404040404040404040404040404040404040404040404040405050505060606030303030303030303030303030303030303030303030303030303030303030303030303030303030303
310
03030303030303030303030303030303030303060606050505040404040404040404040404040404040404040404040404040404040404040404040404040404040404040404040404040404040404040404040404040404040404040404040404040404040404040404040404040404040404040404040404040404040404
310
04040404040505050504040404040404040404040404040404040404040404040404040404040404040404040404040404040404040404040404040404040404040404040404040404040505050504040404040404040404040404040404040404040404040404040404040404040404040404040404040404040404040404
310
04040404040404040404040404040404040404040404040404040404040404040404040404040404040404040404040404040404040404040404040404040404040404040404040404040404040404040404040404040404040404040404040404040404040404040404040404040404040404040404040404040404040404
310
04040404040404040404040404040404040404040404040404040404040404040404040404040404040404040404040404040404040404040404040404040404040404040404040404040404040404040404040404040404040404040404040404040404040404040404040404040404040404040404040404040404040404
310
04040404040404040404040404040404040404040404040404040404040404040404040404040404040404040404040404040404040404040404040404040404040404040404040404040404040404040404040404040404040404040404040404040404040404040404040404040404040404040404040404040404040404
310
04040404040404040404040404040404040404040404040404040404040404040404040404040404040404040404040404040404040404040404040404040404040404040404040404040404040404040404040404040404040404040404040404040404040404040404040404040404040404040404040404040404040404
310
04040404040404040404040404040404040404040404040404040404040404040404040404040404040404040404040404040404040404040404040404040404040404040404040404040404040404040404040404040404040404040404040404040404040404040404040404040404040404040404040404040404040404
310
04040404040404040404040404040404040404040404040404040404040404040404040404040404040404040404040404040404040404040404040404040404040404040404040404040404040404040404040404040404040404040404040404040404040404040404040404040404040404040404040404040404040404
310
04040404040404040404040404040404040404040404040404040404040404040404040404040404040404040404040404040404040404040404040404040404040404040404040404040404040404040404040404040404040404040404040404040404040404040404040404040404040404040404040404040404040404
310
04040404040404040404040404040404040404040404040404040404040404040404040404040404040404040404040404040404040404040404040404040404040404040404040404040404040404040404040404040404040404040404040404040404040404040404040404040404040404040404040404040404040404
310
04040404040404040404040404040404040404040404040404040404040404040404040404040404040404040404040404040404040404040404040404040404040404040404040404040404040404040404040404040404040404040404040404040404040404040404040404040404040404040404040404040404040404
310
04040404040404040404040404040404040404040404040404040404040404040404040404040404040404040404040404040404040404040404040404040404040404040404040404040404040404040404040404040404040404040404040404040404040404040404040404040404040404040404040404040404040404
310
04040404040404040404040404040404040404040404040404040404040404040404040404040404040404040404040404040404040404040404040404040404040404040404040404040404040404040404040404040404040404040404040404040404040404040404040404040404040404040404040404040404040404
310
04040404040404040404040404040404040404040404040404040404040404040404040404040404040404040404040404040404040404040404040404040404040404040404040404040404040404040404040404040404040404040404040404040404040404040404040404040404040404040404040404040404040404
310
04040404040404040404040404040404040404040404040404040404040404040404040404040404040404040404040404040404040404040404040404040404040404040404040404040404040404040404040404040404040404040404040404040404040404040404040404040404040404040404040404040404040404
310
04040404040404040404040404040404040404040404040404040404040404040404040404040404040404040404040404040404040404040404040404040404040404040404040404040404040404040404040404040404040404040404040404040404040404040404040404040404040404040404040404040404040404
310
04040404040404040404040404040404040404040404040404040404040404040404040404040404040404040404040404040404040404040404040404040404040404040404040404040404040404040404040404040404040404040404040404040404040404040404040404040404040404040404040404040404040404
310
04040404040404040404040404040404040404040404040404040404040404040404040404040404040404040404040404040404040404040404040404040404040404040404040404040404040404040404040404040404040404040404040404040404040404040404040404040404040404040404040404040404040404
310
04040404040404040404040404040404040404040404040404040404040404040404040404040404040404040404040404040404040404040404040404040404040404040404040404040404040404040404040404040404040404040404040404040404040404040404040404040404040404040404040404040404040404
310
04040404040404040404040404040404040404040404040404040404040404040404040404040404040404040404040404040404040404040404040404040404040404040404040404040404040404040404040404040404040404040404040404040404040404040404040404040404040404040404040404040404040404
310
04040404040404040404040404040404040404040404040404040404040404040404040404040404040404040404040404040404040404040404040404040404040404040404040404040404040404040404040404040404040404040404040404040404040404040404040404040404040404040404040404040404040404
310
04040404040404040404040404040404040404040404040404040404040404040404040404040404040404040404040404040404040404040404040404040404040404040404040404040404040404040404040404040404040404040404040404040404040404040404040404040404040404040404040404040404040404
310
04040404040404040404040404040404040404040404040404040404040404040404040404040404040404040404040404040404040404040404040404040404040404040404040404040404040404040404040404040404040404040404040404040404040404040404040404040404040404040404040404040404040404
310
04040404040404040404040404040404040404040404040404040404040404040404040404040404040404040404040404040404040404040404040404040404040404040404040404040404040404040404040404040404040404040404040404040404040404040404040404040404040404040404040404040404040404
310
04040404040404040404040404040404040404040404040404040404040404040404040404040404040404040404040404040404040404040404040404040404040404040404040404040404040404040404040404040404040404040404040404040404040404040404040404040404040404040404040404040404040404
310
04040404040404040404040404040404040404040404040404040404040404040404040404040404040404040404040404040404040404040404040404040404040404040404040404040404040404040404040404040404040404040404040404040404040404040404040404040404040404040404040404040404040404
310
04040404040404040404040404040404040404040404040404040404040404040404040404040404040404040404040404040404040404040404040404040404040404040404040404040404040404040404040404040404040404040404040404040404040404040404040404040404040404040404040404040404040404
310
04040404040404040404040404040404040404040404040404040404040404040404040404040404040404040404040404040404040404040404040404040404040404040404040404040404040404040404040404040404040404040404040404040404040404040404040404040404040404040404040404040404040404
310
04040404040404040404040404040404040404040404040404040404040404040404040404040404040404040404040404040404040404040404040404040404040404040404040404040404040404040404040404040404040404040404040404040404040404040404040404040404040404040404040404040404040404
310
04040404040404040404040404040404040404040404040404040404040404040404040404040404040404040404040404040404040404040404040404040404040404040404040404040404040404040404040404040404040404040404040404040404040404040404040404040404040404040404040404040404040404
310
04040404040404040404040404040404040404040404040404040404040404040404040404040404040404040404040404040404040404040404040404040404040404040404040404040404040404040404040404040404040404040404040404040404040404040404040404040404040404040404040404040404040404
310
04040404040404040404040404040404040404040404040404040404040404040404040404040404040404040404040404040404040404040404040404040404040404040404040404040404040404040404040404040404040404040404040404040404040404040404040404040404040404040404040404040404040404
310
04040404040404040404040404040404040404040404040404040404040404040404040404040404040404040404040404040404040404040404040404040404040404040404040404040404040404040404040404040404040404040404040404040404040404040404040404040404040404040404040404040404040404
310
04040404040404040404040404040404040404040404040404040404040404040404040404040404040404040404040404040404040404040404040404040404040404040404040404040404040404040404040404040404040404040404040404040404040404040404040404040404040404040404040404040404040404
310
04040404040404040404040404040404040404040404040404040404040404040404040404040404040404040404040404040404040404040404040404040404040404040404040404040404040404040404040404040404040404040404040404040404040404040404040404040404040404040404040404040404040404
310
04040404040404040404040404040404040404040404040404040404040404040404040404040404040404040404040404040404040404040404040404040404040404040404040404040404040404040404040404040404040404040404040404040404040404040404040404040404040404040404040404040404040404
310
04040404040404040404040404040404040404040404040404040404040404040404040404040404040404040404040404040404040404040404040404040404040404040404040404040404040404040404040404040404040404040404040404040404040404040404040404040404040404040404040404040404040404
310
04040404040404040404040404040404040404040404040404040404040404040404040404040404040404040404040404040404040404040404040404040404040404040404040404040404040404040404040404040404040404040404040404040404040404040404040404040404040404040404040404040404040404
310
04040404040404040404040404040404040404040404040404040404040404040404040404040404040404040404040404040404040404040404040404040404040404040404040404040404040404040404040404040404040404040404040404040404040404040404040404040404040404040404040404040404040404
310
04040404040404040404040404040404040404040404040404040404040404040404040404040404040404040404040404040404040404040404040404040404040404040404040404040404040404040404040404040404040404040404040404040404040404040404040404040404040404040404040404040404040404
310
04040404040404040404040404040404040404040404040404040404040404040404040404040404040404040404040404040404040404040404040404040404040404040404040404040404040404040404040404040404040404040404040404040404040404040404040404040404040404040404040404040404040404
310
04040404040404040404040404040404040404040404040404040404040404040404040404040404040404040404040404040404040404040404040404040404040404040404040404040404040404040404040404040404040404040404040404040404040404040404040404040404040404040404040404040404040404
310
04040404040404040404040404040404040404040404040404040404040404040404040404040404040404040404040404040404040404040404040404040404040404040404040404040404040404040404040404040404040404040404040404040404040404040404040404040404040404040404040404040404040404
310
04040404040404040404040404040404040404040404040404040404040404040404040404040404040404040404040404040404040404040404040404040404040404040404040404040404040404040404040404040404040404040404040404040404040404040404040404040404040404040404040404040404040404
310
04040404040404040404040404040404040404040404040404040404040404040404040404040404040404040404040404040404040404040404040404040404040404040404040404040404040404040404040404040404040404040404040404040404040404040404040404040404040404040404040404040404040404
310
04040404040404040404040404040404040404040404040404040404040404040404040404040404040404040404040404040404040404040404040404040404040404040404040404040404040404040404040404040404040404040404040404040404040404040404040404040404040404040404040404040404040404
310
04040404040404040404040404040404040404040404040404040404040404040404040404040404040404040404040404040404040404040404040404040404040404040404040404040404040404040404040404040404040404040404040404040404040404040404040404040404040404040404040404040404040404
310
04040404040404040404040404040404040404040404040404040404040404040404040404040404040404040404040404040404040404040404040404040404040404040404040404040404040404040404040404040404040404040404040404040404040404040404040404040404040404040404040404040404040404
310
04040404040404040404040404040404040404040404040404040404040404040404040404040404040404040404040404040404040404040404040404040404040404040404040404040404040404040404040404040404040404040404040404040404040404040404040404040404040404040404040404040404040404
310
04040404040404040404040404040404040404040404040404040404040404040404040404040404040404040404040404040404040404040404040404040404040404040404040404040404040404040404040404040404040404040404040404040404040404040404040404040404040404040404040404040404040404
310
04040404040404040404040404040404040404040404040404040404040404040404040404040404040404040404040404040404040404040404040404040404040404040404040404040404040404040404040404040404040404040404040404040404040404040404040404040404040404040404040404040404040404
310
04040404040404040404040404040404040404040404040404040404040404040404040404040404040404040404040404040404040404040404040404040404040404040404040404040404040404040404040404040404040404040404040404040404040404040404040404040404040404040404040404040404040404
310
04040404040404040404040404040404040404040404040404040404040404040404040404040404040404040404040404040404040404040404040404040404040404040404040404040404040404040404040404040404040404040404040404040404040404040404040404040404040404040404040404040404040404
310
04040404040404040404040404040404040404040404040404040404040404040404040404040404040404040404040404040404040404040404040404040404040404040404040404040404040404040404040404040404040404040404040404040404040404040404040404040404040404040404040404040404040404
310
04040404040404040404040404040404040404040404040404040404040404040404040404040404040404040404040404040404040404040404040404040404040404040404040404040404000000000000000000000000000000000000000000000000000000000000000000000000000000000000000000000000000000
310
00000000000000000000000000000000000000000000000000000000000000000000000000000000000000000000000000000000000000000000000000000000000000000000000000000000000000000000000000000000000000000000000000000000000000000000000000000000000000000000000000000000000000
310
0102
  0
ENDSEC
  0
EOF
