  0
SECTION
  2
HEADER
  9
$ACADVER
  1
AC1015
  9
$ACADMAINTVER
 70
     6
  9
$DWGCODEPAGE
  3
ANSI_1252
  9
$INSBASE
 10
0.0
 20
0.0
 30
0.0
  9
$EXTMIN
 10
2859.74
 20
1564.713
 30
0.0
  9
$EXTMAX
 10
3879.741
 20
2584.714
 30
0.0
  9
$LIMMIN
 10
484.742004
 20
-810.284996
  9
$LIMMAX
 10
6254.738996
 20
4959.711996
  9
$ORTHOMODE
 70
     0
  9
$REGENMODE
 70
     1
  9
$FILLMODE
 70
     1
  9
$QTEXTMODE
 70
     0
  9
$MIRRTEXT
 70
     1
  9
$LTSCALE
 40
1.0
  9
$ATTMODE
 70
     1
  9
$TEXTSIZE
 40
100.0
  9
$TRACEWID
 40
0.05
  9
$TEXTSTYLE
  7
Standard
  9
$CLAYER
  8
Level 8
  9
$CELTYPE
  6
Continuous
  9
$CECOLOR
 62
    98
  9
$CELTSCALE
 40
1.0
  9
$DISPSILH
 70
     0
  9
$DIMSCALE
 40
1.0
  9
$DIMASZ
 40
100.0
  9
$DIMEXO
 40
50.0
  9
$DIMDLI
 40
0.0
  9
$DIMRND
 40
0.0
  9
$DIMDLE
 40
0.0
  9
$DIMEXE
 40
50.0
  9
$DIMTP
 40
0.0
  9
$DIMTM
 40
0.0
  9
$DIMTXT
 40
100.0
  9
$DIMCEN
 40
0.09
  9
$DIMTSZ
 40
0.0
  9
$DIMTOL
 70
     0
  9
$DIMLIM
 70
     0
  9
$DIMTIH
 70
     0
  9
$DIMTOH
 70
     0
  9
$DIMSE1
 70
     0
  9
$DIMSE2
 70
     0
  9
$DIMTAD
 70
     1
  9
$DIMZIN
 70
    11
  9
$DIMBLK
  1
TerminatorOpen_0.5
  9
$DIMASO
 70
     1
  9
$DIMSHO
 70
     1
  9
$DIMPOST
  1

  9
$DIMAPOST
  1

  9
$DIMALT
 70
     0
  9
$DIMALTD
 70
     4
  9
$DIMALTF
 40
25.4
  9
$DIMLFAC
 40
1.0
  9
$DIMTOFL
 70
     0
  9
$DIMTVP
 40
0.0
  9
$DIMTIX
 70
     0
  9
$DIMSOXD
 70
     0
  9
$DIMSAH
 70
     0
  9
$DIMBLK1
  1

  9
$DIMBLK2
  1

  9
$DIMSTYLE
  2
Standard
  9
$DIMCLRD
 70
     0
  9
$DIMCLRE
 70
     0
  9
$DIMCLRT
 70
     0
  9
$DIMTFAC
 40
1.0
  9
$DIMGAP
 40
50.0
  9
$DIMJUST
 70
     0
  9
$DIMSD1
 70
     0
  9
$DIMSD2
 70
     0
  9
$DIMTOLJ
 70
     0
  9
$DIMTZIN
 70
    11
  9
$DIMALTZ
 70
    15
  9
$DIMALTTZ
 70
    15
  9
$DIMUPT
 70
     0
  9
$DIMDEC
 70
     0
  9
$DIMTDEC
 70
     0
  9
$DIMALTU
 70
     2
  9
$DIMALTTD
 70
     4
  9
$DIMTXSTY
  7
Style-ENGINEERING
  9
$DIMAUNIT
 70
     0
  9
$DIMADEC
 70
     0
  9
$DIMALTRND
 40
0.0
  9
$DIMAZIN
 70
     3
  9
$DIMDSEP
 70
    46
  9
$DIMATFIT
 70
     3
  9
$DIMFRAC
 70
     2
  9
$DIMLDRBLK
  1
TerminatorOpen_0.5
  9
$DIMLUNIT
 70
     2
  9
$DIMLWD
 70
    -2
  9
$DIMLWE
 70
    -2
  9
$DIMTMOVE
 70
     0
  9
$LUNITS
 70
     2
  9
$LUPREC
 70
     0
  9
$SKETCHINC
 40
0.1
  9
$FILLETRAD
 40
0.5
  9
$AUNITS
 70
     0
  9
$AUPREC
 70
     0
  9
$MENU
  1
.
  9
$ELEVATION
 40
0.0
  9
$PELEVATION
 40
0.0
  9
$THICKNESS
 40
0.0
  9
$LIMCHECK
 70
     0
  9
$CHAMFERA
 40
0.5
  9
$CHAMFERB
 40
0.5
  9
$CHAMFERC
 40
1.0
  9
$CHAMFERD
 40
0.0
  9
$SKPOLY
 70
     0
  9
$TDCREATE
 40
2451789.870802037
  9
$TDUCREATE
 40
2451789.537468704
  9
$TDUPDATE
 40
2451789.87089463
  9
$TDUUPDATE
 40
2451789.537561297
  9
$TDINDWG
 40
0.0000927662
  9
$TDUSRTIMER
 40
0.0000925926
  9
$USRTIMER
 70
     1
  9
$ANGBASE
 50
0.0
  9
$ANGDIR
 70
     0
  9
$PDMODE
 70
     0
  9
$PDSIZE
 40
0.0
  9
$PLINEWID
 40
0.0
  9
$SPLFRAME
 70
     0
  9
$SPLINETYPE
 70
     6
  9
$SPLINESEGS
 70
     8
  9
$HANDSEED
  5
7E189
  9
$SURFTAB1
 70
     6
  9
$SURFTAB2
 70
     6
  9
$SURFTYPE
 70
     6
  9
$SURFU
 70
     6
  9
$SURFV
 70
     6
  9
$UCSBASE
  2

  9
$UCSNAME
  2

  9
$UCSORG
 10
0.0
 20
0.0
 30
0.0
  9
$UCSXDIR
 10
1.0
 20
0.0
 30
0.0
  9
$UCSYDIR
 10
0.0
 20
1.0
 30
0.0
  9
$UCSORTHOREF
  2

  9
$UCSORTHOVIEW
 70
     0
  9
$UCSORGTOP
 10
0.0
 20
0.0
 30
0.0
  9
$UCSORGBOTTOM
 10
0.0
 20
0.0
 30
0.0
  9
$UCSORGLEFT
 10
0.0
 20
0.0
 30
0.0
  9
$UCSORGRIGHT
 10
0.0
 20
0.0
 30
0.0
  9
$UCSORGFRONT
 10
0.0
 20
0.0
 30
0.0
  9
$UCSORGBACK
 10
0.0
 20
0.0
 30
0.0
  9
$PUCSBASE
  2

  9
$PUCSNAME
  2

  9
$PUCSORG
 10
0.0
 20
0.0
 30
0.0
  9
$PUCSXDIR
 10
1.0
 20
0.0
 30
0.0
  9
$PUCSYDIR
 10
0.0
 20
1.0
 30
0.0
  9
$PUCSORTHOREF
  2

  9
$PUCSORTHOVIEW
 70
     0
  9
$PUCSORGTOP
 10
0.0
 20
0.0
 30
0.0
  9
$PUCSORGBOTTOM
 10
0.0
 20
0.0
 30
0.0
  9
$PUCSORGLEFT
 10
0.0
 20
0.0
 30
0.0
  9
$PUCSORGRIGHT
 10
0.0
 20
0.0
 30
0.0
  9
$PUCSORGFRONT
 10
0.0
 20
0.0
 30
0.0
  9
$PUCSORGBACK
 10
0.0
 20
0.0
 30
0.0
  9
$USERI1
 70
     0
  9
$USERI2
 70
     0
  9
$USERI3
 70
     0
  9
$USERI4
 70
     0
  9
$USERI5
 70
     0
  9
$USERR1
 40
0.0
  9
$USERR2
 40
0.0
  9
$USERR3
 40
0.0
  9
$USERR4
 40
0.0
  9
$USERR5
 40
0.0
  9
$WORLDVIEW
 70
     1
  9
$SHADEDGE
 70
     3
  9
$SHADEDIF
 70
    70
  9
$TILEMODE
 70
     1
  9
$MAXACTVP
 70
    64
  9
$PINSBASE
 10
0.0
 20
0.0
 30
0.0
  9
$PLIMCHECK
 70
     0
  9
$PEXTMIN
 10
1.000000E+20
 20
1.000000E+20
 30
1.000000E+20
  9
$PEXTMAX
 10
-1.000000E+20
 20
-1.000000E+20
 30
-1.000000E+20
  9
$PLIMMIN
 10
0.0
 20
0.0
  9
$PLIMMAX
 10
12.0
 20
9.0
  9
$UNITMODE
 70
     0
  9
$VISRETAIN
 70
     1
  9
$PLINEGEN
 70
     0
  9
$PSLTSCALE
 70
     0
  9
$TREEDEPTH
 70
  3020
  9
$CMLSTYLE
  2
Standard
  9
$CMLJUST
 70
     0
  9
$CMLSCALE
 40
1.0
  9
$PROXYGRAPHICS
 70
     1
  9
$MEASUREMENT
 70
     0
  9
$CELWEIGHT
370
     0
  9
$ENDCAPS
280
     0
  9
$JOINSTYLE
280
     0
  9
$LWDISPLAY
290
     1
  9
$INSUNITS
 70
     4
  9
$HYPERLINKBASE
  1

  9
$STYLESHEET
  1

  9
$XEDIT
290
     1
  9
$CEPSNTYPE
380
     0
  9
$PSTYLEMODE
290
     1
  9
$FINGERPRINTGUID
  2
{FDEAD576-A652-11D2-9A35-0060089B3A3F}
  9
$VERSIONGUID
  2
{A257D680-BC79-11D2-9A46-0060089B3A3F}
  9
$EXTNAMES
290
     1
  9
$PSVPSCALE
 40
0.0
  9
$OLESTARTUP
290
     0
  0
ENDSEC
  0
SECTION
  2
CLASSES
  0
CLASS
  1
ACDBDICTIONARYWDFLT
  2
AcDbDictionaryWithDefault
  3
ObjectDBX Classes
 90
        0
280
     0
281
     0
  0
CLASS
  1
ACDBPLACEHOLDER
  2
AcDbPlaceHolder
  3
ObjectDBX Classes
 90
        0
280
     0
281
     0
  0
CLASS
  1
LAYOUT
  2
AcDbLayout
  3
ObjectDBX Classes
 90
        0
280
     0
281
     0
  0
ENDSEC
  0
SECTION
  2
TABLES
  0
TABLE
  2
VPORT
  5
7E11A
330
0
100
AcDbSymbolTable
 70
     3
  0
VPORT
  5
4B
330
7E11A
100
AcDbSymbolTableRecord
100
AcDbViewportTableRecord
  2
*ACTIVE
 70
     0
 10
0.0
 20
0.0
 11
1.0
 21
1.0
 12
3506.755707
 22
2003.030962
 13
0.0
 23
0.0
 14
1.0
 24
1.0
 15
1.0
 25
1.0
 16
0.0
 26
0.0
 36
1.0
 17
0.0
 27
0.0
 37
0.0
 40
2718.31664
 41
2.064189
 42
50.0
 43
0.0
 44
0.0
 50
0.0
 51
0.0
 71
     0
 72
   100
 73
     1
 74
     2
 75
     0
 76
     0
 77
     0
 78
     1
281
     0
 65
     1
110
0.0
120
0.0
130
0.0
111
1.0
121
0.0
131
0.0
112
0.0
122
1.0
132
0.0
 79
     0
146
0.0
  0
ENDTAB
  0
TABLE
  2
LTYPE
  5
7E116
330
0
100
AcDbSymbolTable
 70
     2
  0
LTYPE
  5
7E117
330
7E116
100
AcDbSymbolTableRecord
100
AcDbLinetypeTableRecord
  2
ByBlock
 70
     0
  3

 72
    65
 73
     0
 40
0.0
  0
LTYPE
  5
7E108
330
7E116
100
AcDbSymbolTableRecord
100
AcDbLinetypeTableRecord
  2
ByLayer
 70
     0
  3

 72
    65
 73
     0
 40
0.0
  0
LTYPE
  5
7E106
330
7E116
100
AcDbSymbolTableRecord
100
AcDbLinetypeTableRecord
  2
Continuous
 70
     0
  3
Solid line
 72
    65
 73
     0
 40
0.0
  0
LTYPE
  5
4E1B6
330
7E116
100
AcDbSymbolTableRecord
100
AcDbLinetypeTableRecord
  2
Continuous_1
 70
     0
  3

 72
    65
 73
     0
 40
0.0
  0
ENDTAB
  0
TABLE
  2
LAYER
  5
7E114
102
{ACAD_XDICTIONARY
360
7E125
102
}
330
0
100
AcDbSymbolTable
 70
    65
  0
LAYER
  5
7E104
330
7E114
100
AcDbSymbolTableRecord
100
AcDbLayerTableRecord
  2
0
 70
     0
 62
     7
  6
Continuous
370
    -3
390
7E105
  0
LAYER
  5
7
330
7E114
100
AcDbSymbolTableRecord
100
AcDbLayerTableRecord
  2
Level 1
 70
     0
 62
     7
  6
Continuous
370
     0
390
7E105
  0
LAYER
  5
8
330
7E114
100
AcDbSymbolTableRecord
100
AcDbLayerTableRecord
  2
Level 2
 70
     0
 62
     7
  6
Continuous
370
     0
390
7E105
  0
LAYER
  5
9
330
7E114
100
AcDbSymbolTableRecord
100
AcDbLayerTableRecord
  2
Level 3
 70
     0
 62
     7
  6
Continuous
370
     0
390
7E105
  0
LAYER
  5
A
330
7E114
100
AcDbSymbolTableRecord
100
AcDbLayerTableRecord
  2
Level 4
 70
     0
 62
     7
  6
Continuous
370
     0
390
7E105
  0
LAYER
  5
B
330
7E114
100
AcDbSymbolTableRecord
100
AcDbLayerTableRecord
  2
Level 5
 70
     0
 62
     7
  6
Continuous
370
     0
390
7E105
  0
LAYER
  5
C
330
7E114
100
AcDbSymbolTableRecord
100
AcDbLayerTableRecord
  2
Level 6
 70
     0
 62
     7
  6
Continuous
370
     0
390
7E105
  0
LAYER
  5
D
330
7E114
100
AcDbSymbolTableRecord
100
AcDbLayerTableRecord
  2
Level 7
 70
     0
 62
     7
  6
Continuous
370
     0
390
7E105
  0
LAYER
  5
E
330
7E114
100
AcDbSymbolTableRecord
100
AcDbLayerTableRecord
  2
Level 8
 70
     0
 62
     7
  6
Continuous
370
     0
390
7E105
  0
LAYER
  5
F
330
7E114
100
AcDbSymbolTableRecord
100
AcDbLayerTableRecord
  2
Level 9
 70
     0
 62
     7
  6
Continuous
370
     0
390
7E105
  0
LAYER
  5
10
330
7E114
100
AcDbSymbolTableRecord
100
AcDbLayerTableRecord
  2
Level 10
 70
     0
 62
     7
  6
Continuous
370
     0
390
7E105
  0
LAYER
  5
11
330
7E114
100
AcDbSymbolTableRecord
100
AcDbLayerTableRecord
  2
Level 11
 70
     0
 62
     7
  6
Continuous
370
     0
390
7E105
  0
LAYER
  5
12
330
7E114
100
AcDbSymbolTableRecord
100
AcDbLayerTableRecord
  2
Level 12
 70
     0
 62
     7
  6
Continuous
370
     0
390
7E105
  0
LAYER
  5
13
330
7E114
100
AcDbSymbolTableRecord
100
AcDbLayerTableRecord
  2
Level 13
 70
     0
 62
     7
  6
Continuous
370
     0
390
7E105
  0
LAYER
  5
14
330
7E114
100
AcDbSymbolTableRecord
100
AcDbLayerTableRecord
  2
Level 14
 70
     0
 62
     7
  6
Continuous
370
     0
390
7E105
  0
LAYER
  5
15
330
7E114
100
AcDbSymbolTableRecord
100
AcDbLayerTableRecord
  2
Level 15
 70
     0
 62
     7
  6
Continuous
370
     0
390
7E105
  0
LAYER
  5
16
330
7E114
100
AcDbSymbolTableRecord
100
AcDbLayerTableRecord
  2
Level 16
 70
     0
 62
     7
  6
Continuous
370
     0
390
7E105
  0
LAYER
  5
17
330
7E114
100
AcDbSymbolTableRecord
100
AcDbLayerTableRecord
  2
Level 17
 70
     0
 62
     7
  6
Continuous
370
     0
390
7E105
  0
LAYER
  5
18
330
7E114
100
AcDbSymbolTableRecord
100
AcDbLayerTableRecord
  2
Level 18
 70
     0
 62
     7
  6
Continuous
370
     0
390
7E105
  0
LAYER
  5
19
330
7E114
100
AcDbSymbolTableRecord
100
AcDbLayerTableRecord
  2
Level 19
 70
     0
 62
     7
  6
Continuous
370
     0
390
7E105
  0
LAYER
  5
1A
330
7E114
100
AcDbSymbolTableRecord
100
AcDbLayerTableRecord
  2
Level 20
 70
     0
 62
     7
  6
Continuous
370
     0
390
7E105
  0
LAYER
  5
1B
330
7E114
100
AcDbSymbolTableRecord
100
AcDbLayerTableRecord
  2
Level 21
 70
     0
 62
     7
  6
Continuous
370
     0
390
7E105
  0
LAYER
  5
1C
330
7E114
100
AcDbSymbolTableRecord
100
AcDbLayerTableRecord
  2
Level 22
 70
     0
 62
     7
  6
Continuous
370
     0
390
7E105
  0
LAYER
  5
1D
330
7E114
100
AcDbSymbolTableRecord
100
AcDbLayerTableRecord
  2
Level 23
 70
     0
 62
     7
  6
Continuous
370
     0
390
7E105
  0
LAYER
  5
1E
330
7E114
100
AcDbSymbolTableRecord
100
AcDbLayerTableRecord
  2
Level 24
 70
     0
 62
     7
  6
Continuous
370
     0
390
7E105
  0
LAYER
  5
1F
330
7E114
100
AcDbSymbolTableRecord
100
AcDbLayerTableRecord
  2
Level 25
 70
     0
 62
     7
  6
Continuous
370
     0
390
7E105
  0
LAYER
  5
20
330
7E114
100
AcDbSymbolTableRecord
100
AcDbLayerTableRecord
  2
Level 26
 70
     0
 62
     7
  6
Continuous
370
     0
390
7E105
  0
LAYER
  5
21
330
7E114
100
AcDbSymbolTableRecord
100
AcDbLayerTableRecord
  2
Level 27
 70
     0
 62
     7
  6
Continuous
370
     0
390
7E105
  0
LAYER
  5
22
330
7E114
100
AcDbSymbolTableRecord
100
AcDbLayerTableRecord
  2
Level 28
 70
     0
 62
     7
  6
Continuous
370
     0
390
7E105
  0
LAYER
  5
23
330
7E114
100
AcDbSymbolTableRecord
100
AcDbLayerTableRecord
  2
Level 29
 70
     0
 62
     7
  6
Continuous
370
     0
390
7E105
  0
LAYER
  5
24
330
7E114
100
AcDbSymbolTableRecord
100
AcDbLayerTableRecord
  2
Level 30
 70
     0
 62
     7
  6
Continuous
370
     0
390
7E105
  0
LAYER
  5
25
330
7E114
100
AcDbSymbolTableRecord
100
AcDbLayerTableRecord
  2
Level 31
 70
     0
 62
     7
  6
Continuous
370
     0
390
7E105
  0
LAYER
  5
26
330
7E114
100
AcDbSymbolTableRecord
100
AcDbLayerTableRecord
  2
Level 32
 70
     0
 62
     7
  6
Continuous
370
     0
390
7E105
  0
LAYER
  5
27
330
7E114
100
AcDbSymbolTableRecord
100
AcDbLayerTableRecord
  2
Level 33
 70
     0
 62
     7
  6
Continuous
370
     0
390
7E105
  0
LAYER
  5
28
330
7E114
100
AcDbSymbolTableRecord
100
AcDbLayerTableRecord
  2
Level 34
 70
     0
 62
     7
  6
Continuous
370
     0
390
7E105
  0
LAYER
  5
29
330
7E114
100
AcDbSymbolTableRecord
100
AcDbLayerTableRecord
  2
Level 35
 70
     0
 62
     7
  6
Continuous
370
     0
390
7E105
  0
LAYER
  5
2A
330
7E114
100
AcDbSymbolTableRecord
100
AcDbLayerTableRecord
  2
Level 36
 70
     0
 62
     7
  6
Continuous
370
     0
390
7E105
  0
LAYER
  5
2B
330
7E114
100
AcDbSymbolTableRecord
100
AcDbLayerTableRecord
  2
Level 37
 70
     0
 62
     7
  6
Continuous
370
     0
390
7E105
  0
LAYER
  5
2C
330
7E114
100
AcDbSymbolTableRecord
100
AcDbLayerTableRecord
  2
Level 38
 70
     0
 62
     7
  6
Continuous
370
     0
390
7E105
  0
LAYER
  5
2D
330
7E114
100
AcDbSymbolTableRecord
100
AcDbLayerTableRecord
  2
Level 39
 70
     0
 62
     7
  6
Continuous
370
     0
390
7E105
  0
LAYER
  5
2E
330
7E114
100
AcDbSymbolTableRecord
100
AcDbLayerTableRecord
  2
Level 40
 70
     0
 62
     7
  6
Continuous
370
     0
390
7E105
  0
LAYER
  5
2F
330
7E114
100
AcDbSymbolTableRecord
100
AcDbLayerTableRecord
  2
Level 41
 70
     0
 62
     7
  6
Continuous
370
     0
390
7E105
  0
LAYER
  5
30
330
7E114
100
AcDbSymbolTableRecord
100
AcDbLayerTableRecord
  2
Level 42
 70
     0
 62
     7
  6
Continuous
370
     0
390
7E105
  0
LAYER
  5
31
330
7E114
100
AcDbSymbolTableRecord
100
AcDbLayerTableRecord
  2
Level 43
 70
     0
 62
     7
  6
Continuous
370
     0
390
7E105
  0
LAYER
  5
32
330
7E114
100
AcDbSymbolTableRecord
100
AcDbLayerTableRecord
  2
Level 44
 70
     0
 62
     7
  6
Continuous
370
     0
390
7E105
  0
LAYER
  5
33
330
7E114
100
AcDbSymbolTableRecord
100
AcDbLayerTableRecord
  2
Level 45
 70
     0
 62
     7
  6
Continuous
370
     0
390
7E105
  0
LAYER
  5
34
330
7E114
100
AcDbSymbolTableRecord
100
AcDbLayerTableRecord
  2
Level 46
 70
     0
 62
     7
  6
Continuous
370
     0
390
7E105
  0
LAYER
  5
35
330
7E114
100
AcDbSymbolTableRecord
100
AcDbLayerTableRecord
  2
Level 47
 70
     0
 62
     7
  6
Continuous
370
     0
390
7E105
  0
LAYER
  5
36
330
7E114
100
AcDbSymbolTableRecord
100
AcDbLayerTableRecord
  2
Level 48
 70
     0
 62
     7
  6
Continuous
370
     0
390
7E105
  0
LAYER
  5
37
330
7E114
100
AcDbSymbolTableRecord
100
AcDbLayerTableRecord
  2
Level 49
 70
     0
 62
     7
  6
Continuous
370
     0
390
7E105
  0
LAYER
  5
38
330
7E114
100
AcDbSymbolTableRecord
100
AcDbLayerTableRecord
  2
Level 50
 70
     0
 62
     7
  6
Continuous
370
     0
390
7E105
  0
LAYER
  5
39
330
7E114
100
AcDbSymbolTableRecord
100
AcDbLayerTableRecord
  2
Level 51
 70
     0
 62
     7
  6
Continuous
370
     0
390
7E105
  0
LAYER
  5
3A
330
7E114
100
AcDbSymbolTableRecord
100
AcDbLayerTableRecord
  2
Level 52
 70
     0
 62
     7
  6
Continuous
370
     0
390
7E105
  0
LAYER
  5
3B
330
7E114
100
AcDbSymbolTableRecord
100
AcDbLayerTableRecord
  2
Level 53
 70
     0
 62
     7
  6
Continuous
370
     0
390
7E105
  0
LAYER
  5
3C
330
7E114
100
AcDbSymbolTableRecord
100
AcDbLayerTableRecord
  2
Level 54
 70
     0
 62
     7
  6
Continuous
370
     0
390
7E105
  0
LAYER
  5
3D
330
7E114
100
AcDbSymbolTableRecord
100
AcDbLayerTableRecord
  2
Level 55
 70
     0
 62
     7
  6
Continuous
370
     0
390
7E105
  0
LAYER
  5
3E
330
7E114
100
AcDbSymbolTableRecord
100
AcDbLayerTableRecord
  2
Level 56
 70
     0
 62
     7
  6
Continuous
370
     0
390
7E105
  0
LAYER
  5
3F
330
7E114
100
AcDbSymbolTableRecord
100
AcDbLayerTableRecord
  2
Level 57
 70
     0
 62
     7
  6
Continuous
370
     0
390
7E105
  0
LAYER
  5
40
330
7E114
100
AcDbSymbolTableRecord
100
AcDbLayerTableRecord
  2
Level 58
 70
     0
 62
     7
  6
Continuous
370
     0
390
7E105
  0
LAYER
  5
41
330
7E114
100
AcDbSymbolTableRecord
100
AcDbLayerTableRecord
  2
Level 59
 70
     0
 62
     7
  6
Continuous
370
     0
390
7E105
  0
LAYER
  5
42
330
7E114
100
AcDbSymbolTableRecord
100
AcDbLayerTableRecord
  2
Level 60
 70
     0
 62
     7
  6
Continuous
370
     0
390
7E105
  0
LAYER
  5
43
330
7E114
100
AcDbSymbolTableRecord
100
AcDbLayerTableRecord
  2
Level 61
 70
     0
 62
     7
  6
Continuous
370
     0
390
7E105
  0
LAYER
  5
44
330
7E114
100
AcDbSymbolTableRecord
100
AcDbLayerTableRecord
  2
Level 62
 70
     0
 62
     7
  6
Continuous
370
     0
390
7E105
  0
LAYER
  5
45
330
7E114
100
AcDbSymbolTableRecord
100
AcDbLayerTableRecord
  2
Level 63
 70
     0
 62
     7
  6
Continuous
370
     0
390
7E105
  0
LAYER
  5
50CA0
330
7E114
100
AcDbSymbolTableRecord
100
AcDbLayerTableRecord
  2
25
 70
     0
 62
     7
  6
Continuous
370
     0
390
7E105
  0
ENDTAB
  0
TABLE
  2
STYLE
  5
7E115
330
0
100
AcDbSymbolTable
 70
     2
  0
STYLE
  5
7E107
330
7E115
100
AcDbSymbolTableRecord
100
AcDbTextStyleTableRecord
  2
Standard
 70
     0
 40
0.0
 41
1.0
 50
0.0
 71
     0
 42
100.0
  3
txt
  4

  0
STYLE
  5
7E127
330
7E115
100
AcDbSymbolTableRecord
100
AcDbTextStyleTableRecord
  2
Style-ENGINEERING
 70
     0
 40
0.0
 41
1.0
 50
0.0
 71
     0
 42
0.2
  3
ENGINEERING.shx
  4

  0
ENDTAB
  0
TABLE
  2
VIEW
  5
7E118
330
0
100
AcDbSymbolTable
 70
     0
  0
ENDTAB
  0
TABLE
  2
UCS
  5
7E119
330
0
100
AcDbSymbolTable
 70
     0
  0
ENDTAB
  0
TABLE
  2
APPID
  5
7E11B
330
0
100
AcDbSymbolTable
 70
     1
  0
APPID
  5
7E123
330
7E11B
100
AcDbSymbolTableRecord
100
AcDbRegAppTableRecord
  2
ACAD
 70
     0
  0
ENDTAB
  0
TABLE
  2
DIMSTYLE
  5
7E11C
330
0
100
AcDbSymbolTable
 70
     1
100
AcDbDimStyleTable
  0
DIMSTYLE
105
7E109
330
7E11C
100
AcDbSymbolTableRecord
100
AcDbDimStyleTableRecord
  2
Standard
 70
     0
340
7E107
  0
ENDTAB
  0
TABLE
  2
BLOCK_RECORD
  5
7E10B
330
0
100
AcDbSymbolTable
 70
    18
  0
BLOCK_RECORD
  5
7E10C
330
7E10B
100
AcDbSymbolTableRecord
100
AcDbBlockTableRecord
  2
*Model_Space
340
7E10F
  0
BLOCK_RECORD
  5
7E110
330
7E10B
100
AcDbSymbolTableRecord
100
AcDbBlockTableRecord
  2
*Paper_Space
340
7E113
  0
BLOCK_RECORD
  5
7E128
330
7E10B
100
AcDbSymbolTableRecord
100
AcDbBlockTableRecord
  2
TerminatorOpen_0.5
340
0
  0
BLOCK_RECORD
  5
7E12F
330
7E10B
100
AcDbSymbolTableRecord
100
AcDbBlockTableRecord
  2
A0906
340
0
102
{BLKREFS
331
7DFD8
102
}
  0
BLOCK_RECORD
  5
7E132
330
7E10B
100
AcDbSymbolTableRecord
100
AcDbBlockTableRecord
  2
From Surface
340
0
102
{BLKREFS
331
7E0FF
102
}
  0
BLOCK_RECORD
  5
7E135
330
7E10B
100
AcDbSymbolTableRecord
100
AcDbBlockTableRecord
  2
From Surface_1
340
0
102
{BLKREFS
331
7E100
102
}
  0
BLOCK_RECORD
  5
7E138
330
7E10B
100
AcDbSymbolTableRecord
100
AcDbBlockTableRecord
  2
From Surface_2
340
0
102
{BLKREFS
331
7E101
102
}
  0
BLOCK_RECORD
  5
7E13B
330
7E10B
100
AcDbSymbolTableRecord
100
AcDbBlockTableRecord
  2
From Surface_3
340
0
102
{BLKREFS
331
7E102
102
}
  0
BLOCK_RECORD
  5
7E13E
330
7E10B
100
AcDbSymbolTableRecord
100
AcDbBlockTableRecord
  2
Smart Solid
340
0
102
{BLKREFS
331
7E011
102
}
  0
BLOCK_RECORD
  5
7E141
330
7E10B
100
AcDbSymbolTableRecord
100
AcDbBlockTableRecord
  2
Smart Solid_1
340
0
102
{BLKREFS
331
7E01F
102
}
  0
BLOCK_RECORD
  5
7E144
330
7E10B
100
AcDbSymbolTableRecord
100
AcDbBlockTableRecord
  2
Smart Solid_2
340
0
102
{BLKREFS
331
7E02D
102
}
  0
BLOCK_RECORD
  5
7E147
330
7E10B
100
AcDbSymbolTableRecord
100
AcDbBlockTableRecord
  2
Smart Solid_3
340
0
102
{BLKREFS
331
7E03B
102
}
  0
BLOCK_RECORD
  5
7E14A
330
7E10B
100
AcDbSymbolTableRecord
100
AcDbBlockTableRecord
  2
Smart Solid_4
340
0
102
{BLKREFS
331
7E049
102
}
  0
BLOCK_RECORD
  5
7E14D
330
7E10B
100
AcDbSymbolTableRecord
100
AcDbBlockTableRecord
  2
Smart Solid_5
340
0
102
{BLKREFS
331
7E057
102
}
  0
BLOCK_RECORD
  5
7E150
330
7E10B
100
AcDbSymbolTableRecord
100
AcDbBlockTableRecord
  2
Smart Solid_6
340
0
102
{BLKREFS
331
7E065
102
}
  0
BLOCK_RECORD
  5
7E153
330
7E10B
100
AcDbSymbolTableRecord
100
AcDbBlockTableRecord
  2
Smart Solid_7
340
0
102
{BLKREFS
331
7E073
102
}
  0
BLOCK_RECORD
  5
7E156
330
7E10B
100
AcDbSymbolTableRecord
100
AcDbBlockTableRecord
  2
Smart Solid_8
340
0
102
{BLKREFS
331
7E081
102
}
  0
BLOCK_RECORD
  5
7E159
330
7E10B
100
AcDbSymbolTableRecord
100
AcDbBlockTableRecord
  2
Smart Solid_9
340
0
102
{BLKREFS
331
7E08F
102
}
  0
BLOCK_RECORD
  5
7E15C
330
7E10B
100
AcDbSymbolTableRecord
100
AcDbBlockTableRecord
  2
Smart Solid_10
340
0
102
{BLKREFS
331
7E0A9
102
}
  0
BLOCK_RECORD
  5
7E15F
330
7E10B
100
AcDbSymbolTableRecord
100
AcDbBlockTableRecord
  2
A0278
340
0
102
{BLKREFS
331
7E0C7
331
7E0D5
331
7E0E3
331
7E0F1
102
}
  0
ENDTAB
  0
ENDSEC
  0
SECTION
  2
BLOCKS
  0
BLOCK
  5
7E10D
330
7E10C
100
AcDbEntity
  8
0
100
AcDbBlockBegin
  2
*Model_Space
 70
     0
 71
     0
 10
0.0
 20
0.0
 30
0.0
  3
*Model_Space
  1

  0
ENDBLK
  5
7E10E
330
7E10C
100
AcDbEntity
  8
0
100
AcDbBlockEnd
  0
BLOCK
  5
7E111
330
7E110
100
AcDbEntity
 67
     1
  8
0
100
AcDbBlockBegin
  2
*Paper_Space
 70
     0
 71
     0
 10
0.0
 20
0.0
 30
0.0
  3
*Paper_Space
  1

  0
ENDBLK
  5
7E112
330
7E110
100
AcDbEntity
 67
     1
  8
0
100
AcDbBlockEnd
  0
BLOCK
  5
7E12C
330
7E128
100
AcDbEntity
  8
0
100
AcDbBlockBegin
  2
TerminatorOpen_0.5
 70
     0
 71
     0
 10
0.0
 20
0.0
 30
0.0
  3
TerminatorOpen_0.5
  1

  0
LINE
  5
7E129
330
7E128
100
AcDbEntity
  8
0
  6
ByBlock
 62
     0
370
    -2
100
AcDbLine
 10
0.0
 20
0.0
 30
0.0
 11
-1.0
 21
0.0
 31
0.0
  0
LINE
  5
7E12A
330
7E128
100
AcDbEntity
  8
0
  6
ByBlock
 62
     0
370
    -2
100
AcDbLine
 10
0.0
 20
0.0
 30
0.0
 11
-1.0
 21
0.25
 31
0.0
  0
LINE
  5
7E12B
330
7E128
100
AcDbEntity
  8
0
  6
ByBlock
 62
     0
370
    -2
100
AcDbLine
 10
0.0
 20
0.0
 30
0.0
 11
-1.0
 21
-0.25
 31
0.0
  0
ENDBLK
  5
7E12D
330
7E128
100
AcDbEntity
  8
0
100
AcDbBlockEnd
  0
BLOCK
  5
7E130
330
7E12F
100
AcDbEntity
  8
0
100
AcDbBlockBegin
  2
A0906
 70
     0
 71
     0
 10
0.0
 20
0.0
 30
0.0
  3
A0906
  1

  0
INSERT
  5
7E0FF
330
7E12F
100
AcDbEntity
  8
Level 25
  6
Continuous
 62
   174
370
    13
100
AcDbBlockReference
  2
From Surface
 10
-3369.740019
 20
-1602.213494
 30
0.0
  0
INSERT
  5
7E100
330
7E12F
100
AcDbEntity
  8
Level 25
  6
Continuous
 62
   174
370
    13
100
AcDbBlockReference
  2
From Surface_1
 10
-3369.740019
 20
-1602.213494
 30
0.0
  0
INSERT
  5
7E101
330
7E12F
100
AcDbEntity
  8
Level 25
  6
Continuous
 62
   174
370
    13
100
AcDbBlockReference
  2
From Surface_2
 10
-3369.740019
 20
-1602.213494
 30
0.0
  0
LWPOLYLINE
  5
7DFE8
330
7E12F
100
AcDbEntity
  8
Level 25
  6
Continuous
 62
   174
370
    13
100
AcDbPolyline
 90
        4
 70
   129
 43
0.0
 10
-435.0
 20
2.5
 10
435.0
 20
2.5
 10
435.0
 20
2.5
 10
-435.0
 20
2.5
  0
LWPOLYLINE
  5
7DFED
330
7E12F
100
AcDbEntity
  8
Level 25
  6
Continuous
 62
   174
370
    13
100
AcDbPolyline
 90
        4
 70
   129
 43
0.0
 10
-470.0
 20
907.5
 10
-470.0
 20
37.5
 10
-470.0
 20
37.5
 10
-470.0
 20
907.5
  0
LWPOLYLINE
  5
7DFF2
330
7E12F
100
AcDbEntity
  8
Level 25
  6
Continuous
 62
   174
370
    13
100
AcDbPolyline
 90
        4
 70
   129
 43
0.0
 10
435.0
 20
942.5
 10
-435.0
 20
942.5
 10
-435.0
 20
942.5
 10
435.0
 20
942.5
  0
LWPOLYLINE
  5
7DFF7
330
7E12F
100
AcDbEntity
  8
Level 25
  6
Continuous
 62
   174
370
    13
100
AcDbPolyline
 90
        4
 70
   129
 43
0.0
 10
470.0
 20
37.5
 10
470.0
 20
907.5
 10
470.0
 20
907.5
 10
470.0
 20
37.5
  0
INSERT
  5
7E102
330
7E12F
100
AcDbEntity
  8
Level 25
  6
Continuous
 62
   174
370
    13
100
AcDbBlockReference
  2
From Surface_3
 10
-3369.740019
 20
-1602.213494
 30
0.0
  0
LINE
  5
7E001
330
7E12F
100
AcDbEntity
  8
Level 25
  6
Continuous
 62
   174
370
    13
100
AcDbLine
 10
465.0
 20
37.5
 30
0.0
 11
465.0
 21
907.5
 31
0.0
  0
LINE
  5
7E002
330
7E12F
100
AcDbEntity
  8
Level 25
  6
Continuous
 62
   174
370
    13
100
AcDbLine
 10
465.0
 20
907.5
 30
0.0
 11
435.0
 21
907.5
 31
0.0
  0
LINE
  5
7E003
330
7E12F
100
AcDbEntity
  8
Level 25
  6
Continuous
 62
   174
370
    13
100
AcDbLine
 10
435.0
 20
907.5
 30
0.0
 11
435.0
 21
937.5
 31
0.0
  0
LINE
  5
7E004
330
7E12F
100
AcDbEntity
  8
Level 25
  6
Continuous
 62
   174
370
    13
100
AcDbLine
 10
435.0
 20
937.5
 30
0.0
 11
-435.0
 21
937.5
 31
0.0
  0
LINE
  5
7E005
330
7E12F
100
AcDbEntity
  8
Level 25
  6
Continuous
 62
   174
370
    13
100
AcDbLine
 10
-435.0
 20
937.5
 30
0.0
 11
-435.0
 21
907.5
 31
0.0
  0
LINE
  5
7E006
330
7E12F
100
AcDbEntity
  8
Level 25
  6
Continuous
 62
   174
370
    13
100
AcDbLine
 10
-435.0
 20
907.5
 30
0.0
 11
-465.0
 21
907.5
 31
0.0
  0
LINE
  5
7E007
330
7E12F
100
AcDbEntity
  8
Level 25
  6
Continuous
 62
   174
370
    13
100
AcDbLine
 10
-465.0
 20
907.5
 30
0.0
 11
-465.0
 21
37.5
 31
0.0
  0
LINE
  5
7E008
330
7E12F
100
AcDbEntity
  8
Level 25
  6
Continuous
 62
   174
370
    13
100
AcDbLine
 10
-465.0
 20
37.5
 30
0.0
 11
-435.0
 21
37.5
 31
0.0
  0
LINE
  5
7E009
330
7E12F
100
AcDbEntity
  8
Level 25
  6
Continuous
 62
   174
370
    13
100
AcDbLine
 10
-435.0
 20
37.5
 30
0.0
 11
-435.0
 21
7.5
 31
0.0
  0
LINE
  5
7E00A
330
7E12F
100
AcDbEntity
  8
Level 25
  6
Continuous
 62
   174
370
    13
100
AcDbLine
 10
-435.0
 20
7.5
 30
0.0
 11
435.0
 21
7.5
 31
0.0
  0
LINE
  5
7E00B
330
7E12F
100
AcDbEntity
  8
Level 25
  6
Continuous
 62
   174
370
    13
100
AcDbLine
 10
435.0
 20
7.5
 30
0.0
 11
435.0
 21
37.5
 31
0.0
  0
LINE
  5
7E00C
330
7E12F
100
AcDbEntity
  8
Level 25
  6
Continuous
 62
   174
370
    13
100
AcDbLine
 10
435.0
 20
37.5
 30
0.0
 11
465.0
 21
37.5
 31
0.0
  0
LWPOLYLINE
  5
7E00D
330
7E12F
100
AcDbEntity
  8
Level 25
  6
Continuous
 62
   174
370
    13
100
AcDbPolyline
 90
        4
 70
   129
 43
0.0
 10
-465.0
 20
907.5
 10
-435.0
 20
907.5
 10
-435.0
 20
37.5
 10
-465.0
 20
37.5
  0
LWPOLYLINE
  5
7E00E
330
7E12F
100
AcDbEntity
  8
Level 25
  6
Continuous
 62
   174
370
    13
100
AcDbPolyline
 90
        4
 70
   129
 43
0.0
 10
-435.0
 20
37.5
 10
435.0
 20
37.5
 10
435.0
 20
7.5
 10
-435.0
 20
7.5
  0
LWPOLYLINE
  5
7E00F
330
7E12F
100
AcDbEntity
  8
Level 25
  6
Continuous
 62
   174
370
    13
100
AcDbPolyline
 90
        4
 70
   129
 43
0.0
 10
465.0
 20
37.5
 10
435.0
 20
37.5
 10
435.0
 20
907.5
 10
465.0
 20
907.5
  0
LWPOLYLINE
  5
7E010
330
7E12F
100
AcDbEntity
  8
Level 25
  6
Continuous
 62
   174
370
    13
100
AcDbPolyline
 90
        4
 70
   129
 43
0.0
 10
435.0
 20
907.5
 10
-435.0
 20
907.5
 10
-435.0
 20
937.5
 10
435.0
 20
937.5
  0
INSERT
  5
7E011
330
7E12F
100
AcDbEntity
  8
Level 26
  6
Continuous
 62
    25
370
    13
100
AcDbBlockReference
  2
Smart Solid
 10
-339.9995
 20
472.4995
 30
0.0
  0
INSERT
  5
7E01F
330
7E12F
100
AcDbEntity
  8
Level 26
  6
Continuous
 62
    25
370
    13
100
AcDbBlockReference
  2
Smart Solid_1
 10
-254.9995
 20
472.4995
 30
0.0
  0
INSERT
  5
7E02D
330
7E12F
100
AcDbEntity
  8
Level 26
  6
Continuous
 62
    25
370
    13
100
AcDbBlockReference
  2
Smart Solid_2
 10
-169.9995
 20
472.4995
 30
0.0
  0
INSERT
  5
7E03B
330
7E12F
100
AcDbEntity
  8
Level 26
  6
Continuous
 62
    25
370
    13
100
AcDbBlockReference
  2
Smart Solid_3
 10
-84.9995
 20
472.4995
 30
0.0
  0
INSERT
  5
7E049
330
7E12F
100
AcDbEntity
  8
Level 26
  6
Continuous
 62
    25
370
    13
100
AcDbBlockReference
  2
Smart Solid_4
 10
0.0005
 20
472.4995
 30
0.0
  0
INSERT
  5
7E057
330
7E12F
100
AcDbEntity
  8
Level 26
  6
Continuous
 62
    25
370
    13
100
AcDbBlockReference
  2
Smart Solid_5
 10
85.0005
 20
472.4995
 30
0.0
  0
INSERT
  5
7E065
330
7E12F
100
AcDbEntity
  8
Level 26
  6
Continuous
 62
    25
370
    13
100
AcDbBlockReference
  2
Smart Solid_6
 10
170.0005
 20
472.4995
 30
0.0
  0
INSERT
  5
7E073
330
7E12F
100
AcDbEntity
  8
Level 26
  6
Continuous
 62
    25
370
    13
100
AcDbBlockReference
  2
Smart Solid_7
 10
255.0005
 20
472.4995
 30
0.0
  0
INSERT
  5
7E081
330
7E12F
100
AcDbEntity
  8
Level 26
  6
Continuous
 62
    25
370
    13
100
AcDbBlockReference
  2
Smart Solid_8
 10
340.0005
 20
472.4995
 30
0.0
  0
INSERT
  5
7E08F
330
7E12F
100
AcDbEntity
  8
Level 26
  6
Continuous
 62
    25
370
    13
100
AcDbBlockReference
  2
Smart Solid_9
 10
425.0005
 20
472.4995
 30
0.0
  0
INSERT
  5
7E0A9
330
7E12F
100
AcDbEntity
  8
Level 26
  6
Continuous
 62
    25
370
    13
100
AcDbBlockReference
  2
Smart Solid_10
 10
-424.9995
 20
472.4995
 30
0.0
  0
LWPOLYLINE
  5
7E0C3
330
7E12F
100
AcDbEntity
  8
Level 25
  6
Continuous
 62
   174
370
    13
100
AcDbPolyline
 90
        4
 70
   129
 43
0.0
 10
-435.0
 20
497.5
 10
435.0
 20
497.5
 10
435.0
 20
447.5
 10
-435.0
 20
447.5
  0
ENDBLK
  5
7E131
330
7E12F
100
AcDbEntity
  8
0
100
AcDbBlockEnd
  0
BLOCK
  5
7E133
330
7E132
100
AcDbEntity
  8
0
100
AcDbBlockBegin
  2
From Surface
 70
     0
 71
     0
 10
0.0
 20
0.0
 30
0.0
  3
From Surface
  1

  0
LINE
  5
7DFDA
330
7E132
100
AcDbEntity
  8
Level 25
  6
Continuous
 62
   174
370
    13
100
AcDbLine
 10
3804.740019
 20
1609.713494
 30
0.0
 11
3804.740019
 21
1604.713494
 31
0.0
  0
LINE
  5
7DFDB
330
7E132
100
AcDbEntity
  8
Level 25
  6
Continuous
 62
   174
370
    13
100
AcDbLine
 10
2934.740019
 20
1609.713494
 30
0.0
 11
2934.740019
 21
1604.713494
 31
0.0
  0
LINE
  5
7DFDC
330
7E132
100
AcDbEntity
  8
Level 25
  6
Continuous
 62
   174
370
    13
100
AcDbLine
 10
3804.740019
 20
1604.713494
 30
0.0
 11
2934.740019
 21
1604.713494
 31
0.0
  0
LINE
  5
7DFDD
330
7E132
100
AcDbEntity
  8
Level 25
  6
Continuous
 62
   174
370
    13
100
AcDbLine
 10
3804.740019
 20
1609.713494
 30
0.0
 11
2934.740019
 21
1609.713494
 31
0.0
  0
ENDBLK
  5
7E134
330
7E132
100
AcDbEntity
  8
0
100
AcDbBlockEnd
  0
BLOCK
  5
7E136
330
7E135
100
AcDbEntity
  8
0
100
AcDbBlockBegin
  2
From Surface_1
 70
     0
 71
     0
 10
0.0
 20
0.0
 30
0.0
  3
From Surface_1
  1

  0
LINE
  5
7DFDF
330
7E135
100
AcDbEntity
  8
Level 25
  6
Continuous
 62
   174
370
    13
100
AcDbLine
 10
3834.740019
 20
2509.713494
 30
0.0
 11
3839.740019
 21
2509.713494
 31
0.0
  0
LINE
  5
7DFE0
330
7E135
100
AcDbEntity
  8
Level 25
  6
Continuous
 62
   174
370
    13
100
AcDbLine
 10
3834.740019
 20
1639.713494
 30
0.0
 11
3839.740019
 21
1639.713494
 31
0.0
  0
LINE
  5
7DFE1
330
7E135
100
AcDbEntity
  8
Level 25
  6
Continuous
 62
   174
370
    13
100
AcDbLine
 10
3839.740019
 20
2509.713494
 30
0.0
 11
3839.740019
 21
1639.713494
 31
0.0
  0
LINE
  5
7DFE2
330
7E135
100
AcDbEntity
  8
Level 25
  6
Continuous
 62
   174
370
    13
100
AcDbLine
 10
3834.740019
 20
2509.713494
 30
0.0
 11
3834.740019
 21
1639.713494
 31
0.0
  0
ENDBLK
  5
7E137
330
7E135
100
AcDbEntity
  8
0
100
AcDbBlockEnd
  0
BLOCK
  5
7E139
330
7E138
100
AcDbEntity
  8
0
100
AcDbBlockBegin
  2
From Surface_2
 70
     0
 71
     0
 10
0.0
 20
0.0
 30
0.0
  3
From Surface_2
  1

  0
LINE
  5
7DFE4
330
7E138
100
AcDbEntity
  8
Level 25
  6
Continuous
 62
   174
370
    13
100
AcDbLine
 10
2934.740019
 20
2539.713494
 30
0.0
 11
2934.740019
 21
2544.713494
 31
0.0
  0
LINE
  5
7DFE5
330
7E138
100
AcDbEntity
  8
Level 25
  6
Continuous
 62
   174
370
    13
100
AcDbLine
 10
3804.740019
 20
2539.713494
 30
0.0
 11
3804.740019
 21
2544.713494
 31
0.0
  0
LINE
  5
7DFE6
330
7E138
100
AcDbEntity
  8
Level 25
  6
Continuous
 62
   174
370
    13
100
AcDbLine
 10
2934.740019
 20
2544.713494
 30
0.0
 11
3804.740019
 21
2544.713494
 31
0.0
  0
LINE
  5
7DFE7
330
7E138
100
AcDbEntity
  8
Level 25
  6
Continuous
 62
   174
370
    13
100
AcDbLine
 10
2934.740019
 20
2539.713494
 30
0.0
 11
3804.740019
 21
2539.713494
 31
0.0
  0
ENDBLK
  5
7E13A
330
7E138
100
AcDbEntity
  8
0
100
AcDbBlockEnd
  0
BLOCK
  5
7E13C
330
7E13B
100
AcDbEntity
  8
0
100
AcDbBlockBegin
  2
From Surface_3
 70
     0
 71
     0
 10
0.0
 20
0.0
 30
0.0
  3
From Surface_3
  1

  0
LINE
  5
7DFFD
330
7E13B
100
AcDbEntity
  8
Level 25
  6
Continuous
 62
   174
370
    13
100
AcDbLine
 10
2904.740019
 20
1639.713494
 30
0.0
 11
2899.740019
 21
1639.713494
 31
0.0
  0
LINE
  5
7DFFE
330
7E13B
100
AcDbEntity
  8
Level 25
  6
Continuous
 62
   174
370
    13
100
AcDbLine
 10
2904.740019
 20
2509.713494
 30
0.0
 11
2899.740019
 21
2509.713494
 31
0.0
  0
LINE
  5
7DFFF
330
7E13B
100
AcDbEntity
  8
Level 25
  6
Continuous
 62
   174
370
    13
100
AcDbLine
 10
2899.740019
 20
1639.713494
 30
0.0
 11
2899.740019
 21
2509.713494
 31
0.0
  0
LINE
  5
7E000
330
7E13B
100
AcDbEntity
  8
Level 25
  6
Continuous
 62
   174
370
    13
100
AcDbLine
 10
2904.740019
 20
1639.713494
 30
0.0
 11
2904.740019
 21
2509.713494
 31
0.0
  0
ENDBLK
  5
7E13D
330
7E13B
100
AcDbEntity
  8
0
100
AcDbBlockEnd
  0
BLOCK
  5
7E13F
330
7E13E
100
AcDbEntity
  8
0
100
AcDbBlockBegin
  2
Smart Solid
 70
     0
 71
     0
 10
0.0
 20
0.0
 30
0.0
  3
Smart Solid
  1

  0
LINE
  5
7E012
330
7E13E
100
AcDbEntity
  8
Level 26
  6
Continuous
 62
    25
370
    13
100
AcDbLine
 10
39.9995
 20
465.0005
 30
0.0
 11
39.9995
 21
-464.9995
 31
0.0
  0
LINE
  5
7E013
330
7E13E
100
AcDbEntity
  8
Level 26
  6
Continuous
 62
    25
370
    13
100
AcDbLine
 10
39.9995
 20
465.0005
 30
0.0
 11
39.9995
 21
-464.9995
 31
0.0
  0
LINE
  5
7E014
330
7E13E
100
AcDbEntity
  8
Level 26
  6
Continuous
 62
    25
370
    13
100
AcDbLine
 10
-40.0005
 20
465.0005
 30
0.0
 11
-40.0005
 21
-464.9995
 31
0.0
  0
LINE
  5
7E015
330
7E13E
100
AcDbEntity
  8
Level 26
  6
Continuous
 62
    25
370
    13
100
AcDbLine
 10
-40.0005
 20
465.0005
 30
0.0
 11
-40.0005
 21
-464.9995
 31
0.0
  0
POINT
  5
7E016
330
7E13E
100
AcDbEntity
  8
Level 26
  6
Continuous
 62
    25
370
    13
100
AcDbPoint
 10
-40.0005
 20
465.0005
 30
0.0
  0
LINE
  5
7E017
330
7E13E
100
AcDbEntity
  8
Level 26
  6
Continuous
 62
    25
370
    13
100
AcDbLine
 10
39.9995
 20
465.0005
 30
0.0
 11
-40.0005
 21
465.0005
 31
0.0
  0
POINT
  5
7E018
330
7E13E
100
AcDbEntity
  8
Level 26
  6
Continuous
 62
    25
370
    13
100
AcDbPoint
 10
39.9995
 20
465.0005
 30
0.0
  0
LINE
  5
7E019
330
7E13E
100
AcDbEntity
  8
Level 26
  6
Continuous
 62
    25
370
    13
100
AcDbLine
 10
-40.0005
 20
465.0005
 30
0.0
 11
39.9995
 21
465.0005
 31
0.0
  0
POINT
  5
7E01A
330
7E13E
100
AcDbEntity
  8
Level 26
  6
Continuous
 62
    25
370
    13
100
AcDbPoint
 10
-40.0005
 20
-464.9995
 30
0.0
  0
LINE
  5
7E01B
330
7E13E
100
AcDbEntity
  8
Level 26
  6
Continuous
 62
    25
370
    13
100
AcDbLine
 10
39.9995
 20
-464.9995
 30
0.0
 11
-40.0005
 21
-464.9995
 31
0.0
  0
POINT
  5
7E01C
330
7E13E
100
AcDbEntity
  8
Level 26
  6
Continuous
 62
    25
370
    13
100
AcDbPoint
 10
39.9995
 20
-464.9995
 30
0.0
  0
LINE
  5
7E01D
330
7E13E
100
AcDbEntity
  8
Level 26
  6
Continuous
 62
    25
370
    13
100
AcDbLine
 10
-40.0005
 20
-464.9995
 30
0.0
 11
39.9995
 21
-464.9995
 31
0.0
  0
ENDBLK
  5
7E140
330
7E13E
100
AcDbEntity
  8
0
100
AcDbBlockEnd
  0
BLOCK
  5
7E142
330
7E141
100
AcDbEntity
  8
0
100
AcDbBlockBegin
  2
Smart Solid_1
 70
     0
 71
     0
 10
0.0
 20
0.0
 30
0.0
  3
Smart Solid_1
  1

  0
LINE
  5
7E020
330
7E141
100
AcDbEntity
  8
Level 26
  6
Continuous
 62
    25
370
    13
100
AcDbLine
 10
39.9995
 20
465.0005
 30
0.0
 11
39.9995
 21
-464.9995
 31
0.0
  0
LINE
  5
7E021
330
7E141
100
AcDbEntity
  8
Level 26
  6
Continuous
 62
    25
370
    13
100
AcDbLine
 10
39.9995
 20
465.0005
 30
0.0
 11
39.9995
 21
-464.9995
 31
0.0
  0
LINE
  5
7E022
330
7E141
100
AcDbEntity
  8
Level 26
  6
Continuous
 62
    25
370
    13
100
AcDbLine
 10
-40.0005
 20
465.0005
 30
0.0
 11
-40.0005
 21
-464.9995
 31
0.0
  0
LINE
  5
7E023
330
7E141
100
AcDbEntity
  8
Level 26
  6
Continuous
 62
    25
370
    13
100
AcDbLine
 10
-40.0005
 20
465.0005
 30
0.0
 11
-40.0005
 21
-464.9995
 31
0.0
  0
POINT
  5
7E024
330
7E141
100
AcDbEntity
  8
Level 26
  6
Continuous
 62
    25
370
    13
100
AcDbPoint
 10
-40.0005
 20
465.0005
 30
0.0
  0
LINE
  5
7E025
330
7E141
100
AcDbEntity
  8
Level 26
  6
Continuous
 62
    25
370
    13
100
AcDbLine
 10
39.9995
 20
465.0005
 30
0.0
 11
-40.0005
 21
465.0005
 31
0.0
  0
POINT
  5
7E026
330
7E141
100
AcDbEntity
  8
Level 26
  6
Continuous
 62
    25
370
    13
100
AcDbPoint
 10
39.9995
 20
465.0005
 30
0.0
  0
LINE
  5
7E027
330
7E141
100
AcDbEntity
  8
Level 26
  6
Continuous
 62
    25
370
    13
100
AcDbLine
 10
-40.0005
 20
465.0005
 30
0.0
 11
39.9995
 21
465.0005
 31
0.0
  0
POINT
  5
7E028
330
7E141
100
AcDbEntity
  8
Level 26
  6
Continuous
 62
    25
370
    13
100
AcDbPoint
 10
-40.0005
 20
-464.9995
 30
0.0
  0
LINE
  5
7E029
330
7E141
100
AcDbEntity
  8
Level 26
  6
Continuous
 62
    25
370
    13
100
AcDbLine
 10
39.9995
 20
-464.9995
 30
0.0
 11
-40.0005
 21
-464.9995
 31
0.0
  0
POINT
  5
7E02A
330
7E141
100
AcDbEntity
  8
Level 26
  6
Continuous
 62
    25
370
    13
100
AcDbPoint
 10
39.9995
 20
-464.9995
 30
0.0
  0
LINE
  5
7E02B
330
7E141
100
AcDbEntity
  8
Level 26
  6
Continuous
 62
    25
370
    13
100
AcDbLine
 10
-40.0005
 20
-464.9995
 30
0.0
 11
39.9995
 21
-464.9995
 31
0.0
  0
ENDBLK
  5
7E143
330
7E141
100
AcDbEntity
  8
0
100
AcDbBlockEnd
  0
BLOCK
  5
7E145
330
7E144
100
AcDbEntity
  8
0
100
AcDbBlockBegin
  2
Smart Solid_2
 70
     0
 71
     0
 10
0.0
 20
0.0
 30
0.0
  3
Smart Solid_2
  1

  0
LINE
  5
7E02E
330
7E144
100
AcDbEntity
  8
Level 26
  6
Continuous
 62
    25
370
    13
100
AcDbLine
 10
39.9995
 20
465.0005
 30
0.0
 11
39.9995
 21
-464.9995
 31
0.0
  0
LINE
  5
7E02F
330
7E144
100
AcDbEntity
  8
Level 26
  6
Continuous
 62
    25
370
    13
100
AcDbLine
 10
39.9995
 20
465.0005
 30
0.0
 11
39.9995
 21
-464.9995
 31
0.0
  0
LINE
  5
7E030
330
7E144
100
AcDbEntity
  8
Level 26
  6
Continuous
 62
    25
370
    13
100
AcDbLine
 10
-40.0005
 20
465.0005
 30
0.0
 11
-40.0005
 21
-464.9995
 31
0.0
  0
LINE
  5
7E031
330
7E144
100
AcDbEntity
  8
Level 26
  6
Continuous
 62
    25
370
    13
100
AcDbLine
 10
-40.0005
 20
465.0005
 30
0.0
 11
-40.0005
 21
-464.9995
 31
0.0
  0
POINT
  5
7E032
330
7E144
100
AcDbEntity
  8
Level 26
  6
Continuous
 62
    25
370
    13
100
AcDbPoint
 10
-40.0005
 20
465.0005
 30
0.0
  0
LINE
  5
7E033
330
7E144
100
AcDbEntity
  8
Level 26
  6
Continuous
 62
    25
370
    13
100
AcDbLine
 10
39.9995
 20
465.0005
 30
0.0
 11
-40.0005
 21
465.0005
 31
0.0
  0
POINT
  5
7E034
330
7E144
100
AcDbEntity
  8
Level 26
  6
Continuous
 62
    25
370
    13
100
AcDbPoint
 10
39.9995
 20
465.0005
 30
0.0
  0
LINE
  5
7E035
330
7E144
100
AcDbEntity
  8
Level 26
  6
Continuous
 62
    25
370
    13
100
AcDbLine
 10
-40.0005
 20
465.0005
 30
0.0
 11
39.9995
 21
465.0005
 31
0.0
  0
POINT
  5
7E036
330
7E144
100
AcDbEntity
  8
Level 26
  6
Continuous
 62
    25
370
    13
100
AcDbPoint
 10
-40.0005
 20
-464.9995
 30
0.0
  0
LINE
  5
7E037
330
7E144
100
AcDbEntity
  8
Level 26
  6
Continuous
 62
    25
370
    13
100
AcDbLine
 10
39.9995
 20
-464.9995
 30
0.0
 11
-40.0005
 21
-464.9995
 31
0.0
  0
POINT
  5
7E038
330
7E144
100
AcDbEntity
  8
Level 26
  6
Continuous
 62
    25
370
    13
100
AcDbPoint
 10
39.9995
 20
-464.9995
 30
0.0
  0
LINE
  5
7E039
330
7E144
100
AcDbEntity
  8
Level 26
  6
Continuous
 62
    25
370
    13
100
AcDbLine
 10
-40.0005
 20
-464.9995
 30
0.0
 11
39.9995
 21
-464.9995
 31
0.0
  0
ENDBLK
  5
7E146
330
7E144
100
AcDbEntity
  8
0
100
AcDbBlockEnd
  0
BLOCK
  5
7E148
330
7E147
100
AcDbEntity
  8
0
100
AcDbBlockBegin
  2
Smart Solid_3
 70
     0
 71
     0
 10
0.0
 20
0.0
 30
0.0
  3
Smart Solid_3
  1

  0
LINE
  5
7E03C
330
7E147
100
AcDbEntity
  8
Level 26
  6
Continuous
 62
    25
370
    13
100
AcDbLine
 10
39.9995
 20
465.0005
 30
0.0
 11
39.9995
 21
-464.9995
 31
0.0
  0
LINE
  5
7E03D
330
7E147
100
AcDbEntity
  8
Level 26
  6
Continuous
 62
    25
370
    13
100
AcDbLine
 10
39.9995
 20
465.0005
 30
0.0
 11
39.9995
 21
-464.9995
 31
0.0
  0
LINE
  5
7E03E
330
7E147
100
AcDbEntity
  8
Level 26
  6
Continuous
 62
    25
370
    13
100
AcDbLine
 10
-40.0005
 20
465.0005
 30
0.0
 11
-40.0005
 21
-464.9995
 31
0.0
  0
LINE
  5
7E03F
330
7E147
100
AcDbEntity
  8
Level 26
  6
Continuous
 62
    25
370
    13
100
AcDbLine
 10
-40.0005
 20
465.0005
 30
0.0
 11
-40.0005
 21
-464.9995
 31
0.0
  0
POINT
  5
7E040
330
7E147
100
AcDbEntity
  8
Level 26
  6
Continuous
 62
    25
370
    13
100
AcDbPoint
 10
-40.0005
 20
465.0005
 30
0.0
  0
LINE
  5
7E041
330
7E147
100
AcDbEntity
  8
Level 26
  6
Continuous
 62
    25
370
    13
100
AcDbLine
 10
39.9995
 20
465.0005
 30
0.0
 11
-40.0005
 21
465.0005
 31
0.0
  0
POINT
  5
7E042
330
7E147
100
AcDbEntity
  8
Level 26
  6
Continuous
 62
    25
370
    13
100
AcDbPoint
 10
39.9995
 20
465.0005
 30
0.0
  0
LINE
  5
7E043
330
7E147
100
AcDbEntity
  8
Level 26
  6
Continuous
 62
    25
370
    13
100
AcDbLine
 10
-40.0005
 20
465.0005
 30
0.0
 11
39.9995
 21
465.0005
 31
0.0
  0
POINT
  5
7E044
330
7E147
100
AcDbEntity
  8
Level 26
  6
Continuous
 62
    25
370
    13
100
AcDbPoint
 10
-40.0005
 20
-464.9995
 30
0.0
  0
LINE
  5
7E045
330
7E147
100
AcDbEntity
  8
Level 26
  6
Continuous
 62
    25
370
    13
100
AcDbLine
 10
39.9995
 20
-464.9995
 30
0.0
 11
-40.0005
 21
-464.9995
 31
0.0
  0
POINT
  5
7E046
330
7E147
100
AcDbEntity
  8
Level 26
  6
Continuous
 62
    25
370
    13
100
AcDbPoint
 10
39.9995
 20
-464.9995
 30
0.0
  0
LINE
  5
7E047
330
7E147
100
AcDbEntity
  8
Level 26
  6
Continuous
 62
    25
370
    13
100
AcDbLine
 10
-40.0005
 20
-464.9995
 30
0.0
 11
39.9995
 21
-464.9995
 31
0.0
  0
ENDBLK
  5
7E149
330
7E147
100
AcDbEntity
  8
0
100
AcDbBlockEnd
  0
BLOCK
  5
7E14B
330
7E14A
100
AcDbEntity
  8
0
100
AcDbBlockBegin
  2
Smart Solid_4
 70
     0
 71
     0
 10
0.0
 20
0.0
 30
0.0
  3
Smart Solid_4
  1

  0
LINE
  5
7E04A
330
7E14A
100
AcDbEntity
  8
Level 26
  6
Continuous
 62
    25
370
    13
100
AcDbLine
 10
39.9995
 20
465.0005
 30
0.0
 11
39.9995
 21
-464.9995
 31
0.0
  0
LINE
  5
7E04B
330
7E14A
100
AcDbEntity
  8
Level 26
  6
Continuous
 62
    25
370
    13
100
AcDbLine
 10
39.9995
 20
465.0005
 30
0.0
 11
39.9995
 21
-464.9995
 31
0.0
  0
LINE
  5
7E04C
330
7E14A
100
AcDbEntity
  8
Level 26
  6
Continuous
 62
    25
370
    13
100
AcDbLine
 10
-40.0005
 20
465.0005
 30
0.0
 11
-40.0005
 21
-464.9995
 31
0.0
  0
LINE
  5
7E04D
330
7E14A
100
AcDbEntity
  8
Level 26
  6
Continuous
 62
    25
370
    13
100
AcDbLine
 10
-40.0005
 20
465.0005
 30
0.0
 11
-40.0005
 21
-464.9995
 31
0.0
  0
POINT
  5
7E04E
330
7E14A
100
AcDbEntity
  8
Level 26
  6
Continuous
 62
    25
370
    13
100
AcDbPoint
 10
-40.0005
 20
465.0005
 30
0.0
  0
LINE
  5
7E04F
330
7E14A
100
AcDbEntity
  8
Level 26
  6
Continuous
 62
    25
370
    13
100
AcDbLine
 10
39.9995
 20
465.0005
 30
0.0
 11
-40.0005
 21
465.0005
 31
0.0
  0
POINT
  5
7E050
330
7E14A
100
AcDbEntity
  8
Level 26
  6
Continuous
 62
    25
370
    13
100
AcDbPoint
 10
39.9995
 20
465.0005
 30
0.0
  0
LINE
  5
7E051
330
7E14A
100
AcDbEntity
  8
Level 26
  6
Continuous
 62
    25
370
    13
100
AcDbLine
 10
-40.0005
 20
465.0005
 30
0.0
 11
39.9995
 21
465.0005
 31
0.0
  0
POINT
  5
7E052
330
7E14A
100
AcDbEntity
  8
Level 26
  6
Continuous
 62
    25
370
    13
100
AcDbPoint
 10
-40.0005
 20
-464.9995
 30
0.0
  0
LINE
  5
7E053
330
7E14A
100
AcDbEntity
  8
Level 26
  6
Continuous
 62
    25
370
    13
100
AcDbLine
 10
39.9995
 20
-464.9995
 30
0.0
 11
-40.0005
 21
-464.9995
 31
0.0
  0
POINT
  5
7E054
330
7E14A
100
AcDbEntity
  8
Level 26
  6
Continuous
 62
    25
370
    13
100
AcDbPoint
 10
39.9995
 20
-464.9995
 30
0.0
  0
LINE
  5
7E055
330
7E14A
100
AcDbEntity
  8
Level 26
  6
Continuous
 62
    25
370
    13
100
AcDbLine
 10
-40.0005
 20
-464.9995
 30
0.0
 11
39.9995
 21
-464.9995
 31
0.0
  0
ENDBLK
  5
7E14C
330
7E14A
100
AcDbEntity
  8
0
100
AcDbBlockEnd
  0
BLOCK
  5
7E14E
330
7E14D
100
AcDbEntity
  8
0
100
AcDbBlockBegin
  2
Smart Solid_5
 70
     0
 71
     0
 10
0.0
 20
0.0
 30
0.0
  3
Smart Solid_5
  1

  0
LINE
  5
7E058
330
7E14D
100
AcDbEntity
  8
Level 26
  6
Continuous
 62
    25
370
    13
100
AcDbLine
 10
39.9995
 20
465.0005
 30
0.0
 11
39.9995
 21
-464.9995
 31
0.0
  0
LINE
  5
7E059
330
7E14D
100
AcDbEntity
  8
Level 26
  6
Continuous
 62
    25
370
    13
100
AcDbLine
 10
39.9995
 20
465.0005
 30
0.0
 11
39.9995
 21
-464.9995
 31
0.0
  0
LINE
  5
7E05A
330
7E14D
100
AcDbEntity
  8
Level 26
  6
Continuous
 62
    25
370
    13
100
AcDbLine
 10
-40.0005
 20
465.0005
 30
0.0
 11
-40.0005
 21
-464.9995
 31
0.0
  0
LINE
  5
7E05B
330
7E14D
100
AcDbEntity
  8
Level 26
  6
Continuous
 62
    25
370
    13
100
AcDbLine
 10
-40.0005
 20
465.0005
 30
0.0
 11
-40.0005
 21
-464.9995
 31
0.0
  0
POINT
  5
7E05C
330
7E14D
100
AcDbEntity
  8
Level 26
  6
Continuous
 62
    25
370
    13
100
AcDbPoint
 10
-40.0005
 20
465.0005
 30
0.0
  0
LINE
  5
7E05D
330
7E14D
100
AcDbEntity
  8
Level 26
  6
Continuous
 62
    25
370
    13
100
AcDbLine
 10
39.9995
 20
465.0005
 30
0.0
 11
-40.0005
 21
465.0005
 31
0.0
  0
POINT
  5
7E05E
330
7E14D
100
AcDbEntity
  8
Level 26
  6
Continuous
 62
    25
370
    13
100
AcDbPoint
 10
39.9995
 20
465.0005
 30
0.0
  0
LINE
  5
7E05F
330
7E14D
100
AcDbEntity
  8
Level 26
  6
Continuous
 62
    25
370
    13
100
AcDbLine
 10
-40.0005
 20
465.0005
 30
0.0
 11
39.9995
 21
465.0005
 31
0.0
  0
POINT
  5
7E060
330
7E14D
100
AcDbEntity
  8
Level 26
  6
Continuous
 62
    25
370
    13
100
AcDbPoint
 10
-40.0005
 20
-464.9995
 30
0.0
  0
LINE
  5
7E061
330
7E14D
100
AcDbEntity
  8
Level 26
  6
Continuous
 62
    25
370
    13
100
AcDbLine
 10
39.9995
 20
-464.9995
 30
0.0
 11
-40.0005
 21
-464.9995
 31
0.0
  0
POINT
  5
7E062
330
7E14D
100
AcDbEntity
  8
Level 26
  6
Continuous
 62
    25
370
    13
100
AcDbPoint
 10
39.9995
 20
-464.9995
 30
0.0
  0
LINE
  5
7E063
330
7E14D
100
AcDbEntity
  8
Level 26
  6
Continuous
 62
    25
370
    13
100
AcDbLine
 10
-40.0005
 20
-464.9995
 30
0.0
 11
39.9995
 21
-464.9995
 31
0.0
  0
ENDBLK
  5
7E14F
330
7E14D
100
AcDbEntity
  8
0
100
AcDbBlockEnd
  0
BLOCK
  5
7E151
330
7E150
100
AcDbEntity
  8
0
100
AcDbBlockBegin
  2
Smart Solid_6
 70
     0
 71
     0
 10
0.0
 20
0.0
 30
0.0
  3
Smart Solid_6
  1

  0
LINE
  5
7E066
330
7E150
100
AcDbEntity
  8
Level 26
  6
Continuous
 62
    25
370
    13
100
AcDbLine
 10
39.9995
 20
465.0005
 30
0.0
 11
39.9995
 21
-464.9995
 31
0.0
  0
LINE
  5
7E067
330
7E150
100
AcDbEntity
  8
Level 26
  6
Continuous
 62
    25
370
    13
100
AcDbLine
 10
39.9995
 20
465.0005
 30
0.0
 11
39.9995
 21
-464.9995
 31
0.0
  0
LINE
  5
7E068
330
7E150
100
AcDbEntity
  8
Level 26
  6
Continuous
 62
    25
370
    13
100
AcDbLine
 10
-40.0005
 20
465.0005
 30
0.0
 11
-40.0005
 21
-464.9995
 31
0.0
  0
LINE
  5
7E069
330
7E150
100
AcDbEntity
  8
Level 26
  6
Continuous
 62
    25
370
    13
100
AcDbLine
 10
-40.0005
 20
465.0005
 30
0.0
 11
-40.0005
 21
-464.9995
 31
0.0
  0
POINT
  5
7E06A
330
7E150
100
AcDbEntity
  8
Level 26
  6
Continuous
 62
    25
370
    13
100
AcDbPoint
 10
-40.0005
 20
465.0005
 30
0.0
  0
LINE
  5
7E06B
330
7E150
100
AcDbEntity
  8
Level 26
  6
Continuous
 62
    25
370
    13
100
AcDbLine
 10
39.9995
 20
465.0005
 30
0.0
 11
-40.0005
 21
465.0005
 31
0.0
  0
POINT
  5
7E06C
330
7E150
100
AcDbEntity
  8
Level 26
  6
Continuous
 62
    25
370
    13
100
AcDbPoint
 10
39.9995
 20
465.0005
 30
0.0
  0
LINE
  5
7E06D
330
7E150
100
AcDbEntity
  8
Level 26
  6
Continuous
 62
    25
370
    13
100
AcDbLine
 10
-40.0005
 20
465.0005
 30
0.0
 11
39.9995
 21
465.0005
 31
0.0
  0
POINT
  5
7E06E
330
7E150
100
AcDbEntity
  8
Level 26
  6
Continuous
 62
    25
370
    13
100
AcDbPoint
 10
-40.0005
 20
-464.9995
 30
0.0
  0
LINE
  5
7E06F
330
7E150
100
AcDbEntity
  8
Level 26
  6
Continuous
 62
    25
370
    13
100
AcDbLine
 10
39.9995
 20
-464.9995
 30
0.0
 11
-40.0005
 21
-464.9995
 31
0.0
  0
POINT
  5
7E070
330
7E150
100
AcDbEntity
  8
Level 26
  6
Continuous
 62
    25
370
    13
100
AcDbPoint
 10
39.9995
 20
-464.9995
 30
0.0
  0
LINE
  5
7E071
330
7E150
100
AcDbEntity
  8
Level 26
  6
Continuous
 62
    25
370
    13
100
AcDbLine
 10
-40.0005
 20
-464.9995
 30
0.0
 11
39.9995
 21
-464.9995
 31
0.0
  0
ENDBLK
  5
7E152
330
7E150
100
AcDbEntity
  8
0
100
AcDbBlockEnd
  0
BLOCK
  5
7E154
330
7E153
100
AcDbEntity
  8
0
100
AcDbBlockBegin
  2
Smart Solid_7
 70
     0
 71
     0
 10
0.0
 20
0.0
 30
0.0
  3
Smart Solid_7
  1

  0
LINE
  5
7E074
330
7E153
100
AcDbEntity
  8
Level 26
  6
Continuous
 62
    25
370
    13
100
AcDbLine
 10
39.9995
 20
465.0005
 30
0.0
 11
39.9995
 21
-464.9995
 31
0.0
  0
LINE
  5
7E075
330
7E153
100
AcDbEntity
  8
Level 26
  6
Continuous
 62
    25
370
    13
100
AcDbLine
 10
39.9995
 20
465.0005
 30
0.0
 11
39.9995
 21
-464.9995
 31
0.0
  0
LINE
  5
7E076
330
7E153
100
AcDbEntity
  8
Level 26
  6
Continuous
 62
    25
370
    13
100
AcDbLine
 10
-40.0005
 20
465.0005
 30
0.0
 11
-40.0005
 21
-464.9995
 31
0.0
  0
LINE
  5
7E077
330
7E153
100
AcDbEntity
  8
Level 26
  6
Continuous
 62
    25
370
    13
100
AcDbLine
 10
-40.0005
 20
465.0005
 30
0.0
 11
-40.0005
 21
-464.9995
 31
0.0
  0
POINT
  5
7E078
330
7E153
100
AcDbEntity
  8
Level 26
  6
Continuous
 62
    25
370
    13
100
AcDbPoint
 10
-40.0005
 20
465.0005
 30
0.0
  0
LINE
  5
7E079
330
7E153
100
AcDbEntity
  8
Level 26
  6
Continuous
 62
    25
370
    13
100
AcDbLine
 10
39.9995
 20
465.0005
 30
0.0
 11
-40.0005
 21
465.0005
 31
0.0
  0
POINT
  5
7E07A
330
7E153
100
AcDbEntity
  8
Level 26
  6
Continuous
 62
    25
370
    13
100
AcDbPoint
 10
39.9995
 20
465.0005
 30
0.0
  0
LINE
  5
7E07B
330
7E153
100
AcDbEntity
  8
Level 26
  6
Continuous
 62
    25
370
    13
100
AcDbLine
 10
-40.0005
 20
465.0005
 30
0.0
 11
39.9995
 21
465.0005
 31
0.0
  0
POINT
  5
7E07C
330
7E153
100
AcDbEntity
  8
Level 26
  6
Continuous
 62
    25
370
    13
100
AcDbPoint
 10
-40.0005
 20
-464.9995
 30
0.0
  0
LINE
  5
7E07D
330
7E153
100
AcDbEntity
  8
Level 26
  6
Continuous
 62
    25
370
    13
100
AcDbLine
 10
39.9995
 20
-464.9995
 30
0.0
 11
-40.0005
 21
-464.9995
 31
0.0
  0
POINT
  5
7E07E
330
7E153
100
AcDbEntity
  8
Level 26
  6
Continuous
 62
    25
370
    13
100
AcDbPoint
 10
39.9995
 20
-464.9995
 30
0.0
  0
LINE
  5
7E07F
330
7E153
100
AcDbEntity
  8
Level 26
  6
Continuous
 62
    25
370
    13
100
AcDbLine
 10
-40.0005
 20
-464.9995
 30
0.0
 11
39.9995
 21
-464.9995
 31
0.0
  0
ENDBLK
  5
7E155
330
7E153
100
AcDbEntity
  8
0
100
AcDbBlockEnd
  0
BLOCK
  5
7E157
330
7E156
100
AcDbEntity
  8
0
100
AcDbBlockBegin
  2
Smart Solid_8
 70
     0
 71
     0
 10
0.0
 20
0.0
 30
0.0
  3
Smart Solid_8
  1

  0
LINE
  5
7E082
330
7E156
100
AcDbEntity
  8
Level 26
  6
Continuous
 62
    25
370
    13
100
AcDbLine
 10
39.9995
 20
465.0005
 30
0.0
 11
39.9995
 21
-464.9995
 31
0.0
  0
LINE
  5
7E083
330
7E156
100
AcDbEntity
  8
Level 26
  6
Continuous
 62
    25
370
    13
100
AcDbLine
 10
39.9995
 20
465.0005
 30
0.0
 11
39.9995
 21
-464.9995
 31
0.0
  0
LINE
  5
7E084
330
7E156
100
AcDbEntity
  8
Level 26
  6
Continuous
 62
    25
370
    13
100
AcDbLine
 10
-40.0005
 20
465.0005
 30
0.0
 11
-40.0005
 21
-464.9995
 31
0.0
  0
LINE
  5
7E085
330
7E156
100
AcDbEntity
  8
Level 26
  6
Continuous
 62
    25
370
    13
100
AcDbLine
 10
-40.0005
 20
465.0005
 30
0.0
 11
-40.0005
 21
-464.9995
 31
0.0
  0
POINT
  5
7E086
330
7E156
100
AcDbEntity
  8
Level 26
  6
Continuous
 62
    25
370
    13
100
AcDbPoint
 10
-40.0005
 20
465.0005
 30
0.0
  0
LINE
  5
7E087
330
7E156
100
AcDbEntity
  8
Level 26
  6
Continuous
 62
    25
370
    13
100
AcDbLine
 10
39.9995
 20
465.0005
 30
0.0
 11
-40.0005
 21
465.0005
 31
0.0
  0
POINT
  5
7E088
330
7E156
100
AcDbEntity
  8
Level 26
  6
Continuous
 62
    25
370
    13
100
AcDbPoint
 10
39.9995
 20
465.0005
 30
0.0
  0
LINE
  5
7E089
330
7E156
100
AcDbEntity
  8
Level 26
  6
Continuous
 62
    25
370
    13
100
AcDbLine
 10
-40.0005
 20
465.0005
 30
0.0
 11
39.9995
 21
465.0005
 31
0.0
  0
POINT
  5
7E08A
330
7E156
100
AcDbEntity
  8
Level 26
  6
Continuous
 62
    25
370
    13
100
AcDbPoint
 10
-40.0005
 20
-464.9995
 30
0.0
  0
LINE
  5
7E08B
330
7E156
100
AcDbEntity
  8
Level 26
  6
Continuous
 62
    25
370
    13
100
AcDbLine
 10
39.9995
 20
-464.9995
 30
0.0
 11
-40.0005
 21
-464.9995
 31
0.0
  0
POINT
  5
7E08C
330
7E156
100
AcDbEntity
  8
Level 26
  6
Continuous
 62
    25
370
    13
100
AcDbPoint
 10
39.9995
 20
-464.9995
 30
0.0
  0
LINE
  5
7E08D
330
7E156
100
AcDbEntity
  8
Level 26
  6
Continuous
 62
    25
370
    13
100
AcDbLine
 10
-40.0005
 20
-464.9995
 30
0.0
 11
39.9995
 21
-464.9995
 31
0.0
  0
ENDBLK
  5
7E158
330
7E156
100
AcDbEntity
  8
0
100
AcDbBlockEnd
  0
BLOCK
  5
7E15A
330
7E159
100
AcDbEntity
  8
0
100
AcDbBlockBegin
  2
Smart Solid_9
 70
     0
 71
     0
 10
0.0
 20
0.0
 30
0.0
  3
Smart Solid_9
  1

  0
LINE
  5
7E090
330
7E159
100
AcDbEntity
  8
Level 26
  6
Continuous
 62
    25
370
    13
100
AcDbLine
 10
4.9995
 20
-429.9995
 30
0.0
 11
39.9995
 21
-429.9995
 31
0.0
  0
POINT
  5
7E091
330
7E159
100
AcDbEntity
  8
Level 26
  6
Continuous
 62
    25
370
    13
100
AcDbPoint
 10
4.9995
 20
-464.9995
 30
0.0
  0
LINE
  5
7E092
330
7E159
100
AcDbEntity
  8
Level 26
  6
Continuous
 62
    25
370
    13
100
AcDbLine
 10
39.9995
 20
430.0005
 30
0.0
 11
4.9995
 21
430.0005
 31
0.0
  0
POINT
  5
7E093
330
7E159
100
AcDbEntity
  8
Level 26
  6
Continuous
 62
    25
370
    13
100
AcDbPoint
 10
4.9995
 20
465.0005
 30
0.0
  0
LINE
  5
7E094
330
7E159
100
AcDbEntity
  8
Level 26
  6
Continuous
 62
    25
370
    13
100
AcDbLine
 10
39.9995
 20
430.0005
 30
0.0
 11
39.9995
 21
-429.9995
 31
0.0
  0
LINE
  5
7E095
330
7E159
100
AcDbEntity
  8
Level 26
  6
Continuous
 62
    25
370
    13
100
AcDbLine
 10
39.9995
 20
430.0005
 30
0.0
 11
39.9995
 21
-429.9995
 31
0.0
  0
LINE
  5
7E096
330
7E159
100
AcDbEntity
  8
Level 26
  6
Continuous
 62
    25
370
    13
100
AcDbLine
 10
-40.0005
 20
465.0005
 30
0.0
 11
-40.0005
 21
-464.9995
 31
0.0
  0
LINE
  5
7E097
330
7E159
100
AcDbEntity
  8
Level 26
  6
Continuous
 62
    25
370
    13
100
AcDbLine
 10
-40.0005
 20
465.0005
 30
0.0
 11
-40.0005
 21
-464.9995
 31
0.0
  0
POINT
  5
7E098
330
7E159
100
AcDbEntity
  8
Level 26
  6
Continuous
 62
    25
370
    13
100
AcDbPoint
 10
-40.0005
 20
465.0005
 30
0.0
  0
LINE
  5
7E099
330
7E159
100
AcDbEntity
  8
Level 26
  6
Continuous
 62
    25
370
    13
100
AcDbLine
 10
4.9995
 20
465.0005
 30
0.0
 11
-40.0005
 21
465.0005
 31
0.0
  0
LINE
  5
7E09A
330
7E159
100
AcDbEntity
  8
Level 26
  6
Continuous
 62
    25
370
    13
100
AcDbLine
 10
-40.0005
 20
465.0005
 30
0.0
 11
4.9995
 21
465.0005
 31
0.0
  0
POINT
  5
7E09B
330
7E159
100
AcDbEntity
  8
Level 26
  6
Continuous
 62
    25
370
    13
100
AcDbPoint
 10
-40.0005
 20
-464.9995
 30
0.0
  0
LINE
  5
7E09C
330
7E159
100
AcDbEntity
  8
Level 26
  6
Continuous
 62
    25
370
    13
100
AcDbLine
 10
4.9995
 20
-464.9995
 30
0.0
 11
-40.0005
 21
-464.9995
 31
0.0
  0
LINE
  5
7E09D
330
7E159
100
AcDbEntity
  8
Level 26
  6
Continuous
 62
    25
370
    13
100
AcDbLine
 10
-40.0005
 20
-464.9995
 30
0.0
 11
4.9995
 21
-464.9995
 31
0.0
  0
LINE
  5
7E09E
330
7E159
100
AcDbEntity
  8
Level 26
  6
Continuous
 62
    25
370
    13
100
AcDbLine
 10
4.9995
 20
430.0005
 30
0.0
 11
39.9995
 21
430.0005
 31
0.0
  0
POINT
  5
7E09F
330
7E159
100
AcDbEntity
  8
Level 26
  6
Continuous
 62
    25
370
    13
100
AcDbPoint
 10
39.9995
 20
430.0005
 30
0.0
  0
LINE
  5
7E0A0
330
7E159
100
AcDbEntity
  8
Level 26
  6
Continuous
 62
    25
370
    13
100
AcDbLine
 10
4.9995
 20
465.0005
 30
0.0
 11
4.9995
 21
430.0005
 31
0.0
  0
LINE
  5
7E0A1
330
7E159
100
AcDbEntity
  8
Level 26
  6
Continuous
 62
    25
370
    13
100
AcDbLine
 10
4.9995
 20
430.0005
 30
0.0
 11
4.9995
 21
465.0005
 31
0.0
  0
POINT
  5
7E0A2
330
7E159
100
AcDbEntity
  8
Level 26
  6
Continuous
 62
    25
370
    13
100
AcDbPoint
 10
4.9995
 20
430.0005
 30
0.0
  0
LINE
  5
7E0A3
330
7E159
100
AcDbEntity
  8
Level 26
  6
Continuous
 62
    25
370
    13
100
AcDbLine
 10
39.9995
 20
-429.9995
 30
0.0
 11
4.9995
 21
-429.9995
 31
0.0
  0
POINT
  5
7E0A4
330
7E159
100
AcDbEntity
  8
Level 26
  6
Continuous
 62
    25
370
    13
100
AcDbPoint
 10
39.9995
 20
-429.9995
 30
0.0
  0
LINE
  5
7E0A5
330
7E159
100
AcDbEntity
  8
Level 26
  6
Continuous
 62
    25
370
    13
100
AcDbLine
 10
4.9995
 20
-429.9995
 30
0.0
 11
4.9995
 21
-464.9995
 31
0.0
  0
LINE
  5
7E0A6
330
7E159
100
AcDbEntity
  8
Level 26
  6
Continuous
 62
    25
370
    13
100
AcDbLine
 10
4.9995
 20
-464.9995
 30
0.0
 11
4.9995
 21
-429.9995
 31
0.0
  0
POINT
  5
7E0A7
330
7E159
100
AcDbEntity
  8
Level 26
  6
Continuous
 62
    25
370
    13
100
AcDbPoint
 10
4.9995
 20
-429.9995
 30
0.0
  0
ENDBLK
  5
7E15B
330
7E159
100
AcDbEntity
  8
0
100
AcDbBlockEnd
  0
BLOCK
  5
7E15D
330
7E15C
100
AcDbEntity
  8
0
100
AcDbBlockBegin
  2
Smart Solid_10
 70
     0
 71
     0
 10
0.0
 20
0.0
 30
0.0
  3
Smart Solid_10
  1

  0
POINT
  5
7E0AA
330
7E15C
100
AcDbEntity
  8
Level 26
  6
Continuous
 62
    25
370
    13
100
AcDbPoint
 10
-40.0005
 20
-429.9995
 30
0.0
  0
POINT
  5
7E0AB
330
7E15C
100
AcDbEntity
  8
Level 26
  6
Continuous
 62
    25
370
    13
100
AcDbPoint
 10
-5.0005
 20
-464.9995
 30
0.0
  0
POINT
  5
7E0AC
330
7E15C
100
AcDbEntity
  8
Level 26
  6
Continuous
 62
    25
370
    13
100
AcDbPoint
 10
-40.0005
 20
430.0005
 30
0.0
  0
POINT
  5
7E0AD
330
7E15C
100
AcDbEntity
  8
Level 26
  6
Continuous
 62
    25
370
    13
100
AcDbPoint
 10
-5.0005
 20
465.0005
 30
0.0
  0
LINE
  5
7E0AE
330
7E15C
100
AcDbEntity
  8
Level 26
  6
Continuous
 62
    25
370
    13
100
AcDbLine
 10
39.9995
 20
465.0005
 30
0.0
 11
39.9995
 21
-464.9995
 31
0.0
  0
LINE
  5
7E0AF
330
7E15C
100
AcDbEntity
  8
Level 26
  6
Continuous
 62
    25
370
    13
100
AcDbLine
 10
39.9995
 20
465.0005
 30
0.0
 11
39.9995
 21
-464.9995
 31
0.0
  0
LINE
  5
7E0B0
330
7E15C
100
AcDbEntity
  8
Level 26
  6
Continuous
 62
    25
370
    13
100
AcDbLine
 10
-40.0005
 20
430.0005
 30
0.0
 11
-40.0005
 21
-429.9995
 31
0.0
  0
LINE
  5
7E0B1
330
7E15C
100
AcDbEntity
  8
Level 26
  6
Continuous
 62
    25
370
    13
100
AcDbLine
 10
-40.0005
 20
430.0005
 30
0.0
 11
-40.0005
 21
-429.9995
 31
0.0
  0
LINE
  5
7E0B2
330
7E15C
100
AcDbEntity
  8
Level 26
  6
Continuous
 62
    25
370
    13
100
AcDbLine
 10
39.9995
 20
465.0005
 30
0.0
 11
-5.0005
 21
465.0005
 31
0.0
  0
POINT
  5
7E0B3
330
7E15C
100
AcDbEntity
  8
Level 26
  6
Continuous
 62
    25
370
    13
100
AcDbPoint
 10
39.9995
 20
465.0005
 30
0.0
  0
LINE
  5
7E0B4
330
7E15C
100
AcDbEntity
  8
Level 26
  6
Continuous
 62
    25
370
    13
100
AcDbLine
 10
-5.0005
 20
465.0005
 30
0.0
 11
39.9995
 21
465.0005
 31
0.0
  0
LINE
  5
7E0B5
330
7E15C
100
AcDbEntity
  8
Level 26
  6
Continuous
 62
    25
370
    13
100
AcDbLine
 10
39.9995
 20
-464.9995
 30
0.0
 11
-5.0005
 21
-464.9995
 31
0.0
  0
POINT
  5
7E0B6
330
7E15C
100
AcDbEntity
  8
Level 26
  6
Continuous
 62
    25
370
    13
100
AcDbPoint
 10
39.9995
 20
-464.9995
 30
0.0
  0
LINE
  5
7E0B7
330
7E15C
100
AcDbEntity
  8
Level 26
  6
Continuous
 62
    25
370
    13
100
AcDbLine
 10
-5.0005
 20
-464.9995
 30
0.0
 11
39.9995
 21
-464.9995
 31
0.0
  0
LINE
  5
7E0B8
330
7E15C
100
AcDbEntity
  8
Level 26
  6
Continuous
 62
    25
370
    13
100
AcDbLine
 10
-40.0005
 20
430.0005
 30
0.0
 11
-5.0005
 21
430.0005
 31
0.0
  0
LINE
  5
7E0B9
330
7E15C
100
AcDbEntity
  8
Level 26
  6
Continuous
 62
    25
370
    13
100
AcDbLine
 10
-5.0005
 20
430.0005
 30
0.0
 11
-40.0005
 21
430.0005
 31
0.0
  0
LINE
  5
7E0BA
330
7E15C
100
AcDbEntity
  8
Level 26
  6
Continuous
 62
    25
370
    13
100
AcDbLine
 10
-5.0005
 20
430.0005
 30
0.0
 11
-5.0005
 21
465.0005
 31
0.0
  0
LINE
  5
7E0BB
330
7E15C
100
AcDbEntity
  8
Level 26
  6
Continuous
 62
    25
370
    13
100
AcDbLine
 10
-5.0005
 20
465.0005
 30
0.0
 11
-5.0005
 21
430.0005
 31
0.0
  0
POINT
  5
7E0BC
330
7E15C
100
AcDbEntity
  8
Level 26
  6
Continuous
 62
    25
370
    13
100
AcDbPoint
 10
-5.0005
 20
430.0005
 30
0.0
  0
LINE
  5
7E0BD
330
7E15C
100
AcDbEntity
  8
Level 26
  6
Continuous
 62
    25
370
    13
100
AcDbLine
 10
-5.0005
 20
-429.9995
 30
0.0
 11
-40.0005
 21
-429.9995
 31
0.0
  0
LINE
  5
7E0BE
330
7E15C
100
AcDbEntity
  8
Level 26
  6
Continuous
 62
    25
370
    13
100
AcDbLine
 10
-40.0005
 20
-429.9995
 30
0.0
 11
-5.0005
 21
-429.9995
 31
0.0
  0
LINE
  5
7E0BF
330
7E15C
100
AcDbEntity
  8
Level 26
  6
Continuous
 62
    25
370
    13
100
AcDbLine
 10
-5.0005
 20
-464.9995
 30
0.0
 11
-5.0005
 21
-429.9995
 31
0.0
  0
LINE
  5
7E0C0
330
7E15C
100
AcDbEntity
  8
Level 26
  6
Continuous
 62
    25
370
    13
100
AcDbLine
 10
-5.0005
 20
-429.9995
 30
0.0
 11
-5.0005
 21
-464.9995
 31
0.0
  0
POINT
  5
7E0C1
330
7E15C
100
AcDbEntity
  8
Level 26
  6
Continuous
 62
    25
370
    13
100
AcDbPoint
 10
-5.0005
 20
-429.9995
 30
0.0
  0
ENDBLK
  5
7E15E
330
7E15C
100
AcDbEntity
  8
0
100
AcDbBlockEnd
  0
BLOCK
  5
7E160
330
7E15F
100
AcDbEntity
  8
0
100
AcDbBlockBegin
  2
A0278
 70
     0
 71
     0
 10
0.0
 20
0.0
 30
0.0
  3
A0278
  1

  0
LWPOLYLINE
  5
7E0C8
330
7E15F
100
AcDbEntity
  8
Level 25
  6
Continuous
 62
   174
370
    13
100
AcDbPolyline
 90
        4
 70
   129
 43
0.0
 10
-37.5
 20
-37.5
 10
37.5
 20
-37.5
 10
37.5
 20
-37.5
 10
-37.5
 20
-37.5
  0
LWPOLYLINE
  5
7E0C9
330
7E15F
100
AcDbEntity
  8
Level 25
  6
Continuous
 62
   174
370
    13
100
AcDbPolyline
 90
        4
 70
   129
 43
0.0
 10
37.5
 20
-37.5
 10
37.5
 20
37.5
 10
37.5
 20
37.5
 10
37.5
 20
-37.5
  0
LWPOLYLINE
  5
7E0CA
330
7E15F
100
AcDbEntity
  8
Level 25
  6
Continuous
 62
   174
370
    13
100
AcDbPolyline
 90
        4
 70
   129
 43
0.0
 10
-37.5
 20
37.5
 10
-37.5
 20
-37.5
 10
-37.5
 20
-37.5
 10
-37.5
 20
37.5
  0
LWPOLYLINE
  5
7E0CB
330
7E15F
100
AcDbEntity
  8
Level 25
  6
Continuous
 62
   174
370
    13
100
AcDbPolyline
 90
        4
 70
   129
 43
0.0
 10
37.5
 20
37.5
 10
-37.5
 20
37.5
 10
-37.5
 20
37.5
 10
37.5
 20
37.5
  0
LWPOLYLINE
  5
7E0CC
330
7E15F
100
AcDbEntity
  8
Level 26
  6
Continuous
 62
   163
370
    13
100
AcDbPolyline
 90
        4
 70
   129
 43
0.0
 10
37.5
 20
37.5
 10
-37.5
 20
37.5
 10
-37.5
 20
37.5
 10
37.5
 20
37.5
  0
LWPOLYLINE
  5
7E0CD
330
7E15F
100
AcDbEntity
  8
Level 26
  6
Continuous
 62
   163
370
    13
100
AcDbPolyline
 90
        4
 70
   129
 43
0.0
 10
37.5
 20
-37.5
 10
37.5
 20
37.5
 10
37.5
 20
37.5
 10
37.5
 20
-37.5
  0
LWPOLYLINE
  5
7E0CE
330
7E15F
100
AcDbEntity
  8
Level 26
  6
Continuous
 62
   163
370
    13
100
AcDbPolyline
 90
        4
 70
   129
 43
0.0
 10
-37.5
 20
-37.5
 10
37.5
 20
-37.5
 10
37.5
 20
-37.5
 10
-37.5
 20
-37.5
  0
LWPOLYLINE
  5
7E0CF
330
7E15F
100
AcDbEntity
  8
Level 26
  6
Continuous
 62
   163
370
    13
100
AcDbPolyline
 90
        4
 70
   129
 43
0.0
 10
-37.5
 20
37.5
 10
-37.5
 20
-37.5
 10
-37.5
 20
-37.5
 10
-37.5
 20
37.5
  0
LWPOLYLINE
  5
7E0D0
330
7E15F
100
AcDbEntity
  8
Level 26
  6
Continuous
 62
   163
370
    13
100
AcDbPolyline
 90
        4
 70
   129
 43
0.0
 10
37.5
 20
37.5
 10
-37.5
 20
37.5
 10
-37.5
 20
-37.5
 10
37.5
 20
-37.5
  0
ENDBLK
  5
7E161
330
7E15F
100
AcDbEntity
  8
0
100
AcDbBlockEnd
  0
ENDSEC
  0
SECTION
  2
ENTITIES
  0
INSERT
  5
7DFD8
330
7E10C
100
AcDbEntity
  8
Level 25
  6
Continuous
 62
   174
370
    13
100
AcDbBlockReference
  2
A0906
 10
3369.740019
 20
1602.213494
 30
0.0
  0
INSERT
  5
7E0C7
330
7E10C
100
AcDbEntity
  8
Level 25
  6
Continuous
 62
   174
370
    13
100
AcDbBlockReference
  2
A0278
 10
2897.240019
 20
2547.213494
 30
0.0
  0
INSERT
  5
7E0D5
330
7E10C
100
AcDbEntity
  8
Level 25
  6
Continuous
 62
   174
370
    13
100
AcDbBlockReference
  2
A0278
 10
3842.240019
 20
2547.213494
 30
0.0
  0
INSERT
  5
7E0E3
330
7E10C
100
AcDbEntity
  8
Level 25
  6
Continuous
 62
   174
370
    13
100
AcDbBlockReference
  2
A0278
 10
3842.240019
 20
1602.213494
 30
0.0
  0
INSERT
  5
7E0F1
330
7E10C
100
AcDbEntity
  8
Level 25
  6
Continuous
 62
   174
370
    13
100
AcDbBlockReference
  2
A0278
 10
2897.240019
 20
1602.213494
 30
0.0
  0
ENDSEC
  0
SECTION
  2
OBJECTS
  0
DICTIONARY
  5
7E11F
330
0
100
AcDbDictionary
281
     1
  3
ACAD_GROUP
350
7E11D
  3
ACAD_LAYOUT
350
7E120
  3
ACAD_MLINESTYLE
350
7E11E
  3
ACAD_PLOTSETTINGS
350
7E121
  3
ACAD_PLOTSTYLENAME
350
7E122
  3
ACAD_TABLESTYLE
350
7E167
  3
AcadDim
350
7E12E
  3
DWGPROPS
350
7E188
  0
DICTIONARY
  5
7E125
330
7E114
100
AcDbDictionary
280
     1
281
     1
  3
ACAD_LAYERFILTERS
360
7E126
  0
DICTIONARY
  5
7E11D
102
{ACAD_REACTORS
330
7E11F
102
}
330
7E11F
100
AcDbDictionary
281
     1
  0
DICTIONARY
  5
7E120
102
{ACAD_REACTORS
330
7E11F
102
}
330
7E11F
100
AcDbDictionary
281
     1
  3
Layout1
350
7E113
  3
Model
350
7E10F
  0
DICTIONARY
  5
7E11E
102
{ACAD_REACTORS
330
7E11F
102
}
330
7E11F
100
AcDbDictionary
281
     1
  3
Standard
350
7E10A
  0
DICTIONARY
  5
7E121
102
{ACAD_REACTORS
330
7E11F
102
}
330
7E11F
100
AcDbDictionary
281
     1
  0
ACDBDICTIONARYWDFLT
  5
7E122
102
{ACAD_REACTORS
330
7E11F
102
}
330
7E11F
100
AcDbDictionary
281
     1
  3
Normal
350
7E105
100
AcDbDictionaryWithDefault
340
7E105
  0
DICTIONARY
  5
7E167
102
{ACAD_REACTORS
330
7E11F
102
}
330
7E11F
100
AcDbDictionary
281
     1
  0
XRECORD
  5
7E12E
102
{ACAD_REACTORS
330
7E11F
102
}
330
7E11F
100
AcDbXrecord
280
     1
 90
   990106
  3
 
 60
     0
 61
     0
 62
     1
 63
     1
 64
     0
 65
     0
 66
     0
 67
     3
 68
     1
 69
     1
 70
     0
 71
     0
 72
     0
 40
0.0
170
     0
  0
XRECORD
  5
7E188
102
{ACAD_REACTORS
330
7E11F
102
}
330
7E11F
100
AcDbXrecord
280
     1
  1
DWGPROPS COOKIE
  2

  3

  4
WAEngineering1
  6

  7

  8

  9

300
=
301
=
302
=
303
=
304
=
305
=
306
=
307
=
308
=
309
=
 40
0.0
 41
2451789.537469
 42
2451789.537561
  1

 90
        0
  0
DICTIONARY
  5
7E126
102
{ACAD_REACTORS
330
7E125
102
}
330
7E125
100
AcDbDictionary
281
     1
  0
LAYOUT
  5
7E113
102
{ACAD_REACTORS
330
7E120
330
7E120
102
}
330
7E120
100
AcDbPlotSettings
  1

  2

  4

  6

 40
0.0
 41
0.0
 42
0.0
 43
0.0
 44
0.0
 45
0.0
 46
0.0
 47
0.0
 48
0.0
 49
0.0
140
0.0
141
0.0
142
1.0
143
1.0
 70
   688
 72
     0
 73
     0
 74
     5
  7

 75
    16
147
1.0
148
0.0
149
0.0
100
AcDbLayout
  1
Layout1
 70
     1
 71
     1
 10
0.0
 20
0.0
 11
12.0
 21
9.0
 12
0.0
 22
0.0
 32
0.0
 14
1.000000E+20
 24
1.000000E+20
 34
1.000000E+20
 15
-1.000000E+20
 25
-1.000000E+20
 35
-1.000000E+20
146
0.0
 13
0.0
 23
0.0
 33
0.0
 16
1.0
 26
0.0
 36
0.0
 17
0.0
 27
1.0
 37
0.0
 76
     0
330
7E110
  0
LAYOUT
  5
7E10F
102
{ACAD_REACTORS
330
7E120
330
7E120
102
}
330
7E120
100
AcDbPlotSettings
  1

  2

  4

  6

 40
0.0
 41
0.0
 42
0.0
 43
0.0
 44
0.0
 45
0.0
 46
0.0
 47
0.0
 48
0.0
 49
0.0
140
0.0
141
0.0
142
1.0
143
1.0
 70
  1712
 72
     0
 73
     0
 74
     0
  7

 75
     0
147
1.0
148
0.0
149
0.0
100
AcDbLayout
  1
Model
 70
     1
 71
     0
 10
0.0
 20
0.0
 11
12.0
 21
9.0
 12
0.0
 22
0.0
 32
0.0
 14
0.0
 24
0.0
 34
0.0
 15
0.0
 25
0.0
 35
0.0
146
0.0
 13
0.0
 23
0.0
 33
0.0
 16
1.0
 26
0.0
 36
0.0
 17
0.0
 27
1.0
 37
0.0
 76
     0
330
7E10C
  0
MLINESTYLE
  5
7E10A
102
{ACAD_REACTORS
330
7E11E
102
}
330
7E11E
100
AcDbMlineStyle
  2
STANDARD
 70
     0
  3

 62
   256
 51
90.0
 52
90.0
 71
     2
 49
0.5
 62
   256
  6
BYLAYER
 49
-0.5
 62
   256
  6
BYLAYER
  0
ACDBPLACEHOLDER
  5
7E105
102
{ACAD_REACTORS
330
7E122
102
}
330
7E122
  0
ENDSEC
  0
SECTION
  2
THUMBNAILIMAGE
 90
    16004
310
28000000B40000005300000001000800000000005C3A000000040000000400000001000050000000FFFFFF00000890009000000000C80000880090000008F000009800000008E8001808E0000000C0001800B0000000A800180098000008000098080800D878280098680000E0080800C0080800B8081000A8081000089000
310
008808180080080800080000003000000030081000080050005000180080006000000810005800500078080000180028004060B0007000180018007800280028000020000000083800D000A8006800180090689000B0A09800C0B890001000500000086000002828006000180010000000A8009800E808F000180000002800
310
00000008500058001800C008100000080800080808001800A8006000D000C800900000086800000818004800000050000000780000008800000080000000900018009800780098000000D0000000A8000000000008000000800000003000000028000000180000005000FFFFFF00FFFFFF00FFFFFF00FFFFFF00FFFFFF00FF
310
FFFF00FFFFFF00FFFFFF00FFFFFF00FFFFFF00FFFFFF00FFFFFF00FFFFFF00FFFFFF00FFFFFF00FFFFFF00FFFFFF00FFFFFF00FFFFFF00FFFFFF00FFFFFF00FFFFFF00FFFFFF00FFFFFF00FFFFFF00FFFFFF00FFFFFF00FFFFFF00FFFFFF00FFFFFF00FFFFFF00FFFFFF00FFFFFF00FFFFFF00FFFFFF00FFFFFF00FFFFFF00
310
FFFFFF00FFFFFF00FFFFFF00FFFFFF00FFFFFF00FFFFFF00FFFFFF00FFFFFF00FFFFFF00FFFFFF00FFFFFF00FFFFFF00FFFFFF00FFFFFF00FFFFFF00FFFFFF00FFFFFF00FFFFFF00FFFFFF00FFFFFF00FFFFFF00FFFFFF00FFFFFF00FFFFFF00FFFFFF00FFFFFF00FFFFFF00FFFFFF00FFFFFF00FFFFFF00FFFFFF00FFFFFF
310
00FFFFFF00FFFFFF00FFFFFF00FFFFFF00FFFFFF00FFFFFF00FFFFFF00FFFFFF00FFFFFF00FFFFFF00FFFFFF00FFFFFF00FFFFFF00FFFFFF00FFFFFF00FFFFFF00FFFFFF00FFFFFF00FFFFFF00FFFFFF00FFFFFF00FFFFFF00FFFFFF00FFFFFF00FFFFFF00FFFFFF00FFFFFF00FFFFFF00FFFFFF00FFFFFF00FFFFFF00FFFF
310
FF00FFFFFF00FFFFFF00FFFFFF00FFFFFF00FFFFFF00FFFFFF00FFFFFF00FFFFFF00FFFFFF00FFFFFF00FFFFFF00FFFFFF00FFFFFF00FFFFFF00FFFFFF00FFFFFF00FFFFFF00FFFFFF00FFFFFF00FFFFFF00FFFFFF00FFFFFF00FFFFFF00FFFFFF00FFFFFF00FFFFFF00FFFFFF00FFFFFF00FFFFFF00FFFFFF00FFFFFF00FF
310
FFFF00FFFFFF00FFFFFF00FFFFFF00FFFFFF00FFFFFF00FFFFFF00FFFFFF00FFFFFF00FFFFFF00FFFFFF00FFFFFF00FFFFFF00FFFFFF00FFFFFF00FFFFFF00FFFFFF00FFFFFF00FFFFFF00FFFFFF00FFFFFF00FFFFFF00FFFFFF00FFFFFF00FFFFFF00FFFFFF00FFFFFF00FFFFFF00FFFFFF00FFFFFF00FFFFFF00FFFFFF00
310
FFFFFF00FFFFFF00FFFFFF00FFFFFF00FFFFFF00FFFFFF00FFFFFF00FFFFFF00FFFFFF00FFFFFF00FFFFFF00FFFFFF002A2A2A2A2A2A2A2A2A2A2A2A2A2A2A2A2A2A2A2A2A2A2A2A2A2A2A2A2A2A2A2A2A2A2A2A2A2A2A2A2A2A2A2A2A2A2A2A2A2A2A2A2A2A2A2A2A2A2A2A2A2A2A2A2A2A2A2A2A2A2A2A2A2A2A2A2A2A2A
310
2A2A2A2A2A2A2A2A2A2A2A2A2A2A2A2A2A2A2A2A2A2A2A2A2A2A2A2A2A2A2A2A2A2A2A2A2A2A2A2A2A2A2A2A2A2A2A2A2A2A2A2A2A2A2A2A2A2A2A2A2A2A2A2A2A2A2A2A2A2A2A2A2A2A2A2A2A2A2A2A2A2A2A2A2A2A2A2A2A2A2A2A2A2A2A2A2A2A2A2A2A2A2A2A2A2A2A2A2A2A2A2A2A2A2A2A2A2A2A2A2A2A2A2A2A2A2A
310
2A2A2A2A2A2A2A2A2A2A2A2A2A2A2A2A2A2A2A2A2A2A2A2A2A2A2A2A2A2A2A2A2A2A2A2A2A2A2A2A2A2A2A2A2A2A2A2A2A2A2A2A2A2A2A2A2A2A2A2A2A2A2A2A2A2A2A2A2A2A2A2A2A2A2A2A2A2A2A2A2A2A2A2A2A2A2A2A2A2A2A2A2A2A2A2A2A2A2A2A2A2A2A2A2A2A2A2A2A2A2A2A2A2A2A2A2A2A2A2A2A2A2A2A2A2A2A
310
2A2A2A2A2A2A2A2A2A2A2A2A2A2A2A2A2A2A2A2A2A2A2A2A2A2A2A2A2A2A2A2A2A2A2A2A2A2A2A2A2A2A2A2A2A2A2A2A2A2A2A2A2A2A2A2A2A2A2A2A2A2A2A2A2A2A2A2A2A2A2A2A2A2A2A2A2A2A2A2A2A2A2A2A2A2A2A2A2A2A2A2A2A2A2A2A2A2A2A2A2A2A2A2A2A2A2A2A2A2A2A2A2A2A2A2A2A2A2A2A2A2A2A2A2A2A2A
310
2A2A2A2A2A2A2A2A2A2A2A2A2A2A2A2A2A2A2A2A2A2A2A2A2A2A2A2A2A2A2A2A2A2A2A2A2A2A2A2A2A2A2A2A2A2A2A2A2A2A2A2A2A2A2A2A2A2A2A2A2A2A2A2A2A2A2A2A2A2A2A2A2A2A2A2A2A2A2A2A2A2A2A2A2A2A2A2A2A2A2A2A2A2A2A2A2A2A2A2A2A2A2A2A2A2A2A2A2A2A2A2A2A2A2A2A2A2A2A2A2A2A2A2A2A2A2A
310
2A2A2A2A2A2A2A2A2A2A2A2A2A2A2A2A2A2A2A2A2A2A2A2A2A2A2A2A2A2A2A2A2A2A2A2A2A2A2A2A2A2A2A2A2A2A2A2A2A2A2A2A2A2A2A2A2A2A2A2A2A2A2A2A2A2A2A2A2A2A2A2A2A2A2A2A2A2A2A2A2A2A2A2A2A2A2A2A2A2A2A2A2A2A2A2A2A2A2A2A2A2A2A2A2A2A2A2A2A2A2A2A2A2A2A2A2A2A2A2A2A2A2A2A2A2A2A
310
2A2A2A2A2A2A2A2A2A2A2A2A2A2A2A2A2A2A2A2A2A2A2A2A2A2A2A2A2A2A2A2A2A2A2A2A2A2A2A2A2A2A2A2A2A2A2A2A2A2A2A2A2A2A2A2A2A2A2A2A2A2A2A2A2A2A2A2A2A2A2A2A2A2A2A2A2A2A2A2A2A2A2A2A2A2A2A2A2A2A2A2A2A2A2A2A2A2A2A2A2A2A2A2A2A2A2A2A2A2A2A2A2A2A2A2A2A2A2A2A2A2A2A2A2A2A2A
310
2A2A2A2A2A2A2A2A2A2A2A2A2A2A2A2A2A2A2A2A2A2A2A2A2A2A2A2A2A2A2A2A2A2A2A2A2A2A2A2A2A2A2A2A2A2A2A2A2A2A2A2A2A2A2A2A2A2A2A2A2A2A2A2A2A2A2A2A2A2A2A2A2A2A2A2A2A2A2A2A2A2A2A2A2A2A2A2A2A2A2A2A2A2A2A2A2A2A2A2A2A2A2A2A2A2A2A2A2A2A2A2A2A2A2A2A2A2A2A2A2A2A2A2A2A2A2A
310
2A2A2A2A2A2A2A2A2A2A2A2A2A2A2A2A2A2A2A2A2A2A2A2A2A2A2A2A2A2A2A2A2A2A2A2A2A2A2A2A2A2A2A2A2A2A2A2A2A2A2A2A2A2A2A2A2A2A2A2A2A2A2A2A2A2A2A2A2A2A2A2A2A2A2A2A2A2A2A2A2A2A2A2A2A2A2A2A2A2A2A2A2A2A2A2A2A2A2A2A2A2A2A2A2A2A2A2A2A2A2A2A2A2A2A2A2A2A2A2A2A2A2A2A2A2A2A
310
2A2A2A2A2A2A2A2A2A2A2A2A2A2A2A2A2A2A2A2A2A2A2A2A2A2A2A2A2A2A2A2A2A2A2A2A2A2A2A2A2A2A2A2A2A2A2A2A2A2A2A2A2A2A2A2A2A2A2A2A2A2A2A2A2A2A2A2A2A2A2A2A2A2A2A2A2A2A2A2A2A2A2A2A2A2A2A2A2A2A2A2A2A2A2A2A2A2A2A2A2A2A2A2A2A2A2A2A2A2A2A2A2A2A2A2A2A2A2A2A2A2A2A2A2A2A2A
310
2A2A2A2A2A2A2A2A2A2A2A2A2A2A2A2A2A2A2A2A2A2A2A2A2A2A2A2A2A2A2A2A2A2A2A2A2A2A2A2A2A2A2A2A2A2A2A2A2A2A2A2A2A2A2A2A2A2A2A2A2A2A2A2A2A2A2A2A2A2A2A2A2A2A2A2A2A2A2A2A2A2A2A2A2A2A2A2A2A2A2A2A2A2A2A2A2A2A2A2A2A2A2A2A2A2A2A2A2A2A2A2A2A2A2A2A2A2A2A2A2A2A2A2A2A2A2A
310
2A2A2A2A2A2A2A2A2A2A2A2A2A2A2A2A2A2A2A2A2A2A2A2A2A2A2A2A2A2A2A2A2A2A2A2A2A2A2A2A2A2A2A2A2A2A2A2A2A2A2A2A2A2A2A2A2A2A2A2A2A2A2A2A2A2A2A2A2A2A2A2A2A2A2A2A2A2A2A2A2A2A2A2A2A2A2A2A2A2A2A2A2A2A2A2A2A2A2A2A2A2A2A2A2A2A2A2A2A2A2A2A2A2A2A2A2A2A2A2A2A2A2A2A2A2A2A
310
2A2A2A2A2A2A2A2A2A2A2A2A2A2A2A2A2A2A2A2A2A2A2A2A2A2A2A2A2A2A2A2A2A2A2A2A2A2A2A2A2A2A2A2A2A2A2A2A2A2A2A2A2A2A2A2A2A2A2A2A2A2A2A2A2A2A2A2A2A2A2A2A2A2A2A2A2A2A2A2A2A2A2A2A2A2A2A2A2A2A2A2A2A2A2A2A2A2A2A2A2A2A2A2A2A2A2A2A2A2A2A2A2A2A2A2A2A2A2A2A2A2A2A2A2A2A2A
310
2A2A2A2A2A2A2A2A2A2A2A2A2A2A2A2A2A2A2A2A2A2A2A2A2A2A2A2A2A2A2A2A2A2A2A2A2A2A2A2A2A2A2A2A2A2A2A2A2A2A2A2A2A2A2A2A2A2A2A2A2A2A2A2A2A2A2A2A2A2A2A2A2A2A2A2A2A2A2A2A2A2A2A2A2A2A2A2A2A2A2A2A2A2A2A2A2A2A2A2A2A2A2A2A2A2A2A2A2A2A2A2A2A2A2A2A2A2A2A2A2A2A2A2A2A2A2A
310
2A2A2A2A2A2A2A2A2A2A2A2A2A2A2A2A2A2A2A2A2A2A2A2A2A2A2A2A2A2A2A2A2A2A2A2A2A2A2A2A2A2A2A2A2A2A2A2A2A2A2A2A2A2A2A2A2A2A2A2A2A2A2A2A2A2A2A2A2A2A2A2A2A2A2A2A2A2A2A2A2A2A2A2A2A2A2A2A2A2A2A2A2A2A2A2A2A2A2A2A2A2A2A2A2A2A2A2A2A2A2A2A2A2A2A2A2A2A2A2A2A2A2A2A2A2A2A
310
2A2A2A2A2A2A2A2A2A2A2A2A2A2A2A2A2A2A2A2A2A2A2A2A2A2A2A2A2A2A2A2A2A2A2A2A2A2A2A2A2A2A2A2A2A2A2A2A2A2A2A2A2A2A2A2A2A2A2A2A2A2A2A2A2A2A2A2A2A2A2A2A2A2A2A2A2A2A2A2A2A2A2A2A2A2A2A2A2A2A2A2A2A2A2A2A2A2A2A2A2A2A2A2A2A2A2A2A2A2A2A2A2A2A2A2A2A2A2A2A2A2A2A2A2A2A2A
310
2A2A2A2A2A2A2A2A2A2A2A2A2A2A2A2A2A2A2A2A2A2A2A2A2A2A2A2A2A2A2A2A2A2A2A2A2A2A2A2A2A2A2A2A2A2A2A2A2A2A2A2A2A2A2A2A2A2A2A2A2A2A2A2A2A2A2A2A2A2A2A2A2A2A2A2A2A2A2A2A2A2A2A2A2A2A2A2A2A2A2A2A2A2A2A2A2A2A2A2A2A2A2A2A2A2A2A2A2A2A2A2A2A2A2A2A2A2A2A2A2A2A2A2A2A2A2A
310
2A2A2A2A2A2A2A2A2A2A2A2A2A2A2A2A2A2A2A2A2A2A2A2A2A2A2A2A2A2A2A2A2A2A2A2A2A2A2A2A2A2A2A2A2A2A2A2A2A2A2A2A2A2A2A2A2A2A2A2A2A2A2A2A2A2A2A2A2A2A2A2A2A2A2A2A2A2A2A2A2A2A2A2A2A2A2A2A2A2A2A2A2A2A2A2A2A2A2A2A2A2A2A2A2A2A2A2A2A2A2A2A2A2A2A2A2A2A2A2A2A2A2A2A2A2A2A
310
2A2A2A2A2A2A2A2A2A2A2A2A2A2A2A2A2A2A2A2A2A2A2A2A2A2A2A2A2A2A2A2A2A2A2A2A2A2A2A2A2A2A2A2A2A2A2A2A2A2A2A2A2A2A2A2A2A2A2A2A2A2A2A2A2A2A2A2A2A2A2A2A2A2A2A2A2A2A2A2A2A2A2A2A2A2A2A2A2A2A2A2A2A2A2A2A2A2A2A2A2A2A2A2A2A2A2A2A2A2A2A2A2A2A2A2A2A2A2A2A2A2A2A2A2A2A2A
310
2A2A2A2A2A2A2A2A2A2A2A2A2A2A2A2A2A2A2A2A2A2A2A2A2A2A2A2A2A2A2A2A2A2A2A2A2A2A2A2A2A2A2A2A2A2A2A2A2A2A2A2A2A2A2A2A2A2A2A2A2A2A2A2A2A2A2A2A2A2A2A2A2A2A2A2A2A2A2A2A2A2A2A2A2A2A2A2A2A2A2A2A2A2A2A2A2A2A2A2A2A2A2A2A2A2A2A2A2A2A2A2A2A2A2A2A2A2A2A2A2A2A2A2A2A2A2A
310
2A2A2A2A2A2A2A2A2A2A2A2A2A2A2A2A2A2A2A2A2A2A2A2A2A2A2A2A2A2A2A2A2A2A2A2A2A2A2A2A2A2A2A2A2A2A2A2A2A2A2A2A2A2A2A2A2A2A2A2A2A2A2A2A2A2A2A2A2A2A2A2A2A2A2A2A2A2A2A2A2A2A2A2A2A2A2A2A2A2A2A2A2A2A2A2A2A2A2A2A2A2A2A2A2A2A2A2A2A2A2A2A2A2A2A2A2A2A2A2A2A2A2A2A2A2A2A
310
2A2A2A2A2A2A2A2A2A2A2A2A2A2A2A2A2A2A2A2A2A2A2A2A2A2A2A2A2A2A2A2A2A2A2A2A2A2A2A2A2A2A2A2A2A2A2A2A2A2A2A2A2A2A2A2A2A2A2A2A2A2A2A2A2A2A2A2A2A2A2A2A2A2A2A2A2A2A2A2A2A2A2A2A2A2A2A2A2A2A2A2A2A2A2A2A2A2A2A2A2A2A2A2A2A2A2A2A2A2A2A2A2A2A2A2A2A2A2A2A2A2A2A2A2A2A2A
310
2A2A2A2A2A2A2A2A2A2A2A2A2A2A2A2A2A2A2A2A2A2A2A2A2A2A2A2A2A2A2A2A2A2A2A2A2A2A2A2A2A2A2A2A2A2A2A2A2A2A2A2A2A2A2A2A2A2A2A2A2A2A2A2A2A2A2A2A2A2A2A2A2A2A2A2A2A2A2A2A2A2A2A2A2A2A2A2A2A2A2A2A2A2A2A2A2A2A2A2A2A2A2A2A2A2A2A2A2A2A2A2A2A2A2A2A2A2A2A2A2A2A2A2A2A2A2A
310
2A2A2A2A2A2A2A2A2A2A2A2A2A2A2A2A2A2A2A2A2A2A2A2A2A2A2A2A2A2A2A2A2A2A2A2A2A2A2A2A2A2A2A2A2A2A2A2A2A2A2A2A2A2A2A2A2A2A2A2A2A2A2A2A2A2A2A2A2A2A2A2A2A2A2A2A2A2A2A2A2A2A2A2A2A2A2A2A2A2A2A2A2A2A2A2A2A2A2A2A2A2A2A2A2A2A2A2A2A2A2A2A2A2A2A2A2A2A2A2A2A2A2A2A2A2A2A
310
2A2A2A2A2A2A2A2A2A2A2A2A2A2A2A2A2A2A2A2A2A2A2A2A2A2A2A2A2A2A2A2A2A2A2A2A2A2A2A2A2A2A2A2A2A2A2A2A2A2A2A2A2A2A2A2A2A2A2A2A2A2A2A2A2A2A2A2A2A2A2A2A2A2A2A2A2A2A2A2A2A2A2A2A2A2A2A2A2A2A2A2A2A2A2A2A2A2A2A2A2A2A2A2A2A2A2A2A2A2A2A2A2A2A2A2A2A2A2A2A2A2A2A2A2A2A2A
310
2A2A2A2A2A2A2A2A2A2A2A2A2A2A2A2A2A2A2A2A2A2A2A2A2A2A2A2A2A2A2A2A2A2A2A2A2A2A2A2A2A2A2A2A2A2A2A2A2A2A2A2A2A2A2A2A2A2A2A2A2A2A2A2A2A2A2A2A2A2A2A2A2A2A2A2A2A2A2A2A2A2A2A2A2A2A2A2A2A2A2A2A2A2A2A2A2A2A2A2A2A2A2A2A2A2A2A2A2A2A2A2A2A2A2A2A2A2A2A2A2A2A2A2A2A2A2A
310
2A2A2A2A2A2A2A2A2A2A2A2A2A2A2A2A2A2A2A2A2A2A2A2A2A2A2A2A2A2A2A2A2A2A2A2A2A2A2A2A2A2A2A2A2A2A2A2A2A2A2A2A2A2A2A2A2A2A2A2A2A2A2A2A2A2A2A2A2A2A2A2A2A2A2A2A2A2A2A2A2A2A2A2A2A2A2A2A2A2A2A2A2A2A2A2A2A2A2A2A2A2A2A2A2A2A2A2A2A2A2A2A2A2A2A2A2A2A2A2A2A2A2A2A2A2A2A
310
2A2A2A2A2A2A2A2A2A2A2A2A2A2A2A2A2A2A2A2A2A2A2A2A2A2A2A2A2A2A2A2A2A2A2A2A2A2A2A2A2A2A2A2A2A2A2A2A2A2A2A2A2A2A2A2A2A2A2A2A2A2A2A2A2A2A2A2A2A2A2A2A2A2A2A2A2A2A2A2A2A2A2A2A2A2A2A2A2A2A2A2A2A2A2A2A2A2A2A2A2A2A2A2A2A2A2A2A2A2A2A2A2A2A2A2A2A2A2A2A2A2A2A2A2A2A2A
310
2A2A2A2A2A2A2A2A2A2A2A2A2A2A2A2A2A2A2A2A2A2A2A2A2A2A2A2A2A2A2A2A2A2A2A2A2A2A2A2A2A2A2A2A2A2A2A2A2A2A2A2A2A2A2A2A2A2A2A2A2A2A2A2A2A2A2A2A2A2A2A2A2A2A2A2A2A2A2A2A2A2A2A2A2A2A2A2A2A2A2A2A2A2A2A2A2A2A2A2A2A2A2A2A2A2A2A2A2A2A2A2A2A2A2A2A2A2A2A2A2A2A2A2A2A2A2A
310
2A2A2A2A2A2A2A2A2A2A2A2A2A2A2A2A2A2A2A2A2A2A2A2A2A2A2A2A2A2A2A2A2A2A2A2A2A2A2A2A2A2A2A2A2A2A2A2A2A2A2A2A2A2A2A2A2A2A2A2A2A2A2A2A2A2A2A2A2A2A2A2A2A2A2A2A2A2A2A2A2A2A2A2A2A2A2A2A2A2A2A2A2A2A2A2A2A2A2A2A2A2A2A2A2A2A2A2A2A2A2A2A2A2A2A2A2A2A2A2A2A2A2A2A2A2A2A
310
2A2A2A2A2A2A2A2A2A2A2A2A2A2A2A2A2A2A2A2A2A2A2A2A2A2A2A2A2A2A2A2A2A2A2A2A2A2A2A2A2A2A2A2A2A2A2A2A2A2A2A2A2A2A2A2A2A2A2A2A2A2A2A2A2A2A2A2A2A2A2A2A2A2A2A2A2A2A2A2A2A2A2A2A2A2A2A2A2A2A2A2A2A2A2A2A2A2A2A2A2A2A2A2A2A2A2A2A2A2A2A2A2A2A2A2A2A2A2A2A2A2A2A2A2A2A2A
310
2A2A2A2A2A2A2A2A2A2A2A2A2A2A2A2A2A2A2A2A2A2A2A2A2A2A2A2A2A2A2A2A2A2A2A2A2A2A2A2A2A2A2A2A2A2A2A2A2A2A2A2A2A2A2A2A2A2A2A2A2A2A2A2A2A2A2A2A2A2A2A2A2A2A2A2A2A2A2A2A2A2A2A2A2A2A2A2A2A2A2A2A2A2A2A2A2A2A2A2A2A2A2A2A2A2A2A2A2A2A2A2A2A2A2A2A2A2A2A2A2A2A2A2A2A2A2A
310
2A2A2A2A2A2A2A2A2A2A2A2A2A2A2A2A2A2A2A2A2A2A2A2A2A2A2A2A2A2A2A2A2A2A2A2A2A2A2A2A2A2A2A2A2A2A2A2A2A2A2A2A2A2A2A2A2A2A2A2A2A2A2A2A2A2A2A2A2A2A2A2A2A2A2A2A2A2A2A2A2A2A2A2A2A2A2A2A2A2A2A2A2A2A2A2A2A2A2A2A2A2A2A2A2A2A2A2A2A2A2A2A2A2A2A2A2A2A2A2A2A2A2A2A2A2A2A
310
2A2A2A2A2A2A2A2A2A2A2A2A2A2A2A2A2A2A2A2A2A2A2A2A2A2A2A2A2A2A2A2A2A2A2A2A2A2A2A2A2A2A2A2A2A2A2A2A2A2A2A2A2A2A2A2A2A2A2A2A2A2A2A2A2A2A2A2A2A2A2A2A2A2A2A2A2A2A2A2A2A2A2A2A2A2A2A2A2A2A2A2A2A2A2A2A2A2A2A2A2A2A2A2A2A2A2A2A2A2A2A2A2A2A2A2A2A2A2A2A2A2A2A2A2A2A2A
310
2A2A2A2A2A2A2A2A2A2A2A2A2A2A2A2A2A2A2A2A2A2A2A2A2A2A2A2A2A2A2A2A2A2A2A2A2A2A2A2A2A2A2A2A2A2A2A2A2A2A2A2A2A2A2A2A2A2A2A2A2A2A2A2A2A2A2A2A2A2A2A2A2A2A2A2A2A2A2A2A2A2A2A2A2A2A2A2A2A2A2A2A2A2A2A2A2A2A2A2A2A2A2A2A2A2A2A2A2A2A2A2A2A2A2A2A2A2A2A2A2A2A2A2A2A2A2A
310
2A2A2A2A2A2A2A2A2A2A2A2A2A2A2A2A2A2A2A2A2A2A2A2A2A2A2A2A2A2A2A2A2A2A2A2A2A2A2A2A2A2A2A2A2A2A2A2A2A2A2A2A2A2A2A2A2A2A2A2A2A2A2A2A2A2A2A2A2A2A2A2A2A2A2A2A2A2A2A2A2A2A2A2A2A2A2A2A2A2A2A2A2A2A2A2A2A2A2A2A2A2A2A2A2A2A2A2A2A2A2A2A2A2A2A2A2A2A2A2A2A2A2A2A2A2A2A
310
2A2A2A2A2A2A2A2A2A2A2A2A2A2A2A2A2A2A2A2A2A2A2A2A2A2A2A2A2A2A2A2A2A2A2A2A2A2A2A2A2A2A2A2A2A2A2A2A2A2A2A2A2A2A2A2A2A2A2A2A2A2A2A2A2A2A2A2A2A2A2A2A2A2A2A2A2A2A2A2A2A2A2A2A2A2A2A2A2A2A2A2A2A2A2A2A2A2A2A2A2A2A2A2A2A2A2A2A2A2A2A2A2A2A2A2A2A2A2A2A2A2A2A2A2A2A2A
310
2A2A2A2A2A2A2A2A2A2A2A2A2A2A2A2A2A2A2A2A2A2A2A2A2A2A2A2A2A2A2A2A2A2A2A2A2A2A2A2A2A2A2A2A2A2A2A2A2A2A2A2A2A2A2A2A2A2A2A2A2A2A2A2A2A2A2A2A2A2A2A2A2A2A2A2A2A2A2A2A2A2A2A2A2A2A2A2A2A2A2A2A2A2A2A2A2A2A2A2A2A2A2A2A2A2A2A2A2A2A2A2A2A2A2A2A2A2A2A2A2A2A2A2A2A2A2A
310
2A2A2A2A2A2A2A2A2A2A2A2A2A2A2A2A2A2A2A2A2A2A2A2A2A2A2A2A2A2A2A2A2A2A2A2A2A2A2A2A2A2A2A2A2A2A2A2A2A2A2A2A2A2A2A2A2A2A2A2A2A2A2A2A2A2A2A2A2A2A2A2A2A2A2A2A2A2A2A2A2A2A2A2A2A2A2A2A2A2A2A2A2A2A2A2A2A2A2A2A2A2A2A2A2A2A2A2A2A2A2A2A2A2A2A2A2A2A2A2A2A2A2A2A2A2A2A
310
2A2A2A2A2A2A2A2A2A2A2A2A2A2A2A2A2A2A2A2A2A2A2A2A2A2A2A2A2A2A2A2A2A2A2A2A2A2A2A2A2A2A2A2A2A2A2A2A2A2A2A2A2A2A2A2A2A2A2A2A2A2A2A2A2A2A2A2A2A2A2A2A2A2A2A2A2A2A2A2A2A2A2A2A2A2A2A2A2A2A2A2A2A2A2A2A2A2A2A2A2A2A2A2A2A2A2A2A2A2A2A2A2A2A2A2A2A2A2A2A2A2A2A2A2A2A2A
310
2A2A2A2A2A2A2A2A2A2A2A2A2A2A2A2A2A2A2A2A2A2A2A2A2A2A2A2A2A2A2A2A2A2A2A2A2A2A2A2A2A2A2A2A2A2A2A2A2A2A2A2A2A2A2A2A2A2A2A2A2A2A2A2A2A2A2A2A2A2A2A2A2A2A2A2A2B2B2B2B2A2A2A2A2A2A2A2A2A2A2A2A2A2A2A2A2A2A2A2A2A2A2A2A2A2A2B2B2B2B2A2A2A2A2A2A2A2A2A2A2A2A2A2A2A2A2A
310
2A2A2A2A2A2A2A2A2A2A2A2A2A2A2A2A2A2A2A2A2A2A2A2A2A2A2A2A2A2A2A2A2A2A2A2A2A2A2A2A2A2A2A2A2A2A2A2A2A2A2A2A2A2A2A2A2A2A2A2A2A2A2A2A2A2A2A2A2A2A2A2A2A2A2A2A2A2A2A2A2A2A2A2A2A2A2A2A2A2A2A2A2A2A2A2A2A2A2A2A2A2A2A2A2A2A2A2A2A2A2A2A2A2A2A2A2A2A2A2A2A2A2A2A2A2A2A
310
2A2A2B2B2B2B22222222222222222222222222222222222222222222222222222B2B2B2B2A2A2A2A2A2A2A2A2A2A2A2A2A2A2A2A2A2A2A2A2A2A2A2A2A2A2A2A2A2A2A2A2A2A2A2A2A2A2A2A2A2A2A2A2A2A2A2A2A2A2A2A2A2A2A2A2A2A2A2A2A2A2A2A2A2A2A2A2A2A2A2A2A2A2A2A2A2A2A2A2A2A2A2A2A2A2A2A2A2A2A
310
2A2A2A2A2A2A2A2A2A2A2A2A2A2A2A2A2A2A2A2A2A2A2A2A2A2A2A2A2A2A2A2A2A2A2A2A2A2A2A2A2A2A2A2A2A2A2A2A2A2A2A2A2A2A2A2B2B2B2B22222222222222222222222222222222222222222222222222222B2B2B2B2A2A2A2A2A2A2A2A2A2A2A2A2A2A2A2A2A2A2A2A2A2A2A2A2A2A2A2A2A2A2A2A2A2A2A2A2A2A
310
2A2A2A2A2A2A2A2A2A2A2A2A2A2A2A2A2A2A2A2A2A2A2A2A2A2A2A2A2A2A2A2A2A2A2A2A2A2A2A2A2A2A2A2A2A2A2A2A2A2A2A2A2A2A2A2A2A2A2A2A2A2A2A2A2A2A2A2A2A2A2A2A2A2A2A2A2A2A2A2A2A2A2A2A2A2A2A2A2A2A2A2A2A2A2A2A2A2A2A2A2A2A2A2A2A2A2A2A2A2B2B2B222222222222222222222222222222
310
2222222222220222222222222B2B2B2A2A2A2A2A2A2A2A2A2A2A2A2A2A2A2A2A2A2A2A2A2A2A2A2A2A2A2A2A2A2A2A2A2A2A2A2A2A2A2A2A2A2A2A2A2A2A2A2A2A2A2A2A2A2A2A2A2A2A2A2A2A2A2A2A2A2A2A2A2A2A2A2A2A2A2A2A2A2A2A2A2A2A2A2A2A2A2A2A2A2A2A2A2A2A2A2A2A2A2A2A2A2A2A2A2A2A2A2A2A2A2A
310
2A2A2A2A2A2A2A2A2A2A2A2A2A2A2A2A2A2A2A2A2A2A2A2A2A2A2A2A2A2A2A2A2A2A2A22222222222A222222222A22222A222222222222222A22222A22222222222222022A2A2A2A2A2A2A2A2A2A2A2A2A2A2A2A2A2A2A2A2A2A2A2A2A2A2A2A2A2A2A2A2A2A2A2A2A2A2A2A2A2A2A2A2A2A2A2A2A2A2A2A2A2A2A2A2A2A2A
310
2A2A2A2A2A2A2A2A2A2A2A2A2A2A2A2A2A2A2A2A2A2A2A2A2A2A2A2A2A2A2A2A2A2A2A2A2A2A2A2A2A2A2A2A2A2A2A2A2A2A2A2A2A2A2A2A2A2A2A2A2A2A2A2A2A2A2A2A2A2A2A2A2A2A2A2A2A2A2A2A2A2A2A2A2A2A2A2A22220222222A222222222A22222A222222222222222A22222A222222220222222A2A2A2A2A2A2A
310
2A2A2A2A2A2A2A2A2A2A2A2A2A2A2A2A2A2A2A2A2A2A2A2A2A2A2A2A2A2A2A2A2A2A2A2A2A2A2A2A2A2A2A2A2A2A2A2A2A2A2A2A2A2A2A2A2A2A2A2A2A2A2A2A2A2A2A2A2A2A2A2A2A2A2A2A2A2A2A2A2A2A2A2A2A2A2A2A2A2A2A2A2A2A2A2A2A2A2A2A2A2A2A2A2A2A2A2A2A2A2A2A2A2A2A2A2A2A2A2A2A2A2A2A2A2A2A
310
2A2A2A2A2A2A2A2A2A2A2A2A2A2A22220222222A222222222A22222A222222222222222A22222A222222220222222A2A2A2A2A2A2A2A2A2A2A2A2A2A2A2A2A2A2A2A2A2A2A2A2A2A2A2A2A2A2A2A2A2A2A2A2A2A2A2A2A2A2A2A2A2A2A2A2A2A2A2A2A2A2A2A2A2A2A2A2A2A2A2A2A2A2A2A2A2A2A2A2A2A2A2A2A2A2A2A2A
310
2A2A2A2A2A2A2A2A2A2A2A2A2A2A2A2A2A2A2A2A2A2A2A2A2A2A2A2A2A2A2A2A2A2A2A2A2A2A2A2A2A2A2A2A2A2A2A2A2A2A2A2A2A2A2A2A2A2A2A2A2A2A2A2A2A2A2A22220222222A222222222A22222A222222222222222A22222A222222220222222A2A2A2A2A2A2A2A2A2A2A2A2A2A2A2A2A2A2A2A2A2A2A2A2A2A2A2A
310
2A2A2A2A2A2A2A2A2A2A2A2A2A2A2A2A2A2A2A2A2A2A2A2A2A2A2A2A2A2A2A2A2A2A2A2A2A2A2A2A2A2A2A2A2A2A2A2A2A2A2A2A2A2A2A2A2A2A2A2A2A2A2A2A2A2A2A2A2A2A2A2A2A2A2A2A2A2A2A2A2A2A2A2A2A2A2A2A2A2A2A2A2A2A2A2A2A2A2A2A2A2A2A2A2A2A2A2A2A2A2A2A2A2A2A2A2A2A2A2A22220222222A22
310
2222222A22222A222222222222222A22222A222222220222222A2A2A2A2A2A2A2A2A2A2A2A2A2A2A2A2A2A2A2A2A2A2A2A2A2A2A2A2A2A2A2A2A2A2A2A2A2A2A2A2A2A2A2A2A2A2A2A2A2A2A2A2A2A2A2A2A2A2A2A2A2A2A2A2A2A2A2A2A2A2A2A2A2A2A2A2A2A2A2A2A2A2A2A2A2A2A2A2A2A2A2A2A2A2A2A2A2A2A2A2A2A
310
2A2A2A2A2A2A2A2A2A2A2A2A2A2A2A2A2A2A2A2A2A2A2A2A2A2A2A2A2A2A2A2A2A2A2A2A2A2A2A2A2A2A2A2A2A2A22220222222A222222222A22222A222222222222222A22222A222222220222222A2A2A2A2A2A2A2A2A2A2A2A2A2A2A2A2A2A2A2A2A2A2A2A2A2A2A2A2A2A2A2A2A2A2A2A2A2A2A2A2A2A2A2A2A2A2A2A2A
310
2A2A2A2A2A2A2A2A2A2A2A2A2A2A2A2A2A2A2A2A2A2A2A2A2A2A2A2A2A2A2A2A2A2A2A2A2A2A2A2A2A2A2A2A2A2A2A2A2A2A2A2A2A2A2A2A2A2A2A2A2A2A2A2A2A2A2A2A2A2A2A2A2A2A2A2A2A2A2A2A2A2A2A2A2A2A2A2A2A2A2A2A2A2A2A2A2A2A2A22220222222A222222222A22222A222222222222222A22222A222222
310
220222222A2A2A2A2A2A2A2A2A2A2A2A2A2A2A2A2A2A2A2A2A2A2A2A2A2A2A2A2A2A2A2A2A2A2A2A2A2A2A2A2A2A2A2A2A2A2A2A2A2A2A2A2A2A2A2A2A2A2A2A2A2A2A2A2A2A2A2A2A2A2A2A2A2A2A2A2A2A2A2A2A2A2A2A2A2A2A2A2A2A2A2A2A2A2A2A2A2A2A2A2A2A2A2A2A2A2A2A2A2A2A2A2A2A2A2A2A2A2A2A2A2A2A
310
2A2A2A2A2A2A2A2A2A2A2A2A2A2A2A2A2A2A2A2A2A2A2A2A2A22220222222A222222222A22222A222222222222222A22222A222222220222222A2A2A2A2A2A2A2A2A2A2A2A2A2A2A2A2A2A2A2A2A2A2A2A2A2A2A2A2A2A2A2A2A2A2A2A2A2A2A2A2A2A2A2A2A2A2A2A2A2A2A2A2A2A2A2A2A2A2A2A2A2A2A2A2A2A2A2A2A2A
310
2A2A2A2A2A2A2A2A2A2A2A2A2A2A2A2A2A2A2A2A2A2A2A2A2A2A2A2A2A2A2A2A2A2A2A2A2A2A2A2A2A2A2A2A2A2A2A2A2A2A2A2A2A2A2A2A2A2A2A2A2A2A2A2A2A2A2A2A2A2A2A2A2A2A2A2A2A2A22220222222A222222222A22222A222222222222222A22222A222222220222222A2A2A2A2A2A2A2A2A2A2A2A2A2A2A2A2A
310
2A2A2A2A2A2A2A2A2A2A2A2A2A2A2A2A2A2A2A2A2A2A2A2A2A2A2A2A2A2A2A2A2A2A2A2A2A2A2A2A2A2A2A2A2A2A2A2A2A2A2A2A2A2A2A2A2A2A2A2A2A2A2A2A2A2A2A2A2A2A2A2A2A2A2A2A2A2A2A2A2A2A2A2A2A2A2A2A2A2A2A2A2A2A2A2A2A2A2A2A2A2A2A2A2A2A2A2A2A2A2A2A2A2A2A2A2A2A2A2A2A2A2A2A2A2A2A
310
2A2A2A2A22220222222A222222222A22222A222222222222222A22222A222222220222222A2A2A2A2A2A2A2A2A2A2A2A2A2A2A2A2A2A2A2A2A2A2A2A2A2A2A2A2A2A2A2A2A2A2A2A2A2A2A2A2A2A2A2A2A2A2A2A2A2A2A2A2A2A2A2A2A2A2A2A2A2A2A2A2A2A2A2A2A2A2A2A2A2A2A2A2A2A2A2A2A2A2A2A2A2A2A2A2A2A2A
310
2A2A2A2A2A2A2A2A2A2A2A2A2A2A2A2A2A2A2A2A2A2A2A2A2A2A2A2A2A2A2A2A2A2A2A2A2A2A2A2A2A2A2A2A2A2A2A2A2A2A2A2A2A2A2A2A2A22220222222A222222222A22222A222222222222222A22222A222222220222222A2A2A2A2A2A2A2A2A2A2A2A2A2A2A2A2A2A2A2A2A2A2A2A2A2A2A2A2A2A2A2A2A2A2A2A2A2A
310
2A2A2A2A2A2A2A2A2A2A2A2A2A2A2A2A2A2A2A2A2A2A2A2A2A2A2A2A2A2A2A2A2A2A2A2A2A2A2A2A2A2A2A2A2A2A2A2A2A2A2A2A2A2A2A2A2A2A2A2A2A2A2A2A2A2A2A2A2A2A2A2A2A2A2A2A2A2A2A2A2A2A2A2A2A2A2A2A2A2A2A2A2A2A2A2A2A2A2A2A2A2A2A2A2A2A2A2A2A2A2202020202020202020202020202020202
310
0202020202020202020202020202222A2A2A2A2A2A2A2A2A2A2A2A2A2A2A2A2A2A2A2A2A2A2A2A2A2A2A2A2A2A2A2A2A2A2A2A2A2A2A2A2A2A2A2A2A2A2A2A2A2A2A2A2A2A2A2A2A2A2A2A2A2A2A2A2A2A2A2A2A2A2A2A2A2A2A2A2A2A2A2A2A2A2A2A2A2A2A2A2A2A2A2A2A2A2A2A2A2A2A2A2A2A2A2A2A2A2A2A2A2A2A2A
310
2A2A2A2A2A2A2A2A2A2A2A2A2A2A2A2A2A2A2A2A2A2A2A2A2A2A2A2A2A2A2A2A2A2A2A2A22020202020202020202020202020202020202020202020202020202020202222A2A2A2A2A2A2A2A2A2A2A2A2A2A2A2A2A2A2A2A2A2A2A2A2A2A2A2A2A2A2A2A2A2A2A2A2A2A2A2A2A2A2A2A2A2A2A2A2A2A2A2A2A2A2A2A2A2A2A
310
2A2A2A2A2A2A2A2A2A2A2A2A2A2A2A2A2A2A2A2A2A2A2A2A2A2A2A2A2A2A2A2A2A2A2A2A2A2A2A2A2A2A2A2A2A2A2A2A2A2A2A2A2A2A2A2A2A2A2A2A2A2A2A2A2A2A2A2A2A2A2A2A2A2A2A2A2A2A2A2A2A2A2A2A2A2A2A2A2A22020202020202020202020202020202020202020202020202020202020202222A2A2A2A2A2A
310
2A2A2A2A2A2A2A2A2A2A2A2A2A2A2A2A2A2A2A2A2A2A2A2A2A2A2A2A2A2A2A2A2A2A2A2A2A2A2A2A2A2A2A2A2A2A2A2A2A2A2A2A2A2A2A2A2A2A2A2A2A2A2A2A2A2A2A2A2A2A2A2A2A2A2A2A2A2A2A2A2A2A2A2A2A2A2A2A2A2A2A2A2A2A2A2A2A2A2A2A2A2A2A2A2A2A2A2A2A2A2A2A2A2A2A2A2A2A2A2A2A2A2A2A2A2A2A
310
2A2A2A2A2A2A2A2A2A2A2A2A2A2A2A22220202020202020202020202020202020202020202020202020202020202222A2A2A2A2A2A2A2A2A2A2A2A2A2A2A2A2A2A2A2A2A2A2A2A2A2A2A2A2A2A2A2A2A2A2A2A2A2A2A2A2A2A2A2A2A2A2A2A2A2A2A2A2A2A2A2A2A2A2A2A2A2A2A2A2A2A2A2A2A2A2A2A2A2A2A2A2A2A2A2A
310
2A2A2A2A2A2A2A2A2A2A2A2A2A2A2A2A2A2A2A2A2A2A2A2A2A2A2A2A2A2A2A2A2A2A2A2A2A2A2A2A2A2A2A2A2A2A2A2A2A2A2A2A2A2A2A2A2A2A2A2A2A2A2A2A2A2A2A2A22220222222A222222222A22222A222222222222222A22222A222222220222222A2A2A2A2A2A2A2A2A2A2A2A2A2A2A2A2A2A2A2A2A2A2A2A2A2A2A
310
2A2A2A2A2A2A2A2A2A2A2A2A2A2A2A2A2A2A2A2A2A2A2A2A2A2A2A2A2A2A2A2A2A2A2A2A2A2A2A2A2A2A2A2A2A2A2A2A2A2A2A2A2A2A2A2A2A2A2A2A2A2A2A2A2A2A2A2A2A2A2A2A2A2A2A2A2A2A2A2A2A2A2A2A2A2A2A2A2A2A2A2A2A2A2A2A2A2A2A2A2A2A2A2A2A2A2A2A2A2A2A2A2A2A2A2A2A2A2A2A2A22220222222A
310
222222222A22222A222222222222222A22222A222222220222222A2A2A2A2A2A2A2A2A2A2A2A2A2A2A2A2A2A2A2A2A2A2A2A2A2A2A2A2A2A2A2A2A2A2A2A2A2A2A2A2A2A2A2A2A2A2A2A2A2A2A2A2A2A2A2A2A2A2A2A2A2A2A2A2A2A2A2A2A2A2A2A2A2A2A2A2A2A2A2A2A2A2A2A2A2A2A2A2A2A2A2A2A2A2A2A2A2A2A2A2A
310
2A2A2A2A2A2A2A2A2A2A2A2A2A2A2A2A2A2A2A2A2A2A2A2A2A2A2A2A2A2A2A2A2A2A2A2A2A2A2A2A2A2A2A2A2A2A2A22220222222A222222222A22222A222222222222222A22222A222222220222222A2A2A2A2A2A2A2A2A2A2A2A2A2A2A2A2A2A2A2A2A2A2A2A2A2A2A2A2A2A2A2A2A2A2A2A2A2A2A2A2A2A2A2A2A2A2A2A
310
2A2A2A2A2A2A2A2A2A2A2A2A2A2A2A2A2A2A2A2A2A2A2A2A2A2A2A2A2A2A2A2A2A2A2A2A2A2A2A2A2A2A2A2A2A2A2A2A2A2A2A2A2A2A2A2A2A2A2A2A2A2A2A2A2A2A2A2A2A2A2A2A2A2A2A2A2A2A2A2A2A2A2A2A2A2A2A2A2A2A2A2A2A2A2A2A2A2A2A2A22220222222A222222222A22222A222222222222222A22222A2222
310
22220222222A2A2A2A2A2A2A2A2A2A2A2A2A2A2A2A2A2A2A2A2A2A2A2A2A2A2A2A2A2A2A2A2A2A2A2A2A2A2A2A2A2A2A2A2A2A2A2A2A2A2A2A2A2A2A2A2A2A2A2A2A2A2A2A2A2A2A2A2A2A2A2A2A2A2A2A2A2A2A2A2A2A2A2A2A2A2A2A2A2A2A2A2A2A2A2A2A2A2A2A2A2A2A2A2A2A2A2A2A2A2A2A2A2A2A2A2A2A2A2A2A2A
310
2A2A2A2A2A2A2A2A2A2A2A2A2A2A2A2A2A2A2A2A2A2A2A2A2A2A22220222222A222222222A22222A222222222222222A22222A222222220222222A2A2A2A2A2A2A2A2A2A2A2A2A2A2A2A2A2A2A2A2A2A2A2A2A2A2A2A2A2A2A2A2A2A2A2A2A2A2A2A2A2A2A2A2A2A2A2A2A2A2A2A2A2A2A2A2A2A2A2A2A2A2A2A2A2A2A2A2A
310
2A2A2A2A2A2A2A2A2A2A2A2A2A2A2A2A2A2A2A2A2A2A2A2A2A2A2A2A2A2A2A2A2A2A2A2A2A2A2A2A2A2A2A2A2A2A2A2A2A2A2A2A2A2A2A2A2A2A2A2A2A2A2A2A2A2A2A2A2A2A2A2A2A2A2A2A2A2A2A22220222222A222222222A22222A222222222222222A22222A222222220222222A2A2A2A2A2A2A2A2A2A2A2A2A2A2A2A
310
2A2A2A2A2A2A2A2A2A2A2A2A2A2A2A2A2A2A2A2A2A2A2A2A2A2A2A2A2A2A2A2A2A2A2A2A2A2A2A2A2A2A2A2A2A2A2A2A2A2A2A2A2A2A2A2A2A2A2A2A2A2A2A2A2A2A2A2A2A2A2A2A2A2A2A2A2A2A2A2A2A2A2A2A2A2A2A2A2A2A2A2A2A2A2A2A2A2A2A2A2A2A2A2A2A2A2A2A2A2A2A2A2A2A2A2A2A2A2A2A2A2A2A2A2A2A2A
310
2A2A2A2A2A22220222222A222222222A22222A222222222222222A22222A222222220222222A2A2A2A2A2A2A2A2A2A2A2A2A2A2A2A2A2A2A2A2A2A2A2A2A2A2A2A2A2A2A2A2A2A2A2A2A2A2A2A2A2A2A2A2A2A2A2A2A2A2A2A2A2A2A2A2A2A2A2A2A2A2A2A2A2A2A2A2A2A2A2A2A2A2A2A2A2A2A2A2A2A2A2A2A2A2A2A2A2A
310
2A2A2A2A2A2A2A2A2A2A2A2A2A2A2A2A2A2A2A2A2A2A2A2A2A2A2A2A2A2A2A2A2A2A2A2A2A2A2A2A2A2A2A2A2A2A2A2A2A2A2A2A2A2A2A2A2A2A22220222222A222222222A22222A222222222222222A22222A222222220222222A2A2A2A2A2A2A2A2A2A2A2A2A2A2A2A2A2A2A2A2A2A2A2A2A2A2A2A2A2A2A2A2A2A2A2A2A
310
2A2A2A2A2A2A2A2A2A2A2A2A2A2A2A2A2A2A2A2A2A2A2A2A2A2A2A2A2A2A2A2A2A2A2A2A2A2A2A2A2A2A2A2A2A2A2A2A2A2A2A2A2A2A2A2A2A2A2A2A2A2A2A2A2A2A2A2A2A2A2A2A2A2A2A2A2A2A2A2A2A2A2A2A2A2A2A2A2A2A2A2A2A2A2A2A2A2A2A2A2A2A2A2A2A2A2A2A2A2A2A22220222222A222222222A22222A2222
310
22222222222A22222A222222220222222A2A2A2A2A2A2A2A2A2A2A2A2A2A2A2A2A2A2A2A2A2A2A2A2A2A2A2A2A2A2A2A2A2A2A2A2A2A2A2A2A2A2A2A2A2A2A2A2A2A2A2A2A2A2A2A2A2A2A2A2A2A2A2A2A2A2A2A2A2A2A2A2A2A2A2A2A2A2A2A2A2A2A2A2A2A2A2A2A2A2A2A2A2A2A2A2A2A2A2A2A2A2A2A2A2A2A2A2A2A2A
310
2A2A2A2A2A2A2A2A2A2A2A2A2A2A2A2A2A2A2A2A2A2A2A2A2A2A2A2A2A2A2A2A2A2A2A2A2A22220222222A222222222A22222A222222222222222A22222A222222220222222A2A2A2A2A2A2A2A2A2A2A2A2A2A2A2A2A2A2A2A2A2A2A2A2A2A2A2A2A2A2A2A2A2A2A2A2A2A2A2A2A2A2A2A2A2A2A2A2A2A2A2A2A2A2A2A2A2A
310
2A2A2A2A2A2A2A2A2A2A2A2A2A2A2A2A2A2A2A2A2A2A2A2A2A2A2A2A2A2A2A2A2A2A2A2A2A2A2A2A2A2A2A2A2A2A2A2A2A2A2A2A2A2A2A2A2A2A2A2A2A2A2A2A2A2A2A2A2A2A2A2A2A2A2A2A2A2A2A2A2A2A2A2A2A2A2A2A2A2A22220222222A222222222A22222A222222222222222A22222A222222220222222A2A2A2A2A
310
2A2A2A2A2A2A2A2A2A2A2A2A2A2A2A2A2A2A2A2A2A2A2A2A2A2A2A2A2A2A2A2A2A2A2A2A2A2A2A2A2A2A2A2A2A2A2A2A2A2A2A2A2A2A2A2A2A2A2A2A2A2A2A2A2A2A2A2A2A2A2A2A2A2A2A2A2A2A2A2A2A2A2A2A2A2A2A2A2A2A2A2A2A2A2A2A2A2A2A2A2A2A2A2A2A2A2A2A2A2A2A2A2A2A2A2A2A2A2A2A2A2A2A2A2A2A2A
310
2A2A2A2A2A2A2A2A2A2A2A2A2A2A2A2B2B2B2B22220222222222022222022222222222222202222202222222222B2B2B2B2A2A2A2A2A2A2A2A2A2A2A2A2A2A2A2A2A2A2A2A2A2A2A2A2A2A2A2A2A2A2A2A2A2A2A2A2A2A2A2A2A2A2A2A2A2A2A2A2A2A2A2A2A2A2A2A2A2A2A2A2A2A2A2A2A2A2A2A2A2A2A2A2A2A2A2A2A2A
310
2A2A2A2A2A2A2A2A2A2A2A2A2A2A2A2A2A2A2A2A2A2A2A2A2A2A2A2A2A2A2A2A2A2A2A2A2A2A2A2A2A2A2A2A2A2A2A2A2A2A2A2A2A2A2A2A2A2A2A2A2A2A2A2A2A2A2A2A2B2B2B2B22222222222222222222222222222222222222222222222222222B2B2B2B2A2A2A2A2A2A2A2A2A2A2A2A2A2A2A2A2A2A2A2A2A2A2A2A2A
310
2A2A2A2A2A2A2A2A2A2A2A2A2A2A2A2A2A2A2A2A2A2A2A2A2A2A2A2A2A2A2A2A2A2A2A2A2A2A2A2A2A2A2A2A2A2A2A2A2A2A2A2A2A2A2A2A2A2A2A2A2A2A2A2A2A2A2A2A2A2A2A2A2A2A2A2A2A2A2A2A2A2A2A2A2A2A2A2A2A2A2A2A2A2A2A2A2A2A2A2A2A2A2A2A2A2A2A2A2A2A2A2A2A2A2A2A2A2A2A2A2A2B2B2B2B2222
310
2222222222222222222222222222222222222222222222222B2B2B2B2A2A2A2A2A2A2A2A2A2A2A2A2A2A2A2A2A2A2A2A2A2A2A2A2A2A2A2A2A2A2A2A2A2A2A2A2A2A2A2A2A2A2A2A2A2A2A2A2A2A2A2A2A2A2A2A2A2A2A2A2A2A2A2A2A2A2A2A2A2A2A2A2A2A2A2A2A2A2A2A2A2A2A2A2A2A2A2A2A2A2A2A2A2A2A2A2A2A2A
310
2A2A2A2A2A2A2A2A2A2A2A2A2A2A2A2A2A2A2A2A2A2A2A2A2A2A2A2A2A2A2A2A2A2A2A2A2A2A2A2A2A2A2A2A2A2A2A2A2B2B2B2A2A2A2A2A2A2A2A2A2A2A2A2A2A2A2A2A2A2A2A2A2A2A2A2A2A2A2B2B2B2A2A2A2A2A2A2A2A2A2A2A2A2A2A2A2A2A2A2A2A2A2A2A2A2A2A2A2A2A2A2A2A2A2A2A2A2A2A2A2A2A2A2A2A2A2A
310
2A2A2A2A2A2A2A2A2A2A2A2A2A2A2A2A2A2A2A2A2A2A2A2A2A2A2A2A2A2A2A2A2A2A2A2A2A2A2A2A2A2A2A2A2A2A2A2A2A2A2A2A2A2A2A2A2A2A2A2A2A2A2A2A2A2A2A2A2A2A2A2A2A2A2A2A2A2A2A2A2A2A2A2A2A2A2A2A2A2A2A2A2A2A2A2A2A2A2A2A2A2A2A2A2A2A2A2A2A2A2A2A2A2A2A2A2A2A2A2A2A2A2A2A2A2A2A
310
2A2A2A2A2A2A2A2A2A2A2A2A2A2A2A2A2A2A2A2A2A2A2A2A2A2A2A2A2A2A2A2A2A2A2A2A2A2A2A2A2A2A2A2A2A2A2A2A2A2A2A2A2A2A2A2A2A2A2A2A2A2A2A2A2A2A2A2A2A2A2A2A2A2A2A2A2A2A2A2A2A2A2A2A2A2A2A2A2A2A2A2A2A2A2A2A2A2A2A2A2A2A2A2A2A2A2A2A2A2A2A2A2A2A2A2A2A2A2A2A2A2A2A2A2A2A2A
310
2A2A2A2A2A2A2A2A2A2A2A2A2A2A2A2A2A2A2A2A2A2A2A2A2A2A2A2A2A2A2A2A2A2A2A2A2A2A2A2A2A2A2A2A2A2A2A2A2A2A2A2A2A2A2A2A2A2A2A2A2A2A2A2A2A2A2A2A2A2A2A2A2A2A2A2A2A2A2A2A2A2A2A2A2A2A2A2A2A2A2A2A2A2A2A2A2A2A2A2A2A2A2A2A2A2A2A2A2A2A2A2A2A2A2A2A2A2A2A2A2A2A2A2A2A2A2A
310
2A2A2A2A2A2A2A2A2A2A2A2A2A2A2A2A2A2A2A2A2A2A2A2A2A2A2A2A2A2A2A2A2A2A2A2A2A2A2A2A2A2A2A2A2A2A2A2A2A2A2A2A2A2A2A2A2A2A2A2A2A2A2A2A2A2A2A2A2A2A2A2A2A2A2A2A2A2A2A2A2A2A2A2A2A2A2A2A2A2A2A2A2A2A2A2A2A2A2A2A2A2A2A2A2A2A2A2A2A2A2A2A2A2A2A2A2A2A2A2A2A2A2A2A2A2A2A
310
2A2A2A2A2A2A2A2A2A2A2A2A2A2A2A2A2A2A2A2A2A2A2A2A2A2A2A2A2A2A2A2A2A2A2A2A2A2A2A2A2A2A2A2A2A2A2A2A2A2A2A2A2A2A2A2A2A2A2A2A2A2A2A2A2A2A2A2A2A2A2A2A2A2A2A2A2A2A2A2A2A2A2A2A2A2A2A2A2A2A2A2A2A2A2A2A2A2A2A2A2A2A2A2A2A2A2A2A2A2A2A2A2A2A2A2A2A2A2A2A2A2A2A2A2A2A2A
310
2A2A2A2A2A2A2A2A2A2A2A2A2A2A2A2A2A2A2A2A2A2A2A2A2A2A2A2A2A2A2A2A2A2A2A2A2A2A2A2A2A2A2A2A2A2A2A2A2A2A2A2A2A2A2A2A2A2A2A2A2A2A2A2A2A2A2A2A2A2A2A2A2A2A2A2A2A2A2A2A2A2A2A2A2A2A2A2A2A2A2A2A2A2A2A2A2A2A2A2A2A2A2A2A2A2A2A2A2A2A2A2A2A2A2A2A2A2A2A2A2A2A2A2A2A2A2A
310
2A2A2A2A2A2A2A2A2A2A2A2A2A2A2A2A2A2A2A2A2A2A2A2A2A2A2A2A2A2A2A2A2A2A2A2A2A2A2A2A2A2A2A2A2A2A2A2A2A2A2A2A2A2A2A2A2A2A2A2A2A2A2A2A2A2A2A2A2A2A2A2A2A2A2A2A2A2A2A2A2A2A2A2A2A2A2A2A2A2A2A2A2A2A2A2A2A2A2A2A2A2A2A2A2A2A2A2A2A2A2A2A2A2A2A2A2A2A2A2A2A2A2A2A2A2A2A
310
2A2A2A2A2A2A2A2A2A2A2A2A2A2A2A2A2A2A2A2A2A2A2A2A2A2A2A2A2A2A2A2A2A2A2A2A2A2A2A2A2A2A2A2A2A2A2A2A2A2A2A2A2A2A2A2A2A2A2A2A2A2A2A2A2A2A2A2A2A2A2A2A2A2A2A2A2A2A2A2A2A2A2A2A2A2A2A2A2A2A2A2A2A2A2A2A2A2A2A2A2A2A2A2A2A2A2A2A2A2A2A2A2A2A2A2A2A2A2A2A2A2A2A2A2A2A2A
310
2A2A2A2A2A2A2A2A2A2A2A2A2A2A2A2A2A2A2A2A2A2A2A2A2A2A2A2A2A2A2A2A2A2A2A2A2A2A2A2A2A2A2A2A2A2A2A2A2A2A2A2A2A2A2A2A2A2A2A2A2A2A2A2A2A2A2A2A2A2A2A2A2A2A2A2A2A2A2A2A2A2A2A2A2A2A2A2A2A2A2A2A2A2A2A2A2A2A2A2A2A2A2A2A2A2A2A2A2A2A2A2A2A2A2A2A2A2A2A2A2A2A2A2A2A2A2A
310
2A2A2A2A2A2A2A2A2A2A2A2A2A2A2A2A2A2A2A2A2A2A2A2A2A2A2A2A2A2A2A2A2A2A2A2A2A2A2A2A2A2A2A2A2A2A2A2A2A2A2A2A2A2A2A2A2A2A2A2A2A2A2A2A2A2A2A2A2A2A2A2A2A2A2A2A2A2A2A2A2A2A2A2A2A2A2A2A2A2A2A2A2A2A2A2A2A2A2A2A2A2A2A2A2A2A2A2A2A2A2A2A2A2A2A2A2A2A2A2A2A2A2A2A2A2A2A
310
2A2A2A2A2A2A2A2A2A2A2A2A2A2A2A2A2A2A2A2A2A2A2A2A2A2A2A2A2A2A2A2A2A2A2A2A2A2A2A2A2A2A2A2A2A2A2A2A2A2A2A2A2A2A2A2A2A2A2A2A2A2A2A2A2A2A2A2A2A2A2A2A2A2A2A2A2A2A2A2A2A2A2A2A2A2A2A2A2A2A2A2A2A2A2A2A2A2A2A2A2A2A2A2A2A2A2A2A2A2A2A2A2A2A2A2A2A2A2A2A2A2A2A2A2A2A2A
310
2A2A2A2A2A2A2A2A2A2A2A2A2A2A2A2A2A2A2A2A2A2A2A2A2A2A2A2A2A2A2A2A2A2A2A2A2A2A2A2A2A2A2A2A2A2A2A2A2A2A2A2A2A2A2A2A2A2A2A2A2A2A2A2A2A2A2A2A2A2A2A2A2A2A2A2A2A2A2A2A2A2A2A2A2A2A2A2A2A2A2A2A2A2A2A2A2A2A2A2A2A2A2A2A2A2A2A2A2A2A2A2A2A2A2A2A2A2A2A2A2A2A2A2A2A2A2A
310
2A2A2A2A2A2A2A2A2A2A2A2A2A2A2A2A2A2A2A2A2A2A2A2A2A2A2A2A2A2A2A2A2A2A2A2A2A2A2A2A2A2A2A2A2A2A2A2A2A2A2A2A2A2A2A2A2A2A2A2A2A2A2A2A2A2A2A2A2A2A2A2A2A2A2A2A2A2A2A2A2A2A2A2A2A2A2A2A2A2A2A2A2A2A2A2A2A2A2A2A2A2A2A2A2A2A2A2A2A2A2A2A2A2A2A2A2A2A2A2A2A2A2A2A2A2A2A
310
2A2A2A2A2A2A2A2A2A2A2A2A2A2A2A2A2A2A2A2A2A2A2A2A2A2A2A2A2A2A2A2A2A2A2A2A2A2A2A2A2A2A2A2A2A2A2A2A2A2A2A2A2A2A2A2A2A2A2A2A2A2A2A2A2A2A2A2A2A2A2A2A2A2A2A2A2A2A2A2A2A2A2A2A2A2A2A2A2A2A2A2A2A2A2A2A2A2A2A2A2A2A2A2A2A2A2A2A2A2A2A2A2A2A2A2A2A2A2A2A2A2A2A2A2A2A2A
310
2A2A2A2A2A2A2A2A2A2A2A2A2A2A2A2A2A2A2A2A2A2A2A2A2A2A2A2A2A2A2A2A2A2A2A2A2A2A2A2A2A2A2A2A2A2A2A2A2A2A2A2A2A2A2A2A2A2A2A2A2A2A2A2A2A2A2A2A2A2A2A2A2A2A2A2A2A2A2A2A2A2A2A2A2A2A2A2A2A2A2A2A2A2A2A2A2A2A2A2A2A2A2A2A2A2A2A2A2A2A2A2A2A2A2A2A2A2A2A2A2A2A2A2A2A2A2A
310
2A2A2A2A2A2A2A2A2A2A2A2A2A2A2A2A2A2A2A2A2A2A2A2A2A2A2A2A2A2A2A2A2A2A2A2A2A2A2A2A2A2A2A2A2A2A2A2A2A2A2A2A2A2A2A2A2A2A2A2A2A2A2A2A2A2A2A2A2A2A2A2A2A2A2A2A2A2A2A2A2A2A2A2A2A2A2A2A2A2A2A2A2A2A2A2A2A2A2A2A2A2A2A2A2A2A2A2A2A2A2A2A2A2A2A2A2A2A2A2A2A2A2A2A2A2A2A
310
2A2A2A2A2A2A2A2A2A2A2A2A2A2A2A2A2A2A2A2A2A2A2A2A2A2A2A2A2A2A2A2A2A2A2A2A2A2A2A2A2A2A2A2A2A2A2A2A2A2A2A2A2A2A2A2A2A2A2A2A2A2A2A2A2A2A2A2A2A2A2A2A2A2A2A2A2A2A2A2A2A2A2A2A2A2A2A2A2A2A2A2A2A2A2A2A2A2A2A2A2A2A2A2A2A2A2A2A2A2A2A2A2A2A2A2A2A2A2A2A2A2A2A2A2A2A2A
310
2A2A2A2A2A2A2A2A2A2A2A2A2A2A2A2A2A2A2A2A2A2A2A2A2A2A2A2A2A2A2A2A2A2A2A2A2A2A2A2A2A2A2A2A2A2A2A2A2A2A2A2A2A2A2A2A2A2A2A2A2A2A2A2A2A2A2A2A2A2A2A2A2A2A2A2A2A2A2A2A2A2A2A2A2A2A2A2A2A2A2A2A2A2A2A2A2A2A2A2A2A2A2A2A2A2A2A2A2A2A2A2A2A2A2A2A2A2A2A2A2A2A2A2A2A2A2A
310
2A2A2A2A2A2A2A2A2A2A2A2A2A2A2A2A2A2A2A2A2A2A2A2A2A2A2A2A2A2A2A2A2A2A2A2A2A2A2A2A2A2A2A2A2A2A2A2A2A2A2A2A2A2A2A2A2A2A2A2A2A2A2A2A2A2A2A2A2A2A2A2A2A2A2A2A2A2A2A2A2A2A2A2A2A2A2A2A2A2A2A2A2A2A2A2A2A2A2A2A2A2A2A2A2A2A2A2A2A2A2A2A2A2A2A2A2A2A2A2A2A2A2A2A2A2A2A
310
2A2A2A2A2A2A2A2A2A2A2A2A2A2A2A2A2A2A2A2A2A2A2A2A2A2A2A2A2A2A2A2A2A2A2A2A2A2A2A2A2A2A2A2A2A2A2A2A2A2A2A2A2A2A2A2A2A2A2A2A2A2A2A2A2A2A2A2A2A2A2A2A2A2A2A2A2A2A2A2A2A2A2A2A2A2A2A2A2A2A2A2A2A2A2A2A2A2A2A2A2A2A2A2A2A2A2A2A2A2A2A2A2A2A2A2A2A2A2A2A2A2A2A2A2A2A2A
310
2A2A2A2A2A2A2A2A2A2A2A2A2A2A2A2A2A2A2A2A2A2A2A2A2A2A2A2A2A2A2A2A2A2A2A2A2A2A2A2A2A2A2A2A2A2A2A2A2A2A2A2A2A2A2A2A2A2A2A2A2A2A2A2A2A2A2A2A2A2A2A2A2A2A2A2A2A2A2A2A2A2A2A2A2A2A2A2A2A2A2A2A2A2A2A2A2A2A2A2A2A2A2A2A2A2A2A2A2A2A2A2A2A2A2A2A2A2A2A2A2A2A2A2A2A2A2A
310
2A2A2A2A2A2A2A2A2A2A2A2A2A2A2A2A2A2A2A2A2A2A2A2A2A2A2A2A2A2A2A2A2A2A2A2A2A2A2A2A2A2A2A2A2A2A2A2A2A2A2A2A2A2A2A2A2A2A2A2A2A2A2A2A2A2A2A2A2A2A2A2A2A2A2A2A2A2A2A2A2A2A2A2A2A2A2A2A2A2A2A2A2A2A2A2A2A2A2A2A2A2A2A2A2A2A2A2A2A2A2A2A2A2A2A2A2A2A2A2A2A2A2A2A2A2A2A
310
2A2A2A2A2A2A2A2A2A2A2A2A2A2A2A2A2A2A2A2A2A2A2A2A2A2A2A2A2A2A2A2A2A2A2A2A2A2A2A2A2A2A2A2A2A2A2A2A2A2A2A2A2A2A2A2A2A2A2A2A2A2A2A2A2A2A2A2A2A2A2A2A2A2A2A2A2A2A2A2A2A2A2A2A2A2A2A2A2A2A2A2A2A2A2A2A2A2A2A2A2A2A2A2A2A2A2A2A2A2A2A2A2A2A2A2A2A2A2A2A2A2A2A2A2A2A2A
310
2A2A2A2A2A2A2A2A2A2A2A2A2A2A2A2A2A2A2A2A2A2A2A2A2A2A2A2A2A2A2A2A2A2A2A2A2A2A2A2A2A2A2A2A2A2A2A2A2A2A2A2A2A2A2A2A2A2A2A2A2A2A2A2A2A2A2A2A2A2A2A2A2A2A2A2A2A2A2A2A2A2A2A2A2A2A2A2A2A2A2A2A2A2A2A2A2A2A2A2A2A2A2A2A2A2A2A2A2A2A2A2A2A2A2A2A2A2A2A2A2A2A2A2A2A2A2A
310
2A2A2A2A2A2A2A2A2A2A2A2A2A2A2A2A2A2A2A2A2A2A2A2A2A2A2A2A2A2A2A2A2A2A2A2A2A2A2A2A2A2A2A2A2A2A2A2A2A2A2A2A2A2A2A2A2A2A2A2A2A2A2A2A2A2A2A2A2A2A2A2A2A2A2A2A2A2A2A2A2A2A2A2A2A2A2A2A2A2A2A2A2A2A2A2A2A2A2A2A2A2A2A2A2A2A2A2A2A2A2A2A2A2A2A2A2A2A2A2A2A2A2A2A2A2A2A
310
2A2A2A2A2A2A2A2A2A2A2A2A2A2A2A2A2A2A2A2A2A2A2A2A2A2A2A2A2A2A2A2A2A2A2A2A2A2A2A2A2A2A2A2A2A2A2A2A2A2A2A2A2A2A2A2A2A2A2A2A2A2A2A2A2A2A2A2A2A2A2A2A2A2A2A2A2A2A2A2A2A2A2A2A2A2A2A2A2A2A2A2A2A2A2A2A2A2A2A2A2A2A2A2A2A2A2A2A2A2A2A2A2A2A2A2A2A2A2A2A2A2A2A2A2A2A2A
310
2A2A2A2A2A2A2A2A2A2A2A2A2A2A2A2A2A2A2A2A2A2A2A2A2A2A2A2A2A2A2A2A2A2A2A2A2A2A2A2A2A2A2A2A2A2A2A2A2A2A2A2A2A2A2A2A2A2A2A2A2A2A2A2A2A2A2A2A2A2A2A2A2A2A2A2A2A2A2A2A2A2A2A2A2A2A2A2A2A2A2A2A2A2A2A2A2A2A2A2A2A2A2A2A2A2A2A2A2A2A2A2A2A2A2A2A2A2A2A2A2A2A2A2A2A2A2A
310
2A2A2A2A2A2A2A2A2A2A2A2A2A2A2A2A2A2A2A2A2A2A2A2A2A2A2A2A2A2A2A2A2A2A2A2A2A2A2A2A2A2A2A2A2A2A2A2A2A2A2A2A2A2A2A2A2A2A2A2A2A2A2A2A2A2A2A2A2A2A2A2A2A2A2A2A2A2A2A2A2A2A2A2A2A2A2A2A2A2A2A2A2A2A2A2A2A2A2A2A2A2A2A2A2A2A2A2A2A2A2A2A2A2A2A2A2A2A2A2A2A2A2A2A2A2A2A
310
2A2A2A2A2A2A2A2A2A2A2A2A2A2A2A2A2A2A2A2A2A2A2A2A2A2A2A2A2A2A2A2A2A2A2A2A2A2A2A2A2A2A2A2A2A2A2A2A2A2A2A2A2A2A2A2A2A2A2A2A2A2A2A2A2A2A2A2A2A2A2A2A2A2A2A2A0006152C1003262F043D1F0000450E121141394E4A4139010C0D201B0018344F004223444B3A41394E00414B3E2400462D0018
310
191B004729440B17411E4C4A410B3E0C00322D0031191B004929490914411E4C4A41093E0A00282D0031191B004829490B38411E4C00410B3E3B003C2D0031194F0031194F004323441D3841394C00411E4C0041394C004107270800332D00191C19051A41054A004127362100252D0034184F003530312716413F4A00413F
310
410F
  0
ENDSEC
  0
EOF
