  0
SECTION
  2
HEADER
  9
$ACADVER
  1
AC1027
  9
$ACADMAINTVER
 70
    55
  9
$DWGCODEPAGE
  3
ANSI_1252
  9
$AUTHOR
  1
WAEngineering1
  9
$LASTSAVEDBY
  1
WAMarketing2
  9
$REQUIREDVERSIONS
160
                 0
  9
$INSBASE
 10
0.0
 20
0.0
 30
0.0
  9
$EXTMIN
 10
-1326.938
 20
-2172.389
 30
0.0
  9
$EXTMAX
 10
8373.063
 20
1827.612
 30
0.0
  9
$LIMMIN
 10
-17461.696484
 20
-21157.147484
  9
$LIMMAX
 10
24507.821484
 20
20812.370484
  9
$ORTHOMODE
 70
     0
  9
$REGENMODE
 70
     1
  9
$FILLMODE
 70
     1
  9
$QTEXTMODE
 70
     0
  9
$MIRRTEXT
 70
     0
  9
$LTSCALE
 40
1.0
  9
$ATTMODE
 70
     1
  9
$TEXTSIZE
 40
100.0
  9
$TRACEWID
 40
0.05
  9
$TEXTSTYLE
  7
Standard
  9
$CLAYER
  8
Level 8
  9
$CELTYPE
  6
Continuous
  9
$CECOLOR
 62
    98
  9
$CELTSCALE
 40
1.0
  9
$DISPSILH
 70
     0
  9
$DIMSCALE
 40
1.0
  9
$DIMASZ
 40
0.18
  9
$DIMEXO
 40
0.0625
  9
$DIMDLI
 40
0.38
  9
$DIMRND
 40
0.0
  9
$DIMDLE
 40
0.0
  9
$DIMEXE
 40
0.18
  9
$DIMTP
 40
0.0
  9
$DIMTM
 40
0.0
  9
$DIMTXT
 40
0.18
  9
$DIMCEN
 40
0.09
  9
$DIMTSZ
 40
0.0
  9
$DIMTOL
 70
     0
  9
$DIMLIM
 70
     0
  9
$DIMTIH
 70
     1
  9
$DIMTOH
 70
     1
  9
$DIMSE1
 70
     0
  9
$DIMSE2
 70
     0
  9
$DIMTAD
 70
     0
  9
$DIMZIN
 70
     0
  9
$DIMBLK
  1

  9
$DIMASO
 70
     1
  9
$DIMSHO
 70
     1
  9
$DIMPOST
  1

  9
$DIMAPOST
  1

  9
$DIMALT
 70
     0
  9
$DIMALTD
 70
     2
  9
$DIMALTF
 40
25.4
  9
$DIMLFAC
 40
1.0
  9
$DIMTOFL
 70
     0
  9
$DIMTVP
 40
0.0
  9
$DIMTIX
 70
     0
  9
$DIMSOXD
 70
     0
  9
$DIMSAH
 70
     0
  9
$DIMBLK1
  1

  9
$DIMBLK2
  1

  9
$DIMSTYLE
  2
Standard
  9
$DIMCLRD
 70
     0
  9
$DIMCLRE
 70
     0
  9
$DIMCLRT
 70
     0
  9
$DIMTFAC
 40
1.0
  9
$DIMGAP
 40
0.09
  9
$DIMJUST
 70
     0
  9
$DIMSD1
 70
     0
  9
$DIMSD2
 70
     0
  9
$DIMTOLJ
 70
     1
  9
$DIMTZIN
 70
     0
  9
$DIMALTZ
 70
     0
  9
$DIMALTTZ
 70
     0
  9
$DIMUPT
 70
     0
  9
$DIMDEC
 70
     4
  9
$DIMTDEC
 70
     4
  9
$DIMALTU
 70
     2
  9
$DIMALTTD
 70
     2
  9
$DIMTXSTY
  7
Standard
  9
$DIMAUNIT
 70
     0
  9
$DIMADEC
 70
     0
  9
$DIMALTRND
 40
0.0
  9
$DIMAZIN
 70
     0
  9
$DIMDSEP
 70
    46
  9
$DIMATFIT
 70
     3
  9
$DIMFRAC
 70
     0
  9
$DIMLDRBLK
  1

  9
$DIMLUNIT
 70
     2
  9
$DIMLWD
 70
    -2
  9
$DIMLWE
 70
    -2
  9
$DIMTMOVE
 70
     0
  9
$DIMFXL
 40
1.0
  9
$DIMFXLON
 70
     0
  9
$DIMJOGANG
 40
0.785398
  9
$DIMTFILL
 70
     0
  9
$DIMTFILLCLR
 70
     0
  9
$DIMARCSYM
 70
     0
  9
$DIMLTYPE
  6

  9
$DIMLTEX1
  6

  9
$DIMLTEX2
  6

  9
$DIMTXTDIRECTION
 70
     0
  9
$LUNITS
 70
     2
  9
$LUPREC
 70
     0
  9
$SKETCHINC
 40
0.1
  9
$FILLETRAD
 40
0.0
  9
$AUNITS
 70
     0
  9
$AUPREC
 70
     0
  9
$MENU
  1
.
  9
$ELEVATION
 40
0.0
  9
$PELEVATION
 40
0.0
  9
$THICKNESS
 40
0.0
  9
$LIMCHECK
 70
     0
  9
$CHAMFERA
 40
0.0
  9
$CHAMFERB
 40
0.0
  9
$CHAMFERC
 40
0.0
  9
$CHAMFERD
 40
0.0
  9
$SKPOLY
 70
     0
  9
$TDCREATE
 40
2454145.111357350
  9
$TDUCREATE
 40
2454144.778024017
  9
$TDUPDATE
 40
2455657.145108565
  9
$TDUUPDATE
 40
2455656.811775231
  9
$TDINDWG
 40
0.0262180556
  9
$TDUSRTIMER
 40
0.0262178704
  9
$USRTIMER
 70
     1
  9
$ANGBASE
 50
0.0
  9
$ANGDIR
 70
     0
  9
$PDMODE
 70
     0
  9
$PDSIZE
 40
0.0
  9
$PLINEWID
 40
0.0
  9
$SPLFRAME
 70
     0
  9
$SPLINETYPE
 70
     6
  9
$SPLINESEGS
 70
     8
  9
$HANDSEED
  5
7034A
  9
$SURFTAB1
 70
     6
  9
$SURFTAB2
 70
     6
  9
$SURFTYPE
 70
     6
  9
$SURFU
 70
     6
  9
$SURFV
 70
     6
  9
$UCSBASE
  2

  9
$UCSNAME
  2

  9
$UCSORG
 10
0.0
 20
0.0
 30
0.0
  9
$UCSXDIR
 10
1.0
 20
0.0
 30
0.0
  9
$UCSYDIR
 10
0.0
 20
1.0
 30
0.0
  9
$UCSORTHOREF
  2

  9
$UCSORTHOVIEW
 70
     0
  9
$UCSORGTOP
 10
0.0
 20
0.0
 30
0.0
  9
$UCSORGBOTTOM
 10
0.0
 20
0.0
 30
0.0
  9
$UCSORGLEFT
 10
0.0
 20
0.0
 30
0.0
  9
$UCSORGRIGHT
 10
0.0
 20
0.0
 30
0.0
  9
$UCSORGFRONT
 10
0.0
 20
0.0
 30
0.0
  9
$UCSORGBACK
 10
0.0
 20
0.0
 30
0.0
  9
$PUCSBASE
  2

  9
$PUCSNAME
  2

  9
$PUCSORG
 10
0.0
 20
0.0
 30
0.0
  9
$PUCSXDIR
 10
1.0
 20
0.0
 30
0.0
  9
$PUCSYDIR
 10
0.0
 20
1.0
 30
0.0
  9
$PUCSORTHOREF
  2

  9
$PUCSORTHOVIEW
 70
     0
  9
$PUCSORGTOP
 10
0.0
 20
0.0
 30
0.0
  9
$PUCSORGBOTTOM
 10
0.0
 20
0.0
 30
0.0
  9
$PUCSORGLEFT
 10
0.0
 20
0.0
 30
0.0
  9
$PUCSORGRIGHT
 10
0.0
 20
0.0
 30
0.0
  9
$PUCSORGFRONT
 10
0.0
 20
0.0
 30
0.0
  9
$PUCSORGBACK
 10
0.0
 20
0.0
 30
0.0
  9
$USERI1
 70
     0
  9
$USERI2
 70
     0
  9
$USERI3
 70
     0
  9
$USERI4
 70
     0
  9
$USERI5
 70
     0
  9
$USERR1
 40
0.0
  9
$USERR2
 40
0.0
  9
$USERR3
 40
0.0
  9
$USERR4
 40
0.0
  9
$USERR5
 40
0.0
  9
$WORLDVIEW
 70
     1
  9
$SHADEDGE
 70
     3
  9
$SHADEDIF
 70
    70
  9
$TILEMODE
 70
     1
  9
$MAXACTVP
 70
    64
  9
$PINSBASE
 10
0.0
 20
0.0
 30
0.0
  9
$PLIMCHECK
 70
     0
  9
$PEXTMIN
 10
1.05
 20
0.8
 30
0.0
  9
$PEXTMAX
 10
9.45
 20
7.2
 30
0.0
  9
$PLIMMIN
 10
-0.25
 20
-0.25
  9
$PLIMMAX
 10
10.75
 20
8.25
  9
$UNITMODE
 70
     0
  9
$VISRETAIN
 70
     1
  9
$PLINEGEN
 70
     0
  9
$PSLTSCALE
 70
     0
  9
$TREEDEPTH
 70
  3020
  9
$CMLSTYLE
  2
Standard
  9
$CMLJUST
 70
     0
  9
$CMLSCALE
 40
1.0
  9
$PROXYGRAPHICS
 70
     1
  9
$MEASUREMENT
 70
     0
  9
$CELWEIGHT
370
     0
  9
$ENDCAPS
280
     0
  9
$JOINSTYLE
280
     0
  9
$LWDISPLAY
290
     1
  9
$INSUNITS
 70
     4
  9
$HYPERLINKBASE
  1

  9
$STYLESHEET
  1

  9
$XEDIT
290
     1
  9
$CEPSNTYPE
380
     0
  9
$PSTYLEMODE
290
     1
  9
$FINGERPRINTGUID
  2
{81E2AD91-3CCD-4CA7-8B7D-665030983B6E}
  9
$VERSIONGUID
  2
{5066CCA6-5121-4C7B-A04C-375F92FA871B}
  9
$EXTNAMES
290
     1
  9
$PSVPSCALE
 40
0.0
  9
$OLESTARTUP
290
     0
  9
$SORTENTS
280
   127
  9
$INDEXCTL
280
     0
  9
$HIDETEXT
280
     1
  9
$XCLIPFRAME
280
     0
  9
$HALOGAP
280
     0
  9
$OBSCOLOR
 70
   257
  9
$OBSLTYPE
280
     0
  9
$INTERSECTIONDISPLAY
280
     0
  9
$INTERSECTIONCOLOR
 70
   257
  9
$DIMASSOC
280
     1
  9
$PROJECTNAME
  1

  9
$CAMERADISPLAY
290
     0
  9
$LENSLENGTH
 40
50.0
  9
$CAMERAHEIGHT
 40
0.0
  9
$STEPSPERSEC
 40
2.0
  9
$STEPSIZE
 40
6.0
  9
$3DDWFPREC
 40
2.0
  9
$PSOLWIDTH
 40
0.25
  9
$PSOLHEIGHT
 40
4.0
  9
$LOFTANG1
 40
1.570796
  9
$LOFTANG2
 40
1.570796
  9
$LOFTMAG1
 40
0.0
  9
$LOFTMAG2
 40
0.0
  9
$LOFTPARAM
 70
     7
  9
$LOFTNORMALS
280
     1
  9
$LATITUDE
 40
37.795
  9
$LONGITUDE
 40
-122.394
  9
$NORTHDIRECTION
 40
0.0
  9
$TIMEZONE
 70
 -8000
  9
$LIGHTGLYPHDISPLAY
280
     1
  9
$TILEMODELIGHTSYNCH
280
     1
  9
$CMATERIAL
347
701ED
  9
$SOLIDHIST
280
     1
  9
$SHOWHIST
280
     1
  9
$DWFFRAME
280
     2
  9
$DGNFRAME
280
     0
  9
$REALWORLDSCALE
290
     1
  9
$INTERFERECOLOR
 62
     1
  9
$INTERFEREOBJVS
345
70204
  9
$INTERFEREVPVS
346
70205
  9
$CSHADOW
280
     0
  9
$SHADOWPLANELOCATION
 40
0.0
  0
ENDSEC
  0
SECTION
  2
CLASSES
  0
CLASS
  1
ACDBDICTIONARYWDFLT
  2
AcDbDictionaryWithDefault
  3
ObjectDBX Classes
 90
        0
 91
        1
280
     0
281
     0
  0
CLASS
  1
DICTIONARYVAR
  2
AcDbDictionaryVar
  3
ObjectDBX Classes
 90
        0
 91
        8
280
     0
281
     0
  0
CLASS
  1
TABLESTYLE
  2
AcDbTableStyle
  3
ObjectDBX Classes
 90
     4095
 91
        1
280
     0
281
     0
  0
CLASS
  1
MATERIAL
  2
AcDbMaterial
  3
ObjectDBX Classes
 90
     1153
 91
        3
280
     0
281
     0
  0
CLASS
  1
VISUALSTYLE
  2
AcDbVisualStyle
  3
ObjectDBX Classes
 90
     4095
 91
        3
280
     0
281
     0
  0
CLASS
  1
SCALE
  2
AcDbScale
  3
ObjectDBX Classes
 90
     1153
 91
       33
280
     0
281
     0
  0
CLASS
  1
MLEADERSTYLE
  2
AcDbMLeaderStyle
  3
ACDB_MLEADERSTYLE_CLASS
 90
     4095
 91
        0
280
     0
281
     0
  0
CLASS
  1
EXACXREFPANELOBJECT
  2
ExAcXREFPanelObject
  3
EXAC_ESW
 90
     1025
 91
        0
280
     1
281
     0
  0
CLASS
  1
NPOCOLLECTION
  2
AcDbImpNonPersistentObjectsCollection
  3
ObjectDBX Classes
 90
     1153
 91
        0
280
     0
281
     0
  0
CLASS
  1
CELLSTYLEMAP
  2
AcDbCellStyleMap
  3
ObjectDBX Classes
 90
     1152
 91
        1
280
     0
281
     0
  0
CLASS
  1
ACDBSECTIONVIEWSTYLE
  2
AcDbSectionViewStyle
  3
ObjectDBX Classes
 90
     1025
 91
        0
280
     0
281
     0
  0
CLASS
  1
ACDBDETAILVIEWSTYLE
  2
AcDbDetailViewStyle
  3
ObjectDBX Classes
 90
     1025
 91
        0
280
     0
281
     0
  0
CLASS
  1
SORTENTSTABLE
  2
AcDbSortentsTable
  3
ObjectDBX Classes
 90
        0
 91
        1
280
     0
281
     0
  0
ENDSEC
  0
SECTION
  2
TABLES
  0
TABLE
  2
VPORT
  5
701E1
330
0
100
AcDbSymbolTable
 70
     2
  0
VPORT
  5
4B
330
701E1
100
AcDbSymbolTableRecord
100
AcDbViewportTableRecord
  2
*ACTIVE
 70
     0
 10
0.0
 20
0.0
 11
1.0
 21
1.0
 12
3523.0625
 22
-172.3885
 13
0.0
 23
0.0
 14
1.0
 24
1.0
 15
1.0
 25
1.0
 16
0.0
 26
0.0
 36
1.0
 17
0.0
 27
0.0
 37
0.0
 40
4825.657484
 41
2.090493
 42
50.0
 43
0.0
 44
0.0
 50
0.0
 51
0.0
 71
     0
 72
   100
 73
     1
 74
     0
 75
     0
 76
     0
 77
     0
 78
     1
281
     0
 65
     1
110
0.0
120
0.0
130
0.0
111
1.0
121
0.0
131
0.0
112
0.0
122
1.0
132
0.0
 79
     0
146
0.0
 60
     3
 61
    10
292
     0
282
     1
141
0.0
142
0.0
 63
     7
421
 16777215
  0
ENDTAB
  0
TABLE
  2
LTYPE
  5
701DC
330
0
100
AcDbSymbolTable
 70
     2
  0
LTYPE
  5
701DD
330
701DC
100
AcDbSymbolTableRecord
100
AcDbLinetypeTableRecord
  2
ByBlock
 70
     0
  3

 72
    65
 73
     0
 40
0.0
  0
LTYPE
  5
701DE
330
701DC
100
AcDbSymbolTableRecord
100
AcDbLinetypeTableRecord
  2
ByLayer
 70
     0
  3

 72
    65
 73
     0
 40
0.0
  0
LTYPE
  5
701C9
330
701DC
100
AcDbSymbolTableRecord
100
AcDbLinetypeTableRecord
  2
Continuous
 70
     0
  3
Solid line
 72
    65
 73
     0
 40
0.0
  0
LTYPE
  5
7033D
330
701DC
100
AcDbSymbolTableRecord
100
AcDbLinetypeTableRecord
  2
DGN Style 2
 70
     0
  3
Dgn Style 2
 72
    65
 73
     2
 40
100.88001
 49
60.528006
 74
     0
 49
-40.352004
 74
     0
  0
ENDTAB
  0
TABLE
  2
LAYER
  5
701D6
102
{ACAD_XDICTIONARY
360
701D7
102
}
330
0
100
AcDbSymbolTable
 70
    65
  0
LAYER
  5
701BA
102
{ACAD_XDICTIONARY
360
701BB
102
}
330
701D6
100
AcDbSymbolTableRecord
100
AcDbLayerTableRecord
  2
0
 70
     0
 62
     7
  6
Continuous
370
    -3
390
701BD
347
701C0
348
0
1001
AcCmTransparency
1071
 33554687
  0
LAYER
  5
7
330
701D6
100
AcDbSymbolTableRecord
100
AcDbLayerTableRecord
  2
Level 1
 70
     0
 62
     7
  6
Continuous
370
     0
390
701BD
347
701C0
348
0
1001
AcCmTransparency
1071
 33554687
  0
LAYER
  5
8
330
701D6
100
AcDbSymbolTableRecord
100
AcDbLayerTableRecord
  2
Level 2
 70
     0
 62
     7
  6
Continuous
370
     0
390
701BD
347
701C0
348
0
1001
AcCmTransparency
1071
 33554687
  0
LAYER
  5
9
330
701D6
100
AcDbSymbolTableRecord
100
AcDbLayerTableRecord
  2
Level 3
 70
     0
 62
     7
  6
Continuous
370
     0
390
701BD
347
701C0
348
0
1001
AcCmTransparency
1071
 33554687
  0
LAYER
  5
A
330
701D6
100
AcDbSymbolTableRecord
100
AcDbLayerTableRecord
  2
Level 4
 70
     0
 62
     7
  6
Continuous
370
     0
390
701BD
347
701C0
348
0
1001
AcCmTransparency
1071
 33554687
  0
LAYER
  5
B
330
701D6
100
AcDbSymbolTableRecord
100
AcDbLayerTableRecord
  2
Level 5
 70
     0
 62
     7
  6
Continuous
370
     0
390
701BD
347
701C0
348
0
1001
AcCmTransparency
1071
 33554687
  0
LAYER
  5
C
330
701D6
100
AcDbSymbolTableRecord
100
AcDbLayerTableRecord
  2
Level 6
 70
     0
 62
     7
  6
Continuous
370
     0
390
701BD
347
701C0
348
0
1001
AcCmTransparency
1071
 33554687
  0
LAYER
  5
D
330
701D6
100
AcDbSymbolTableRecord
100
AcDbLayerTableRecord
  2
Level 7
 70
     0
 62
     7
  6
Continuous
370
     0
390
701BD
347
701C0
348
0
1001
AcCmTransparency
1071
 33554687
  0
LAYER
  5
E
330
701D6
100
AcDbSymbolTableRecord
100
AcDbLayerTableRecord
  2
Level 8
 70
     0
 62
     7
  6
Continuous
370
     0
390
701BD
347
701C0
348
0
1001
AcCmTransparency
1071
 33554687
  0
LAYER
  5
F
330
701D6
100
AcDbSymbolTableRecord
100
AcDbLayerTableRecord
  2
Level 9
 70
     0
 62
     7
  6
Continuous
370
     0
390
701BD
347
701C0
348
0
1001
AcCmTransparency
1071
 33554687
  0
LAYER
  5
10
330
701D6
100
AcDbSymbolTableRecord
100
AcDbLayerTableRecord
  2
Level 10
 70
     0
 62
     7
  6
Continuous
370
     0
390
701BD
347
701C0
348
0
1001
AcCmTransparency
1071
 33554687
  0
LAYER
  5
11
330
701D6
100
AcDbSymbolTableRecord
100
AcDbLayerTableRecord
  2
Level 11
 70
     0
 62
     7
  6
Continuous
370
     0
390
701BD
347
701C0
348
0
1001
AcCmTransparency
1071
 33554687
  0
LAYER
  5
12
330
701D6
100
AcDbSymbolTableRecord
100
AcDbLayerTableRecord
  2
Level 12
 70
     0
 62
     7
  6
Continuous
370
     0
390
701BD
347
701C0
348
0
1001
AcCmTransparency
1071
 33554687
  0
LAYER
  5
13
330
701D6
100
AcDbSymbolTableRecord
100
AcDbLayerTableRecord
  2
Level 13
 70
     0
 62
     7
  6
Continuous
370
     0
390
701BD
347
701C0
348
0
1001
AcCmTransparency
1071
 33554687
  0
LAYER
  5
14
330
701D6
100
AcDbSymbolTableRecord
100
AcDbLayerTableRecord
  2
Level 14
 70
     0
 62
     7
  6
Continuous
370
     0
390
701BD
347
701C0
348
0
1001
AcCmTransparency
1071
 33554687
  0
LAYER
  5
15
330
701D6
100
AcDbSymbolTableRecord
100
AcDbLayerTableRecord
  2
Level 15
 70
     0
 62
     7
  6
Continuous
370
     0
390
701BD
347
701C0
348
0
1001
AcCmTransparency
1071
 33554687
  0
LAYER
  5
16
330
701D6
100
AcDbSymbolTableRecord
100
AcDbLayerTableRecord
  2
Level 16
 70
     0
 62
     7
  6
Continuous
370
     0
390
701BD
347
701C0
348
0
1001
AcCmTransparency
1071
 33554687
  0
LAYER
  5
17
330
701D6
100
AcDbSymbolTableRecord
100
AcDbLayerTableRecord
  2
Level 17
 70
     0
 62
     7
  6
Continuous
370
     0
390
701BD
347
701C0
348
0
1001
AcCmTransparency
1071
 33554687
  0
LAYER
  5
18
330
701D6
100
AcDbSymbolTableRecord
100
AcDbLayerTableRecord
  2
Level 18
 70
     0
 62
     7
  6
Continuous
370
     0
390
701BD
347
701C0
348
0
1001
AcCmTransparency
1071
 33554687
  0
LAYER
  5
19
330
701D6
100
AcDbSymbolTableRecord
100
AcDbLayerTableRecord
  2
Level 19
 70
     0
 62
     7
  6
Continuous
370
     0
390
701BD
347
701C0
348
0
1001
AcCmTransparency
1071
 33554687
  0
LAYER
  5
1A
330
701D6
100
AcDbSymbolTableRecord
100
AcDbLayerTableRecord
  2
Level 20
 70
     0
 62
     7
  6
Continuous
370
     0
390
701BD
347
701C0
348
0
1001
AcCmTransparency
1071
 33554687
  0
LAYER
  5
1B
330
701D6
100
AcDbSymbolTableRecord
100
AcDbLayerTableRecord
  2
Level 21
 70
     0
 62
     7
  6
Continuous
370
     0
390
701BD
347
701C0
348
0
1001
AcCmTransparency
1071
 33554687
  0
LAYER
  5
1C
330
701D6
100
AcDbSymbolTableRecord
100
AcDbLayerTableRecord
  2
Level 22
 70
     0
 62
     7
  6
Continuous
370
     0
390
701BD
347
701C0
348
0
1001
AcCmTransparency
1071
 33554687
  0
LAYER
  5
1D
330
701D6
100
AcDbSymbolTableRecord
100
AcDbLayerTableRecord
  2
Level 23
 70
     0
 62
     7
  6
Continuous
370
     0
390
701BD
347
701C0
348
0
1001
AcCmTransparency
1071
 33554687
  0
LAYER
  5
1E
330
701D6
100
AcDbSymbolTableRecord
100
AcDbLayerTableRecord
  2
Level 24
 70
     0
 62
     7
  6
Continuous
370
     0
390
701BD
347
701C0
348
0
1001
AcCmTransparency
1071
 33554687
  0
LAYER
  5
1F
330
701D6
100
AcDbSymbolTableRecord
100
AcDbLayerTableRecord
  2
Level 25
 70
     0
 62
     7
  6
Continuous
370
     0
390
701BD
347
701C0
348
0
1001
AcCmTransparency
1071
 33554687
  0
LAYER
  5
20
330
701D6
100
AcDbSymbolTableRecord
100
AcDbLayerTableRecord
  2
Level 26
 70
     0
 62
     7
  6
Continuous
370
     0
390
701BD
347
701C0
348
0
1001
AcCmTransparency
1071
 33554687
  0
LAYER
  5
21
330
701D6
100
AcDbSymbolTableRecord
100
AcDbLayerTableRecord
  2
Level 27
 70
     0
 62
     7
  6
Continuous
370
     0
390
701BD
347
701C0
348
0
1001
AcCmTransparency
1071
 33554687
  0
LAYER
  5
22
330
701D6
100
AcDbSymbolTableRecord
100
AcDbLayerTableRecord
  2
Level 28
 70
     0
 62
     7
  6
Continuous
370
     0
390
701BD
347
701C0
348
0
1001
AcCmTransparency
1071
 33554687
  0
LAYER
  5
23
330
701D6
100
AcDbSymbolTableRecord
100
AcDbLayerTableRecord
  2
Level 29
 70
     0
 62
     7
  6
Continuous
370
     0
390
701BD
347
701C0
348
0
1001
AcCmTransparency
1071
 33554687
  0
LAYER
  5
24
330
701D6
100
AcDbSymbolTableRecord
100
AcDbLayerTableRecord
  2
Level 30
 70
     0
 62
     7
  6
Continuous
370
     0
390
701BD
347
701C0
348
0
1001
AcCmTransparency
1071
 33554687
  0
LAYER
  5
25
330
701D6
100
AcDbSymbolTableRecord
100
AcDbLayerTableRecord
  2
Level 31
 70
     0
 62
     7
  6
Continuous
370
     0
390
701BD
347
701C0
348
0
1001
AcCmTransparency
1071
 33554687
  0
LAYER
  5
26
330
701D6
100
AcDbSymbolTableRecord
100
AcDbLayerTableRecord
  2
Level 32
 70
     0
 62
     7
  6
Continuous
370
     0
390
701BD
347
701C0
348
0
1001
AcCmTransparency
1071
 33554687
  0
LAYER
  5
27
330
701D6
100
AcDbSymbolTableRecord
100
AcDbLayerTableRecord
  2
Level 33
 70
     0
 62
     7
  6
Continuous
370
     0
390
701BD
347
701C0
348
0
1001
AcCmTransparency
1071
 33554687
  0
LAYER
  5
28
330
701D6
100
AcDbSymbolTableRecord
100
AcDbLayerTableRecord
  2
Level 34
 70
     0
 62
     7
  6
Continuous
370
     0
390
701BD
347
701C0
348
0
1001
AcCmTransparency
1071
 33554687
  0
LAYER
  5
29
330
701D6
100
AcDbSymbolTableRecord
100
AcDbLayerTableRecord
  2
Level 35
 70
     0
 62
     7
  6
Continuous
370
     0
390
701BD
347
701C0
348
0
1001
AcCmTransparency
1071
 33554687
  0
LAYER
  5
2A
330
701D6
100
AcDbSymbolTableRecord
100
AcDbLayerTableRecord
  2
Level 36
 70
     0
 62
     7
  6
Continuous
370
     0
390
701BD
347
701C0
348
0
1001
AcCmTransparency
1071
 33554687
  0
LAYER
  5
2B
330
701D6
100
AcDbSymbolTableRecord
100
AcDbLayerTableRecord
  2
Level 37
 70
     0
 62
     7
  6
Continuous
370
     0
390
701BD
347
701C0
348
0
1001
AcCmTransparency
1071
 33554687
  0
LAYER
  5
2C
330
701D6
100
AcDbSymbolTableRecord
100
AcDbLayerTableRecord
  2
Level 38
 70
     0
 62
     7
  6
Continuous
370
     0
390
701BD
347
701C0
348
0
1001
AcCmTransparency
1071
 33554687
  0
LAYER
  5
2D
330
701D6
100
AcDbSymbolTableRecord
100
AcDbLayerTableRecord
  2
Level 39
 70
     0
 62
     7
  6
Continuous
370
     0
390
701BD
347
701C0
348
0
1001
AcCmTransparency
1071
 33554687
  0
LAYER
  5
2E
330
701D6
100
AcDbSymbolTableRecord
100
AcDbLayerTableRecord
  2
Level 40
 70
     0
 62
     7
  6
Continuous
370
     0
390
701BD
347
701C0
348
0
1001
AcCmTransparency
1071
 33554687
  0
LAYER
  5
2F
330
701D6
100
AcDbSymbolTableRecord
100
AcDbLayerTableRecord
  2
Level 41
 70
     0
 62
     7
  6
Continuous
370
     0
390
701BD
347
701C0
348
0
1001
AcCmTransparency
1071
 33554687
  0
LAYER
  5
30
330
701D6
100
AcDbSymbolTableRecord
100
AcDbLayerTableRecord
  2
Level 42
 70
     0
 62
     7
  6
Continuous
370
     0
390
701BD
347
701C0
348
0
1001
AcCmTransparency
1071
 33554687
  0
LAYER
  5
31
330
701D6
100
AcDbSymbolTableRecord
100
AcDbLayerTableRecord
  2
Level 43
 70
     0
 62
     7
  6
Continuous
370
     0
390
701BD
347
701C0
348
0
1001
AcCmTransparency
1071
 33554687
  0
LAYER
  5
32
330
701D6
100
AcDbSymbolTableRecord
100
AcDbLayerTableRecord
  2
Level 44
 70
     0
 62
     7
  6
Continuous
370
     0
390
701BD
347
701C0
348
0
1001
AcCmTransparency
1071
 33554687
  0
LAYER
  5
33
330
701D6
100
AcDbSymbolTableRecord
100
AcDbLayerTableRecord
  2
Level 45
 70
     0
 62
     7
  6
Continuous
370
     0
390
701BD
347
701C0
348
0
1001
AcCmTransparency
1071
 33554687
  0
LAYER
  5
34
330
701D6
100
AcDbSymbolTableRecord
100
AcDbLayerTableRecord
  2
Level 46
 70
     0
 62
     7
  6
Continuous
370
     0
390
701BD
347
701C0
348
0
1001
AcCmTransparency
1071
 33554687
  0
LAYER
  5
35
330
701D6
100
AcDbSymbolTableRecord
100
AcDbLayerTableRecord
  2
Level 47
 70
     0
 62
     7
  6
Continuous
370
     0
390
701BD
347
701C0
348
0
1001
AcCmTransparency
1071
 33554687
  0
LAYER
  5
36
330
701D6
100
AcDbSymbolTableRecord
100
AcDbLayerTableRecord
  2
Level 48
 70
     0
 62
     7
  6
Continuous
370
     0
390
701BD
347
701C0
348
0
1001
AcCmTransparency
1071
 33554687
  0
LAYER
  5
37
330
701D6
100
AcDbSymbolTableRecord
100
AcDbLayerTableRecord
  2
Level 49
 70
     0
 62
     7
  6
Continuous
370
     0
390
701BD
347
701C0
348
0
1001
AcCmTransparency
1071
 33554687
  0
LAYER
  5
38
330
701D6
100
AcDbSymbolTableRecord
100
AcDbLayerTableRecord
  2
Level 50
 70
     0
 62
     7
  6
Continuous
370
     0
390
701BD
347
701C0
348
0
1001
AcCmTransparency
1071
 33554687
  0
LAYER
  5
39
330
701D6
100
AcDbSymbolTableRecord
100
AcDbLayerTableRecord
  2
Level 51
 70
     0
 62
     7
  6
Continuous
370
     0
390
701BD
347
701C0
348
0
1001
AcCmTransparency
1071
 33554687
  0
LAYER
  5
3A
330
701D6
100
AcDbSymbolTableRecord
100
AcDbLayerTableRecord
  2
Level 52
 70
     0
 62
     7
  6
Continuous
370
     0
390
701BD
347
701C0
348
0
1001
AcCmTransparency
1071
 33554687
  0
LAYER
  5
3B
330
701D6
100
AcDbSymbolTableRecord
100
AcDbLayerTableRecord
  2
Level 53
 70
     0
 62
     7
  6
Continuous
370
     0
390
701BD
347
701C0
348
0
1001
AcCmTransparency
1071
 33554687
  0
LAYER
  5
3C
330
701D6
100
AcDbSymbolTableRecord
100
AcDbLayerTableRecord
  2
Level 54
 70
     0
 62
     7
  6
Continuous
370
     0
390
701BD
347
701C0
348
0
1001
AcCmTransparency
1071
 33554687
  0
LAYER
  5
3D
330
701D6
100
AcDbSymbolTableRecord
100
AcDbLayerTableRecord
  2
Level 55
 70
     0
 62
     7
  6
Continuous
370
     0
390
701BD
347
701C0
348
0
1001
AcCmTransparency
1071
 33554687
  0
LAYER
  5
3E
330
701D6
100
AcDbSymbolTableRecord
100
AcDbLayerTableRecord
  2
Level 56
 70
     0
 62
     7
  6
Continuous
370
     0
390
701BD
347
701C0
348
0
1001
AcCmTransparency
1071
 33554687
  0
LAYER
  5
3F
330
701D6
100
AcDbSymbolTableRecord
100
AcDbLayerTableRecord
  2
Level 57
 70
     0
 62
     7
  6
Continuous
370
     0
390
701BD
347
701C0
348
0
1001
AcCmTransparency
1071
 33554687
  0
LAYER
  5
40
330
701D6
100
AcDbSymbolTableRecord
100
AcDbLayerTableRecord
  2
Level 58
 70
     0
 62
     7
  6
Continuous
370
     0
390
701BD
347
701C0
348
0
1001
AcCmTransparency
1071
 33554687
  0
LAYER
  5
41
330
701D6
100
AcDbSymbolTableRecord
100
AcDbLayerTableRecord
  2
Level 59
 70
     0
 62
     7
  6
Continuous
370
     0
390
701BD
347
701C0
348
0
1001
AcCmTransparency
1071
 33554687
  0
LAYER
  5
42
330
701D6
100
AcDbSymbolTableRecord
100
AcDbLayerTableRecord
  2
Level 60
 70
     0
 62
     7
  6
Continuous
370
     0
390
701BD
347
701C0
348
0
1001
AcCmTransparency
1071
 33554687
  0
LAYER
  5
43
330
701D6
100
AcDbSymbolTableRecord
100
AcDbLayerTableRecord
  2
Level 61
 70
     0
 62
     7
  6
Continuous
370
     0
390
701BD
347
701C0
348
0
1001
AcCmTransparency
1071
 33554687
  0
LAYER
  5
44
330
701D6
100
AcDbSymbolTableRecord
100
AcDbLayerTableRecord
  2
Level 62
 70
     0
 62
     7
  6
Continuous
370
     0
390
701BD
347
701C0
348
0
1001
AcCmTransparency
1071
 33554687
  0
LAYER
  5
45
330
701D6
100
AcDbSymbolTableRecord
100
AcDbLayerTableRecord
  2
Level 63
 70
     0
 62
     7
  6
Continuous
370
     0
390
701BD
347
701C0
348
0
1001
AcCmTransparency
1071
 33554687
  0
LAYER
  5
50CA0
330
701D6
100
AcDbSymbolTableRecord
100
AcDbLayerTableRecord
  2
25
 70
     0
 62
     7
  6
Continuous
370
     0
390
701BD
347
701C0
348
0
1001
AcCmTransparency
1071
 33554687
  0
ENDTAB
  0
TABLE
  2
STYLE
  5
701D9
330
0
100
AcDbSymbolTable
 70
     1
  0
STYLE
  5
701DA
330
701D9
100
AcDbSymbolTableRecord
100
AcDbTextStyleTableRecord
  2
Standard
 70
     0
 40
0.0
 41
1.0
 50
0.0
 71
     0
 42
100.0
  3
txt
  4

  0
ENDTAB
  0
TABLE
  2
VIEW
  5
701DF
330
0
100
AcDbSymbolTable
 70
     0
  0
ENDTAB
  0
TABLE
  2
UCS
  5
701E0
330
0
100
AcDbSymbolTable
 70
     0
  0
ENDTAB
  0
TABLE
  2
APPID
  5
701E5
330
0
100
AcDbSymbolTable
 70
     3
  0
APPID
  5
701E6
330
701E5
100
AcDbSymbolTableRecord
100
AcDbRegAppTableRecord
  2
ACAD
 70
     0
  0
APPID
  5
701D5
330
701E5
100
AcDbSymbolTableRecord
100
AcDbRegAppTableRecord
  2
ACAD_PSEXT
 70
     0
  0
APPID
  5
70229
330
701E5
100
AcDbSymbolTableRecord
100
AcDbRegAppTableRecord
  2
AcCmTransparency
 70
     0
  0
ENDTAB
  0
TABLE
  2
DIMSTYLE
  5
701E7
330
0
100
AcDbSymbolTable
 70
     1
100
AcDbDimStyleTable
 71
     1
340
701E8
  0
DIMSTYLE
105
701E8
330
701E7
100
AcDbSymbolTableRecord
100
AcDbDimStyleTableRecord
  2
Standard
 70
     0
340
701DA
  0
ENDTAB
  0
TABLE
  2
BLOCK_RECORD
  5
701B7
330
0
100
AcDbSymbolTable
 70
    88
  0
BLOCK_RECORD
  5
701B8
330
701B7
100
AcDbSymbolTableRecord
100
AcDbBlockTableRecord
  2
*Model_Space
340
701CB
 70
     0
280
     1
281
     0
  0
BLOCK_RECORD
  5
701CF
330
701B7
100
AcDbSymbolTableRecord
100
AcDbBlockTableRecord
  2
*Paper_Space
340
701D2
 70
     0
280
     1
281
     0
  0
BLOCK_RECORD
  5
7015A
330
701B7
100
AcDbSymbolTableRecord
100
AcDbBlockTableRecord
  2
*U0
340
0
 70
     0
280
     1
281
     0
  0
BLOCK_RECORD
  5
70162
330
701B7
100
AcDbSymbolTableRecord
100
AcDbBlockTableRecord
  2
*U1
340
0
 70
     0
280
     1
281
     0
  0
BLOCK_RECORD
  5
7016B
330
701B7
100
AcDbSymbolTableRecord
100
AcDbBlockTableRecord
  2
*U2
340
0
 70
     0
280
     1
281
     0
  0
BLOCK_RECORD
  5
7016D
330
701B7
100
AcDbSymbolTableRecord
100
AcDbBlockTableRecord
  2
*U3
340
0
 70
     0
280
     1
281
     0
  0
BLOCK_RECORD
  5
7016F
330
701B7
100
AcDbSymbolTableRecord
100
AcDbBlockTableRecord
  2
*U4
340
0
 70
     0
280
     1
281
     0
  0
BLOCK_RECORD
  5
7017E
330
701B7
100
AcDbSymbolTableRecord
100
AcDbBlockTableRecord
  2
*U5
340
0
 70
     0
280
     1
281
     0
  0
BLOCK_RECORD
  5
70180
330
701B7
100
AcDbSymbolTableRecord
100
AcDbBlockTableRecord
  2
*U6
340
0
 70
     0
280
     1
281
     0
  0
BLOCK_RECORD
  5
7018A
330
701B7
100
AcDbSymbolTableRecord
100
AcDbBlockTableRecord
  2
*U7
340
0
 70
     0
280
     1
281
     0
  0
BLOCK_RECORD
  5
7024B
102
{ACAD_XDICTIONARY
360
7033B
102
}
330
701B7
100
AcDbSymbolTableRecord
100
AcDbBlockTableRecord
  2
FS30
340
0
102
{BLKREFS
331
6FDA4
102
}
 70
     0
280
     1
281
     0
  0
BLOCK_RECORD
  5
7024E
330
701B7
100
AcDbSymbolTableRecord
100
AcDbBlockTableRecord
  2
From Solid
340
0
102
{BLKREFS
331
7018E
102
}
 70
     0
280
     1
281
     0
  0
BLOCK_RECORD
  5
70251
330
701B7
100
AcDbSymbolTableRecord
100
AcDbBlockTableRecord
  2
Feature Solid
340
0
102
{BLKREFS
331
6FDCD
102
}
 70
     0
280
     1
281
     0
  0
BLOCK_RECORD
  5
70254
330
701B7
100
AcDbSymbolTableRecord
100
AcDbBlockTableRecord
  2
SUBTRC
340
0
102
{BLKREFS
331
6FDCE
102
}
 70
     0
280
     1
281
     0
  0
BLOCK_RECORD
  5
70257
330
701B7
100
AcDbSymbolTableRecord
100
AcDbBlockTableRecord
  2
Feature Solid_1
340
0
102
{BLKREFS
331
6FDCF
102
}
 70
     0
280
     1
281
     0
  0
BLOCK_RECORD
  5
7025A
330
701B7
100
AcDbSymbolTableRecord
100
AcDbBlockTableRecord
  2
DDPROJ
340
0
102
{BLKREFS
331
6FDD0
102
}
 70
     0
280
     1
281
     0
  0
BLOCK_RECORD
  5
7025D
330
701B7
100
AcDbSymbolTableRecord
100
AcDbBlockTableRecord
  2
Feature Solid_2
340
0
102
{BLKREFS
331
6FDE7
102
}
 70
     0
280
     1
281
     0
  0
BLOCK_RECORD
  5
70260
330
701B7
100
AcDbSymbolTableRecord
100
AcDbBlockTableRecord
  2
DDPROJ_1
340
0
102
{BLKREFS
331
6FDE8
102
}
 70
     0
280
     1
281
     0
  0
BLOCK_RECORD
  5
70263
330
701B7
100
AcDbSymbolTableRecord
100
AcDbBlockTableRecord
  2
Feature Solid_3
340
0
102
{BLKREFS
331
6FE00
102
}
 70
     0
280
     1
281
     0
  0
BLOCK_RECORD
  5
70266
330
701B7
100
AcDbSymbolTableRecord
100
AcDbBlockTableRecord
  2
SUBTRC_1
340
0
102
{BLKREFS
331
6FE01
102
}
 70
     0
280
     1
281
     0
  0
BLOCK_RECORD
  5
70269
330
701B7
100
AcDbSymbolTableRecord
100
AcDbBlockTableRecord
  2
Feature Solid_4
340
0
102
{BLKREFS
331
6FE02
102
}
 70
     0
280
     1
281
     0
  0
BLOCK_RECORD
  5
7026C
330
701B7
100
AcDbSymbolTableRecord
100
AcDbBlockTableRecord
  2
DDPROJ_2
340
0
102
{BLKREFS
331
6FE03
102
}
 70
     0
280
     1
281
     0
  0
BLOCK_RECORD
  5
7026F
330
701B7
100
AcDbSymbolTableRecord
100
AcDbBlockTableRecord
  2
Feature Solid_5
340
0
102
{BLKREFS
331
6FE1A
102
}
 70
     0
280
     1
281
     0
  0
BLOCK_RECORD
  5
70272
330
701B7
100
AcDbSymbolTableRecord
100
AcDbBlockTableRecord
  2
DDPROJ_3
340
0
102
{BLKREFS
331
6FE1B
102
}
 70
     0
280
     1
281
     0
  0
BLOCK_RECORD
  5
70275
330
701B7
100
AcDbSymbolTableRecord
100
AcDbBlockTableRecord
  2
Feature Solid_6
340
0
102
{BLKREFS
331
6FE33
102
}
 70
     0
280
     1
281
     0
  0
BLOCK_RECORD
  5
70278
330
701B7
100
AcDbSymbolTableRecord
100
AcDbBlockTableRecord
  2
SUBTRC_2
340
0
102
{BLKREFS
331
6FE34
102
}
 70
     0
280
     1
281
     0
  0
BLOCK_RECORD
  5
7027B
330
701B7
100
AcDbSymbolTableRecord
100
AcDbBlockTableRecord
  2
Feature Solid_7
340
0
102
{BLKREFS
331
6FE35
102
}
 70
     0
280
     1
281
     0
  0
BLOCK_RECORD
  5
7027E
330
701B7
100
AcDbSymbolTableRecord
100
AcDbBlockTableRecord
  2
DDPROJ_4
340
0
102
{BLKREFS
331
6FE36
102
}
 70
     0
280
     1
281
     0
  0
BLOCK_RECORD
  5
70281
330
701B7
100
AcDbSymbolTableRecord
100
AcDbBlockTableRecord
  2
Feature Solid_8
340
0
102
{BLKREFS
331
6FE4D
102
}
 70
     0
280
     1
281
     0
  0
BLOCK_RECORD
  5
70284
330
701B7
100
AcDbSymbolTableRecord
100
AcDbBlockTableRecord
  2
DDPROJ_5
340
0
102
{BLKREFS
331
6FE4E
102
}
 70
     0
280
     1
281
     0
  0
BLOCK_RECORD
  5
70287
330
701B7
100
AcDbSymbolTableRecord
100
AcDbBlockTableRecord
  2
Smart Solid
340
0
102
{BLKREFS
331
6FE66
102
}
 70
     0
280
     1
281
     0
  0
BLOCK_RECORD
  5
7028A
330
701B7
100
AcDbSymbolTableRecord
100
AcDbBlockTableRecord
  2
Smart Solid_1
340
0
102
{BLKREFS
331
6FE76
102
}
 70
     0
280
     1
281
     0
  0
BLOCK_RECORD
  5
7028D
330
701B7
100
AcDbSymbolTableRecord
100
AcDbBlockTableRecord
  2
Smart Solid_2
340
0
102
{BLKREFS
331
6FE9A
102
}
 70
     0
280
     1
281
     0
  0
BLOCK_RECORD
  5
70290
330
701B7
100
AcDbSymbolTableRecord
100
AcDbBlockTableRecord
  2
From Solid_1
340
0
102
{BLKREFS
331
7018F
102
}
 70
     0
280
     1
281
     0
  0
BLOCK_RECORD
  5
70293
330
701B7
100
AcDbSymbolTableRecord
100
AcDbBlockTableRecord
  2
Smart Solid_3
340
0
102
{BLKREFS
331
6FEC5
102
}
 70
     0
280
     1
281
     0
  0
BLOCK_RECORD
  5
70296
330
701B7
100
AcDbSymbolTableRecord
100
AcDbBlockTableRecord
  2
From Solid_2
340
0
102
{BLKREFS
331
70190
102
}
 70
     0
280
     1
281
     0
  0
BLOCK_RECORD
  5
70299
330
701B7
100
AcDbSymbolTableRecord
100
AcDbBlockTableRecord
  2
Feature Solid_9
340
0
102
{BLKREFS
331
6FEED
102
}
 70
     0
280
     1
281
     0
  0
BLOCK_RECORD
  5
7029C
330
701B7
100
AcDbSymbolTableRecord
100
AcDbBlockTableRecord
  2
CUT
340
0
102
{BLKREFS
331
6FEEE
102
}
 70
     0
280
     1
281
     0
  0
BLOCK_RECORD
  5
7029F
330
701B7
100
AcDbSymbolTableRecord
100
AcDbBlockTableRecord
  2
CUT_1
340
0
102
{BLKREFS
331
6FEEF
102
}
 70
     0
280
     1
281
     0
  0
BLOCK_RECORD
  5
702A2
330
701B7
100
AcDbSymbolTableRecord
100
AcDbBlockTableRecord
  2
SOLID
340
0
102
{BLKREFS
331
6FEF0
102
}
 70
     0
280
     1
281
     0
  0
BLOCK_RECORD
  5
702A5
330
701B7
100
AcDbSymbolTableRecord
100
AcDbBlockTableRecord
  2
From Solid_3
340
0
102
{BLKREFS
331
70191
102
}
 70
     0
280
     1
281
     0
  0
BLOCK_RECORD
  5
702A8
330
701B7
100
AcDbSymbolTableRecord
100
AcDbBlockTableRecord
  2
Smart Solid_4
340
0
102
{BLKREFS
331
6FF22
102
}
 70
     0
280
     1
281
     0
  0
BLOCK_RECORD
  5
702AB
330
701B7
100
AcDbSymbolTableRecord
100
AcDbBlockTableRecord
  2
Feature Solid_10
340
0
102
{BLKREFS
331
6FF4A
102
}
 70
     0
280
     1
281
     0
  0
BLOCK_RECORD
  5
702AE
330
701B7
100
AcDbSymbolTableRecord
100
AcDbBlockTableRecord
  2
CONE
340
0
102
{BLKREFS
331
6FF4B
102
}
 70
     0
280
     1
281
     0
  0
BLOCK_RECORD
  5
702B1
330
701B7
100
AcDbSymbolTableRecord
100
AcDbBlockTableRecord
  2
Feature Solid_11
340
0
102
{BLKREFS
331
6FF52
102
}
 70
     0
280
     1
281
     0
  0
BLOCK_RECORD
  5
702B4
330
701B7
100
AcDbSymbolTableRecord
100
AcDbBlockTableRecord
  2
HOLE
340
0
102
{BLKREFS
331
6FF53
102
}
 70
     0
280
     1
281
     0
  0
BLOCK_RECORD
  5
702B7
330
701B7
100
AcDbSymbolTableRecord
100
AcDbBlockTableRecord
  2
HOLE_1
340
0
102
{BLKREFS
331
6FF54
102
}
 70
     0
280
     1
281
     0
  0
BLOCK_RECORD
  5
702BA
330
701B7
100
AcDbSymbolTableRecord
100
AcDbBlockTableRecord
  2
HOLE_2
340
0
102
{BLKREFS
331
6FF55
102
}
 70
     0
280
     1
281
     0
  0
BLOCK_RECORD
  5
702BD
330
701B7
100
AcDbSymbolTableRecord
100
AcDbBlockTableRecord
  2
HOLE_3
340
0
102
{BLKREFS
331
6FF56
102
}
 70
     0
280
     1
281
     0
  0
BLOCK_RECORD
  5
702C0
330
701B7
100
AcDbSymbolTableRecord
100
AcDbBlockTableRecord
  2
HOLE_4
340
0
102
{BLKREFS
331
6FF57
102
}
 70
     0
280
     1
281
     0
  0
BLOCK_RECORD
  5
702C3
330
701B7
100
AcDbSymbolTableRecord
100
AcDbBlockTableRecord
  2
ROUNDE
340
0
102
{BLKREFS
331
6FF58
102
}
 70
     0
280
     1
281
     0
  0
BLOCK_RECORD
  5
702C6
330
701B7
100
AcDbSymbolTableRecord
100
AcDbBlockTableRecord
  2
ROUNDE_1
340
0
102
{BLKREFS
331
6FF59
102
}
 70
     0
280
     1
281
     0
  0
BLOCK_RECORD
  5
702C9
330
701B7
100
AcDbSymbolTableRecord
100
AcDbBlockTableRecord
  2
EXTEND
340
0
102
{BLKREFS
331
6FF5A
102
}
 70
     0
280
     1
281
     0
  0
BLOCK_RECORD
  5
702CC
330
701B7
100
AcDbSymbolTableRecord
100
AcDbBlockTableRecord
  2
SUBTRC_3
340
0
102
{BLKREFS
331
6FF5B
102
}
 70
     0
280
     1
281
     0
  0
BLOCK_RECORD
  5
702CF
330
701B7
100
AcDbSymbolTableRecord
100
AcDbBlockTableRecord
  2
Feature Solid_12
340
0
102
{BLKREFS
331
6FF62
102
}
 70
     0
280
     1
281
     0
  0
BLOCK_RECORD
  5
702D2
330
701B7
100
AcDbSymbolTableRecord
100
AcDbBlockTableRecord
  2
SUBTRC_4
340
0
102
{BLKREFS
331
6FF63
102
}
 70
     0
280
     1
281
     0
  0
BLOCK_RECORD
  5
702D5
330
701B7
100
AcDbSymbolTableRecord
100
AcDbBlockTableRecord
  2
Feature Solid_13
340
0
102
{BLKREFS
331
6FF64
102
}
 70
     0
280
     1
281
     0
  0
BLOCK_RECORD
  5
702D8
330
701B7
100
AcDbSymbolTableRecord
100
AcDbBlockTableRecord
  2
DDPROJ_6
340
0
102
{BLKREFS
331
6FF65
102
}
 70
     0
280
     1
281
     0
  0
BLOCK_RECORD
  5
702DB
330
701B7
100
AcDbSymbolTableRecord
100
AcDbBlockTableRecord
  2
Feature Solid_14
340
0
102
{BLKREFS
331
6FF6B
102
}
 70
     0
280
     1
281
     0
  0
BLOCK_RECORD
  5
702DE
330
701B7
100
AcDbSymbolTableRecord
100
AcDbBlockTableRecord
  2
SUBTRC_5
340
0
102
{BLKREFS
331
6FF6C
102
}
 70
     0
280
     1
281
     0
  0
BLOCK_RECORD
  5
702E1
330
701B7
100
AcDbSymbolTableRecord
100
AcDbBlockTableRecord
  2
Feature Solid_15
340
0
102
{BLKREFS
331
6FF6D
102
}
 70
     0
280
     1
281
     0
  0
BLOCK_RECORD
  5
702E4
330
701B7
100
AcDbSymbolTableRecord
100
AcDbBlockTableRecord
  2
DDPROJ_7
340
0
102
{BLKREFS
331
6FF6E
102
}
 70
     0
280
     1
281
     0
  0
BLOCK_RECORD
  5
702E7
330
701B7
100
AcDbSymbolTableRecord
100
AcDbBlockTableRecord
  2
Feature Solid_16
340
0
102
{BLKREFS
331
6FF8A
102
}
 70
     0
280
     1
281
     0
  0
BLOCK_RECORD
  5
702EA
330
701B7
100
AcDbSymbolTableRecord
100
AcDbBlockTableRecord
  2
DDPROJ_8
340
0
102
{BLKREFS
331
6FF8B
102
}
 70
     0
280
     1
281
     0
  0
BLOCK_RECORD
  5
702ED
330
701B7
100
AcDbSymbolTableRecord
100
AcDbBlockTableRecord
  2
Feature Solid_17
340
0
102
{BLKREFS
331
6FFA7
102
}
 70
     0
280
     1
281
     0
  0
BLOCK_RECORD
  5
702F0
330
701B7
100
AcDbSymbolTableRecord
100
AcDbBlockTableRecord
  2
DDPROJ_9
340
0
102
{BLKREFS
331
6FFA8
102
}
 70
     0
280
     1
281
     0
  0
BLOCK_RECORD
  5
702F3
330
701B7
100
AcDbSymbolTableRecord
100
AcDbBlockTableRecord
  2
Smart Solid_5
340
0
102
{BLKREFS
331
6FFD9
102
}
 70
     0
280
     1
281
     0
  0
BLOCK_RECORD
  5
702F6
330
701B7
100
AcDbSymbolTableRecord
100
AcDbBlockTableRecord
  2
Smart Solid_6
340
0
102
{BLKREFS
331
6FFE1
102
}
 70
     0
280
     1
281
     0
  0
BLOCK_RECORD
  5
702F9
330
701B7
100
AcDbSymbolTableRecord
100
AcDbBlockTableRecord
  2
From Cone
340
0
102
{BLKREFS
331
70192
102
}
 70
     0
280
     1
281
     0
  0
BLOCK_RECORD
  5
702FC
330
701B7
100
AcDbSymbolTableRecord
100
AcDbBlockTableRecord
  2
From Cone_1
340
0
102
{BLKREFS
331
70197
102
}
 70
     0
280
     1
281
     0
  0
BLOCK_RECORD
  5
702FF
330
701B7
100
AcDbSymbolTableRecord
100
AcDbBlockTableRecord
  2
From Surface
340
0
102
{BLKREFS
331
7019C
102
}
 70
     0
280
     1
281
     0
  0
BLOCK_RECORD
  5
70302
330
701B7
100
AcDbSymbolTableRecord
100
AcDbBlockTableRecord
  2
From Surface_1
340
0
102
{BLKREFS
331
7019D
102
}
 70
     0
280
     1
281
     0
  0
BLOCK_RECORD
  5
70305
330
701B7
100
AcDbSymbolTableRecord
100
AcDbBlockTableRecord
  2
From Surface_2
340
0
102
{BLKREFS
331
7019E
102
}
 70
     0
280
     1
281
     0
  0
BLOCK_RECORD
  5
70308
330
701B7
100
AcDbSymbolTableRecord
100
AcDbBlockTableRecord
  2
From Surface_3
340
0
102
{BLKREFS
331
7019F
102
}
 70
     0
280
     1
281
     0
  0
BLOCK_RECORD
  5
7030B
330
701B7
100
AcDbSymbolTableRecord
100
AcDbBlockTableRecord
  2
From Surface_4
340
0
102
{BLKREFS
331
701A0
102
}
 70
     0
280
     1
281
     0
  0
BLOCK_RECORD
  5
7030E
330
701B7
100
AcDbSymbolTableRecord
100
AcDbBlockTableRecord
  2
From Surface_5
340
0
102
{BLKREFS
331
701A1
102
}
 70
     0
280
     1
281
     0
  0
BLOCK_RECORD
  5
70311
330
701B7
100
AcDbSymbolTableRecord
100
AcDbBlockTableRecord
  2
From Surface_6
340
0
102
{BLKREFS
331
701A2
102
}
 70
     0
280
     1
281
     0
  0
BLOCK_RECORD
  5
70314
330
701B7
100
AcDbSymbolTableRecord
100
AcDbBlockTableRecord
  2
From Surface_7
340
0
102
{BLKREFS
331
701A3
102
}
 70
     0
280
     1
281
     0
  0
BLOCK_RECORD
  5
70317
330
701B7
100
AcDbSymbolTableRecord
100
AcDbBlockTableRecord
  2
From Cone_2
340
0
102
{BLKREFS
331
701A4
102
}
 70
     0
280
     1
281
     0
  0
BLOCK_RECORD
  5
7031A
330
701B7
100
AcDbSymbolTableRecord
100
AcDbBlockTableRecord
  2
From Cone_3
340
0
102
{BLKREFS
331
701A9
102
}
 70
     0
280
     1
281
     0
  0
BLOCK_RECORD
  5
7031D
330
701B7
100
AcDbSymbolTableRecord
100
AcDbBlockTableRecord
  2
From Surface_8
340
0
102
{BLKREFS
331
701AE
102
}
 70
     0
280
     1
281
     0
  0
BLOCK_RECORD
  5
70320
330
701B7
100
AcDbSymbolTableRecord
100
AcDbBlockTableRecord
  2
From Surface_9
340
0
102
{BLKREFS
331
701AF
102
}
 70
     0
280
     1
281
     0
  0
BLOCK_RECORD
  5
70323
330
701B7
100
AcDbSymbolTableRecord
100
AcDbBlockTableRecord
  2
From Surface_10
340
0
102
{BLKREFS
331
701B0
102
}
 70
     0
280
     1
281
     0
  0
BLOCK_RECORD
  5
70326
330
701B7
100
AcDbSymbolTableRecord
100
AcDbBlockTableRecord
  2
From Surface_11
340
0
102
{BLKREFS
331
701B1
102
}
 70
     0
280
     1
281
     0
  0
BLOCK_RECORD
  5
70329
330
701B7
100
AcDbSymbolTableRecord
100
AcDbBlockTableRecord
  2
From Surface_12
340
0
102
{BLKREFS
331
701B2
102
}
 70
     0
280
     1
281
     0
  0
BLOCK_RECORD
  5
7032C
330
701B7
100
AcDbSymbolTableRecord
100
AcDbBlockTableRecord
  2
From Surface_13
340
0
102
{BLKREFS
331
701B3
102
}
 70
     0
280
     1
281
     0
  0
BLOCK_RECORD
  5
7032F
330
701B7
100
AcDbSymbolTableRecord
100
AcDbBlockTableRecord
  2
From Surface_14
340
0
102
{BLKREFS
331
701B4
102
}
 70
     0
280
     1
281
     0
  0
BLOCK_RECORD
  5
70332
330
701B7
100
AcDbSymbolTableRecord
100
AcDbBlockTableRecord
  2
From Surface_15
340
0
102
{BLKREFS
331
701B5
102
}
 70
     0
280
     1
281
     0
  0
BLOCK_RECORD
  5
70335
330
701B7
100
AcDbSymbolTableRecord
100
AcDbBlockTableRecord
  2
Feature Solid_18
340
0
102
{BLKREFS
331
700B1
102
}
 70
     0
280
     1
281
     0
  0
BLOCK_RECORD
  5
70338
330
701B7
100
AcDbSymbolTableRecord
100
AcDbBlockTableRecord
  2
CONE_1
340
0
102
{BLKREFS
331
700B2
102
}
 70
     0
280
     1
281
     0
  0
ENDTAB
  0
ENDSEC
  0
SECTION
  2
BLOCKS
  0
BLOCK
  5
701B9
330
701B8
100
AcDbEntity
  8
0
100
AcDbBlockBegin
  2
*Model_Space
 70
     0
 10
0.0
 20
0.0
 30
0.0
  3
*Model_Space
  1

  0
ENDBLK
  5
701CA
330
701B8
100
AcDbEntity
  8
0
100
AcDbBlockEnd
  0
BLOCK
  5
701D0
330
701CF
100
AcDbEntity
 67
     1
  8
0
100
AcDbBlockBegin
  2
*Paper_Space
 70
     0
 10
0.0
 20
0.0
 30
0.0
  3
*Paper_Space
  1

  0
ENDBLK
  5
701D1
330
701CF
100
AcDbEntity
 67
     1
  8
0
100
AcDbBlockEnd
  0
BLOCK
  5
7022C
330
7015A
100
AcDbEntity
  8
0
100
AcDbBlockBegin
  2
*U0
 70
     1
 10
0.0
 20
0.0
 30
0.0
  3
*U0
  1

  0
LWPOLYLINE
  5
7015B
330
7015A
100
AcDbEntity
  8
0
100
AcDbPolyline
 90
        7
 70
   129
 43
0.0
 10
0.090495
 20
0.005429
 10
0.03944
 20
0.070957
 42
0.488591
 10
-0.039447
 20
0.070953
 10
-0.090498
 20
0.005416
 42
0.6244
 10
-0.051049
 20
-0.075311
 10
0.051058
 20
-0.075301
 42
0.624376
 10
0.090495
 20
0.005429
  0
ENDBLK
  5
7022D
330
7015A
100
AcDbEntity
  8
0
100
AcDbBlockEnd
  0
BLOCK
  5
7022E
330
70162
100
AcDbEntity
  8
0
100
AcDbBlockBegin
  2
*U1
 70
     1
 10
0.0
 20
0.0
 30
0.0
  3
*U1
  1

  0
LWPOLYLINE
  5
70163
330
70162
100
AcDbEntity
  8
0
100
AcDbPolyline
 90
        8
 70
   129
 43
0.0
 10
0.211981
 20
0.021727
 42
0.713117
 10
-0.121778
 20
0.199554
 42
0.250079
 10
-0.18302
 20
0.021504
 10
-0.167982
 20
-0.073066
 42
0.511051
 10
-0.09566
 20
-0.109639
 42
-0.242966
 10
0.124586
 20
-0.109639
 42
0.51105
 10
0.196908
 20
-0.073066
 10
0.211981
 20
0.021727
  0
ENDBLK
  5
7022F
330
70162
100
AcDbEntity
  8
0
100
AcDbBlockEnd
  0
BLOCK
  5
70230
330
7016B
100
AcDbEntity
  8
0
100
AcDbBlockBegin
  2
*U2
 70
     1
 10
0.0
 20
0.0
 30
0.0
  3
*U2
  1

  0
LWPOLYLINE
  5
7016C
330
7016B
100
AcDbEntity
  8
0
  6
Continuous
 62
   253
370
     0
100
AcDbPolyline
 90
        5
 70
   129
 43
0.0
 10
773.087094
 20
0.0
 10
0.0
 20
0.0
 10
0.0
 20
-665.142186
 10
773.087094
 20
-665.142186
 10
773.087094
 20
0.0
  0
ENDBLK
  5
70231
330
7016B
100
AcDbEntity
  8
0
100
AcDbBlockEnd
  0
BLOCK
  5
70232
330
7016D
100
AcDbEntity
  8
0
100
AcDbBlockBegin
  2
*U3
 70
     1
 10
0.0
 20
0.0
 30
0.0
  3
*U3
  1

  0
LWPOLYLINE
  5
7016E
330
7016D
100
AcDbEntity
  8
0
  6
Continuous
 62
   253
370
     0
100
AcDbPolyline
 90
        5
 70
   129
 43
0.0
 10
-470.67992
 20
0.0
 10
0.0
 20
0.0
 10
0.0
 20
356.888809
 10
-470.67992
 20
356.888809
 10
-470.67992
 20
0.0
  0
ENDBLK
  5
70233
330
7016D
100
AcDbEntity
  8
0
100
AcDbBlockEnd
  0
BLOCK
  5
70234
330
7016F
100
AcDbEntity
  8
0
100
AcDbBlockBegin
  2
*U4
 70
     1
 10
0.0
 20
0.0
 30
0.0
  3
*U4
  1

  0
POLYLINE
  5
70170
330
7016F
100
AcDbEntity
  8
0
  6
Continuous
 62
   253
370
     0
100
AcDbPolyFaceMesh
 66
     1
 10
0.0
 20
0.0
 30
0.0
 70
    64
 71
     8
 72
     6
  0
VERTEX
  5
70236
330
70170
100
AcDbEntity
  8
0
  6
Continuous
 62
   253
370
     0
100
AcDbVertex
100
AcDbPolyFaceMeshVertex
 10
-37.5
 20
-423.710108
 30
-658.887143
 70
   192
  0
VERTEX
  5
70237
330
70170
100
AcDbEntity
  8
0
  6
Continuous
 62
   253
370
     0
100
AcDbVertex
100
AcDbPolyFaceMeshVertex
 10
-37.5
 20
-358.758203
 30
-696.387143
 70
   192
  0
VERTEX
  5
70238
330
70170
100
AcDbEntity
  8
0
  6
Continuous
 62
   253
370
     0
100
AcDbVertex
100
AcDbPolyFaceMeshVertex
 10
37.5
 20
-358.758203
 30
-696.387143
 70
   192
  0
VERTEX
  5
70239
330
70170
100
AcDbEntity
  8
0
  6
Continuous
 62
   253
370
     0
100
AcDbVertex
100
AcDbPolyFaceMeshVertex
 10
37.5
 20
-423.710108
 30
-658.887143
 70
   192
  0
VERTEX
  5
7023A
330
70170
100
AcDbEntity
  8
0
  6
Continuous
 62
   253
370
     0
100
AcDbVertex
100
AcDbPolyFaceMeshVertex
 10
37.5
 20
423.70982
 30
658.887227
 70
   192
  0
VERTEX
  5
7023B
330
70170
100
AcDbEntity
  8
0
  6
Continuous
 62
   253
370
     0
100
AcDbVertex
100
AcDbPolyFaceMeshVertex
 10
37.5
 20
358.757915
 30
696.387227
 70
   192
  0
VERTEX
  5
7023C
330
70170
100
AcDbEntity
  8
0
  6
Continuous
 62
   253
370
     0
100
AcDbVertex
100
AcDbPolyFaceMeshVertex
 10
-37.5
 20
423.70982
 30
658.887227
 70
   192
  0
VERTEX
  5
7023D
330
70170
100
AcDbEntity
  8
0
  6
Continuous
 62
   253
370
     0
100
AcDbVertex
100
AcDbPolyFaceMeshVertex
 10
-37.5
 20
358.757915
 30
696.387227
 70
   192
  0
VERTEX
  5
7023E
330
70170
100
AcDbEntity
  8
0
  6
Continuous
 62
   253
370
     0
100
AcDbFaceRecord
 10
0.0
 20
0.0
 30
0.0
 70
   128
 71
     1
 72
     2
 73
     3
 74
     4
  0
VERTEX
  5
7023F
330
70170
100
AcDbEntity
  8
0
  6
Continuous
 62
   253
370
     0
100
AcDbFaceRecord
 10
0.0
 20
0.0
 30
0.0
 70
   128
 71
     4
 72
     3
 73
     5
 74
     6
  0
VERTEX
  5
70240
330
70170
100
AcDbEntity
  8
0
  6
Continuous
 62
   253
370
     0
100
AcDbFaceRecord
 10
0.0
 20
0.0
 30
0.0
 70
   128
 71
     6
 72
     5
 73
     7
 74
     8
  0
VERTEX
  5
70241
330
70170
100
AcDbEntity
  8
0
  6
Continuous
 62
   253
370
     0
100
AcDbFaceRecord
 10
0.0
 20
0.0
 30
0.0
 70
   128
 71
     8
 72
     7
 73
     2
 74
     1
  0
VERTEX
  5
70242
330
70170
100
AcDbEntity
  8
0
  6
Continuous
 62
   253
370
     0
100
AcDbFaceRecord
 10
0.0
 20
0.0
 30
0.0
 70
   128
 71
     2
 72
     7
 73
     5
 74
     3
  0
VERTEX
  5
70243
330
70170
100
AcDbEntity
  8
0
  6
Continuous
 62
   253
370
     0
100
AcDbFaceRecord
 10
0.0
 20
0.0
 30
0.0
 70
   128
 71
     4
 72
     6
 73
     8
 74
     1
  0
SEQEND
  5
70244
330
70170
100
AcDbEntity
  8
0
  6
Continuous
 62
   253
370
     0
  0
ENDBLK
  5
70235
330
7016F
100
AcDbEntity
  8
0
100
AcDbBlockEnd
  0
BLOCK
  5
70245
330
7017E
100
AcDbEntity
  8
0
100
AcDbBlockBegin
  2
*U5
 70
     1
 10
0.0
 20
0.0
 30
0.0
  3
*U5
  1

  0
CIRCLE
  5
7017F
330
7017E
100
AcDbEntity
  8
0
  6
Continuous
 62
     7
370
     0
100
AcDbCircle
 10
0.0
 20
-25.0
 30
0.0
 40
25.00000000000001
  0
ENDBLK
  5
70246
330
7017E
100
AcDbEntity
  8
0
100
AcDbBlockEnd
  0
BLOCK
  5
70247
330
70180
100
AcDbEntity
  8
0
100
AcDbBlockBegin
  2
*U6
 70
     1
 10
0.0
 20
0.0
 30
0.0
  3
*U6
  1

  0
LWPOLYLINE
  5
70181
330
70180
100
AcDbEntity
  8
0
  6
Continuous
 62
     7
370
     0
100
AcDbPolyline
 90
        9
 70
   129
 43
0.0
 10
-46.436749
 20
17.591493
 42
0.029069
 10
-55.70973
 20
-3.459919
 42
0.66397
 10
-42.289876
 20
-16.095991
 42
-0.05331
 10
43.761483
 20
11.50857
 42
0.66397
 10
47.326386
 20
29.593211
 42
0.029069
 10
27.537816
 20
41.321918
 42
0.181117
 10
20.57247
 20
42.151646
 42
0.035332
 10
-41.253882
 20
22.318266
 42
0.181117
 10
-46.436749
 20
17.591493
  0
ENDBLK
  5
70248
330
70180
100
AcDbEntity
  8
0
100
AcDbBlockEnd
  0
BLOCK
  5
70249
330
7018A
100
AcDbEntity
  8
0
100
AcDbBlockBegin
  2
*U7
 70
     1
 10
0.0
 20
0.0
 30
0.0
  3
*U7
  1

  0
LWPOLYLINE
  5
7018B
330
7018A
100
AcDbEntity
  8
0
  6
Continuous
 62
     7
370
     0
100
AcDbPolyline
 90
        3
 70
   129
 43
0.0
 10
223.0
 20
-67.929224
 42
1.0
 10
-223.0
 20
-67.929224
 42
-0.304615
 10
223.0
 20
-67.929224
  0
ENDBLK
  5
7024A
330
7018A
100
AcDbEntity
  8
0
100
AcDbBlockEnd
  0
BLOCK
  5
7024C
330
7024B
100
AcDbEntity
  8
0
 62
    98
370
     0
100
AcDbBlockBegin
  2
FS30
 70
     0
 10
0.0
 20
0.0
 30
0.0
  3
FS30
  1

  0
LWPOLYLINE
  5
6FDA5
330
7024B
100
AcDbEntity
  8
Level 26
  6
Continuous
 62
    25
370
    13
100
AcDbPolyline
 90
        5
 70
   129
 43
0.0
 10
45.57601
 20
2217.5
 10
65.93976
 20
2217.5
 10
65.93976
 20
2017.5
 10
45.57601
 20
2017.5
 10
45.57601
 20
2217.5
  0
LWPOLYLINE
  5
6FDA6
330
7024B
100
AcDbEntity
  8
Level 26
  6
Continuous
 62
    25
370
    13
100
AcDbPolyline
 90
        5
 70
   129
 43
0.0
 10
-45.57601
 20
2217.5
 10
-65.93976
 20
2217.5
 10
-65.93976
 20
2017.5
 10
-45.57601
 20
2017.5
 10
-45.57601
 20
2217.5
  0
LWPOLYLINE
  5
6FDA7
330
7024B
100
AcDbEntity
  8
Level 26
  6
Continuous
 62
    25
370
    13
100
AcDbPolyline
 90
        5
 70
   129
 43
0.0
 10
-65.93976
 20
2217.5
 10
-15.515238
 20
2217.5
 10
-15.515238
 20
2017.5
 10
-65.93976
 20
2017.5
 10
-65.93976
 20
2217.5
  0
LWPOLYLINE
  5
6FDA8
330
7024B
100
AcDbEntity
  8
Level 26
  6
Continuous
 62
    25
370
    13
100
AcDbPolyline
 90
        5
 70
   129
 43
0.0
 10
65.93976
 20
2217.5
 10
15.515238
 20
2217.5
 10
15.515238
 20
2017.5
 10
65.93976
 20
2017.5
 10
65.93976
 20
2217.5
  0
LWPOLYLINE
  5
6FDA9
330
7024B
100
AcDbEntity
  8
Level 27
  6
Continuous
 62
   174
370
    13
100
AcDbPolyline
 90
        7
 70
   129
 43
0.0
 10
0.0
 20
-49.0
 10
0.0
 20
-23.0
 10
0.0
 20
25.0
 10
0.0
 20
51.0
 10
0.0
 20
51.0
 10
0.0
 20
-49.0
 10
0.0
 20
-49.0
  0
LWPOLYLINE
  5
6FDB0
330
7024B
100
AcDbEntity
  8
Level 26
  6
Continuous
 62
    25
370
    13
100
AcDbPolyline
 90
       13
 70
   129
 43
0.0
 10
11.313194
 20
2017.5
 10
45.57601
 20
2017.5
 10
65.93976
 20
2017.5
 10
15.515238
 20
2017.5
 10
-15.515238
 20
2017.5
 10
-65.93976
 20
2017.5
 10
-45.57601
 20
2017.5
 10
-11.313194
 20
2017.5
 10
-9.927302
 20
2017.5
 10
-32.5
 20
2017.5
 10
32.5
 20
2017.5
 10
9.927302
 20
2017.5
 10
11.313194
 20
2017.5
  0
LWPOLYLINE
  5
6FDBB
330
7024B
100
AcDbEntity
  8
Level 26
  6
Continuous
 62
    25
370
    13
100
AcDbPolyline
 90
       13
 70
   129
 43
0.0
 10
11.313194
 20
2217.5
 10
45.57601
 20
2217.5
 10
65.93976
 20
2217.5
 10
15.515238
 20
2217.5
 10
-15.515238
 20
2217.5
 10
-65.93976
 20
2217.5
 10
-45.57601
 20
2217.5
 10
-11.313194
 20
2217.5
 10
-9.927302
 20
2217.5
 10
-32.5
 20
2217.5
 10
32.5
 20
2217.5
 10
9.927302
 20
2217.5
 10
11.313194
 20
2217.5
  0
INSERT
  5
7018E
330
7024B
100
AcDbEntity
  8
Level 26
  6
Continuous
 62
   253
370
    13
100
AcDbBlockReference
  2
From Solid
 10
172.388472
 20
3523.062463
 30
0.0
 50
270.0
  0
INSERT
  5
6FDCD
330
7024B
100
AcDbEntity
  8
Level 27
  6
Continuous
 62
    40
370
    13
100
AcDbBlockReference
  2
Feature Solid
 10
-240.031744
 20
0.0
 30
-2117.55
 41
10000.0
 42
10000.0
 43
10000.0
 50
180.0
210
-0.0000000000000001
220
-1.0
230
-0.0000000000000001
  0
INSERT
  5
6FE00
330
7024B
100
AcDbEntity
  8
Level 27
  6
Continuous
 62
    40
370
    13
100
AcDbBlockReference
  2
Feature Solid_3
 10
239.968256
 20
0.0
 30
-2117.55
 41
10000.0
 42
10000.0
 43
10000.0
 50
180.0
210
-0.0000000000000001
220
-1.0
230
-0.0000000000000001
  0
INSERT
  5
6FE33
330
7024B
100
AcDbEntity
  8
Level 27
  6
Continuous
 62
    40
370
    13
100
AcDbBlockReference
  2
Feature Solid_6
 10
0.031739
 20
0.0
 30
-2117.55
 41
10000.0
 42
10000.0
 43
10000.0
 50
0.0
210
-0.0000000000000001
220
-1.0
230
0.0000000000000001
  0
INSERT
  5
6FE66
330
7024B
100
AcDbEntity
  8
Level 26
  6
Continuous
 62
     7
370
     0
100
AcDbBlockReference
  2
Smart Solid
 10
12.90456
 20
0.0
 30
-2117.5
 50
10.0806
210
0.0
220
-1.0
230
0.0
  0
INSERT
  5
6FE76
330
7024B
100
AcDbEntity
  8
Level 26
  6
Continuous
 62
   253
370
     0
100
AcDbBlockReference
  2
Smart Solid_1
 10
-216.680955
 20
2114.507532
 30
0.0
  0
INSERT
  5
6FE9A
330
7024B
100
AcDbEntity
  8
Level 26
  6
Continuous
 62
   253
370
     0
100
AcDbBlockReference
  2
Smart Solid_2
 10
-216.681114
 20
2114.507532
 30
0.0
210
0.0
220
0.0
230
-1.0
  0
INSERT
  5
7018F
330
7024B
100
AcDbEntity
  8
Level 25
  6
Continuous
 62
   252
370
    13
100
AcDbBlockReference
  2
From Solid_1
 10
172.388472
 20
3523.062463
 30
0.0
 50
270.0
  0
INSERT
  5
6FEC5
330
7024B
100
AcDbEntity
  8
Level 25
  6
Continuous
 62
   252
370
    13
100
AcDbBlockReference
  2
Smart Solid_3
 10
-2.501224
 20
1.001124
 30
0.0
  0
INSERT
  5
70190
330
7024B
100
AcDbEntity
  8
Level 26
  6
Continuous
 62
   163
370
    13
100
AcDbBlockReference
  2
From Solid_2
 10
172.388472
 20
3523.062463
 30
0.0
 50
270.0
  0
LINE
  5
6FEEC
330
7024B
100
AcDbEntity
  8
Level 1
  6
Continuous
 62
   253
370
     0
100
AcDbLine
 10
-1005.002
 20
38.50099
 30
0.0
 11
-1005.002
 21
-36.49901
 31
0.0
  0
INSERT
  5
6FEED
330
7024B
100
AcDbEntity
  8
Level 25
  6
Continuous
 62
   252
370
    13
100
AcDbBlockReference
  2
Feature Solid_9
 10
-711.7
 20
1.00099
 30
0.0
 50
270.0
  0
INSERT
  5
70191
330
7024B
100
AcDbEntity
  8
Level 25
  6
Continuous
 62
   252
370
    13
100
AcDbBlockReference
  2
From Solid_3
 10
172.388472
 20
3523.062463
 30
0.0
 50
270.0
  0
LWPOLYLINE
  5
6FF04
330
7024B
100
AcDbEntity
  8
Level 26
  6
Continuous
 62
    40
370
    13
100
AcDbPolyline
 90
        7
 70
   129
 43
0.0
 10
-45.000003
 20
2109.3
 10
-85.000003
 20
2109.3
 10
-90.000003
 20
2109.3
 10
-85.000003
 20
2109.3
 10
-45.000003
 20
2109.3
 10
-40.000003
 20
2109.3
 10
-45.000003
 20
2109.3
  0
LWPOLYLINE
  5
6FF09
330
7024B
100
AcDbEntity
  8
Level 26
  6
Continuous
 62
    40
370
    13
100
AcDbPolyline
 90
        8
 70
   129
 43
0.0
 10
-37.500003
 20
2109.3
 10
-28.169876
 20
2109.3
 10
-36.83013
 20
2109.3
 10
-26.83013
 20
2109.3
 10
-17.500003
 20
2109.3
 10
-26.83013
 20
2109.3
 10
-18.169876
 20
2109.3
 10
-28.169876
 20
2109.3
  0
LWPOLYLINE
  5
6FF0E
330
7024B
100
AcDbEntity
  8
Level 26
  6
Continuous
 62
    40
370
    13
100
AcDbPolyline
 90
        6
 70
   129
 43
0.0
 10
18.16987
 20
2109.3
 10
28.16987
 20
2109.3
 10
37.499997
 20
2109.3
 10
36.830124
 20
2109.3
 10
26.830124
 20
2109.3
 10
17.499997
 20
2109.3
  0
LWPOLYLINE
  5
6FF13
330
7024B
100
AcDbEntity
  8
Level 26
  6
Continuous
 62
    40
370
    13
100
AcDbPolyline
 90
        7
 70
   129
 43
0.0
 10
84.999997
 20
2109.3
 10
44.999997
 20
2109.3
 10
39.999997
 20
2109.3
 10
44.999997
 20
2109.3
 10
84.999997
 20
2109.3
 10
89.999997
 20
2109.3
 10
84.999997
 20
2109.3
  0
LWPOLYLINE
  5
6FF18
330
7024B
100
AcDbEntity
  8
Level 26
  6
Continuous
 62
    40
370
    13
100
AcDbPolyline
 90
        8
 70
   129
 43
0.0
 10
36.830124
 20
2109.3
 10
26.830124
 20
2109.3
 10
17.499997
 20
2109.3
 10
26.830124
 20
2109.3
 10
18.16987
 20
2109.3
 10
28.16987
 20
2109.3
 10
37.499997
 20
2109.3
 10
28.16987
 20
2109.3
  0
LWPOLYLINE
  5
6FF1D
330
7024B
100
AcDbEntity
  8
Level 26
  6
Continuous
 62
    40
370
    13
100
AcDbPolyline
 90
        6
 70
   129
 43
0.0
 10
-36.83013
 20
2109.3
 10
-26.83013
 20
2109.3
 10
-17.500003
 20
2109.3
 10
-18.169876
 20
2109.3
 10
-28.169876
 20
2109.3
 10
-37.500003
 20
2109.3
  0
INSERT
  5
6FF22
330
7024B
100
AcDbEntity
  8
Level 27
  6
Continuous
 62
    40
370
    13
100
AcDbBlockReference
  2
Smart Solid_4
 10
0.000003
 20
0.0
 30
2117.5
210
0.0000000000000001
220
1.0
230
0.0
  0
LWPOLYLINE
  5
6FF2C
330
7024B
100
AcDbEntity
  8
Level 26
  6
Continuous
 62
    40
370
    13
100
AcDbPolyline
 90
        6
 70
   129
 43
0.0
 10
18.16987
 20
2075.7
 10
28.16987
 20
2075.7
 10
37.499997
 20
2075.7
 10
36.830124
 20
2075.7
 10
26.830124
 20
2075.7
 10
17.499997
 20
2075.7
  0
LWPOLYLINE
  5
6FF31
330
7024B
100
AcDbEntity
  8
Level 26
  6
Continuous
 62
    40
370
    13
100
AcDbPolyline
 90
        8
 70
   129
 43
0.0
 10
-37.500003
 20
2075.7
 10
-28.169876
 20
2075.7
 10
-36.83013
 20
2075.7
 10
-26.83013
 20
2075.7
 10
-17.500003
 20
2075.7
 10
-26.83013
 20
2075.7
 10
-18.169876
 20
2075.7
 10
-28.169876
 20
2075.7
  0
LWPOLYLINE
  5
6FF36
330
7024B
100
AcDbEntity
  8
Level 26
  6
Continuous
 62
    40
370
    13
100
AcDbPolyline
 90
        7
 70
   129
 43
0.0
 10
84.999997
 20
2075.7
 10
44.999997
 20
2075.7
 10
39.999997
 20
2075.7
 10
44.999997
 20
2075.7
 10
84.999997
 20
2075.7
 10
89.999997
 20
2075.7
 10
84.999997
 20
2075.7
  0
LWPOLYLINE
  5
6FF3B
330
7024B
100
AcDbEntity
  8
Level 26
  6
Continuous
 62
    40
370
    13
100
AcDbPolyline
 90
        8
 70
   129
 43
0.0
 10
36.830124
 20
2075.7
 10
26.830124
 20
2075.7
 10
17.499997
 20
2075.7
 10
26.830124
 20
2075.7
 10
18.16987
 20
2075.7
 10
28.16987
 20
2075.7
 10
37.499997
 20
2075.7
 10
28.16987
 20
2075.7
  0
LWPOLYLINE
  5
6FF40
330
7024B
100
AcDbEntity
  8
Level 26
  6
Continuous
 62
    40
370
    13
100
AcDbPolyline
 90
        6
 70
   129
 43
0.0
 10
-36.83013
 20
2075.7
 10
-26.83013
 20
2075.7
 10
-17.500003
 20
2075.7
 10
-18.169876
 20
2075.7
 10
-28.169876
 20
2075.7
 10
-37.500003
 20
2075.7
  0
LWPOLYLINE
  5
6FF45
330
7024B
100
AcDbEntity
  8
Level 26
  6
Continuous
 62
    40
370
    13
100
AcDbPolyline
 90
        7
 70
   129
 43
0.0
 10
-45.000003
 20
2075.7
 10
-85.000003
 20
2075.7
 10
-90.000003
 20
2075.7
 10
-85.000003
 20
2075.7
 10
-45.000003
 20
2075.7
 10
-40.000003
 20
2075.7
 10
-45.000003
 20
2075.7
  0
INSERT
  5
6FF4A
330
7024B
100
AcDbEntity
  8
Level 26
  6
Continuous
 62
     7
370
    13
100
AcDbBlockReference
  2
Feature Solid_10
 10
0.000112
 20
2237.499601
 30
0.0
  0
INSERT
  5
6FF52
330
7024B
100
AcDbEntity
  8
Level 41
  6
Continuous
 62
    12
370
    13
100
AcDbBlockReference
  2
Feature Solid_11
 10
-0.000388
 20
2092.500101
 30
0.0
  0
INSERT
  5
6FFD9
330
7024B
100
AcDbEntity
  8
Level 26
  6
Continuous
 62
     7
370
    13
100
AcDbBlockReference
  2
Smart Solid_5
 10
-228.340505
 20
2117.5955
 30
0.0
  0
INSERT
  5
6FFE1
330
7024B
100
AcDbEntity
  8
Level 26
  6
Continuous
 62
     7
370
    13
100
AcDbBlockReference
  2
Smart Solid_6
 10
-228.340665
 20
2117.5955
 30
0.0
210
0.0
220
0.0
230
-1.0
  0
INSERT
  5
70192
330
7024B
100
AcDbEntity
  8
Level 27
  6
Continuous
 62
    40
370
    13
100
AcDbBlockReference
  2
From Cone
 10
172.388472
 20
3523.062463
 30
0.0
 50
270.0
  0
INSERT
  5
70197
330
7024B
100
AcDbEntity
  8
Level 27
  6
Continuous
 62
    40
370
    13
100
AcDbBlockReference
  2
From Cone_1
 10
172.388472
 20
3523.062463
 30
0.0
 50
270.0
  0
INSERT
  5
7019C
330
7024B
100
AcDbEntity
  8
Level 27
  6
Continuous
 62
    40
370
    13
100
AcDbBlockReference
  2
From Surface
 10
172.388472
 20
3523.062463
 30
0.0
 50
270.0
  0
LWPOLYLINE
  5
6FFF0
330
7024B
100
AcDbEntity
  8
Level 27
  6
Continuous
 62
    40
370
    13
100
AcDbPolyline
 90
        5
 70
   129
 43
0.0
 10
432.0
 20
3295.670155
 10
432.0
 20
3280.200356
 10
435.0
 20
3280.200356
 10
435.0
 20
3295.670155
 10
432.0
 20
3295.670155
  0
INSERT
  5
7019D
330
7024B
100
AcDbEntity
  8
Level 27
  6
Continuous
 62
    40
370
    13
100
AcDbBlockReference
  2
From Surface_1
 10
172.388472
 20
3523.062463
 30
0.0
 50
270.0
  0
LWPOLYLINE
  5
6FFFA
330
7024B
100
AcDbEntity
  8
Level 27
  6
Continuous
 62
    40
370
    13
100
AcDbPolyline
 90
        5
 70
   129
 43
0.0
 10
432.0
 20
3280.200356
 10
432.0
 20
3295.670155
 10
435.0
 20
3295.670155
 10
435.0
 20
3280.200356
 10
432.0
 20
3280.200356
  0
INSERT
  5
7019E
330
7024B
100
AcDbEntity
  8
Level 27
  6
Continuous
 62
    40
370
    13
100
AcDbBlockReference
  2
From Surface_2
 10
172.388472
 20
3523.062463
 30
0.0
 50
270.0
  0
LWPOLYLINE
  5
70004
330
7024B
100
AcDbEntity
  8
Level 27
  6
Continuous
 62
    40
370
    13
100
AcDbPolyline
 90
        5
 70
   129
 43
0.0
 10
432.0
 20
3319.329849
 10
432.0
 20
3334.799648
 10
435.0
 20
3334.799648
 10
435.0
 20
3319.329849
 10
432.0
 20
3319.329849
  0
INSERT
  5
7019F
330
7024B
100
AcDbEntity
  8
Level 27
  6
Continuous
 62
    40
370
    13
100
AcDbBlockReference
  2
From Surface_3
 10
172.388472
 20
3523.062463
 30
0.0
 50
270.0
  0
LWPOLYLINE
  5
7000E
330
7024B
100
AcDbEntity
  8
Level 27
  6
Continuous
 62
    40
370
    13
100
AcDbPolyline
 90
        5
 70
   129
 43
0.0
 10
432.0
 20
3334.799648
 10
432.0
 20
3319.329849
 10
435.0
 20
3319.329849
 10
435.0
 20
3334.799648
 10
432.0
 20
3334.799648
  0
LWPOLYLINE
  5
70013
330
7024B
100
AcDbEntity
  8
Level 27
  6
Continuous
 62
    40
370
    13
100
AcDbPolyline
 90
       11
 70
   129
 43
0.0
 10
432.0
 20
3295.670155
 10
432.0
 20
3319.329849
 10
432.0
 20
3334.799648
 10
432.0
 20
3337.500002
 10
432.0
 20
3334.799648
 10
432.0
 20
3319.329849
 10
432.0
 20
3295.670155
 10
432.0
 20
3280.200356
 10
432.0
 20
3277.500002
 10
432.0
 20
3280.200356
 10
432.0
 20
3295.670155
  0
INSERT
  5
701A0
330
7024B
100
AcDbEntity
  8
Level 27
  6
Continuous
 62
    40
370
    13
100
AcDbBlockReference
  2
From Surface_4
 10
172.388472
 20
3523.062463
 30
0.0
 50
270.0
  0
LWPOLYLINE
  5
70021
330
7024B
100
AcDbEntity
  8
Level 27
  6
Continuous
 62
    40
370
    13
100
AcDbPolyline
 90
        5
 70
   129
 43
0.0
 10
-432.0
 20
3295.670155
 10
-432.0
 20
3280.200356
 10
-435.0
 20
3280.200356
 10
-435.0
 20
3295.670155
 10
-432.0
 20
3295.670155
  0
INSERT
  5
701A1
330
7024B
100
AcDbEntity
  8
Level 27
  6
Continuous
 62
    40
370
    13
100
AcDbBlockReference
  2
From Surface_5
 10
172.388472
 20
3523.062463
 30
0.0
 50
270.0
  0
LWPOLYLINE
  5
7002B
330
7024B
100
AcDbEntity
  8
Level 27
  6
Continuous
 62
    40
370
    13
100
AcDbPolyline
 90
        5
 70
   129
 43
0.0
 10
-432.0
 20
3280.200356
 10
-432.0
 20
3295.670155
 10
-435.0
 20
3295.670155
 10
-435.0
 20
3280.200356
 10
-432.0
 20
3280.200356
  0
INSERT
  5
701A2
330
7024B
100
AcDbEntity
  8
Level 27
  6
Continuous
 62
    40
370
    13
100
AcDbBlockReference
  2
From Surface_6
 10
172.388472
 20
3523.062463
 30
0.0
 50
270.0
  0
LWPOLYLINE
  5
70035
330
7024B
100
AcDbEntity
  8
Level 27
  6
Continuous
 62
    40
370
    13
100
AcDbPolyline
 90
        5
 70
   129
 43
0.0
 10
-432.0
 20
3319.329849
 10
-432.0
 20
3334.799648
 10
-435.0
 20
3334.799648
 10
-435.0
 20
3319.329849
 10
-432.0
 20
3319.329849
  0
INSERT
  5
701A3
330
7024B
100
AcDbEntity
  8
Level 27
  6
Continuous
 62
    40
370
    13
100
AcDbBlockReference
  2
From Surface_7
 10
172.388472
 20
3523.062463
 30
0.0
 50
270.0
  0
LWPOLYLINE
  5
7003F
330
7024B
100
AcDbEntity
  8
Level 27
  6
Continuous
 62
    40
370
    13
100
AcDbPolyline
 90
        5
 70
   129
 43
0.0
 10
-432.0
 20
3334.799648
 10
-432.0
 20
3319.329849
 10
-435.0
 20
3319.329849
 10
-435.0
 20
3334.799648
 10
-432.0
 20
3334.799648
  0
LWPOLYLINE
  5
70044
330
7024B
100
AcDbEntity
  8
Level 27
  6
Continuous
 62
    40
370
    13
100
AcDbPolyline
 90
       11
 70
   129
 43
0.0
 10
-432.0
 20
3295.670155
 10
-432.0
 20
3319.329849
 10
-432.0
 20
3334.799648
 10
-432.0
 20
3337.500002
 10
-432.0
 20
3334.799648
 10
-432.0
 20
3319.329849
 10
-432.0
 20
3295.670155
 10
-432.0
 20
3280.200356
 10
-432.0
 20
3277.500002
 10
-432.0
 20
3280.200356
 10
-432.0
 20
3295.670155
  0
INSERT
  5
701A4
330
7024B
100
AcDbEntity
  8
Level 27
  6
Continuous
 62
    40
370
    13
100
AcDbBlockReference
  2
From Cone_2
 10
172.388472
 20
3523.062463
 30
0.0
 50
270.0
  0
INSERT
  5
701A9
330
7024B
100
AcDbEntity
  8
Level 27
  6
Continuous
 62
    40
370
    13
100
AcDbBlockReference
  2
From Cone_3
 10
172.388472
 20
3523.062463
 30
0.0
 50
270.0
  0
INSERT
  5
701AE
330
7024B
100
AcDbEntity
  8
Level 27
  6
Continuous
 62
    40
370
    13
100
AcDbBlockReference
  2
From Surface_8
 10
172.388472
 20
3523.062463
 30
0.0
 50
270.0
  0
LWPOLYLINE
  5
70054
330
7024B
100
AcDbEntity
  8
Level 27
  6
Continuous
 62
    40
370
    13
100
AcDbPolyline
 90
        5
 70
   129
 43
0.0
 10
432.0
 20
-3293.670155
 10
432.0
 20
-3278.200356
 10
435.0
 20
-3278.200356
 10
435.0
 20
-3293.670155
 10
432.0
 20
-3293.670155
  0
INSERT
  5
701AF
330
7024B
100
AcDbEntity
  8
Level 27
  6
Continuous
 62
    40
370
    13
100
AcDbBlockReference
  2
From Surface_9
 10
172.388472
 20
3523.062463
 30
0.0
 50
270.0
  0
LWPOLYLINE
  5
7005E
330
7024B
100
AcDbEntity
  8
Level 27
  6
Continuous
 62
    40
370
    13
100
AcDbPolyline
 90
        5
 70
   129
 43
0.0
 10
432.0
 20
-3278.200356
 10
432.0
 20
-3293.670155
 10
435.0
 20
-3293.670155
 10
435.0
 20
-3278.200356
 10
432.0
 20
-3278.200356
  0
INSERT
  5
701B0
330
7024B
100
AcDbEntity
  8
Level 27
  6
Continuous
 62
    40
370
    13
100
AcDbBlockReference
  2
From Surface_10
 10
172.388472
 20
3523.062463
 30
0.0
 50
270.0
  0
LWPOLYLINE
  5
70068
330
7024B
100
AcDbEntity
  8
Level 27
  6
Continuous
 62
    40
370
    13
100
AcDbPolyline
 90
        5
 70
   129
 43
0.0
 10
432.0
 20
-3317.329849
 10
432.0
 20
-3332.799648
 10
435.0
 20
-3332.799648
 10
435.0
 20
-3317.329849
 10
432.0
 20
-3317.329849
  0
INSERT
  5
701B1
330
7024B
100
AcDbEntity
  8
Level 27
  6
Continuous
 62
    40
370
    13
100
AcDbBlockReference
  2
From Surface_11
 10
172.388472
 20
3523.062463
 30
0.0
 50
270.0
  0
LWPOLYLINE
  5
70072
330
7024B
100
AcDbEntity
  8
Level 27
  6
Continuous
 62
    40
370
    13
100
AcDbPolyline
 90
        5
 70
   129
 43
0.0
 10
432.0
 20
-3332.799648
 10
432.0
 20
-3317.329849
 10
435.0
 20
-3317.329849
 10
435.0
 20
-3332.799648
 10
432.0
 20
-3332.799648
  0
LWPOLYLINE
  5
70077
330
7024B
100
AcDbEntity
  8
Level 27
  6
Continuous
 62
    40
370
    13
100
AcDbPolyline
 90
       11
 70
   129
 43
0.0
 10
432.0
 20
-3293.670155
 10
432.0
 20
-3317.329849
 10
432.0
 20
-3332.799648
 10
432.0
 20
-3335.500002
 10
432.0
 20
-3332.799648
 10
432.0
 20
-3317.329849
 10
432.0
 20
-3293.670155
 10
432.0
 20
-3278.200356
 10
432.0
 20
-3275.500002
 10
432.0
 20
-3278.200356
 10
432.0
 20
-3293.670155
  0
INSERT
  5
701B2
330
7024B
100
AcDbEntity
  8
Level 27
  6
Continuous
 62
    40
370
    13
100
AcDbBlockReference
  2
From Surface_12
 10
172.388472
 20
3523.062463
 30
0.0
 50
270.0
  0
LWPOLYLINE
  5
70085
330
7024B
100
AcDbEntity
  8
Level 27
  6
Continuous
 62
    40
370
    13
100
AcDbPolyline
 90
        5
 70
   129
 43
0.0
 10
-432.0
 20
-3293.670155
 10
-432.0
 20
-3278.200356
 10
-435.0
 20
-3278.200356
 10
-435.0
 20
-3293.670155
 10
-432.0
 20
-3293.670155
  0
INSERT
  5
701B3
330
7024B
100
AcDbEntity
  8
Level 27
  6
Continuous
 62
    40
370
    13
100
AcDbBlockReference
  2
From Surface_13
 10
172.388472
 20
3523.062463
 30
0.0
 50
270.0
  0
LWPOLYLINE
  5
7008F
330
7024B
100
AcDbEntity
  8
Level 27
  6
Continuous
 62
    40
370
    13
100
AcDbPolyline
 90
        5
 70
   129
 43
0.0
 10
-432.0
 20
-3278.200356
 10
-432.0
 20
-3293.670155
 10
-435.0
 20
-3293.670155
 10
-435.0
 20
-3278.200356
 10
-432.0
 20
-3278.200356
  0
INSERT
  5
701B4
330
7024B
100
AcDbEntity
  8
Level 27
  6
Continuous
 62
    40
370
    13
100
AcDbBlockReference
  2
From Surface_14
 10
172.388472
 20
3523.062463
 30
0.0
 50
270.0
  0
LWPOLYLINE
  5
70099
330
7024B
100
AcDbEntity
  8
Level 27
  6
Continuous
 62
    40
370
    13
100
AcDbPolyline
 90
        5
 70
   129
 43
0.0
 10
-432.0
 20
-3317.329849
 10
-432.0
 20
-3332.799648
 10
-435.0
 20
-3332.799648
 10
-435.0
 20
-3317.329849
 10
-432.0
 20
-3317.329849
  0
INSERT
  5
701B5
330
7024B
100
AcDbEntity
  8
Level 27
  6
Continuous
 62
    40
370
    13
100
AcDbBlockReference
  2
From Surface_15
 10
172.388472
 20
3523.062463
 30
0.0
 50
270.0
  0
LWPOLYLINE
  5
700A3
330
7024B
100
AcDbEntity
  8
Level 27
  6
Continuous
 62
    40
370
    13
100
AcDbPolyline
 90
        5
 70
   129
 43
0.0
 10
-432.0
 20
-3332.799648
 10
-432.0
 20
-3317.329849
 10
-435.0
 20
-3317.329849
 10
-435.0
 20
-3332.799648
 10
-432.0
 20
-3332.799648
  0
LWPOLYLINE
  5
700A8
330
7024B
100
AcDbEntity
  8
Level 27
  6
Continuous
 62
    40
370
    13
100
AcDbPolyline
 90
       11
 70
   129
 43
0.0
 10
-432.0
 20
-3293.670155
 10
-432.0
 20
-3317.329849
 10
-432.0
 20
-3332.799648
 10
-432.0
 20
-3335.500002
 10
-432.0
 20
-3332.799648
 10
-432.0
 20
-3317.329849
 10
-432.0
 20
-3293.670155
 10
-432.0
 20
-3278.200356
 10
-432.0
 20
-3275.500002
 10
-432.0
 20
-3278.200356
 10
-432.0
 20
-3293.670155
  0
INSERT
  5
700B1
330
7024B
100
AcDbEntity
  8
Level 26
  6
Continuous
 62
     7
370
    13
100
AcDbBlockReference
  2
Feature Solid_18
 10
-0.000112
 20
-2237.499601
 30
0.0
 50
180.0
210
0.0
220
0.0
230
-1.0
  0
LWPOLYLINE
  5
700B9
330
7024B
100
AcDbEntity
  8
Level 25
  6
Continuous
 62
   252
370
    13
100
AcDbPolyline
 90
        5
 70
   129
 43
0.0
 10
-435.0
 20
-3345.0
 10
-435.0
 20
-3270.0
 10
-435.0
 20
-3270.0
 10
-435.0
 20
-3345.0
 10
-435.0
 20
-3345.0
  0
LWPOLYLINE
  5
700BA
330
7024B
100
AcDbEntity
  8
Level 25
  6
Continuous
 62
   252
370
    13
100
AcDbPolyline
 90
        5
 70
   129
 43
0.0
 10
-435.0
 20
-3270.0
 10
-510.0
 20
-3270.0
 10
-510.0
 20
-3270.0
 10
-435.0
 20
-3270.0
 10
-435.0
 20
-3270.0
  0
LWPOLYLINE
  5
700BB
330
7024B
100
AcDbEntity
  8
Level 25
  6
Continuous
 62
   252
370
    13
100
AcDbPolyline
 90
        5
 70
   129
 43
0.0
 10
-510.0
 20
-3345.0
 10
-435.0
 20
-3345.0
 10
-435.0
 20
-3345.0
 10
-510.0
 20
-3345.0
 10
-510.0
 20
-3345.0
  0
LWPOLYLINE
  5
700BC
330
7024B
100
AcDbEntity
  8
Level 25
  6
Continuous
 62
   252
370
    13
100
AcDbPolyline
 90
        5
 70
   129
 43
0.0
 10
-510.0
 20
-3270.0
 10
-510.0
 20
-3345.0
 10
-510.0
 20
-3345.0
 10
-510.0
 20
-3270.0
 10
-510.0
 20
-3270.0
  0
LWPOLYLINE
  5
700BD
330
7024B
100
AcDbEntity
  8
Level 26
  6
Continuous
 62
   163
370
    13
100
AcDbPolyline
 90
        5
 70
   129
 43
0.0
 10
-435.0
 20
-3270.0
 10
-510.0
 20
-3270.0
 10
-510.0
 20
-3270.0
 10
-435.0
 20
-3270.0
 10
-435.0
 20
-3270.0
  0
LWPOLYLINE
  5
700BE
330
7024B
100
AcDbEntity
  8
Level 26
  6
Continuous
 62
   163
370
    13
100
AcDbPolyline
 90
        5
 70
   129
 43
0.0
 10
-435.0
 20
-3345.0
 10
-435.0
 20
-3270.0
 10
-435.0
 20
-3270.0
 10
-435.0
 20
-3345.0
 10
-435.0
 20
-3345.0
  0
LWPOLYLINE
  5
700BF
330
7024B
100
AcDbEntity
  8
Level 26
  6
Continuous
 62
   163
370
    13
100
AcDbPolyline
 90
        5
 70
   129
 43
0.0
 10
-510.0
 20
-3345.0
 10
-435.0
 20
-3345.0
 10
-435.0
 20
-3345.0
 10
-510.0
 20
-3345.0
 10
-510.0
 20
-3345.0
  0
LWPOLYLINE
  5
700C0
330
7024B
100
AcDbEntity
  8
Level 26
  6
Continuous
 62
   163
370
    13
100
AcDbPolyline
 90
        5
 70
   129
 43
0.0
 10
-510.0
 20
-3270.0
 10
-510.0
 20
-3345.0
 10
-510.0
 20
-3345.0
 10
-510.0
 20
-3270.0
 10
-510.0
 20
-3270.0
  0
LWPOLYLINE
  5
700C1
330
7024B
100
AcDbEntity
  8
Level 26
  6
Continuous
 62
   163
370
    13
100
AcDbPolyline
 90
        5
 70
   129
 43
0.0
 10
-435.0
 20
-3270.0
 10
-510.0
 20
-3270.0
 10
-510.0
 20
-3345.0
 10
-435.0
 20
-3345.0
 10
-435.0
 20
-3270.0
  0
LWPOLYLINE
  5
700C6
330
7024B
100
AcDbEntity
  8
Level 25
  6
Continuous
 62
   252
370
    13
100
AcDbPolyline
 90
        5
 70
   129
 43
0.0
 10
510.0
 20
-3345.0
 10
510.0
 20
-3270.0
 10
510.0
 20
-3270.0
 10
510.0
 20
-3345.0
 10
510.0
 20
-3345.0
  0
LWPOLYLINE
  5
700C7
330
7024B
100
AcDbEntity
  8
Level 25
  6
Continuous
 62
   252
370
    13
100
AcDbPolyline
 90
        5
 70
   129
 43
0.0
 10
510.0
 20
-3270.0
 10
435.0
 20
-3270.0
 10
435.0
 20
-3270.0
 10
510.0
 20
-3270.0
 10
510.0
 20
-3270.0
  0
LWPOLYLINE
  5
700C8
330
7024B
100
AcDbEntity
  8
Level 25
  6
Continuous
 62
   252
370
    13
100
AcDbPolyline
 90
        5
 70
   129
 43
0.0
 10
435.0
 20
-3345.0
 10
510.0
 20
-3345.0
 10
510.0
 20
-3345.0
 10
435.0
 20
-3345.0
 10
435.0
 20
-3345.0
  0
LWPOLYLINE
  5
700C9
330
7024B
100
AcDbEntity
  8
Level 25
  6
Continuous
 62
   252
370
    13
100
AcDbPolyline
 90
        5
 70
   129
 43
0.0
 10
435.0
 20
-3270.0
 10
435.0
 20
-3345.0
 10
435.0
 20
-3345.0
 10
435.0
 20
-3270.0
 10
435.0
 20
-3270.0
  0
LWPOLYLINE
  5
700CA
330
7024B
100
AcDbEntity
  8
Level 26
  6
Continuous
 62
   163
370
    13
100
AcDbPolyline
 90
        5
 70
   129
 43
0.0
 10
510.0
 20
-3270.0
 10
435.0
 20
-3270.0
 10
435.0
 20
-3270.0
 10
510.0
 20
-3270.0
 10
510.0
 20
-3270.0
  0
LWPOLYLINE
  5
700CB
330
7024B
100
AcDbEntity
  8
Level 26
  6
Continuous
 62
   163
370
    13
100
AcDbPolyline
 90
        5
 70
   129
 43
0.0
 10
510.0
 20
-3345.0
 10
510.0
 20
-3270.0
 10
510.0
 20
-3270.0
 10
510.0
 20
-3345.0
 10
510.0
 20
-3345.0
  0
LWPOLYLINE
  5
700CC
330
7024B
100
AcDbEntity
  8
Level 26
  6
Continuous
 62
   163
370
    13
100
AcDbPolyline
 90
        5
 70
   129
 43
0.0
 10
435.0
 20
-3345.0
 10
510.0
 20
-3345.0
 10
510.0
 20
-3345.0
 10
435.0
 20
-3345.0
 10
435.0
 20
-3345.0
  0
LWPOLYLINE
  5
700CD
330
7024B
100
AcDbEntity
  8
Level 26
  6
Continuous
 62
   163
370
    13
100
AcDbPolyline
 90
        5
 70
   129
 43
0.0
 10
435.0
 20
-3270.0
 10
435.0
 20
-3345.0
 10
435.0
 20
-3345.0
 10
435.0
 20
-3270.0
 10
435.0
 20
-3270.0
  0
LWPOLYLINE
  5
700CE
330
7024B
100
AcDbEntity
  8
Level 26
  6
Continuous
 62
   163
370
    13
100
AcDbPolyline
 90
        5
 70
   129
 43
0.0
 10
510.0
 20
-3270.0
 10
435.0
 20
-3270.0
 10
435.0
 20
-3345.0
 10
510.0
 20
-3345.0
 10
510.0
 20
-3270.0
  0
LWPOLYLINE
  5
700D3
330
7024B
100
AcDbEntity
  8
Level 25
  6
Continuous
 62
   252
370
    13
100
AcDbPolyline
 90
        5
 70
   129
 43
0.0
 10
-435.0
 20
3270.0
 10
-435.0
 20
3345.0
 10
-435.0
 20
3345.0
 10
-435.0
 20
3270.0
 10
-435.0
 20
3270.0
  0
LWPOLYLINE
  5
700D4
330
7024B
100
AcDbEntity
  8
Level 25
  6
Continuous
 62
   252
370
    13
100
AcDbPolyline
 90
        5
 70
   129
 43
0.0
 10
-435.0
 20
3345.0
 10
-510.0
 20
3345.0
 10
-510.0
 20
3345.0
 10
-435.0
 20
3345.0
 10
-435.0
 20
3345.0
  0
LWPOLYLINE
  5
700D5
330
7024B
100
AcDbEntity
  8
Level 25
  6
Continuous
 62
   252
370
    13
100
AcDbPolyline
 90
        5
 70
   129
 43
0.0
 10
-510.0
 20
3270.0
 10
-435.0
 20
3270.0
 10
-435.0
 20
3270.0
 10
-510.0
 20
3270.0
 10
-510.0
 20
3270.0
  0
LWPOLYLINE
  5
700D6
330
7024B
100
AcDbEntity
  8
Level 25
  6
Continuous
 62
   252
370
    13
100
AcDbPolyline
 90
        5
 70
   129
 43
0.0
 10
-510.0
 20
3345.0
 10
-510.0
 20
3270.0
 10
-510.0
 20
3270.0
 10
-510.0
 20
3345.0
 10
-510.0
 20
3345.0
  0
LWPOLYLINE
  5
700D7
330
7024B
100
AcDbEntity
  8
Level 26
  6
Continuous
 62
   163
370
    13
100
AcDbPolyline
 90
        5
 70
   129
 43
0.0
 10
-435.0
 20
3345.0
 10
-510.0
 20
3345.0
 10
-510.0
 20
3345.0
 10
-435.0
 20
3345.0
 10
-435.0
 20
3345.0
  0
LWPOLYLINE
  5
700D8
330
7024B
100
AcDbEntity
  8
Level 26
  6
Continuous
 62
   163
370
    13
100
AcDbPolyline
 90
        5
 70
   129
 43
0.0
 10
-435.0
 20
3270.0
 10
-435.0
 20
3345.0
 10
-435.0
 20
3345.0
 10
-435.0
 20
3270.0
 10
-435.0
 20
3270.0
  0
LWPOLYLINE
  5
700D9
330
7024B
100
AcDbEntity
  8
Level 26
  6
Continuous
 62
   163
370
    13
100
AcDbPolyline
 90
        5
 70
   129
 43
0.0
 10
-510.0
 20
3270.0
 10
-435.0
 20
3270.0
 10
-435.0
 20
3270.0
 10
-510.0
 20
3270.0
 10
-510.0
 20
3270.0
  0
LWPOLYLINE
  5
700DA
330
7024B
100
AcDbEntity
  8
Level 26
  6
Continuous
 62
   163
370
    13
100
AcDbPolyline
 90
        5
 70
   129
 43
0.0
 10
-510.0
 20
3345.0
 10
-510.0
 20
3270.0
 10
-510.0
 20
3270.0
 10
-510.0
 20
3345.0
 10
-510.0
 20
3345.0
  0
LWPOLYLINE
  5
700DB
330
7024B
100
AcDbEntity
  8
Level 26
  6
Continuous
 62
   163
370
    13
100
AcDbPolyline
 90
        5
 70
   129
 43
0.0
 10
-435.0
 20
3345.0
 10
-510.0
 20
3345.0
 10
-510.0
 20
3270.0
 10
-435.0
 20
3270.0
 10
-435.0
 20
3345.0
  0
LWPOLYLINE
  5
700E0
330
7024B
100
AcDbEntity
  8
Level 25
  6
Continuous
 62
   252
370
    13
100
AcDbPolyline
 90
        5
 70
   129
 43
0.0
 10
510.0
 20
3270.0
 10
510.0
 20
3345.0
 10
510.0
 20
3345.0
 10
510.0
 20
3270.0
 10
510.0
 20
3270.0
  0
LWPOLYLINE
  5
700E1
330
7024B
100
AcDbEntity
  8
Level 25
  6
Continuous
 62
   252
370
    13
100
AcDbPolyline
 90
        5
 70
   129
 43
0.0
 10
510.0
 20
3345.0
 10
435.0
 20
3345.0
 10
435.0
 20
3345.0
 10
510.0
 20
3345.0
 10
510.0
 20
3345.0
  0
LWPOLYLINE
  5
700E2
330
7024B
100
AcDbEntity
  8
Level 25
  6
Continuous
 62
   252
370
    13
100
AcDbPolyline
 90
        5
 70
   129
 43
0.0
 10
435.0
 20
3270.0
 10
510.0
 20
3270.0
 10
510.0
 20
3270.0
 10
435.0
 20
3270.0
 10
435.0
 20
3270.0
  0
LWPOLYLINE
  5
700E3
330
7024B
100
AcDbEntity
  8
Level 25
  6
Continuous
 62
   252
370
    13
100
AcDbPolyline
 90
        5
 70
   129
 43
0.0
 10
435.0
 20
3345.0
 10
435.0
 20
3270.0
 10
435.0
 20
3270.0
 10
435.0
 20
3345.0
 10
435.0
 20
3345.0
  0
LWPOLYLINE
  5
700E4
330
7024B
100
AcDbEntity
  8
Level 26
  6
Continuous
 62
   163
370
    13
100
AcDbPolyline
 90
        5
 70
   129
 43
0.0
 10
510.0
 20
3345.0
 10
435.0
 20
3345.0
 10
435.0
 20
3345.0
 10
510.0
 20
3345.0
 10
510.0
 20
3345.0
  0
LWPOLYLINE
  5
700E5
330
7024B
100
AcDbEntity
  8
Level 26
  6
Continuous
 62
   163
370
    13
100
AcDbPolyline
 90
        5
 70
   129
 43
0.0
 10
510.0
 20
3270.0
 10
510.0
 20
3345.0
 10
510.0
 20
3345.0
 10
510.0
 20
3270.0
 10
510.0
 20
3270.0
  0
LWPOLYLINE
  5
700E6
330
7024B
100
AcDbEntity
  8
Level 26
  6
Continuous
 62
   163
370
    13
100
AcDbPolyline
 90
        5
 70
   129
 43
0.0
 10
435.0
 20
3270.0
 10
510.0
 20
3270.0
 10
510.0
 20
3270.0
 10
435.0
 20
3270.0
 10
435.0
 20
3270.0
  0
LWPOLYLINE
  5
700E7
330
7024B
100
AcDbEntity
  8
Level 26
  6
Continuous
 62
   163
370
    13
100
AcDbPolyline
 90
        5
 70
   129
 43
0.0
 10
435.0
 20
3345.0
 10
435.0
 20
3270.0
 10
435.0
 20
3270.0
 10
435.0
 20
3345.0
 10
435.0
 20
3345.0
  0
LWPOLYLINE
  5
700E8
330
7024B
100
AcDbEntity
  8
Level 26
  6
Continuous
 62
   163
370
    13
100
AcDbPolyline
 90
        5
 70
   129
 43
0.0
 10
510.0
 20
3345.0
 10
435.0
 20
3345.0
 10
435.0
 20
3270.0
 10
510.0
 20
3270.0
 10
510.0
 20
3345.0
  0
ENDBLK
  5
7024D
330
7024B
100
AcDbEntity
  8
0
 62
    98
370
     0
100
AcDbBlockEnd
  0
BLOCK
  5
7024F
330
7024E
100
AcDbEntity
  8
0
 62
    98
370
     0
100
AcDbBlockBegin
  2
From Solid
 70
     0
 10
0.0
 20
0.0
 30
0.0
  3
From Solid
  1

  0
LINE
  5
6FDC7
330
7024E
100
AcDbEntity
  8
Level 26
  6
Continuous
 62
   253
370
    13
100
AcDbLine
 10
239.762463
 20
-142.238472
 30
0.0
 11
239.762463
 21
-202.538472
 31
0.0
  0
LINE
  5
6FDC8
330
7024E
100
AcDbEntity
  8
Level 26
  6
Continuous
 62
   253
370
    13
100
AcDbLine
 10
6804.362463
 20
-142.238472
 30
0.0
 11
6804.362463
 21
-202.538472
 31
0.0
  0
LINE
  5
6FDC9
330
7024E
100
AcDbEntity
  8
Level 26
  6
Continuous
 62
   253
370
    13
100
AcDbLine
 10
239.762463
 20
-172.388472
 30
0.0
 11
6804.362463
 21
-172.388472
 31
0.0
  0
LINE
  5
6FDCA
330
7024E
100
AcDbEntity
  8
Level 26
  6
Continuous
 62
   253
370
    13
100
AcDbLine
 10
239.762463
 20
-142.238472
 30
0.0
 11
6804.362463
 21
-142.238472
 31
0.0
  0
LINE
  5
6FDCB
330
7024E
100
AcDbEntity
  8
Level 26
  6
Continuous
 62
   253
370
    13
100
AcDbLine
 10
239.762463
 20
-172.388472
 30
0.0
 11
6804.362463
 21
-172.388472
 31
0.0
  0
LINE
  5
6FDCC
330
7024E
100
AcDbEntity
  8
Level 26
  6
Continuous
 62
   253
370
    13
100
AcDbLine
 10
239.762463
 20
-202.538472
 30
0.0
 11
6804.362463
 21
-202.538472
 31
0.0
  0
ENDBLK
  5
70250
330
7024E
100
AcDbEntity
  8
0
 62
    98
370
     0
100
AcDbBlockEnd
  0
BLOCK
  5
70252
330
70251
100
AcDbEntity
  8
0
 62
    98
370
     0
100
AcDbBlockBegin
  2
Feature Solid
 70
     0
 10
0.0
 20
0.0
 30
0.0
  3
Feature Solid
  1

  0
INSERT
  5
6FDCE
330
70251
100
AcDbEntity
  8
Level 27
  6
Continuous
 62
    40
370
    13
100
AcDbBlockReference
  2
SUBTRC
 10
-0.012015
 20
0.0
 30
-0.000295
  0
ENDBLK
  5
70253
330
70251
100
AcDbEntity
  8
0
 62
    98
370
     0
100
AcDbBlockEnd
  0
BLOCK
  5
70255
330
70254
100
AcDbEntity
  8
0
 62
    98
370
     0
100
AcDbBlockBegin
  2
SUBTRC
 70
     0
 10
0.0
 20
0.0
 30
0.0
  3
SUBTRC
  1

  0
INSERT
  5
6FDCF
330
70254
100
AcDbEntity
  8
Level 27
  6
Continuous
 62
    40
370
    13
100
AcDbBlockReference
  2
Feature Solid_1
 10
0.0
 20
0.0
 30
0.0
  0
INSERT
  5
6FDE7
330
70254
100
AcDbEntity
  8
Level 27
  6
Continuous
 62
    40
370
    13
100
AcDbBlockReference
  2
Feature Solid_2
 10
0.0
 20
0.0
 30
0.0
  0
ENDBLK
  5
70256
330
70254
100
AcDbEntity
  8
0
 62
    98
370
     0
100
AcDbBlockEnd
  0
BLOCK
  5
70258
330
70257
100
AcDbEntity
  8
0
 62
    98
370
     0
100
AcDbBlockBegin
  2
Feature Solid_1
 70
     0
 10
0.0
 20
0.0
 30
0.0
  3
Feature Solid_1
  1

  0
INSERT
  5
6FDD0
330
70257
100
AcDbEntity
  8
Level 27
  6
Continuous
 62
    40
370
    13
100
AcDbBlockReference
  2
DDPROJ
 10
0.0
 20
0.0
 30
0.0
  0
ENDBLK
  5
70259
330
70257
100
AcDbEntity
  8
0
 62
    98
370
     0
100
AcDbBlockEnd
  0
BLOCK
  5
7025B
330
7025A
100
AcDbEntity
  8
0
 62
    98
370
     0
100
AcDbBlockBegin
  2
DDPROJ
 70
     0
 10
0.0
 20
0.0
 30
0.0
  3
DDPROJ
  1

  0
LINE
  5
6FDD1
330
7025A
100
AcDbEntity
  8
Level 27
  6
Continuous
 62
    40
370
    13
100
AcDbLine
 10
0.011617
 20
0.0
 30
0.0
 11
0.011617
 21
0.0
 31
0.0006
  0
LINE
  5
6FDD2
330
7025A
100
AcDbEntity
  8
Level 27
  6
Continuous
 62
    40
370
    13
100
AcDbLine
 10
0.012406
 20
0.0
 30
0.0
 11
0.012406
 21
0.0
 31
0.0006
  0
LINE
  5
6FDD3
330
7025A
100
AcDbEntity
  8
Level 27
  6
Continuous
 62
    40
370
    13
100
AcDbLine
 10
0.012917
 20
0.0
 30
0.0
 11
0.012917
 21
0.0
 31
0.0006
  0
LINE
  5
6FDD4
330
7025A
100
AcDbEntity
  8
Level 27
  6
Continuous
 62
    40
370
    13
100
AcDbLine
 10
0.012522
 20
0.0
 30
0.0
 11
0.012522
 21
0.0
 31
0.0006
  0
LINE
  5
6FDD5
330
7025A
100
AcDbEntity
  8
Level 27
  6
Continuous
 62
    40
370
    13
100
AcDbLine
 10
0.011501
 20
0.0
 30
0.0
 11
0.011501
 21
0.0
 31
0.0006
  0
LINE
  5
6FDD6
330
7025A
100
AcDbEntity
  8
Level 27
  6
Continuous
 62
    40
370
    13
100
AcDbLine
 10
0.011107
 20
0.0
 30
0.0
 11
0.011107
 21
0.0
 31
0.0006
  0
LINE
  5
6FDD7
330
7025A
100
AcDbEntity
  8
Level 27
  6
Continuous
 62
    40
370
    13
100
AcDbLine
 10
0.011001
 20
0.0
 30
0.0
 11
0.011501
 21
0.0
 31
0.0
  0
LINE
  5
6FDD8
330
7025A
100
AcDbEntity
  8
Level 27
  6
Continuous
 62
    40
370
    13
100
AcDbLine
 10
0.012522
 20
0.0
 30
0.0
 11
0.011501
 21
0.0
 31
0.0
  0
LINE
  5
6FDD9
330
7025A
100
AcDbEntity
  8
Level 27
  6
Continuous
 62
    40
370
    13
100
AcDbLine
 10
0.013022
 20
0.0
 30
0.0
 11
0.012522
 21
0.0
 31
0.0
  0
LINE
  5
6FDDA
330
7025A
100
AcDbEntity
  8
Level 27
  6
Continuous
 62
    40
370
    13
100
AcDbLine
 10
0.012406
 20
0.0
 30
0.0
 11
0.012917
 21
0.0
 31
0.0
  0
LINE
  5
6FDDB
330
7025A
100
AcDbEntity
  8
Level 27
  6
Continuous
 62
    40
370
    13
100
AcDbLine
 10
0.012406
 20
0.0
 30
0.0
 11
0.011617
 21
0.0
 31
0.0
  0
LINE
  5
6FDDC
330
7025A
100
AcDbEntity
  8
Level 27
  6
Continuous
 62
    40
370
    13
100
AcDbLine
 10
0.011107
 20
0.0
 30
0.0
 11
0.011617
 21
0.0
 31
0.0
  0
LINE
  5
6FDDD
330
7025A
100
AcDbEntity
  8
Level 27
  6
Continuous
 62
    40
370
    13
100
AcDbLine
 10
0.011001
 20
0.0
 30
0.0006
 11
0.011501
 21
0.0
 31
0.0006
  0
LINE
  5
6FDDE
330
7025A
100
AcDbEntity
  8
Level 27
  6
Continuous
 62
    40
370
    13
100
AcDbLine
 10
0.012522
 20
0.0
 30
0.0006
 11
0.011501
 21
0.0
 31
0.0006
  0
LINE
  5
6FDDF
330
7025A
100
AcDbEntity
  8
Level 27
  6
Continuous
 62
    40
370
    13
100
AcDbLine
 10
0.013022
 20
0.0
 30
0.0006
 11
0.012522
 21
0.0
 31
0.0006
  0
LINE
  5
6FDE0
330
7025A
100
AcDbEntity
  8
Level 27
  6
Continuous
 62
    40
370
    13
100
AcDbLine
 10
0.012406
 20
0.0
 30
0.0006
 11
0.012917
 21
0.0
 31
0.0006
  0
LINE
  5
6FDE1
330
7025A
100
AcDbEntity
  8
Level 27
  6
Continuous
 62
    40
370
    13
100
AcDbLine
 10
0.012406
 20
0.0
 30
0.0006
 11
0.011617
 21
0.0
 31
0.0006
  0
LINE
  5
6FDE2
330
7025A
100
AcDbEntity
  8
Level 27
  6
Continuous
 62
    40
370
    13
100
AcDbLine
 10
0.011107
 20
0.0
 30
0.0006
 11
0.011617
 21
0.0
 31
0.0006
  0
LINE
  5
6FDE3
330
7025A
100
AcDbEntity
  8
Level 27
  6
Continuous
 62
    40
370
    13
100
AcDbLine
 10
0.012012
 20
0.0
 30
0.0
 11
0.012012
 21
0.0
 31
0.0006
  0
LINE
  5
6FDE4
330
7025A
100
AcDbEntity
  8
Level 27
  6
Continuous
 62
    40
370
    13
100
AcDbLine
 10
0.013022
 20
0.0
 30
0.0
 11
0.013022
 21
0.0
 31
0.0006
  0
LINE
  5
6FDE5
330
7025A
100
AcDbEntity
  8
Level 27
  6
Continuous
 62
    40
370
    13
100
AcDbLine
 10
0.012522
 20
0.0
 30
0.0
 11
0.012522
 21
0.0
 31
0.0006
  0
LINE
  5
6FDE6
330
7025A
100
AcDbEntity
  8
Level 27
  6
Continuous
 62
    40
370
    13
100
AcDbLine
 10
0.011001
 20
0.0
 30
0.0
 11
0.011001
 21
0.0
 31
0.0006
  0
ENDBLK
  5
7025C
330
7025A
100
AcDbEntity
  8
0
 62
    98
370
     0
100
AcDbBlockEnd
  0
BLOCK
  5
7025E
330
7025D
100
AcDbEntity
  8
0
 62
    98
370
     0
100
AcDbBlockBegin
  2
Feature Solid_2
 70
     0
 10
0.0
 20
0.0
 30
0.0
  3
Feature Solid_2
  1

  0
INSERT
  5
6FDE8
330
7025D
100
AcDbEntity
  8
Level 27
  6
Continuous
 62
    40
370
    13
100
AcDbBlockReference
  2
DDPROJ_1
 10
0.0
 20
0.0
 30
0.0
  0
ENDBLK
  5
7025F
330
7025D
100
AcDbEntity
  8
0
 62
    98
370
     0
100
AcDbBlockEnd
  0
BLOCK
  5
70261
330
70260
100
AcDbEntity
  8
0
 62
    98
370
     0
100
AcDbBlockBegin
  2
DDPROJ_1
 70
     0
 10
0.0
 20
0.0
 30
0.0
  3
DDPROJ_1
  1

  0
LINE
  5
6FDE9
330
70260
100
AcDbEntity
  8
Level 27
  6
Continuous
 62
    40
370
    13
100
AcDbLine
 10
0.013987
 20
0.0
 30
0.0
 11
0.013987
 21
0.0
 31
0.0006
  0
LINE
  5
6FDEA
330
70260
100
AcDbEntity
  8
Level 27
  6
Continuous
 62
    40
370
    13
100
AcDbLine
 10
0.013836
 20
0.0
 30
0.0
 11
0.013836
 21
0.0
 31
0.0006
  0
LINE
  5
6FDEB
330
70260
100
AcDbEntity
  8
Level 27
  6
Continuous
 62
    40
370
    13
100
AcDbLine
 10
0.013113
 20
0.0
 30
0.0
 11
0.013113
 21
0.0
 31
0.0006
  0
LINE
  5
6FDEC
330
70260
100
AcDbEntity
  8
Level 27
  6
Continuous
 62
    40
370
    13
100
AcDbLine
 10
0.010911
 20
0.0
 30
0.0
 11
0.010911
 21
0.0
 31
0.0006
  0
LINE
  5
6FDED
330
70260
100
AcDbEntity
  8
Level 27
  6
Continuous
 62
    40
370
    13
100
AcDbLine
 10
0.010187
 20
0.0
 30
0.0
 11
0.010187
 21
0.0
 31
0.0006
  0
LINE
  5
6FDEE
330
70260
100
AcDbEntity
  8
Level 27
  6
Continuous
 62
    40
370
    13
100
AcDbLine
 10
0.010037
 20
0.0
 30
0.0
 11
0.010037
 21
0.0
 31
0.0006
  0
LINE
  5
6FDEF
330
70260
100
AcDbEntity
  8
Level 27
  6
Continuous
 62
    40
370
    13
100
AcDbLine
 10
0.010187
 20
0.0
 30
0.0
 11
0.010037
 21
0.0
 31
0.0
  0
LINE
  5
6FDF0
330
70260
100
AcDbEntity
  8
Level 27
  6
Continuous
 62
    40
370
    13
100
AcDbLine
 10
0.010911
 20
0.0
 30
0.0
 11
0.010187
 21
0.0
 31
0.0
  0
LINE
  5
6FDF1
330
70260
100
AcDbEntity
  8
Level 27
  6
Continuous
 62
    40
370
    13
100
AcDbLine
 10
0.013113
 20
0.0
 30
0.0
 11
0.010911
 21
0.0
 31
0.0
  0
LINE
  5
6FDF2
330
70260
100
AcDbEntity
  8
Level 27
  6
Continuous
 62
    40
370
    13
100
AcDbLine
 10
0.013836
 20
0.0
 30
0.0
 11
0.013113
 21
0.0
 31
0.0
  0
LINE
  5
6FDF3
330
70260
100
AcDbEntity
  8
Level 27
  6
Continuous
 62
    40
370
    13
100
AcDbLine
 10
0.013987
 20
0.0
 30
0.0
 11
0.013836
 21
0.0
 31
0.0
  0
LINE
  5
6FDF4
330
70260
100
AcDbEntity
  8
Level 27
  6
Continuous
 62
    40
370
    13
100
AcDbLine
 10
0.014012
 20
0.0
 30
0.0
 11
0.010012
 21
0.0
 31
0.0
  0
LINE
  5
6FDF5
330
70260
100
AcDbEntity
  8
Level 27
  6
Continuous
 62
    40
370
    13
100
AcDbLine
 10
0.010187
 20
0.0
 30
0.0006
 11
0.010037
 21
0.0
 31
0.0006
  0
LINE
  5
6FDF6
330
70260
100
AcDbEntity
  8
Level 27
  6
Continuous
 62
    40
370
    13
100
AcDbLine
 10
0.010911
 20
0.0
 30
0.0006
 11
0.010187
 21
0.0
 31
0.0006
  0
LINE
  5
6FDF7
330
70260
100
AcDbEntity
  8
Level 27
  6
Continuous
 62
    40
370
    13
100
AcDbLine
 10
0.013113
 20
0.0
 30
0.0006
 11
0.010911
 21
0.0
 31
0.0006
  0
LINE
  5
6FDF8
330
70260
100
AcDbEntity
  8
Level 27
  6
Continuous
 62
    40
370
    13
100
AcDbLine
 10
0.013836
 20
0.0
 30
0.0006
 11
0.013113
 21
0.0
 31
0.0006
  0
LINE
  5
6FDF9
330
70260
100
AcDbEntity
  8
Level 27
  6
Continuous
 62
    40
370
    13
100
AcDbLine
 10
0.013987
 20
0.0
 30
0.0006
 11
0.013836
 21
0.0
 31
0.0006
  0
LINE
  5
6FDFA
330
70260
100
AcDbEntity
  8
Level 27
  6
Continuous
 62
    40
370
    13
100
AcDbLine
 10
0.014012
 20
0.0
 30
0.0006
 11
0.010012
 21
0.0
 31
0.0006
  0
LINE
  5
6FDFB
330
70260
100
AcDbEntity
  8
Level 27
  6
Continuous
 62
    40
370
    13
100
AcDbLine
 10
0.010012
 20
0.0
 30
0.0
 11
0.010012
 21
0.0
 31
0.0006
  0
LINE
  5
6FDFC
330
70260
100
AcDbEntity
  8
Level 27
  6
Continuous
 62
    40
370
    13
100
AcDbLine
 10
0.012012
 20
0.0
 30
0.0
 11
0.012012
 21
0.0
 31
0.0006
  0
LINE
  5
6FDFD
330
70260
100
AcDbEntity
  8
Level 27
  6
Continuous
 62
    40
370
    13
100
AcDbLine
 10
0.014012
 20
0.0
 30
0.0
 11
0.014012
 21
0.0
 31
0.0006
  0
LINE
  5
6FDFE
330
70260
100
AcDbEntity
  8
Level 27
  6
Continuous
 62
    40
370
    13
100
AcDbLine
 10
0.013342
 20
0.0
 30
0.0
 11
0.013342
 21
0.0
 31
0.0006
  0
LINE
  5
6FDFF
330
70260
100
AcDbEntity
  8
Level 27
  6
Continuous
 62
    40
370
    13
100
AcDbLine
 10
0.010681
 20
0.0
 30
0.0
 11
0.010681
 21
0.0
 31
0.0006
  0
ENDBLK
  5
70262
330
70260
100
AcDbEntity
  8
0
 62
    98
370
     0
100
AcDbBlockEnd
  0
BLOCK
  5
70264
330
70263
100
AcDbEntity
  8
0
 62
    98
370
     0
100
AcDbBlockBegin
  2
Feature Solid_3
 70
     0
 10
0.0
 20
0.0
 30
0.0
  3
Feature Solid_3
  1

  0
INSERT
  5
6FE01
330
70263
100
AcDbEntity
  8
Level 27
  6
Continuous
 62
    40
370
    13
100
AcDbBlockReference
  2
SUBTRC_1
 10
-0.012015
 20
0.0
 30
-0.000295
  0
ENDBLK
  5
70265
330
70263
100
AcDbEntity
  8
0
 62
    98
370
     0
100
AcDbBlockEnd
  0
BLOCK
  5
70267
330
70266
100
AcDbEntity
  8
0
 62
    98
370
     0
100
AcDbBlockBegin
  2
SUBTRC_1
 70
     0
 10
0.0
 20
0.0
 30
0.0
  3
SUBTRC_1
  1

  0
INSERT
  5
6FE02
330
70266
100
AcDbEntity
  8
Level 27
  6
Continuous
 62
    40
370
    13
100
AcDbBlockReference
  2
Feature Solid_4
 10
0.0
 20
0.0
 30
0.0
  0
INSERT
  5
6FE1A
330
70266
100
AcDbEntity
  8
Level 27
  6
Continuous
 62
    40
370
    13
100
AcDbBlockReference
  2
Feature Solid_5
 10
0.0
 20
0.0
 30
0.0
  0
ENDBLK
  5
70268
330
70266
100
AcDbEntity
  8
0
 62
    98
370
     0
100
AcDbBlockEnd
  0
BLOCK
  5
7026A
330
70269
100
AcDbEntity
  8
0
 62
    98
370
     0
100
AcDbBlockBegin
  2
Feature Solid_4
 70
     0
 10
0.0
 20
0.0
 30
0.0
  3
Feature Solid_4
  1

  0
INSERT
  5
6FE03
330
70269
100
AcDbEntity
  8
Level 27
  6
Continuous
 62
    40
370
    13
100
AcDbBlockReference
  2
DDPROJ_2
 10
0.0
 20
0.0
 30
0.0
  0
ENDBLK
  5
7026B
330
70269
100
AcDbEntity
  8
0
 62
    98
370
     0
100
AcDbBlockEnd
  0
BLOCK
  5
7026D
330
7026C
100
AcDbEntity
  8
0
 62
    98
370
     0
100
AcDbBlockBegin
  2
DDPROJ_2
 70
     0
 10
0.0
 20
0.0
 30
0.0
  3
DDPROJ_2
  1

  0
LINE
  5
6FE04
330
7026C
100
AcDbEntity
  8
Level 27
  6
Continuous
 62
    40
370
    13
100
AcDbLine
 10
0.011617
 20
0.0
 30
0.0
 11
0.011617
 21
0.0
 31
0.0006
  0
LINE
  5
6FE05
330
7026C
100
AcDbEntity
  8
Level 27
  6
Continuous
 62
    40
370
    13
100
AcDbLine
 10
0.012406
 20
0.0
 30
0.0
 11
0.012406
 21
0.0
 31
0.0006
  0
LINE
  5
6FE06
330
7026C
100
AcDbEntity
  8
Level 27
  6
Continuous
 62
    40
370
    13
100
AcDbLine
 10
0.012917
 20
0.0
 30
0.0
 11
0.012917
 21
0.0
 31
0.0006
  0
LINE
  5
6FE07
330
7026C
100
AcDbEntity
  8
Level 27
  6
Continuous
 62
    40
370
    13
100
AcDbLine
 10
0.012522
 20
0.0
 30
0.0
 11
0.012522
 21
0.0
 31
0.0006
  0
LINE
  5
6FE08
330
7026C
100
AcDbEntity
  8
Level 27
  6
Continuous
 62
    40
370
    13
100
AcDbLine
 10
0.011501
 20
0.0
 30
0.0
 11
0.011501
 21
0.0
 31
0.0006
  0
LINE
  5
6FE09
330
7026C
100
AcDbEntity
  8
Level 27
  6
Continuous
 62
    40
370
    13
100
AcDbLine
 10
0.011107
 20
0.0
 30
0.0
 11
0.011107
 21
0.0
 31
0.0006
  0
LINE
  5
6FE0A
330
7026C
100
AcDbEntity
  8
Level 27
  6
Continuous
 62
    40
370
    13
100
AcDbLine
 10
0.011001
 20
0.0
 30
0.0
 11
0.011501
 21
0.0
 31
0.0
  0
LINE
  5
6FE0B
330
7026C
100
AcDbEntity
  8
Level 27
  6
Continuous
 62
    40
370
    13
100
AcDbLine
 10
0.012522
 20
0.0
 30
0.0
 11
0.011501
 21
0.0
 31
0.0
  0
LINE
  5
6FE0C
330
7026C
100
AcDbEntity
  8
Level 27
  6
Continuous
 62
    40
370
    13
100
AcDbLine
 10
0.013022
 20
0.0
 30
0.0
 11
0.012522
 21
0.0
 31
0.0
  0
LINE
  5
6FE0D
330
7026C
100
AcDbEntity
  8
Level 27
  6
Continuous
 62
    40
370
    13
100
AcDbLine
 10
0.012406
 20
0.0
 30
0.0
 11
0.012917
 21
0.0
 31
0.0
  0
LINE
  5
6FE0E
330
7026C
100
AcDbEntity
  8
Level 27
  6
Continuous
 62
    40
370
    13
100
AcDbLine
 10
0.012406
 20
0.0
 30
0.0
 11
0.011617
 21
0.0
 31
0.0
  0
LINE
  5
6FE0F
330
7026C
100
AcDbEntity
  8
Level 27
  6
Continuous
 62
    40
370
    13
100
AcDbLine
 10
0.011107
 20
0.0
 30
0.0
 11
0.011617
 21
0.0
 31
0.0
  0
LINE
  5
6FE10
330
7026C
100
AcDbEntity
  8
Level 27
  6
Continuous
 62
    40
370
    13
100
AcDbLine
 10
0.011001
 20
0.0
 30
0.0006
 11
0.011501
 21
0.0
 31
0.0006
  0
LINE
  5
6FE11
330
7026C
100
AcDbEntity
  8
Level 27
  6
Continuous
 62
    40
370
    13
100
AcDbLine
 10
0.012522
 20
0.0
 30
0.0006
 11
0.011501
 21
0.0
 31
0.0006
  0
LINE
  5
6FE12
330
7026C
100
AcDbEntity
  8
Level 27
  6
Continuous
 62
    40
370
    13
100
AcDbLine
 10
0.013022
 20
0.0
 30
0.0006
 11
0.012522
 21
0.0
 31
0.0006
  0
LINE
  5
6FE13
330
7026C
100
AcDbEntity
  8
Level 27
  6
Continuous
 62
    40
370
    13
100
AcDbLine
 10
0.012406
 20
0.0
 30
0.0006
 11
0.012917
 21
0.0
 31
0.0006
  0
LINE
  5
6FE14
330
7026C
100
AcDbEntity
  8
Level 27
  6
Continuous
 62
    40
370
    13
100
AcDbLine
 10
0.012406
 20
0.0
 30
0.0006
 11
0.011617
 21
0.0
 31
0.0006
  0
LINE
  5
6FE15
330
7026C
100
AcDbEntity
  8
Level 27
  6
Continuous
 62
    40
370
    13
100
AcDbLine
 10
0.011107
 20
0.0
 30
0.0006
 11
0.011617
 21
0.0
 31
0.0006
  0
LINE
  5
6FE16
330
7026C
100
AcDbEntity
  8
Level 27
  6
Continuous
 62
    40
370
    13
100
AcDbLine
 10
0.012012
 20
0.0
 30
0.0
 11
0.012012
 21
0.0
 31
0.0006
  0
LINE
  5
6FE17
330
7026C
100
AcDbEntity
  8
Level 27
  6
Continuous
 62
    40
370
    13
100
AcDbLine
 10
0.013022
 20
0.0
 30
0.0
 11
0.013022
 21
0.0
 31
0.0006
  0
LINE
  5
6FE18
330
7026C
100
AcDbEntity
  8
Level 27
  6
Continuous
 62
    40
370
    13
100
AcDbLine
 10
0.012522
 20
0.0
 30
0.0
 11
0.012522
 21
0.0
 31
0.0006
  0
LINE
  5
6FE19
330
7026C
100
AcDbEntity
  8
Level 27
  6
Continuous
 62
    40
370
    13
100
AcDbLine
 10
0.011001
 20
0.0
 30
0.0
 11
0.011001
 21
0.0
 31
0.0006
  0
ENDBLK
  5
7026E
330
7026C
100
AcDbEntity
  8
0
 62
    98
370
     0
100
AcDbBlockEnd
  0
BLOCK
  5
70270
330
7026F
100
AcDbEntity
  8
0
 62
    98
370
     0
100
AcDbBlockBegin
  2
Feature Solid_5
 70
     0
 10
0.0
 20
0.0
 30
0.0
  3
Feature Solid_5
  1

  0
INSERT
  5
6FE1B
330
7026F
100
AcDbEntity
  8
Level 27
  6
Continuous
 62
    40
370
    13
100
AcDbBlockReference
  2
DDPROJ_3
 10
0.0
 20
0.0
 30
0.0
  0
ENDBLK
  5
70271
330
7026F
100
AcDbEntity
  8
0
 62
    98
370
     0
100
AcDbBlockEnd
  0
BLOCK
  5
70273
330
70272
100
AcDbEntity
  8
0
 62
    98
370
     0
100
AcDbBlockBegin
  2
DDPROJ_3
 70
     0
 10
0.0
 20
0.0
 30
0.0
  3
DDPROJ_3
  1

  0
LINE
  5
6FE1C
330
70272
100
AcDbEntity
  8
Level 27
  6
Continuous
 62
    40
370
    13
100
AcDbLine
 10
0.013987
 20
0.0
 30
0.0
 11
0.013987
 21
0.0
 31
0.0006
  0
LINE
  5
6FE1D
330
70272
100
AcDbEntity
  8
Level 27
  6
Continuous
 62
    40
370
    13
100
AcDbLine
 10
0.013836
 20
0.0
 30
0.0
 11
0.013836
 21
0.0
 31
0.0006
  0
LINE
  5
6FE1E
330
70272
100
AcDbEntity
  8
Level 27
  6
Continuous
 62
    40
370
    13
100
AcDbLine
 10
0.013113
 20
0.0
 30
0.0
 11
0.013113
 21
0.0
 31
0.0006
  0
LINE
  5
6FE1F
330
70272
100
AcDbEntity
  8
Level 27
  6
Continuous
 62
    40
370
    13
100
AcDbLine
 10
0.010911
 20
0.0
 30
0.0
 11
0.010911
 21
0.0
 31
0.0006
  0
LINE
  5
6FE20
330
70272
100
AcDbEntity
  8
Level 27
  6
Continuous
 62
    40
370
    13
100
AcDbLine
 10
0.010187
 20
0.0
 30
0.0
 11
0.010187
 21
0.0
 31
0.0006
  0
LINE
  5
6FE21
330
70272
100
AcDbEntity
  8
Level 27
  6
Continuous
 62
    40
370
    13
100
AcDbLine
 10
0.010037
 20
0.0
 30
0.0
 11
0.010037
 21
0.0
 31
0.0006
  0
LINE
  5
6FE22
330
70272
100
AcDbEntity
  8
Level 27
  6
Continuous
 62
    40
370
    13
100
AcDbLine
 10
0.010187
 20
0.0
 30
0.0
 11
0.010037
 21
0.0
 31
0.0
  0
LINE
  5
6FE23
330
70272
100
AcDbEntity
  8
Level 27
  6
Continuous
 62
    40
370
    13
100
AcDbLine
 10
0.010911
 20
0.0
 30
0.0
 11
0.010187
 21
0.0
 31
0.0
  0
LINE
  5
6FE24
330
70272
100
AcDbEntity
  8
Level 27
  6
Continuous
 62
    40
370
    13
100
AcDbLine
 10
0.013113
 20
0.0
 30
0.0
 11
0.010911
 21
0.0
 31
0.0
  0
LINE
  5
6FE25
330
70272
100
AcDbEntity
  8
Level 27
  6
Continuous
 62
    40
370
    13
100
AcDbLine
 10
0.013836
 20
0.0
 30
0.0
 11
0.013113
 21
0.0
 31
0.0
  0
LINE
  5
6FE26
330
70272
100
AcDbEntity
  8
Level 27
  6
Continuous
 62
    40
370
    13
100
AcDbLine
 10
0.013987
 20
0.0
 30
0.0
 11
0.013836
 21
0.0
 31
0.0
  0
LINE
  5
6FE27
330
70272
100
AcDbEntity
  8
Level 27
  6
Continuous
 62
    40
370
    13
100
AcDbLine
 10
0.014012
 20
0.0
 30
0.0
 11
0.010012
 21
0.0
 31
0.0
  0
LINE
  5
6FE28
330
70272
100
AcDbEntity
  8
Level 27
  6
Continuous
 62
    40
370
    13
100
AcDbLine
 10
0.010187
 20
0.0
 30
0.0006
 11
0.010037
 21
0.0
 31
0.0006
  0
LINE
  5
6FE29
330
70272
100
AcDbEntity
  8
Level 27
  6
Continuous
 62
    40
370
    13
100
AcDbLine
 10
0.010911
 20
0.0
 30
0.0006
 11
0.010187
 21
0.0
 31
0.0006
  0
LINE
  5
6FE2A
330
70272
100
AcDbEntity
  8
Level 27
  6
Continuous
 62
    40
370
    13
100
AcDbLine
 10
0.013113
 20
0.0
 30
0.0006
 11
0.010911
 21
0.0
 31
0.0006
  0
LINE
  5
6FE2B
330
70272
100
AcDbEntity
  8
Level 27
  6
Continuous
 62
    40
370
    13
100
AcDbLine
 10
0.013836
 20
0.0
 30
0.0006
 11
0.013113
 21
0.0
 31
0.0006
  0
LINE
  5
6FE2C
330
70272
100
AcDbEntity
  8
Level 27
  6
Continuous
 62
    40
370
    13
100
AcDbLine
 10
0.013987
 20
0.0
 30
0.0006
 11
0.013836
 21
0.0
 31
0.0006
  0
LINE
  5
6FE2D
330
70272
100
AcDbEntity
  8
Level 27
  6
Continuous
 62
    40
370
    13
100
AcDbLine
 10
0.014012
 20
0.0
 30
0.0006
 11
0.010012
 21
0.0
 31
0.0006
  0
LINE
  5
6FE2E
330
70272
100
AcDbEntity
  8
Level 27
  6
Continuous
 62
    40
370
    13
100
AcDbLine
 10
0.010012
 20
0.0
 30
0.0
 11
0.010012
 21
0.0
 31
0.0006
  0
LINE
  5
6FE2F
330
70272
100
AcDbEntity
  8
Level 27
  6
Continuous
 62
    40
370
    13
100
AcDbLine
 10
0.012012
 20
0.0
 30
0.0
 11
0.012012
 21
0.0
 31
0.0006
  0
LINE
  5
6FE30
330
70272
100
AcDbEntity
  8
Level 27
  6
Continuous
 62
    40
370
    13
100
AcDbLine
 10
0.014012
 20
0.0
 30
0.0
 11
0.014012
 21
0.0
 31
0.0006
  0
LINE
  5
6FE31
330
70272
100
AcDbEntity
  8
Level 27
  6
Continuous
 62
    40
370
    13
100
AcDbLine
 10
0.013342
 20
0.0
 30
0.0
 11
0.013342
 21
0.0
 31
0.0006
  0
LINE
  5
6FE32
330
70272
100
AcDbEntity
  8
Level 27
  6
Continuous
 62
    40
370
    13
100
AcDbLine
 10
0.010681
 20
0.0
 30
0.0
 11
0.010681
 21
0.0
 31
0.0006
  0
ENDBLK
  5
70274
330
70272
100
AcDbEntity
  8
0
 62
    98
370
     0
100
AcDbBlockEnd
  0
BLOCK
  5
70276
330
70275
100
AcDbEntity
  8
0
 62
    98
370
     0
100
AcDbBlockBegin
  2
Feature Solid_6
 70
     0
 10
0.0
 20
0.0
 30
0.0
  3
Feature Solid_6
  1

  0
INSERT
  5
6FE34
330
70275
100
AcDbEntity
  8
Level 27
  6
Continuous
 62
    40
370
    13
100
AcDbBlockReference
  2
SUBTRC_2
 10
-0.012015
 20
0.0
 30
-0.000295
  0
ENDBLK
  5
70277
330
70275
100
AcDbEntity
  8
0
 62
    98
370
     0
100
AcDbBlockEnd
  0
BLOCK
  5
70279
330
70278
100
AcDbEntity
  8
0
 62
    98
370
     0
100
AcDbBlockBegin
  2
SUBTRC_2
 70
     0
 10
0.0
 20
0.0
 30
0.0
  3
SUBTRC_2
  1

  0
INSERT
  5
6FE35
330
70278
100
AcDbEntity
  8
Level 27
  6
Continuous
 62
    40
370
    13
100
AcDbBlockReference
  2
Feature Solid_7
 10
0.0
 20
0.0
 30
0.0
  0
INSERT
  5
6FE4D
330
70278
100
AcDbEntity
  8
Level 27
  6
Continuous
 62
    40
370
    13
100
AcDbBlockReference
  2
Feature Solid_8
 10
0.0
 20
0.0
 30
0.0
  0
ENDBLK
  5
7027A
330
70278
100
AcDbEntity
  8
0
 62
    98
370
     0
100
AcDbBlockEnd
  0
BLOCK
  5
7027C
330
7027B
100
AcDbEntity
  8
0
 62
    98
370
     0
100
AcDbBlockBegin
  2
Feature Solid_7
 70
     0
 10
0.0
 20
0.0
 30
0.0
  3
Feature Solid_7
  1

  0
INSERT
  5
6FE36
330
7027B
100
AcDbEntity
  8
Level 27
  6
Continuous
 62
    40
370
    13
100
AcDbBlockReference
  2
DDPROJ_4
 10
0.0
 20
0.0
 30
0.0
  0
ENDBLK
  5
7027D
330
7027B
100
AcDbEntity
  8
0
 62
    98
370
     0
100
AcDbBlockEnd
  0
BLOCK
  5
7027F
330
7027E
100
AcDbEntity
  8
0
 62
    98
370
     0
100
AcDbBlockBegin
  2
DDPROJ_4
 70
     0
 10
0.0
 20
0.0
 30
0.0
  3
DDPROJ_4
  1

  0
LINE
  5
6FE37
330
7027E
100
AcDbEntity
  8
Level 27
  6
Continuous
 62
    40
370
    13
100
AcDbLine
 10
0.011617
 20
0.0
 30
0.0
 11
0.011617
 21
0.0
 31
0.0006
  0
LINE
  5
6FE38
330
7027E
100
AcDbEntity
  8
Level 27
  6
Continuous
 62
    40
370
    13
100
AcDbLine
 10
0.012406
 20
0.0
 30
0.0
 11
0.012406
 21
0.0
 31
0.0006
  0
LINE
  5
6FE39
330
7027E
100
AcDbEntity
  8
Level 27
  6
Continuous
 62
    40
370
    13
100
AcDbLine
 10
0.012917
 20
0.0
 30
0.0
 11
0.012917
 21
0.0
 31
0.0006
  0
LINE
  5
6FE3A
330
7027E
100
AcDbEntity
  8
Level 27
  6
Continuous
 62
    40
370
    13
100
AcDbLine
 10
0.012522
 20
0.0
 30
0.0
 11
0.012522
 21
0.0
 31
0.0006
  0
LINE
  5
6FE3B
330
7027E
100
AcDbEntity
  8
Level 27
  6
Continuous
 62
    40
370
    13
100
AcDbLine
 10
0.011501
 20
0.0
 30
0.0
 11
0.011501
 21
0.0
 31
0.0006
  0
LINE
  5
6FE3C
330
7027E
100
AcDbEntity
  8
Level 27
  6
Continuous
 62
    40
370
    13
100
AcDbLine
 10
0.011107
 20
0.0
 30
0.0
 11
0.011107
 21
0.0
 31
0.0006
  0
LINE
  5
6FE3D
330
7027E
100
AcDbEntity
  8
Level 27
  6
Continuous
 62
    40
370
    13
100
AcDbLine
 10
0.011001
 20
0.0
 30
0.0
 11
0.011501
 21
0.0
 31
0.0
  0
LINE
  5
6FE3E
330
7027E
100
AcDbEntity
  8
Level 27
  6
Continuous
 62
    40
370
    13
100
AcDbLine
 10
0.012522
 20
0.0
 30
0.0
 11
0.011501
 21
0.0
 31
0.0
  0
LINE
  5
6FE3F
330
7027E
100
AcDbEntity
  8
Level 27
  6
Continuous
 62
    40
370
    13
100
AcDbLine
 10
0.013022
 20
0.0
 30
0.0
 11
0.012522
 21
0.0
 31
0.0
  0
LINE
  5
6FE40
330
7027E
100
AcDbEntity
  8
Level 27
  6
Continuous
 62
    40
370
    13
100
AcDbLine
 10
0.012406
 20
0.0
 30
0.0
 11
0.012917
 21
0.0
 31
0.0
  0
LINE
  5
6FE41
330
7027E
100
AcDbEntity
  8
Level 27
  6
Continuous
 62
    40
370
    13
100
AcDbLine
 10
0.012406
 20
0.0
 30
0.0
 11
0.011617
 21
0.0
 31
0.0
  0
LINE
  5
6FE42
330
7027E
100
AcDbEntity
  8
Level 27
  6
Continuous
 62
    40
370
    13
100
AcDbLine
 10
0.011107
 20
0.0
 30
0.0
 11
0.011617
 21
0.0
 31
0.0
  0
LINE
  5
6FE43
330
7027E
100
AcDbEntity
  8
Level 27
  6
Continuous
 62
    40
370
    13
100
AcDbLine
 10
0.011001
 20
0.0
 30
0.0006
 11
0.011501
 21
0.0
 31
0.0006
  0
LINE
  5
6FE44
330
7027E
100
AcDbEntity
  8
Level 27
  6
Continuous
 62
    40
370
    13
100
AcDbLine
 10
0.012522
 20
0.0
 30
0.0006
 11
0.011501
 21
0.0
 31
0.0006
  0
LINE
  5
6FE45
330
7027E
100
AcDbEntity
  8
Level 27
  6
Continuous
 62
    40
370
    13
100
AcDbLine
 10
0.013022
 20
0.0
 30
0.0006
 11
0.012522
 21
0.0
 31
0.0006
  0
LINE
  5
6FE46
330
7027E
100
AcDbEntity
  8
Level 27
  6
Continuous
 62
    40
370
    13
100
AcDbLine
 10
0.012406
 20
0.0
 30
0.0006
 11
0.012917
 21
0.0
 31
0.0006
  0
LINE
  5
6FE47
330
7027E
100
AcDbEntity
  8
Level 27
  6
Continuous
 62
    40
370
    13
100
AcDbLine
 10
0.012406
 20
0.0
 30
0.0006
 11
0.011617
 21
0.0
 31
0.0006
  0
LINE
  5
6FE48
330
7027E
100
AcDbEntity
  8
Level 27
  6
Continuous
 62
    40
370
    13
100
AcDbLine
 10
0.011107
 20
0.0
 30
0.0006
 11
0.011617
 21
0.0
 31
0.0006
  0
LINE
  5
6FE49
330
7027E
100
AcDbEntity
  8
Level 27
  6
Continuous
 62
    40
370
    13
100
AcDbLine
 10
0.012012
 20
0.0
 30
0.0
 11
0.012012
 21
0.0
 31
0.0006
  0
LINE
  5
6FE4A
330
7027E
100
AcDbEntity
  8
Level 27
  6
Continuous
 62
    40
370
    13
100
AcDbLine
 10
0.013022
 20
0.0
 30
0.0
 11
0.013022
 21
0.0
 31
0.0006
  0
LINE
  5
6FE4B
330
7027E
100
AcDbEntity
  8
Level 27
  6
Continuous
 62
    40
370
    13
100
AcDbLine
 10
0.012522
 20
0.0
 30
0.0
 11
0.012522
 21
0.0
 31
0.0006
  0
LINE
  5
6FE4C
330
7027E
100
AcDbEntity
  8
Level 27
  6
Continuous
 62
    40
370
    13
100
AcDbLine
 10
0.011001
 20
0.0
 30
0.0
 11
0.011001
 21
0.0
 31
0.0006
  0
ENDBLK
  5
70280
330
7027E
100
AcDbEntity
  8
0
 62
    98
370
     0
100
AcDbBlockEnd
  0
BLOCK
  5
70282
330
70281
100
AcDbEntity
  8
0
 62
    98
370
     0
100
AcDbBlockBegin
  2
Feature Solid_8
 70
     0
 10
0.0
 20
0.0
 30
0.0
  3
Feature Solid_8
  1

  0
INSERT
  5
6FE4E
330
70281
100
AcDbEntity
  8
Level 27
  6
Continuous
 62
    40
370
    13
100
AcDbBlockReference
  2
DDPROJ_5
 10
0.0
 20
0.0
 30
0.0
  0
ENDBLK
  5
70283
330
70281
100
AcDbEntity
  8
0
 62
    98
370
     0
100
AcDbBlockEnd
  0
BLOCK
  5
70285
330
70284
100
AcDbEntity
  8
0
 62
    98
370
     0
100
AcDbBlockBegin
  2
DDPROJ_5
 70
     0
 10
0.0
 20
0.0
 30
0.0
  3
DDPROJ_5
  1

  0
LINE
  5
6FE4F
330
70284
100
AcDbEntity
  8
Level 27
  6
Continuous
 62
    40
370
    13
100
AcDbLine
 10
0.013987
 20
0.0
 30
0.0
 11
0.013987
 21
0.0
 31
0.0006
  0
LINE
  5
6FE50
330
70284
100
AcDbEntity
  8
Level 27
  6
Continuous
 62
    40
370
    13
100
AcDbLine
 10
0.013836
 20
0.0
 30
0.0
 11
0.013836
 21
0.0
 31
0.0006
  0
LINE
  5
6FE51
330
70284
100
AcDbEntity
  8
Level 27
  6
Continuous
 62
    40
370
    13
100
AcDbLine
 10
0.013113
 20
0.0
 30
0.0
 11
0.013113
 21
0.0
 31
0.0006
  0
LINE
  5
6FE52
330
70284
100
AcDbEntity
  8
Level 27
  6
Continuous
 62
    40
370
    13
100
AcDbLine
 10
0.010911
 20
0.0
 30
0.0
 11
0.010911
 21
0.0
 31
0.0006
  0
LINE
  5
6FE53
330
70284
100
AcDbEntity
  8
Level 27
  6
Continuous
 62
    40
370
    13
100
AcDbLine
 10
0.010187
 20
0.0
 30
0.0
 11
0.010187
 21
0.0
 31
0.0006
  0
LINE
  5
6FE54
330
70284
100
AcDbEntity
  8
Level 27
  6
Continuous
 62
    40
370
    13
100
AcDbLine
 10
0.010037
 20
0.0
 30
0.0
 11
0.010037
 21
0.0
 31
0.0006
  0
LINE
  5
6FE55
330
70284
100
AcDbEntity
  8
Level 27
  6
Continuous
 62
    40
370
    13
100
AcDbLine
 10
0.010187
 20
0.0
 30
0.0
 11
0.010037
 21
0.0
 31
0.0
  0
LINE
  5
6FE56
330
70284
100
AcDbEntity
  8
Level 27
  6
Continuous
 62
    40
370
    13
100
AcDbLine
 10
0.010911
 20
0.0
 30
0.0
 11
0.010187
 21
0.0
 31
0.0
  0
LINE
  5
6FE57
330
70284
100
AcDbEntity
  8
Level 27
  6
Continuous
 62
    40
370
    13
100
AcDbLine
 10
0.013113
 20
0.0
 30
0.0
 11
0.010911
 21
0.0
 31
0.0
  0
LINE
  5
6FE58
330
70284
100
AcDbEntity
  8
Level 27
  6
Continuous
 62
    40
370
    13
100
AcDbLine
 10
0.013836
 20
0.0
 30
0.0
 11
0.013113
 21
0.0
 31
0.0
  0
LINE
  5
6FE59
330
70284
100
AcDbEntity
  8
Level 27
  6
Continuous
 62
    40
370
    13
100
AcDbLine
 10
0.013987
 20
0.0
 30
0.0
 11
0.013836
 21
0.0
 31
0.0
  0
LINE
  5
6FE5A
330
70284
100
AcDbEntity
  8
Level 27
  6
Continuous
 62
    40
370
    13
100
AcDbLine
 10
0.014012
 20
0.0
 30
0.0
 11
0.010012
 21
0.0
 31
0.0
  0
LINE
  5
6FE5B
330
70284
100
AcDbEntity
  8
Level 27
  6
Continuous
 62
    40
370
    13
100
AcDbLine
 10
0.010187
 20
0.0
 30
0.0006
 11
0.010037
 21
0.0
 31
0.0006
  0
LINE
  5
6FE5C
330
70284
100
AcDbEntity
  8
Level 27
  6
Continuous
 62
    40
370
    13
100
AcDbLine
 10
0.010911
 20
0.0
 30
0.0006
 11
0.010187
 21
0.0
 31
0.0006
  0
LINE
  5
6FE5D
330
70284
100
AcDbEntity
  8
Level 27
  6
Continuous
 62
    40
370
    13
100
AcDbLine
 10
0.013113
 20
0.0
 30
0.0006
 11
0.010911
 21
0.0
 31
0.0006
  0
LINE
  5
6FE5E
330
70284
100
AcDbEntity
  8
Level 27
  6
Continuous
 62
    40
370
    13
100
AcDbLine
 10
0.013836
 20
0.0
 30
0.0006
 11
0.013113
 21
0.0
 31
0.0006
  0
LINE
  5
6FE5F
330
70284
100
AcDbEntity
  8
Level 27
  6
Continuous
 62
    40
370
    13
100
AcDbLine
 10
0.013987
 20
0.0
 30
0.0006
 11
0.013836
 21
0.0
 31
0.0006
  0
LINE
  5
6FE60
330
70284
100
AcDbEntity
  8
Level 27
  6
Continuous
 62
    40
370
    13
100
AcDbLine
 10
0.014012
 20
0.0
 30
0.0006
 11
0.010012
 21
0.0
 31
0.0006
  0
LINE
  5
6FE61
330
70284
100
AcDbEntity
  8
Level 27
  6
Continuous
 62
    40
370
    13
100
AcDbLine
 10
0.010012
 20
0.0
 30
0.0
 11
0.010012
 21
0.0
 31
0.0006
  0
LINE
  5
6FE62
330
70284
100
AcDbEntity
  8
Level 27
  6
Continuous
 62
    40
370
    13
100
AcDbLine
 10
0.012012
 20
0.0
 30
0.0
 11
0.012012
 21
0.0
 31
0.0006
  0
LINE
  5
6FE63
330
70284
100
AcDbEntity
  8
Level 27
  6
Continuous
 62
    40
370
    13
100
AcDbLine
 10
0.014012
 20
0.0
 30
0.0
 11
0.014012
 21
0.0
 31
0.0006
  0
LINE
  5
6FE64
330
70284
100
AcDbEntity
  8
Level 27
  6
Continuous
 62
    40
370
    13
100
AcDbLine
 10
0.013342
 20
0.0
 30
0.0
 11
0.013342
 21
0.0
 31
0.0006
  0
LINE
  5
6FE65
330
70284
100
AcDbEntity
  8
Level 27
  6
Continuous
 62
    40
370
    13
100
AcDbLine
 10
0.010681
 20
0.0
 30
0.0
 11
0.010681
 21
0.0
 31
0.0006
  0
ENDBLK
  5
70286
330
70284
100
AcDbEntity
  8
0
 62
    98
370
     0
100
AcDbBlockEnd
  0
BLOCK
  5
70288
330
70287
100
AcDbEntity
  8
0
 62
    98
370
     0
100
AcDbBlockBegin
  2
Smart Solid
 70
     0
 10
0.0
 20
0.0
 30
0.0
  3
Smart Solid
  1

  0
LINE
  5
6FE67
330
70287
100
AcDbEntity
  8
Level 26
  6
Continuous
 62
     7
370
     0
100
AcDbLine
 10
195.707784
 20
-34.792502
 30
75.0
 11
-221.118477
 21
39.309959
 31
75.0
  0
LINE
  5
6FE68
330
70287
100
AcDbEntity
  8
Level 26
  6
Continuous
 62
     7
370
     0
100
AcDbLine
 10
195.707784
 20
-34.792502
 30
-75.0
 11
-221.118477
 21
39.309959
 31
-75.0
  0
LINE
  5
6FE69
330
70287
100
AcDbEntity
  8
Level 26
  6
Continuous
 62
     7
370
     0
100
AcDbLine
 10
205.401419
 20
-36.515815
 30
-75.0
 11
-230.81211
 21
41.033272
 31
-75.0
  0
LINE
  5
6FE6A
330
70287
100
AcDbEntity
  8
Level 26
  6
Continuous
 62
     7
370
     0
100
AcDbLine
 10
205.401419
 20
-36.515815
 30
75.0
 11
-230.81211
 21
41.033272
 31
75.0
  0
LINE
  5
6FE6B
330
70287
100
AcDbEntity
  8
Level 26
  6
Continuous
 62
     7
370
     0
100
AcDbLine
 10
205.401419
 20
-36.515815
 30
-75.0
 11
205.401419
 21
-36.515815
 31
75.0
  0
LINE
  5
6FE6C
330
70287
100
AcDbEntity
  8
Level 26
  6
Continuous
 62
     7
370
     0
100
AcDbLine
 10
195.707784
 20
-34.792502
 30
-75.0
 11
205.401419
 21
-36.515815
 31
-75.0
  0
LINE
  5
6FE6D
330
70287
100
AcDbEntity
  8
Level 26
  6
Continuous
 62
     7
370
     0
100
AcDbLine
 10
195.707784
 20
-34.792502
 30
75.0
 11
195.707784
 21
-34.792502
 31
-75.0
  0
LINE
  5
6FE6E
330
70287
100
AcDbEntity
  8
Level 26
  6
Continuous
 62
     7
370
     0
100
AcDbLine
 10
205.401419
 20
-36.515815
 30
75.0
 11
195.707784
 21
-34.792502
 31
75.0
  0
LINE
  5
6FE6F
330
70287
100
AcDbEntity
  8
Level 26
  6
Continuous
 62
     7
370
     0
100
AcDbLine
 10
-230.81211
 20
41.033272
 30
-75.0
 11
-230.81211
 21
41.033272
 31
75.0
  0
LINE
  5
6FE70
330
70287
100
AcDbEntity
  8
Level 26
  6
Continuous
 62
     7
370
     0
100
AcDbLine
 10
-221.118477
 20
39.309959
 30
-75.0
 11
-230.81211
 21
41.033272
 31
-75.0
  0
LINE
  5
6FE71
330
70287
100
AcDbEntity
  8
Level 26
  6
Continuous
 62
     7
370
     0
100
AcDbLine
 10
-221.118477
 20
39.309959
 30
75.0
 11
-221.118477
 21
39.309959
 31
-75.0
  0
LINE
  5
6FE72
330
70287
100
AcDbEntity
  8
Level 26
  6
Continuous
 62
     7
370
     0
100
AcDbLine
 10
-230.81211
 20
41.033272
 30
75.0
 11
-221.118477
 21
39.309959
 31
75.0
  0
LINE
  5
6FE73
330
70287
100
AcDbEntity
  8
Level 26
  6
Continuous
 62
     7
370
     0
100
AcDbLine
 10
24.345865
 20
-4.328155
 30
75.0
 11
24.345865
 21
-4.328155
 31
-75.0
  0
LINE
  5
6FE74
330
70287
100
AcDbEntity
  8
Level 26
  6
Continuous
 62
     7
370
     0
100
AcDbLine
 10
26.069178
 20
-4.634521
 30
75.0
 11
26.069178
 21
-4.634521
 31
-75.0
  0
ENDBLK
  5
70289
330
70287
100
AcDbEntity
  8
0
 62
    98
370
     0
100
AcDbBlockEnd
  0
BLOCK
  5
7028B
330
7028A
100
AcDbEntity
  8
0
 62
    98
370
     0
100
AcDbBlockBegin
  2
Smart Solid_1
 70
     0
 10
0.0
 20
0.0
 30
0.0
  3
Smart Solid_1
  1

  0
ELLIPSE
  5
6FE77
330
7028A
100
AcDbEntity
  8
Level 26
  6
Continuous
 62
   253
370
     0
100
AcDbEllipse
 10
0.0
 20
-39.260486
 30
0.0
 11
5.000000000000001
 21
0.0
 31
0.0
210
0.0
220
0.0
230
-1.0
 40
0.8255485841685914
 41
0.0
 42
6.283185307179586
  0
LINE
  5
6FE78
330
7028A
100
AcDbEntity
  8
Level 26
  6
Continuous
 62
   253
370
     0
100
AcDbLine
 10
-5.0
 20
-31.005
 30
0.0
 11
5.0
 21
-31.005
 31
0.0
  0
ELLIPSE
  5
6FE79
330
7028A
100
AcDbEntity
  8
Level 26
  6
Continuous
 62
   253
370
     0
100
AcDbEllipse
 10
0.0
 20
-5.643046
 30
0.0
 11
5.000000000000001
 21
0.0
 31
0.0
210
0.0
220
0.0
230
-1.0
 40
0.8255485841685914
 41
0.0
 42
6.283185307179586
  0
ELLIPSE
  5
6FE7A
330
7028A
100
AcDbEntity
  8
Level 26
  6
Continuous
 62
   253
370
     0
100
AcDbEllipse
 10
0.0
 20
11.272694
 30
0.0
 11
5.000000000000001
 21
0.0
 31
0.0
210
0.0
220
0.0
230
1.0
 40
0.8660254037844335
 41
0.0
 42
6.283185307179586
  0
ELLIPSE
  5
6FE7B
330
7028A
100
AcDbEntity
  8
Level 26
  6
Continuous
 62
   253
370
     0
100
AcDbEllipse
 10
0.0
 20
39.665786
 30
0.0
 11
5.000000000000001
 21
0.0
 31
0.0
210
0.0
220
0.0
230
1.0
 40
0.8660254037844335
 41
0.0
 42
6.283185307179586
  0
LINE
  5
6FE7C
330
7028A
100
AcDbEntity
  8
Level 26
  6
Continuous
 62
   253
370
     0
100
AcDbLine
 10
-5.0
 20
31.005532
 30
0.0
 11
5.0
 21
31.005532
 31
0.0
  0
LINE
  5
6FE7D
330
7028A
100
AcDbEntity
  8
Level 26
  6
Continuous
 62
   253
370
     0
100
AcDbLine
 10
-5.0
 20
-5.643046
 30
0.0
 11
-5.0
 21
-39.260486
 31
0.0
  0
LINE
  5
6FE7E
330
7028A
100
AcDbEntity
  8
Level 26
  6
Continuous
 62
   253
370
     0
100
AcDbLine
 10
0.0
 20
-9.770789
 30
0.0
 11
0.0
 21
-43.388229
 31
0.0
  0
LINE
  5
6FE7F
330
7028A
100
AcDbEntity
  8
Level 26
  6
Continuous
 62
   253
370
     0
100
AcDbLine
 10
5.0
 20
-5.643046
 30
0.0
 11
5.0
 21
-39.260486
 31
0.0
  0
LINE
  5
6FE80
330
7028A
100
AcDbEntity
  8
Level 26
  6
Continuous
 62
   253
370
     0
100
AcDbLine
 10
0.0
 20
-1.515303
 30
0.0
 11
0.0
 21
-35.132743
 31
0.0
  0
LINE
  5
6FE81
330
7028A
100
AcDbEntity
  8
Level 26
  6
Continuous
 62
   253
370
     0
100
AcDbLine
 10
5.0
 20
-5.643046
 30
0.0
 11
5.0
 21
11.272694
 31
0.0
  0
LINE
  5
6FE82
330
7028A
100
AcDbEntity
  8
Level 26
  6
Continuous
 62
   253
370
     0
100
AcDbLine
 10
0.0
 20
-9.770789
 30
0.0
 11
0.0
 21
15.602821
 31
0.0
  0
LINE
  5
6FE83
330
7028A
100
AcDbEntity
  8
Level 26
  6
Continuous
 62
   253
370
     0
100
AcDbLine
 10
-5.0
 20
-5.643046
 30
0.0
 11
-5.0
 21
11.272694
 31
0.0
  0
LINE
  5
6FE84
330
7028A
100
AcDbEntity
  8
Level 26
  6
Continuous
 62
   253
370
     0
100
AcDbLine
 10
0.0
 20
-1.515303
 30
0.0
 11
0.0
 21
6.942567
 31
0.0
  0
LINE
  5
6FE85
330
7028A
100
AcDbEntity
  8
Level 26
  6
Continuous
 62
   253
370
     0
100
AcDbLine
 10
5.0
 20
2.61244
 30
0.0
 11
-5.0
 21
2.61244
 31
0.0
  0
LINE
  5
6FE86
330
7028A
100
AcDbEntity
  8
Level 26
  6
Continuous
 62
   253
370
     0
100
AcDbLine
 10
-5.0
 20
39.665786
 30
0.0
 11
-5.0
 21
11.272694
 31
0.0
  0
LINE
  5
6FE87
330
7028A
100
AcDbEntity
  8
Level 26
  6
Continuous
 62
   253
370
     0
100
AcDbLine
 10
0.0
 20
43.995913
 30
0.0
 11
0.0
 21
15.602821
 31
0.0
  0
LINE
  5
6FE88
330
7028A
100
AcDbEntity
  8
Level 26
  6
Continuous
 62
   253
370
     0
100
AcDbLine
 10
5.0
 20
39.665786
 30
0.0
 11
5.0
 21
11.272694
 31
0.0
  0
LINE
  5
6FE89
330
7028A
100
AcDbEntity
  8
Level 26
  6
Continuous
 62
   253
370
     0
100
AcDbLine
 10
0.0
 20
35.335659
 30
0.0
 11
0.0
 21
6.942567
 31
0.0
  0
LINE
  5
6FE8A
330
7028A
100
AcDbEntity
  8
Level 26
  6
Continuous
 62
   253
370
     0
100
AcDbLine
 10
5.0
 20
31.005532
 30
0.0
 11
5.0
 21
41.005532
 31
0.0
  0
LINE
  5
6FE8B
330
7028A
100
AcDbEntity
  8
Level 26
  6
Continuous
 62
   253
370
     0
100
AcDbLine
 10
0.0
 20
31.005532
 30
0.0
 11
0.0
 21
46.005532
 31
0.0
  0
LINE
  5
6FE8C
330
7028A
100
AcDbEntity
  8
Level 26
  6
Continuous
 62
   253
370
     0
100
AcDbLine
 10
-5.0
 20
31.005532
 30
0.0
 11
-5.0
 21
41.005532
 31
0.0
  0
LINE
  5
6FE8D
330
7028A
100
AcDbEntity
  8
Level 26
  6
Continuous
 62
   253
370
     0
100
AcDbLine
 10
0.0
 20
31.005532
 30
0.0
 11
0.0
 21
36.005532
 31
0.0
  0
ARC
  5
6FE8E
330
7028A
100
AcDbEntity
  8
Level 26
  6
Continuous
 62
   253
370
     0
100
AcDbCircle
 10
0.0
 20
41.005532
 30
0.0
 40
5.0
210
0.0
220
0.0
230
-1.0
100
AcDbArc
 50
0.0
 51
359.999994
  0
LINE
  5
6FE8F
330
7028A
100
AcDbEntity
  8
Level 26
  6
Continuous
 62
   253
370
     0
100
AcDbLine
 10
-5.0
 20
31.005532
 30
0.0
 11
5.0
 21
31.005532
 31
0.0
  0
LINE
  5
6FE90
330
7028A
100
AcDbEntity
  8
Level 26
  6
Continuous
 62
   253
370
     0
100
AcDbLine
 10
-5.0
 20
-31.005
 30
0.0
 11
-5.0
 21
31.005532
 31
0.0
  0
LINE
  5
6FE91
330
7028A
100
AcDbEntity
  8
Level 26
  6
Continuous
 62
   253
370
     0
100
AcDbLine
 10
0.0
 20
-31.005
 30
0.0
 11
0.0
 21
31.005532
 31
0.0
  0
LINE
  5
6FE92
330
7028A
100
AcDbEntity
  8
Level 26
  6
Continuous
 62
   253
370
     0
100
AcDbLine
 10
5.0
 20
-31.005
 30
0.0
 11
5.0
 21
31.005532
 31
0.0
  0
LINE
  5
6FE93
330
7028A
100
AcDbEntity
  8
Level 26
  6
Continuous
 62
   253
370
     0
100
AcDbLine
 10
0.0
 20
-31.005
 30
0.0
 11
0.0
 21
31.005532
 31
0.0
  0
LINE
  5
6FE94
330
7028A
100
AcDbEntity
  8
Level 26
  6
Continuous
 62
   253
370
     0
100
AcDbLine
 10
5.0
 20
-41.005
 30
0.0
 11
5.0
 21
-31.005
 31
0.0
  0
LINE
  5
6FE95
330
7028A
100
AcDbEntity
  8
Level 26
  6
Continuous
 62
   253
370
     0
100
AcDbLine
 10
0.0
 20
-46.005
 30
0.0
 11
0.0
 21
-31.005
 31
0.0
  0
LINE
  5
6FE96
330
7028A
100
AcDbEntity
  8
Level 26
  6
Continuous
 62
   253
370
     0
100
AcDbLine
 10
-5.0
 20
-41.005
 30
0.0
 11
-5.0
 21
-31.005
 31
0.0
  0
LINE
  5
6FE97
330
7028A
100
AcDbEntity
  8
Level 26
  6
Continuous
 62
   253
370
     0
100
AcDbLine
 10
0.0
 20
-36.005
 30
0.0
 11
0.0
 21
-31.005
 31
0.0
  0
ARC
  5
6FE98
330
7028A
100
AcDbEntity
  8
Level 26
  6
Continuous
 62
   253
370
     0
100
AcDbCircle
 10
0.0
 20
-41.005
 30
0.0
 40
5.0
100
AcDbArc
 50
0.0
 51
359.999994
  0
ENDBLK
  5
7028C
330
7028A
100
AcDbEntity
  8
0
 62
    98
370
     0
100
AcDbBlockEnd
  0
BLOCK
  5
7028E
330
7028D
100
AcDbEntity
  8
0
 62
    98
370
     0
100
AcDbBlockBegin
  2
Smart Solid_2
 70
     0
 10
0.0
 20
0.0
 30
0.0
  3
Smart Solid_2
  1

  0
ELLIPSE
  5
6FE9B
330
7028D
100
AcDbEntity
  8
Level 26
  6
Continuous
 62
   253
370
     0
100
AcDbEllipse
 10
0.0
 20
-39.260486
 30
0.0
 11
5.000000000000001
 21
0.0
 31
0.0
210
0.0
220
0.0
230
-1.0
 40
0.825548584168591
 41
0.0
 42
6.283185307179586
  0
LINE
  5
6FE9C
330
7028D
100
AcDbEntity
  8
Level 26
  6
Continuous
 62
   253
370
     0
100
AcDbLine
 10
-5.0
 20
-31.005
 30
0.0
 11
5.0
 21
-31.005
 31
0.0
  0
ELLIPSE
  5
6FE9D
330
7028D
100
AcDbEntity
  8
Level 26
  6
Continuous
 62
   253
370
     0
100
AcDbEllipse
 10
0.0
 20
-5.643046
 30
0.0
 11
5.000000000000001
 21
0.0
 31
0.0
210
0.0
220
0.0
230
-1.0
 40
0.825548584168591
 41
0.0
 42
6.283185307179586
  0
ELLIPSE
  5
6FE9E
330
7028D
100
AcDbEntity
  8
Level 26
  6
Continuous
 62
   253
370
     0
100
AcDbEllipse
 10
0.0
 20
11.272694
 30
0.0
 11
5.0
 21
0.0
 31
0.0
210
0.0
220
0.0
230
1.0
 40
0.8660254037844339
 41
0.0
 42
6.283185307179586
  0
ELLIPSE
  5
6FE9F
330
7028D
100
AcDbEntity
  8
Level 26
  6
Continuous
 62
   253
370
     0
100
AcDbEllipse
 10
0.0
 20
39.665786
 30
0.0
 11
5.0
 21
0.0
 31
0.0
210
0.0
220
0.0
230
1.0
 40
0.8660254037844339
 41
0.0
 42
6.283185307179586
  0
LINE
  5
6FEA0
330
7028D
100
AcDbEntity
  8
Level 26
  6
Continuous
 62
   253
370
     0
100
AcDbLine
 10
-5.0
 20
31.005532
 30
0.0
 11
5.0
 21
31.005532
 31
0.0
  0
LINE
  5
6FEA1
330
7028D
100
AcDbEntity
  8
Level 26
  6
Continuous
 62
   253
370
     0
100
AcDbLine
 10
-5.0
 20
-5.643046
 30
0.0
 11
-5.0
 21
-39.260486
 31
0.0
  0
LINE
  5
6FEA2
330
7028D
100
AcDbEntity
  8
Level 26
  6
Continuous
 62
   253
370
     0
100
AcDbLine
 10
0.0
 20
-9.770789
 30
0.0
 11
0.0
 21
-43.388229
 31
0.0
  0
LINE
  5
6FEA3
330
7028D
100
AcDbEntity
  8
Level 26
  6
Continuous
 62
   253
370
     0
100
AcDbLine
 10
5.0
 20
-5.643046
 30
0.0
 11
5.0
 21
-39.260486
 31
0.0
  0
LINE
  5
6FEA4
330
7028D
100
AcDbEntity
  8
Level 26
  6
Continuous
 62
   253
370
     0
100
AcDbLine
 10
0.0
 20
-1.515303
 30
0.0
 11
0.0
 21
-35.132743
 31
0.0
  0
LINE
  5
6FEA5
330
7028D
100
AcDbEntity
  8
Level 26
  6
Continuous
 62
   253
370
     0
100
AcDbLine
 10
5.0
 20
-5.643046
 30
0.0
 11
5.0
 21
11.272694
 31
0.0
  0
LINE
  5
6FEA6
330
7028D
100
AcDbEntity
  8
Level 26
  6
Continuous
 62
   253
370
     0
100
AcDbLine
 10
0.0
 20
-9.770789
 30
0.0
 11
0.0
 21
15.602821
 31
0.0
  0
LINE
  5
6FEA7
330
7028D
100
AcDbEntity
  8
Level 26
  6
Continuous
 62
   253
370
     0
100
AcDbLine
 10
-5.0
 20
-5.643046
 30
0.0
 11
-5.0
 21
11.272694
 31
0.0
  0
LINE
  5
6FEA8
330
7028D
100
AcDbEntity
  8
Level 26
  6
Continuous
 62
   253
370
     0
100
AcDbLine
 10
0.0
 20
-1.515303
 30
0.0
 11
0.0
 21
6.942567
 31
0.0
  0
LINE
  5
6FEA9
330
7028D
100
AcDbEntity
  8
Level 26
  6
Continuous
 62
   253
370
     0
100
AcDbLine
 10
5.0
 20
2.61244
 30
0.0
 11
-5.0
 21
2.61244
 31
0.0
  0
LINE
  5
6FEAA
330
7028D
100
AcDbEntity
  8
Level 26
  6
Continuous
 62
   253
370
     0
100
AcDbLine
 10
-5.0
 20
39.665786
 30
0.0
 11
-5.0
 21
11.272694
 31
0.0
  0
LINE
  5
6FEAB
330
7028D
100
AcDbEntity
  8
Level 26
  6
Continuous
 62
   253
370
     0
100
AcDbLine
 10
0.0
 20
43.995913
 30
0.0
 11
0.0
 21
15.602821
 31
0.0
  0
LINE
  5
6FEAC
330
7028D
100
AcDbEntity
  8
Level 26
  6
Continuous
 62
   253
370
     0
100
AcDbLine
 10
5.0
 20
39.665786
 30
0.0
 11
5.0
 21
11.272694
 31
0.0
  0
LINE
  5
6FEAD
330
7028D
100
AcDbEntity
  8
Level 26
  6
Continuous
 62
   253
370
     0
100
AcDbLine
 10
0.0
 20
35.335659
 30
0.0
 11
0.0
 21
6.942567
 31
0.0
  0
LINE
  5
6FEAE
330
7028D
100
AcDbEntity
  8
Level 26
  6
Continuous
 62
   253
370
     0
100
AcDbLine
 10
5.0
 20
31.005532
 30
0.0
 11
5.0
 21
41.005532
 31
0.0
  0
LINE
  5
6FEAF
330
7028D
100
AcDbEntity
  8
Level 26
  6
Continuous
 62
   253
370
     0
100
AcDbLine
 10
0.0
 20
31.005532
 30
0.0
 11
0.0
 21
46.005532
 31
0.0
  0
LINE
  5
6FEB0
330
7028D
100
AcDbEntity
  8
Level 26
  6
Continuous
 62
   253
370
     0
100
AcDbLine
 10
-5.0
 20
31.005532
 30
0.0
 11
-5.0
 21
41.005532
 31
0.0
  0
LINE
  5
6FEB1
330
7028D
100
AcDbEntity
  8
Level 26
  6
Continuous
 62
   253
370
     0
100
AcDbLine
 10
0.0
 20
31.005532
 30
0.0
 11
0.0
 21
36.005532
 31
0.0
  0
ARC
  5
6FEB2
330
7028D
100
AcDbEntity
  8
Level 26
  6
Continuous
 62
   253
370
     0
100
AcDbCircle
 10
0.0
 20
41.005532
 30
0.0
 40
5.0
210
0.0
220
0.0
230
-1.0
100
AcDbArc
 50
0.0
 51
359.999994
  0
LINE
  5
6FEB3
330
7028D
100
AcDbEntity
  8
Level 26
  6
Continuous
 62
   253
370
     0
100
AcDbLine
 10
-5.0
 20
31.005532
 30
0.0
 11
5.0
 21
31.005532
 31
0.0
  0
LINE
  5
6FEB4
330
7028D
100
AcDbEntity
  8
Level 26
  6
Continuous
 62
   253
370
     0
100
AcDbLine
 10
-5.0
 20
-31.005
 30
0.0
 11
-5.0
 21
31.005532
 31
0.0
  0
LINE
  5
6FEB5
330
7028D
100
AcDbEntity
  8
Level 26
  6
Continuous
 62
   253
370
     0
100
AcDbLine
 10
0.0
 20
-31.005
 30
0.0
 11
0.0
 21
31.005532
 31
0.0
  0
LINE
  5
6FEB6
330
7028D
100
AcDbEntity
  8
Level 26
  6
Continuous
 62
   253
370
     0
100
AcDbLine
 10
5.0
 20
-31.005
 30
0.0
 11
5.0
 21
31.005532
 31
0.0
  0
LINE
  5
6FEB7
330
7028D
100
AcDbEntity
  8
Level 26
  6
Continuous
 62
   253
370
     0
100
AcDbLine
 10
0.0
 20
-31.005
 30
0.0
 11
0.0
 21
31.005532
 31
0.0
  0
LINE
  5
6FEB8
330
7028D
100
AcDbEntity
  8
Level 26
  6
Continuous
 62
   253
370
     0
100
AcDbLine
 10
5.0
 20
-41.005
 30
0.0
 11
5.0
 21
-31.005
 31
0.0
  0
LINE
  5
6FEB9
330
7028D
100
AcDbEntity
  8
Level 26
  6
Continuous
 62
   253
370
     0
100
AcDbLine
 10
0.0
 20
-46.005
 30
0.0
 11
0.0
 21
-31.005
 31
0.0
  0
LINE
  5
6FEBA
330
7028D
100
AcDbEntity
  8
Level 26
  6
Continuous
 62
   253
370
     0
100
AcDbLine
 10
-5.0
 20
-41.005
 30
0.0
 11
-5.0
 21
-31.005
 31
0.0
  0
LINE
  5
6FEBB
330
7028D
100
AcDbEntity
  8
Level 26
  6
Continuous
 62
   253
370
     0
100
AcDbLine
 10
0.0
 20
-36.005
 30
0.0
 11
0.0
 21
-31.005
 31
0.0
  0
ARC
  5
6FEBC
330
7028D
100
AcDbEntity
  8
Level 26
  6
Continuous
 62
   253
370
     0
100
AcDbCircle
 10
0.0
 20
-41.005
 30
0.0
 40
5.0
100
AcDbArc
 50
0.0
 51
359.999994
  0
ENDBLK
  5
7028F
330
7028D
100
AcDbEntity
  8
0
 62
    98
370
     0
100
AcDbBlockEnd
  0
BLOCK
  5
70291
330
70290
100
AcDbEntity
  8
0
 62
    98
370
     0
100
AcDbBlockBegin
  2
From Solid_1
 70
     0
 10
0.0
 20
0.0
 30
0.0
  3
From Solid_1
  1

  0
LWPOLYLINE
  5
6FEBF
330
70290
100
AcDbEntity
  8
Level 25
  6
Continuous
 62
   252
370
    13
100
AcDbPolyline
 90
        5
 70
   129
 43
0.0
 10
3484.561473
 20
-1177.389472
 10
3559.561473
 20
-1177.389472
 10
3559.561473
 20
-1177.389472
 10
3484.561473
 20
-1177.389472
 10
3484.561473
 20
-1177.389472
  0
LWPOLYLINE
  5
6FEC0
330
70290
100
AcDbEntity
  8
Level 25
  6
Continuous
 62
   252
370
    13
100
AcDbPolyline
 90
        5
 70
   129
 43
0.0
 10
3484.561473
 20
-177.389472
 10
3559.561473
 20
-177.389472
 10
3559.561473
 20
-177.389472
 10
3484.561473
 20
-177.389472
 10
3484.561473
 20
-177.389472
  0
LINE
  5
6FEC1
330
70290
100
AcDbEntity
  8
Level 25
  6
Continuous
 62
   252
370
    13
100
AcDbLine
 10
3484.561473
 20
-1177.389472
 30
0.0
 11
3484.561473
 21
-177.389472
 31
0.0
  0
LINE
  5
6FEC2
330
70290
100
AcDbEntity
  8
Level 25
  6
Continuous
 62
   252
370
    13
100
AcDbLine
 10
3559.561473
 20
-1177.389472
 30
0.0
 11
3559.561473
 21
-177.389472
 31
0.0
  0
LINE
  5
6FEC3
330
70290
100
AcDbEntity
  8
Level 25
  6
Continuous
 62
   252
370
    13
100
AcDbLine
 10
3559.561473
 20
-1177.389472
 30
0.0
 11
3559.561473
 21
-177.389472
 31
0.0
  0
LINE
  5
6FEC4
330
70290
100
AcDbEntity
  8
Level 25
  6
Continuous
 62
   252
370
    13
100
AcDbLine
 10
3484.561473
 20
-1177.389472
 30
0.0
 11
3484.561473
 21
-177.389472
 31
0.0
  0
ENDBLK
  5
70292
330
70290
100
AcDbEntity
  8
0
 62
    98
370
     0
100
AcDbBlockEnd
  0
BLOCK
  5
70294
330
70293
100
AcDbEntity
  8
0
 62
    98
370
     0
100
AcDbBlockBegin
  2
Smart Solid_3
 70
     0
 10
0.0
 20
0.0
 30
0.0
  3
Smart Solid_3
  1

  0
LINE
  5
6FEC6
330
70293
100
AcDbEntity
  8
Level 25
  6
Continuous
 62
   252
370
    13
100
AcDbLine
 10
2.500224
 20
27.999866
 30
0.0
 11
2.500224
 21
37.999866
 31
0.0
  0
LINE
  5
6FEC7
330
70293
100
AcDbEntity
  8
Level 25
  6
Continuous
 62
   252
370
    13
100
AcDbLine
 10
2.500224
 20
27.999866
 30
0.0
 11
-2.499776
 21
27.999866
 31
0.0
  0
LINE
  5
6FEC8
330
70293
100
AcDbEntity
  8
Level 25
  6
Continuous
 62
   252
370
    13
100
AcDbLine
 10
-2.499776
 20
27.999866
 30
0.0
 11
-2.499776
 21
37.999866
 31
0.0
  0
LINE
  5
6FEC9
330
70293
100
AcDbEntity
  8
Level 25
  6
Continuous
 62
   252
370
    13
100
AcDbLine
 10
2.500224
 20
37.999866
 30
0.0
 11
-2.499776
 21
37.999866
 31
0.0
  0
LINE
  5
6FECA
330
70293
100
AcDbEntity
  8
Level 25
  6
Continuous
 62
   252
370
    13
100
AcDbLine
 10
2.500224
 20
-38.000134
 30
0.0
 11
2.500224
 21
-28.000134
 31
0.0
  0
LINE
  5
6FECB
330
70293
100
AcDbEntity
  8
Level 25
  6
Continuous
 62
   252
370
    13
100
AcDbLine
 10
2.500224
 20
-38.000134
 30
0.0
 11
-2.499776
 21
-38.000134
 31
0.0
  0
LINE
  5
6FECC
330
70293
100
AcDbEntity
  8
Level 25
  6
Continuous
 62
   252
370
    13
100
AcDbLine
 10
-2.499776
 20
-38.000134
 30
0.0
 11
-2.499776
 21
-28.000134
 31
0.0
  0
LINE
  5
6FECD
330
70293
100
AcDbEntity
  8
Level 25
  6
Continuous
 62
   252
370
    13
100
AcDbLine
 10
2.500224
 20
-28.000134
 30
0.0
 11
-2.499776
 21
-28.000134
 31
0.0
  0
LINE
  5
6FECE
330
70293
100
AcDbEntity
  8
Level 25
  6
Continuous
 62
   252
370
    13
100
AcDbLine
 10
2.500224
 20
37.999866
 30
0.0
 11
-2.499776
 21
37.999866
 31
0.0
  0
LINE
  5
6FECF
330
70293
100
AcDbEntity
  8
Level 25
  6
Continuous
 62
   252
370
    13
100
AcDbLine
 10
2.500224
 20
-38.000134
 30
0.0
 11
-2.499776
 21
-38.000134
 31
0.0
  0
POINT
  5
6FED0
330
70293
100
AcDbEntity
  8
Level 25
  6
Continuous
 62
   252
370
    13
100
AcDbPoint
 10
2.500224
 20
-38.000134
 30
0.0
  0
LINE
  5
6FED1
330
70293
100
AcDbEntity
  8
Level 25
  6
Continuous
 62
   252
370
    13
100
AcDbLine
 10
2.500224
 20
27.999866
 30
0.0
 11
2.500224
 21
-28.000134
 31
0.0
  0
POINT
  5
6FED2
330
70293
100
AcDbEntity
  8
Level 25
  6
Continuous
 62
   252
370
    13
100
AcDbPoint
 10
2.500224
 20
37.999866
 30
0.0
  0
LINE
  5
6FED3
330
70293
100
AcDbEntity
  8
Level 25
  6
Continuous
 62
   252
370
    13
100
AcDbLine
 10
2.500224
 20
-38.000134
 30
0.0
 11
2.500224
 21
37.999866
 31
0.0
  0
POINT
  5
6FED4
330
70293
100
AcDbEntity
  8
Level 25
  6
Continuous
 62
   252
370
    13
100
AcDbPoint
 10
-2.499776
 20
-38.000134
 30
0.0
  0
LINE
  5
6FED5
330
70293
100
AcDbEntity
  8
Level 25
  6
Continuous
 62
   252
370
    13
100
AcDbLine
 10
-2.499776
 20
27.999866
 30
0.0
 11
-2.499776
 21
-28.000134
 31
0.0
  0
POINT
  5
6FED6
330
70293
100
AcDbEntity
  8
Level 25
  6
Continuous
 62
   252
370
    13
100
AcDbPoint
 10
-2.499776
 20
37.999866
 30
0.0
  0
LINE
  5
6FED7
330
70293
100
AcDbEntity
  8
Level 25
  6
Continuous
 62
   252
370
    13
100
AcDbLine
 10
-2.499776
 20
-38.000134
 30
0.0
 11
-2.499776
 21
37.999866
 31
0.0
  0
LINE
  5
6FED8
330
70293
100
AcDbEntity
  8
Level 25
  6
Continuous
 62
   252
370
    13
100
AcDbLine
 10
2.500224
 20
18.499866
 30
0.0
 11
2.500224
 21
31.499866
 31
0.0
  0
LINE
  5
6FED9
330
70293
100
AcDbEntity
  8
Level 25
  6
Continuous
 62
   252
370
    13
100
AcDbLine
 10
-2.499776
 20
18.499866
 30
0.0
 11
-2.499776
 21
31.499866
 31
0.0
  0
LINE
  5
6FEDA
330
70293
100
AcDbEntity
  8
Level 25
  6
Continuous
 62
   252
370
    13
100
AcDbLine
 10
2.500224
 20
-31.500134
 30
0.0
 11
2.500224
 21
-18.500134
 31
0.0
  0
LINE
  5
6FEDB
330
70293
100
AcDbEntity
  8
Level 25
  6
Continuous
 62
   252
370
    13
100
AcDbLine
 10
-2.499776
 20
-31.500134
 30
0.0
 11
-2.499776
 21
-18.500134
 31
0.0
  0
LINE
  5
6FEDC
330
70293
100
AcDbEntity
  8
Level 25
  6
Continuous
 62
   252
370
    13
100
AcDbLine
 10
2.500224
 20
18.499866
 30
0.0
 11
-2.499776
 21
18.499866
 31
0.0
  0
LINE
  5
6FEDD
330
70293
100
AcDbEntity
  8
Level 25
  6
Continuous
 62
   252
370
    13
100
AcDbLine
 10
2.500224
 20
24.999866
 30
0.0
 11
-2.499776
 21
24.999866
 31
0.0
  0
LINE
  5
6FEDE
330
70293
100
AcDbEntity
  8
Level 25
  6
Continuous
 62
   252
370
    13
100
AcDbLine
 10
2.500224
 20
31.499866
 30
0.0
 11
-2.499776
 21
31.499866
 31
0.0
  0
LINE
  5
6FEDF
330
70293
100
AcDbEntity
  8
Level 25
  6
Continuous
 62
   252
370
    13
100
AcDbLine
 10
2.500224
 20
24.999866
 30
0.0
 11
-2.499776
 21
24.999866
 31
0.0
  0
LINE
  5
6FEE0
330
70293
100
AcDbEntity
  8
Level 25
  6
Continuous
 62
   252
370
    13
100
AcDbLine
 10
2.500224
 20
-31.500134
 30
0.0
 11
-2.499776
 21
-31.500134
 31
0.0
  0
LINE
  5
6FEE1
330
70293
100
AcDbEntity
  8
Level 25
  6
Continuous
 62
   252
370
    13
100
AcDbLine
 10
2.500224
 20
-25.000134
 30
0.0
 11
-2.499776
 21
-25.000134
 31
0.0
  0
LINE
  5
6FEE2
330
70293
100
AcDbEntity
  8
Level 25
  6
Continuous
 62
   252
370
    13
100
AcDbLine
 10
2.500224
 20
-18.500134
 30
0.0
 11
-2.499776
 21
-18.500134
 31
0.0
  0
LINE
  5
6FEE3
330
70293
100
AcDbEntity
  8
Level 25
  6
Continuous
 62
   252
370
    13
100
AcDbLine
 10
2.500224
 20
-25.000134
 30
0.0
 11
-2.499776
 21
-25.000134
 31
0.0
  0
ENDBLK
  5
70295
330
70293
100
AcDbEntity
  8
0
 62
    98
370
     0
100
AcDbBlockEnd
  0
BLOCK
  5
70297
330
70296
100
AcDbEntity
  8
0
 62
    98
370
     0
100
AcDbBlockBegin
  2
From Solid_2
 70
     0
 10
0.0
 20
0.0
 30
0.0
  3
From Solid_2
  1

  0
LWPOLYLINE
  5
6FEE6
330
70296
100
AcDbEntity
  8
Level 26
  6
Continuous
 62
   163
370
    13
100
AcDbPolyline
 90
        5
 70
   129
 43
0.0
 10
3484.561473
 20
-1252.389472
 10
3484.561473
 20
-1177.389472
 10
3559.561473
 20
-1177.389472
 10
3559.561473
 20
-1252.389472
 10
3484.561473
 20
-1252.389472
  0
LWPOLYLINE
  5
6FEE7
330
70296
100
AcDbEntity
  8
Level 26
  6
Continuous
 62
   163
370
    13
100
AcDbPolyline
 90
        5
 70
   129
 43
0.0
 10
3484.561473
 20
-1252.389472
 10
3484.561473
 20
-1177.389472
 10
3559.561473
 20
-1177.389472
 10
3559.561473
 20
-1252.389472
 10
3484.561473
 20
-1252.389472
  0
POINT
  5
6FEE8
330
70296
100
AcDbEntity
  8
Level 26
  6
Continuous
 62
   163
370
    13
100
AcDbPoint
 10
3484.561473
 20
-1252.389472
 30
0.0
  0
POINT
  5
6FEE9
330
70296
100
AcDbEntity
  8
Level 26
  6
Continuous
 62
   163
370
    13
100
AcDbPoint
 10
3484.561473
 20
-1177.389472
 30
0.0
  0
POINT
  5
6FEEA
330
70296
100
AcDbEntity
  8
Level 26
  6
Continuous
 62
   163
370
    13
100
AcDbPoint
 10
3559.561473
 20
-1177.389472
 30
0.0
  0
POINT
  5
6FEEB
330
70296
100
AcDbEntity
  8
Level 26
  6
Continuous
 62
   163
370
    13
100
AcDbPoint
 10
3559.561473
 20
-1252.389472
 30
0.0
  0
ENDBLK
  5
70298
330
70296
100
AcDbEntity
  8
0
 62
    98
370
     0
100
AcDbBlockEnd
  0
BLOCK
  5
7029A
330
70299
100
AcDbEntity
  8
0
 62
    98
370
     0
100
AcDbBlockBegin
  2
Feature Solid_9
 70
     0
 10
0.0
 20
0.0
 30
0.0
  3
Feature Solid_9
  1

  0
INSERT
  5
6FEEE
330
70299
100
AcDbEntity
  8
Level 25
  6
Continuous
 62
   252
370
    13
100
AcDbBlockReference
  2
CUT
 10
0.0
 20
-330.801
 30
0.0
  0
ENDBLK
  5
7029B
330
70299
100
AcDbEntity
  8
0
 62
    98
370
     0
100
AcDbBlockEnd
  0
BLOCK
  5
7029D
330
7029C
100
AcDbEntity
  8
0
 62
    98
370
     0
100
AcDbBlockBegin
  2
CUT
 70
     0
 10
0.0
 20
0.0
 30
0.0
  3
CUT
  1

  0
INSERT
  5
6FEEF
330
7029C
100
AcDbEntity
  8
Level 25
  6
Continuous
 62
   252
370
    13
100
AcDbBlockReference
  2
CUT_1
 10
0.0
 20
0.0
 30
0.0
  0
POINT
  5
6FEF9
330
7029C
100
AcDbEntity
  8
Level 25
  6
Continuous
 62
   252
370
    13
100
AcDbPoint
 10
-37.5
 20
37.499
 30
0.0
  0
LINE
  5
6FEFA
330
7029C
100
AcDbEntity
  8
Level 25
  6
Continuous
 62
   252
370
    13
100
AcDbLine
 10
-37.5
 20
37.499
 30
0.0
 11
37.5
 21
37.499
 31
0.0
  0
LINE
  5
6FEFB
330
7029C
100
AcDbEntity
  8
Level 25
  6
Continuous
 62
   252
370
    13
100
AcDbLine
 10
-37.5
 20
37.499
 30
0.0
 11
37.5
 21
37.499
 31
0.0
  0
POINT
  5
6FEFC
330
7029C
100
AcDbEntity
  8
Level 25
  6
Continuous
 62
   252
370
    13
100
AcDbPoint
 10
37.5
 20
37.499
 30
0.0
  0
ENDBLK
  5
7029E
330
7029C
100
AcDbEntity
  8
0
 62
    98
370
     0
100
AcDbBlockEnd
  0
BLOCK
  5
702A0
330
7029F
100
AcDbEntity
  8
0
 62
    98
370
     0
100
AcDbBlockBegin
  2
CUT_1
 70
     0
 10
0.0
 20
0.0
 30
0.0
  3
CUT_1
  1

  0
INSERT
  5
6FEF0
330
7029F
100
AcDbEntity
  8
Level 25
  6
Continuous
 62
   252
370
    13
100
AcDbBlockReference
  2
SOLID
 10
0.0
 20
0.0
 30
0.0
  0
LINE
  5
6FEF5
330
7029F
100
AcDbEntity
  8
Level 25
  6
Continuous
 62
   252
370
    13
100
AcDbLine
 10
-37.5
 20
624.10254
 30
0.0
 11
-37.5
 21
537.5
 31
0.0
  0
LINE
  5
6FEF6
330
7029F
100
AcDbEntity
  8
Level 25
  6
Continuous
 62
   252
370
    13
100
AcDbLine
 10
-37.5
 20
537.5
 30
0.0
 11
37.5
 21
537.5
 31
0.0
  0
LINE
  5
6FEF7
330
7029F
100
AcDbEntity
  8
Level 25
  6
Continuous
 62
   252
370
    13
100
AcDbLine
 10
37.5
 20
624.10254
 30
0.0
 11
-37.5
 21
624.10254
 31
0.0
  0
LINE
  5
6FEF8
330
7029F
100
AcDbEntity
  8
Level 25
  6
Continuous
 62
   252
370
    13
100
AcDbLine
 10
37.5
 20
624.10254
 30
0.0
 11
37.5
 21
537.5
 31
0.0
  0
ENDBLK
  5
702A1
330
7029F
100
AcDbEntity
  8
0
 62
    98
370
     0
100
AcDbBlockEnd
  0
BLOCK
  5
702A3
330
702A2
100
AcDbEntity
  8
0
 62
    98
370
     0
100
AcDbBlockBegin
  2
SOLID
 70
     0
 10
0.0
 20
0.0
 30
0.0
  3
SOLID
  1

  0
LINE
  5
6FEF1
330
702A2
100
AcDbEntity
  8
Level 25
  6
Continuous
 62
   252
370
    13
100
AcDbLine
 10
-37.5
 20
537.5
 30
0.0
 11
-37.5
 21
37.499
 31
0.0
  0
LINE
  5
6FEF2
330
702A2
100
AcDbEntity
  8
Level 25
  6
Continuous
 62
   252
370
    13
100
AcDbLine
 10
37.5
 20
37.499
 30
0.0
 11
37.5
 21
537.5
 31
0.0
  0
LINE
  5
6FEF3
330
702A2
100
AcDbEntity
  8
Level 25
  6
Continuous
 62
   252
370
    13
100
AcDbLine
 10
37.5
 20
37.499
 30
0.0
 11
37.5
 21
624.10254
 31
0.0
  0
LINE
  5
6FEF4
330
702A2
100
AcDbEntity
  8
Level 25
  6
Continuous
 62
   252
370
    13
100
AcDbLine
 10
-37.5
 20
624.10254
 30
0.0
 11
-37.5
 21
37.499
 31
0.0
  0
ENDBLK
  5
702A4
330
702A2
100
AcDbEntity
  8
0
 62
    98
370
     0
100
AcDbBlockEnd
  0
BLOCK
  5
702A6
330
702A5
100
AcDbEntity
  8
0
 62
    98
370
     0
100
AcDbBlockBegin
  2
From Solid_3
 70
     0
 10
0.0
 20
0.0
 30
0.0
  3
From Solid_3
  1

  0
LWPOLYLINE
  5
6FEFE
330
702A5
100
AcDbEntity
  8
Level 25
  6
Continuous
 62
   252
370
    13
100
AcDbPolyline
 90
        5
 70
   129
 43
0.0
 10
3559.562463
 20
-1252.388472
 10
3484.562463
 20
-1252.388472
 10
3484.562463
 20
-1252.388472
 10
3559.562463
 20
-1252.388472
 10
3559.562463
 20
-1252.388472
  0
LWPOLYLINE
  5
6FEFF
330
702A5
100
AcDbEntity
  8
Level 25
  6
Continuous
 62
   252
370
    13
100
AcDbPolyline
 90
        5
 70
   129
 43
0.0
 10
3559.562463
 20
-1177.388472
 10
3484.562463
 20
-1177.388472
 10
3484.562463
 20
-1177.388472
 10
3559.562463
 20
-1177.388472
 10
3559.562463
 20
-1177.388472
  0
LINE
  5
6FF00
330
702A5
100
AcDbEntity
  8
Level 25
  6
Continuous
 62
   252
370
    13
100
AcDbLine
 10
3559.562463
 20
-1252.388472
 30
0.0
 11
3559.562463
 21
-1177.388472
 31
0.0
  0
LINE
  5
6FF01
330
702A5
100
AcDbEntity
  8
Level 25
  6
Continuous
 62
   252
370
    13
100
AcDbLine
 10
3484.562463
 20
-1252.388472
 30
0.0
 11
3484.562463
 21
-1177.388472
 31
0.0
  0
LINE
  5
6FF02
330
702A5
100
AcDbEntity
  8
Level 25
  6
Continuous
 62
   252
370
    13
100
AcDbLine
 10
3484.562463
 20
-1252.388472
 30
0.0
 11
3484.562463
 21
-1177.388472
 31
0.0
  0
LINE
  5
6FF03
330
702A5
100
AcDbEntity
  8
Level 25
  6
Continuous
 62
   252
370
    13
100
AcDbLine
 10
3559.562463
 20
-1252.388472
 30
0.0
 11
3559.562463
 21
-1177.388472
 31
0.0
  0
ENDBLK
  5
702A7
330
702A5
100
AcDbEntity
  8
0
 62
    98
370
     0
100
AcDbBlockEnd
  0
BLOCK
  5
702A9
330
702A8
100
AcDbEntity
  8
0
 62
    98
370
     0
100
AcDbBlockBegin
  2
Smart Solid_4
 70
     0
 10
0.0
 20
0.0
 30
0.0
  3
Smart Solid_4
  1

  0
ARC
  5
6FF23
330
702A8
100
AcDbEntity
  8
Level 27
  6
Continuous
 62
    40
370
    13
100
AcDbCircle
 10
240.0
 20
0.0
 30
0.0
 40
17.0
210
0.0
220
1.0
230
0.0
100
AcDbArc
 50
0.0
 51
359.999994
  0
ARC
  5
6FF24
330
702A8
100
AcDbEntity
  8
Level 27
  6
Continuous
 62
    40
370
    13
100
AcDbCircle
 10
240.0
 20
0.0
 30
0.0
 40
17.0
210
0.0
220
-1.0
230
0.0
100
AcDbArc
 50
0.0
 51
359.999994
  0
LINE
  5
6FF25
330
702A8
100
AcDbEntity
  8
Level 27
  6
Continuous
 62
    40
370
    13
100
AcDbLine
 10
240.0
 20
0.0
 30
-17.0
 11
-240.0
 21
0.0
 31
-17.0
  0
LINE
  5
6FF26
330
702A8
100
AcDbEntity
  8
Level 27
  6
Continuous
 62
    40
370
    13
100
AcDbLine
 10
257.0
 20
0.0
 30
0.0
 11
-257.0
 21
0.0
 31
0.0
  0
LINE
  5
6FF27
330
702A8
100
AcDbEntity
  8
Level 27
  6
Continuous
 62
    40
370
    13
100
AcDbLine
 10
240.0
 20
0.0
 30
17.0
 11
-240.0
 21
0.0
 31
17.0
  0
LINE
  5
6FF28
330
702A8
100
AcDbEntity
  8
Level 27
  6
Continuous
 62
    40
370
    13
100
AcDbLine
 10
223.0
 20
0.0
 30
0.0
 11
-223.0
 21
0.0
 31
0.0
  0
LINE
  5
6FF29
330
702A8
100
AcDbEntity
  8
Level 27
  6
Continuous
 62
    40
370
    13
100
AcDbLine
 10
0.0
 20
0.0
 30
-17.0
 11
0.0
 21
0.0
 31
17.0
  0
ARC
  5
6FF2A
330
702A8
100
AcDbEntity
  8
Level 27
  6
Continuous
 62
    40
370
    13
100
AcDbCircle
 10
-240.0
 20
0.0
 30
0.0
 40
17.0
210
0.0
220
-1.0
230
0.0
100
AcDbArc
 50
0.0
 51
359.999994
  0
ENDBLK
  5
702AA
330
702A8
100
AcDbEntity
  8
0
 62
    98
370
     0
100
AcDbBlockEnd
  0
BLOCK
  5
702AC
330
702AB
100
AcDbEntity
  8
0
 62
    98
370
     0
100
AcDbBlockBegin
  2
Feature Solid_10
 70
     0
 10
0.0
 20
0.0
 30
0.0
  3
Feature Solid_10
  1

  0
INSERT
  5
6FF4B
330
702AB
100
AcDbEntity
  8
Level 26
  6
Continuous
 62
     7
370
    13
100
AcDbBlockReference
  2
CONE
 10
-6947.9915
 20
-13714.1335
 30
0.0
  0
ENDBLK
  5
702AD
330
702AB
100
AcDbEntity
  8
0
 62
    98
370
     0
100
AcDbBlockEnd
  0
BLOCK
  5
702AF
330
702AE
100
AcDbEntity
  8
0
 62
    98
370
     0
100
AcDbBlockBegin
  2
CONE
 70
     0
 10
0.0
 20
0.0
 30
0.0
  3
CONE
  1

  0
LINE
  5
6FF4C
330
702AE
100
AcDbEntity
  8
Level 26
  6
Continuous
 62
     7
370
    13
100
AcDbLine
 10
6892.991388
 20
13694.133899
 30
0.0
 11
7002.991388
 21
13694.133899
 31
0.0
  0
LINE
  5
6FF4D
330
702AE
100
AcDbEntity
  8
Level 26
  6
Continuous
 62
     7
370
    13
100
AcDbLine
 10
7002.991388
 20
13734.133899
 30
0.0
 11
6892.991388
 21
13734.133899
 31
0.0
  0
LINE
  5
6FF4E
330
702AE
100
AcDbEntity
  8
Level 26
  6
Continuous
 62
     7
370
    13
100
AcDbLine
 10
7002.991388
 20
13734.133899
 30
0.0
 11
7002.991388
 21
13694.133899
 31
0.0
  0
LINE
  5
6FF4F
330
702AE
100
AcDbEntity
  8
Level 26
  6
Continuous
 62
     7
370
    13
100
AcDbLine
 10
6947.991388
 20
13734.133899
 30
0.0
 11
6947.991388
 21
13694.133899
 31
0.0
  0
LINE
  5
6FF50
330
702AE
100
AcDbEntity
  8
Level 26
  6
Continuous
 62
     7
370
    13
100
AcDbLine
 10
6892.991388
 20
13734.133899
 30
0.0
 11
6892.991388
 21
13694.133899
 31
0.0
  0
LINE
  5
6FF51
330
702AE
100
AcDbEntity
  8
Level 26
  6
Continuous
 62
     7
370
    13
100
AcDbLine
 10
6947.991388
 20
13734.133899
 30
0.0
 11
6947.991388
 21
13694.133899
 31
0.0
  0
ENDBLK
  5
702B0
330
702AE
100
AcDbEntity
  8
0
 62
    98
370
     0
100
AcDbBlockEnd
  0
BLOCK
  5
702B2
330
702B1
100
AcDbEntity
  8
0
 62
    98
370
     0
100
AcDbBlockBegin
  2
Feature Solid_11
 70
     0
 10
0.0
 20
0.0
 30
0.0
  3
Feature Solid_11
  1

  0
INSERT
  5
6FF53
330
702B1
100
AcDbEntity
  8
Level 41
  6
Continuous
 62
    12
370
    13
100
AcDbBlockReference
  2
HOLE
 10
-6947.991
 20
-10395.634
 30
0.0
  0
ENDBLK
  5
702B3
330
702B1
100
AcDbEntity
  8
0
 62
    98
370
     0
100
AcDbBlockEnd
  0
BLOCK
  5
702B5
330
702B4
100
AcDbEntity
  8
0
 62
    98
370
     0
100
AcDbBlockBegin
  2
HOLE
 70
     0
 10
0.0
 20
0.0
 30
0.0
  3
HOLE
  1

  0
INSERT
  5
6FF54
330
702B4
100
AcDbEntity
  8
Level 41
  6
Continuous
 62
    12
370
    13
100
AcDbBlockReference
  2
HOLE_1
 10
0.0
 20
0.0
 30
0.0
  0
LINE
  5
6FFD3
330
702B4
100
AcDbEntity
  8
Level 41
  6
Continuous
 62
    12
370
    13
100
AcDbLine
 10
7152.675659
 20
10403.633899
 30
0.0
 11
7162.675659
 21
10403.633899
 31
0.0
  0
LINE
  5
6FFD4
330
702B4
100
AcDbEntity
  8
Level 41
  6
Continuous
 62
    12
370
    13
100
AcDbLine
 10
7152.675659
 20
10387.633899
 30
0.0
 11
7162.675659
 21
10387.633899
 31
0.0
  0
LINE
  5
6FFD5
330
702B4
100
AcDbEntity
  8
Level 41
  6
Continuous
 62
    12
370
    13
100
AcDbLine
 10
7152.675659
 20
10387.633899
 30
0.0
 11
7152.675659
 21
10403.633899
 31
0.0
  0
LINE
  5
6FFD6
330
702B4
100
AcDbEntity
  8
Level 41
  6
Continuous
 62
    12
370
    13
100
AcDbLine
 10
7157.675659
 20
10387.633899
 30
0.0
 11
7157.675659
 21
10403.633899
 31
0.0
  0
LINE
  5
6FFD7
330
702B4
100
AcDbEntity
  8
Level 41
  6
Continuous
 62
    12
370
    13
100
AcDbLine
 10
7162.675659
 20
10387.633899
 30
0.0
 11
7162.675659
 21
10403.633899
 31
0.0
  0
LINE
  5
6FFD8
330
702B4
100
AcDbEntity
  8
Level 41
  6
Continuous
 62
    12
370
    13
100
AcDbLine
 10
7157.675659
 20
10387.633899
 30
0.0
 11
7157.675659
 21
10403.633899
 31
0.0
  0
ENDBLK
  5
702B6
330
702B4
100
AcDbEntity
  8
0
 62
    98
370
     0
100
AcDbBlockEnd
  0
BLOCK
  5
702B8
330
702B7
100
AcDbEntity
  8
0
 62
    98
370
     0
100
AcDbBlockBegin
  2
HOLE_1
 70
     0
 10
0.0
 20
0.0
 30
0.0
  3
HOLE_1
  1

  0
INSERT
  5
6FF55
330
702B7
100
AcDbEntity
  8
Level 41
  6
Continuous
 62
    12
370
    13
100
AcDbBlockReference
  2
HOLE_2
 10
0.0
 20
0.0
 30
0.0
  0
LINE
  5
6FFCD
330
702B7
100
AcDbEntity
  8
Level 41
  6
Continuous
 62
    12
370
    13
100
AcDbLine
 10
6733.307111
 20
10403.633899
 30
0.0
 11
6743.307111
 21
10403.633899
 31
0.0
  0
LINE
  5
6FFCE
330
702B7
100
AcDbEntity
  8
Level 41
  6
Continuous
 62
    12
370
    13
100
AcDbLine
 10
6733.307111
 20
10387.633899
 30
0.0
 11
6743.307111
 21
10387.633899
 31
0.0
  0
LINE
  5
6FFCF
330
702B7
100
AcDbEntity
  8
Level 41
  6
Continuous
 62
    12
370
    13
100
AcDbLine
 10
6733.307111
 20
10387.633899
 30
0.0
 11
6733.307111
 21
10403.633899
 31
0.0
  0
LINE
  5
6FFD0
330
702B7
100
AcDbEntity
  8
Level 41
  6
Continuous
 62
    12
370
    13
100
AcDbLine
 10
6738.307111
 20
10387.633899
 30
0.0
 11
6738.307111
 21
10403.633899
 31
0.0
  0
LINE
  5
6FFD1
330
702B7
100
AcDbEntity
  8
Level 41
  6
Continuous
 62
    12
370
    13
100
AcDbLine
 10
6743.307111
 20
10387.633899
 30
0.0
 11
6743.307111
 21
10403.633899
 31
0.0
  0
LINE
  5
6FFD2
330
702B7
100
AcDbEntity
  8
Level 41
  6
Continuous
 62
    12
370
    13
100
AcDbLine
 10
6738.307111
 20
10387.633899
 30
0.0
 11
6738.307111
 21
10403.633899
 31
0.0
  0
ENDBLK
  5
702B9
330
702B7
100
AcDbEntity
  8
0
 62
    98
370
     0
100
AcDbBlockEnd
  0
BLOCK
  5
702BB
330
702BA
100
AcDbEntity
  8
0
 62
    98
370
     0
100
AcDbBlockBegin
  2
HOLE_2
 70
     0
 10
0.0
 20
0.0
 30
0.0
  3
HOLE_2
  1

  0
INSERT
  5
6FF56
330
702BA
100
AcDbEntity
  8
Level 41
  6
Continuous
 62
    12
370
    13
100
AcDbBlockReference
  2
HOLE_3
 10
0.0
 20
0.0
 30
0.0
  0
LINE
  5
6FFC7
330
702BA
100
AcDbEntity
  8
Level 41
  6
Continuous
 62
    12
370
    13
100
AcDbLine
 10
6942.991385
 20
10387.633899
 30
0.0
 11
6942.991385
 21
10403.633899
 31
0.0
  0
LINE
  5
6FFC8
330
702BA
100
AcDbEntity
  8
Level 41
  6
Continuous
 62
    12
370
    13
100
AcDbLine
 10
6947.991385
 20
10387.633899
 30
0.0
 11
6947.991385
 21
10403.633899
 31
0.0
  0
LINE
  5
6FFC9
330
702BA
100
AcDbEntity
  8
Level 41
  6
Continuous
 62
    12
370
    13
100
AcDbLine
 10
6952.991385
 20
10387.633899
 30
0.0
 11
6952.991385
 21
10403.633899
 31
0.0
  0
LINE
  5
6FFCA
330
702BA
100
AcDbEntity
  8
Level 41
  6
Continuous
 62
    12
370
    13
100
AcDbLine
 10
6947.991385
 20
10387.633899
 30
0.0
 11
6947.991385
 21
10403.633899
 31
0.0
  0
LINE
  5
6FFCB
330
702BA
100
AcDbEntity
  8
Level 41
  6
Continuous
 62
    12
370
    13
100
AcDbLine
 10
6942.991385
 20
10403.633899
 30
0.0
 11
6952.991385
 21
10403.633899
 31
0.0
  0
LINE
  5
6FFCC
330
702BA
100
AcDbEntity
  8
Level 41
  6
Continuous
 62
    12
370
    13
100
AcDbLine
 10
6942.991385
 20
10387.633899
 30
0.0
 11
6952.991385
 21
10387.633899
 31
0.0
  0
ENDBLK
  5
702BC
330
702BA
100
AcDbEntity
  8
0
 62
    98
370
     0
100
AcDbBlockEnd
  0
BLOCK
  5
702BE
330
702BD
100
AcDbEntity
  8
0
 62
    98
370
     0
100
AcDbBlockBegin
  2
HOLE_3
 70
     0
 10
0.0
 20
0.0
 30
0.0
  3
HOLE_3
  1

  0
INSERT
  5
6FF57
330
702BD
100
AcDbEntity
  8
Level 41
  6
Continuous
 62
    12
370
    13
100
AcDbBlockReference
  2
HOLE_4
 10
0.0
 20
0.0
 30
0.0
  0
LINE
  5
6FFC1
330
702BD
100
AcDbEntity
  8
Level 41
  6
Continuous
 62
    12
370
    13
100
AcDbLine
 10
7180.157358
 20
10387.633899
 30
0.0
 11
7180.157358
 21
10403.633899
 31
0.0
  0
LINE
  5
6FFC2
330
702BD
100
AcDbEntity
  8
Level 41
  6
Continuous
 62
    12
370
    13
100
AcDbLine
 10
7185.157358
 20
10387.633899
 30
0.0
 11
7185.157358
 21
10403.633899
 31
0.0
  0
LINE
  5
6FFC3
330
702BD
100
AcDbEntity
  8
Level 41
  6
Continuous
 62
    12
370
    13
100
AcDbLine
 10
7190.157358
 20
10387.633899
 30
0.0
 11
7190.157358
 21
10403.633899
 31
0.0
  0
LINE
  5
6FFC4
330
702BD
100
AcDbEntity
  8
Level 41
  6
Continuous
 62
    12
370
    13
100
AcDbLine
 10
7185.157358
 20
10387.633899
 30
0.0
 11
7185.157358
 21
10403.633899
 31
0.0
  0
LINE
  5
6FFC5
330
702BD
100
AcDbEntity
  8
Level 41
  6
Continuous
 62
    12
370
    13
100
AcDbLine
 10
7180.157358
 20
10403.633899
 30
0.0
 11
7190.157358
 21
10403.633899
 31
0.0
  0
LINE
  5
6FFC6
330
702BD
100
AcDbEntity
  8
Level 41
  6
Continuous
 62
    12
370
    13
100
AcDbLine
 10
7180.157358
 20
10387.633899
 30
0.0
 11
7190.157358
 21
10387.633899
 31
0.0
  0
ENDBLK
  5
702BF
330
702BD
100
AcDbEntity
  8
0
 62
    98
370
     0
100
AcDbBlockEnd
  0
BLOCK
  5
702C1
330
702C0
100
AcDbEntity
  8
0
 62
    98
370
     0
100
AcDbBlockBegin
  2
HOLE_4
 70
     0
 10
0.0
 20
0.0
 30
0.0
  3
HOLE_4
  1

  0
INSERT
  5
6FF58
330
702C0
100
AcDbEntity
  8
Level 41
  6
Continuous
 62
    12
370
    13
100
AcDbBlockReference
  2
ROUNDE
 10
0.0
 20
0.0
 30
0.0
  0
LINE
  5
6FFBB
330
702C0
100
AcDbEntity
  8
Level 41
  6
Continuous
 62
    12
370
    13
100
AcDbLine
 10
6705.825412
 20
10387.633899
 30
0.0
 11
6705.825412
 21
10403.633899
 31
0.0
  0
LINE
  5
6FFBC
330
702C0
100
AcDbEntity
  8
Level 41
  6
Continuous
 62
    12
370
    13
100
AcDbLine
 10
6710.825412
 20
10387.633899
 30
0.0
 11
6710.825412
 21
10403.633899
 31
0.0
  0
LINE
  5
6FFBD
330
702C0
100
AcDbEntity
  8
Level 41
  6
Continuous
 62
    12
370
    13
100
AcDbLine
 10
6715.825412
 20
10387.633899
 30
0.0
 11
6715.825412
 21
10403.633899
 31
0.0
  0
LINE
  5
6FFBE
330
702C0
100
AcDbEntity
  8
Level 41
  6
Continuous
 62
    12
370
    13
100
AcDbLine
 10
6710.825412
 20
10387.633899
 30
0.0
 11
6710.825412
 21
10403.633899
 31
0.0
  0
LINE
  5
6FFBF
330
702C0
100
AcDbEntity
  8
Level 41
  6
Continuous
 62
    12
370
    13
100
AcDbLine
 10
6705.825412
 20
10403.633899
 30
0.0
 11
6715.825412
 21
10403.633899
 31
0.0
  0
LINE
  5
6FFC0
330
702C0
100
AcDbEntity
  8
Level 41
  6
Continuous
 62
    12
370
    13
100
AcDbLine
 10
6705.825412
 20
10387.633899
 30
0.0
 11
6715.825412
 21
10387.633899
 31
0.0
  0
ENDBLK
  5
702C2
330
702C0
100
AcDbEntity
  8
0
 62
    98
370
     0
100
AcDbBlockEnd
  0
BLOCK
  5
702C4
330
702C3
100
AcDbEntity
  8
0
 62
    98
370
     0
100
AcDbBlockBegin
  2
ROUNDE
 70
     0
 10
0.0
 20
0.0
 30
0.0
  3
ROUNDE
  1

  0
INSERT
  5
6FF59
330
702C3
100
AcDbEntity
  8
Level 41
  6
Continuous
 62
    12
370
    13
100
AcDbBlockReference
  2
ROUNDE_1
 10
0.0
 20
0.0
 30
0.0
  0
LINE
  5
6FFB5
330
702C3
100
AcDbEntity
  8
Level 41
  6
Continuous
 62
    12
370
    13
100
AcDbLine
 10
7201.956615
 20
10387.633899
 30
0.0
 11
7201.956615
 21
10403.633899
 31
0.0
  0
LINE
  5
6FFB6
330
702C3
100
AcDbEntity
  8
Level 41
  6
Continuous
 62
    12
370
    13
100
AcDbLine
 10
7202.310868
 20
10403.633899
 30
0.0
 11
7202.310868
 21
10387.633899
 31
0.0
  0
LINE
  5
6FFB7
330
702C3
100
AcDbEntity
  8
Level 41
  6
Continuous
 62
    12
370
    13
100
AcDbLine
 10
7172.310868
 20
10403.633899
 30
0.0
 11
7172.310868
 21
10387.633899
 31
0.0
  0
LINE
  5
6FFB8
330
702C3
100
AcDbEntity
  8
Level 41
  6
Continuous
 62
    12
370
    13
100
AcDbLine
 10
7156.660672
 20
10403.633899
 30
0.0
 11
7202.310868
 21
10403.633899
 31
0.0
  0
LINE
  5
6FFB9
330
702C3
100
AcDbEntity
  8
Level 41
  6
Continuous
 62
    12
370
    13
100
AcDbLine
 10
7156.660672
 20
10387.633899
 30
0.0
 11
7156.660672
 21
10403.633899
 31
0.0
  0
LINE
  5
6FFBA
330
702C3
100
AcDbEntity
  8
Level 41
  6
Continuous
 62
    12
370
    13
100
AcDbLine
 10
7156.660672
 20
10387.633899
 30
0.0
 11
7202.310868
 21
10387.633899
 31
0.0
  0
ENDBLK
  5
702C5
330
702C3
100
AcDbEntity
  8
0
 62
    98
370
     0
100
AcDbBlockEnd
  0
BLOCK
  5
702C7
330
702C6
100
AcDbEntity
  8
0
 62
    98
370
     0
100
AcDbBlockBegin
  2
ROUNDE_1
 70
     0
 10
0.0
 20
0.0
 30
0.0
  3
ROUNDE_1
  1

  0
INSERT
  5
6FF5A
330
702C6
100
AcDbEntity
  8
Level 41
  6
Continuous
 62
    12
370
    13
100
AcDbBlockReference
  2
EXTEND
 10
0.0
 20
0.0
 30
0.0
  0
LINE
  5
6FFAF
330
702C6
100
AcDbEntity
  8
Level 41
  6
Continuous
 62
    12
370
    13
100
AcDbLine
 10
6694.026156
 20
10387.633899
 30
0.0
 11
6694.026156
 21
10403.633899
 31
0.0
  0
LINE
  5
6FFB0
330
702C6
100
AcDbEntity
  8
Level 41
  6
Continuous
 62
    12
370
    13
100
AcDbLine
 10
6693.671902
 20
10387.633899
 30
0.0
 11
6693.671902
 21
10403.633899
 31
0.0
  0
LINE
  5
6FFB1
330
702C6
100
AcDbEntity
  8
Level 41
  6
Continuous
 62
    12
370
    13
100
AcDbLine
 10
6723.671902
 20
10387.633899
 30
0.0
 11
6723.671902
 21
10403.633899
 31
0.0
  0
LINE
  5
6FFB2
330
702C6
100
AcDbEntity
  8
Level 41
  6
Continuous
 62
    12
370
    13
100
AcDbLine
 10
6693.671902
 20
10387.633899
 30
0.0
 11
6739.322099
 21
10387.633899
 31
0.0
  0
LINE
  5
6FFB3
330
702C6
100
AcDbEntity
  8
Level 41
  6
Continuous
 62
    12
370
    13
100
AcDbLine
 10
6739.322099
 20
10387.633899
 30
0.0
 11
6739.322099
 21
10403.633899
 31
0.0
  0
LINE
  5
6FFB4
330
702C6
100
AcDbEntity
  8
Level 41
  6
Continuous
 62
    12
370
    13
100
AcDbLine
 10
6693.671902
 20
10403.633899
 30
0.0
 11
6739.322099
 21
10403.633899
 31
0.0
  0
ENDBLK
  5
702C8
330
702C6
100
AcDbEntity
  8
0
 62
    98
370
     0
100
AcDbBlockEnd
  0
BLOCK
  5
702CA
330
702C9
100
AcDbEntity
  8
0
 62
    98
370
     0
100
AcDbBlockBegin
  2
EXTEND
 70
     0
 10
0.0
 20
0.0
 30
0.0
  3
EXTEND
  1

  0
INSERT
  5
6FF5B
330
702C9
100
AcDbEntity
  8
Level 41
  6
Continuous
 62
    12
370
    13
100
AcDbBlockReference
  2
SUBTRC_3
 10
0.0
 20
0.0
 30
0.0
  0
LINE
  5
6FFAC
330
702C9
100
AcDbEntity
  8
Level 41
  6
Continuous
 62
    12
370
    13
100
AcDbLine
 10
6947.991385
 20
10387.633899
 30
0.0
 11
6947.991385
 21
10403.633899
 31
0.0
  0
LINE
  5
6FFAD
330
702C9
100
AcDbEntity
  8
Level 41
  6
Continuous
 62
    12
370
    13
100
AcDbLine
 10
6694.026156
 20
10387.633899
 30
0.0
 11
7201.956615
 21
10387.633899
 31
0.0
  0
LINE
  5
6FFAE
330
702C9
100
AcDbEntity
  8
Level 41
  6
Continuous
 62
    12
370
    13
100
AcDbLine
 10
6694.026156
 20
10403.633899
 30
0.0
 11
7201.956615
 21
10403.633899
 31
0.0
  0
ENDBLK
  5
702CB
330
702C9
100
AcDbEntity
  8
0
 62
    98
370
     0
100
AcDbBlockEnd
  0
BLOCK
  5
702CD
330
702CC
100
AcDbEntity
  8
0
 62
    98
370
     0
100
AcDbBlockBegin
  2
SUBTRC_3
 70
     0
 10
0.0
 20
0.0
 30
0.0
  3
SUBTRC_3
  1

  0
INSERT
  5
6FF62
330
702CC
100
AcDbEntity
  8
Level 41
  6
Continuous
 62
    12
370
    13
100
AcDbBlockReference
  2
Feature Solid_12
 10
0.0
 20
0.0
 30
0.0
  0
ENDBLK
  5
702CE
330
702CC
100
AcDbEntity
  8
0
 62
    98
370
     0
100
AcDbBlockEnd
  0
BLOCK
  5
702D0
330
702CF
100
AcDbEntity
  8
0
 62
    98
370
     0
100
AcDbBlockBegin
  2
Feature Solid_12
 70
     0
 10
0.0
 20
0.0
 30
0.0
  3
Feature Solid_12
  1

  0
INSERT
  5
6FF63
330
702CF
100
AcDbEntity
  8
Level 41
  6
Continuous
 62
    12
370
    13
100
AcDbBlockReference
  2
SUBTRC_4
 10
0.0
 20
0.0
 30
0.0
  0
ENDBLK
  5
702D1
330
702CF
100
AcDbEntity
  8
0
 62
    98
370
     0
100
AcDbBlockEnd
  0
BLOCK
  5
702D3
330
702D2
100
AcDbEntity
  8
0
 62
    98
370
     0
100
AcDbBlockBegin
  2
SUBTRC_4
 70
     0
 10
0.0
 20
0.0
 30
0.0
  3
SUBTRC_4
  1

  0
INSERT
  5
6FF64
330
702D2
100
AcDbEntity
  8
Level 41
  6
Continuous
 62
    12
370
    13
100
AcDbBlockReference
  2
Feature Solid_13
 10
0.0
 20
0.0
 30
0.0
  0
INSERT
  5
6FF6B
330
702D2
100
AcDbEntity
  8
Level 41
  6
Continuous
 62
    12
370
    13
100
AcDbBlockReference
  2
Feature Solid_14
 10
0.0
 20
0.0
 30
0.0
  0
ENDBLK
  5
702D4
330
702D2
100
AcDbEntity
  8
0
 62
    98
370
     0
100
AcDbBlockEnd
  0
BLOCK
  5
702D6
330
702D5
100
AcDbEntity
  8
0
 62
    98
370
     0
100
AcDbBlockBegin
  2
Feature Solid_13
 70
     0
 10
0.0
 20
0.0
 30
0.0
  3
Feature Solid_13
  1

  0
INSERT
  5
6FF65
330
702D5
100
AcDbEntity
  8
Level 41
  6
Continuous
 62
    12
370
    13
100
AcDbBlockReference
  2
DDPROJ_6
 10
0.0
 20
0.0
 30
0.0
  0
ENDBLK
  5
702D7
330
702D5
100
AcDbEntity
  8
0
 62
    98
370
     0
100
AcDbBlockEnd
  0
BLOCK
  5
702D9
330
702D8
100
AcDbEntity
  8
0
 62
    98
370
     0
100
AcDbBlockBegin
  2
DDPROJ_6
 70
     0
 10
0.0
 20
0.0
 30
0.0
  3
DDPROJ_6
  1

  0
LINE
  5
6FF66
330
702D8
100
AcDbEntity
  8
Level 41
  6
Continuous
 62
    12
370
    13
100
AcDbLine
 10
6947.991385
 20
10403.633899
 30
0.0
 11
6947.991385
 21
10387.633899
 31
0.0
  0
LINE
  5
6FF67
330
702D8
100
AcDbEntity
  8
Level 41
  6
Continuous
 62
    12
370
    13
100
AcDbLine
 10
6922.991385
 20
10403.633899
 30
0.0
 11
6922.991385
 21
10387.633899
 31
0.0
  0
LINE
  5
6FF68
330
702D8
100
AcDbEntity
  8
Level 41
  6
Continuous
 62
    12
370
    13
100
AcDbLine
 10
6947.991385
 20
10403.633899
 30
0.0
 11
6947.991385
 21
10387.633899
 31
0.0
  0
LINE
  5
6FF69
330
702D8
100
AcDbEntity
  8
Level 41
  6
Continuous
 62
    12
370
    13
100
AcDbLine
 10
6972.991385
 20
10403.633899
 30
0.0
 11
6972.991385
 21
10387.633899
 31
0.0
  0
LINE
  5
6FF6A
330
702D8
100
AcDbEntity
  8
Level 41
  6
Continuous
 62
    12
370
    13
100
AcDbLine
 10
6972.991385
 20
10387.633899
 30
0.0
 11
6922.991385
 21
10387.633899
 31
0.0
  0
ENDBLK
  5
702DA
330
702D8
100
AcDbEntity
  8
0
 62
    98
370
     0
100
AcDbBlockEnd
  0
BLOCK
  5
702DC
330
702DB
100
AcDbEntity
  8
0
 62
    98
370
     0
100
AcDbBlockBegin
  2
Feature Solid_14
 70
     0
 10
0.0
 20
0.0
 30
0.0
  3
Feature Solid_14
  1

  0
INSERT
  5
6FF6C
330
702DB
100
AcDbEntity
  8
Level 41
  6
Continuous
 62
    12
370
    13
100
AcDbBlockReference
  2
SUBTRC_5
 10
17343.625284
 20
3447.642512
 30
0.0
 50
90.0
  0
ENDBLK
  5
702DD
330
702DB
100
AcDbEntity
  8
0
 62
    98
370
     0
100
AcDbBlockEnd
  0
BLOCK
  5
702DF
330
702DE
100
AcDbEntity
  8
0
 62
    98
370
     0
100
AcDbBlockBegin
  2
SUBTRC_5
 70
     0
 10
0.0
 20
0.0
 30
0.0
  3
SUBTRC_5
  1

  0
INSERT
  5
6FF6D
330
702DE
100
AcDbEntity
  8
Level 41
  6
Continuous
 62
    12
370
    13
100
AcDbBlockReference
  2
Feature Solid_15
 10
0.0
 20
20791.267798
 30
0.0
 50
180.0
210
0.0
220
0.0
230
-1.0
  0
INSERT
  5
6FF8A
330
702DE
100
AcDbEntity
  8
Level 41
  6
Continuous
 62
    12
370
    13
100
AcDbBlockReference
  2
Feature Solid_16
 10
0.0
 20
0.0
 30
0.0
  0
INSERT
  5
6FFA7
330
702DE
100
AcDbEntity
  8
Level 41
  6
Continuous
 62
    12
370
    13
100
AcDbBlockReference
  2
Feature Solid_17
 10
8.0
 20
0.0
 30
0.0
  0
ENDBLK
  5
702E0
330
702DE
100
AcDbEntity
  8
0
 62
    98
370
     0
100
AcDbBlockEnd
  0
BLOCK
  5
702E2
330
702E1
100
AcDbEntity
  8
0
 62
    98
370
     0
100
AcDbBlockBegin
  2
Feature Solid_15
 70
     0
 10
0.0
 20
0.0
 30
0.0
  3
Feature Solid_15
  1

  0
INSERT
  5
6FF6E
330
702E1
100
AcDbEntity
  8
Level 41
  6
Continuous
 62
    12
370
    13
100
AcDbBlockReference
  2
DDPROJ_7
 10
0.0
 20
0.0
 30
0.0
  0
ENDBLK
  5
702E3
330
702E1
100
AcDbEntity
  8
0
 62
    98
370
     0
100
AcDbBlockEnd
  0
BLOCK
  5
702E5
330
702E4
100
AcDbEntity
  8
0
 62
    98
370
     0
100
AcDbBlockBegin
  2
DDPROJ_7
 70
     0
 10
0.0
 20
0.0
 30
0.0
  3
DDPROJ_7
  1

  0
LINE
  5
6FF6F
330
702E4
100
AcDbEntity
  8
Level 41
  6
Continuous
 62
    12
370
    13
100
AcDbLine
 10
6955.991388
 20
10567.744053
 30
0.0
 11
6939.991388
 21
10567.744053
 31
0.0
  0
LINE
  5
6FF70
330
702E4
100
AcDbEntity
  8
Level 41
  6
Continuous
 62
    12
370
    13
100
AcDbLine
 10
6955.991388
 20
10481.692694
 30
0.0
 11
6939.991388
 21
10481.692694
 31
0.0
  0
LINE
  5
6FF71
330
702E4
100
AcDbEntity
  8
Level 41
  6
Continuous
 62
    12
370
    13
100
AcDbLine
 10
6955.991388
 20
10478.12779
 30
0.0
 11
6939.991388
 21
10478.12779
 31
0.0
  0
LINE
  5
6FF72
330
702E4
100
AcDbEntity
  8
Level 41
  6
Continuous
 62
    12
370
    13
100
AcDbLine
 10
6955.991388
 20
10497.916361
 30
0.0
 11
6939.991388
 21
10497.916361
 31
0.0
  0
LINE
  5
6FF73
330
702E4
100
AcDbEntity
  8
Level 41
  6
Continuous
 62
    12
370
    13
100
AcDbLine
 10
6955.991388
 20
10504.881707
 30
0.0
 11
6939.991388
 21
10504.881707
 31
0.0
  0
LINE
  5
6FF74
330
702E4
100
AcDbEntity
  8
Level 41
  6
Continuous
 62
    12
370
    13
100
AcDbLine
 10
6955.991388
 20
10566.708059
 30
0.0
 11
6939.991388
 21
10566.708059
 31
0.0
  0
LINE
  5
6FF75
330
702E4
100
AcDbEntity
  8
Level 41
  6
Continuous
 62
    12
370
    13
100
AcDbLine
 10
6955.991388
 20
10571.890926
 30
0.0
 11
6939.991388
 21
10571.890926
 31
0.0
  0
LINE
  5
6FF76
330
702E4
100
AcDbEntity
  8
Level 41
  6
Continuous
 62
    12
370
    13
100
AcDbLine
 10
6955.991388
 20
10581.793704
 30
0.0
 11
6939.991388
 21
10581.793704
 31
0.0
  0
LINE
  5
6FF77
330
702E4
100
AcDbEntity
  8
Level 41
  6
Continuous
 62
    12
370
    13
100
AcDbLine
 10
6955.991388
 20
10571.793704
 30
0.0
 11
6939.991388
 21
10571.793704
 31
0.0
  0
LINE
  5
6FF78
330
702E4
100
AcDbEntity
  8
Level 41
  6
Continuous
 62
    12
370
    13
100
AcDbLine
 10
6955.991388
 20
10473.717607
 30
0.0
 11
6939.991388
 21
10473.717607
 31
0.0
  0
LINE
  5
6FF79
330
702E4
100
AcDbEntity
  8
Level 41
  6
Continuous
 62
    12
370
    13
100
AcDbLine
 10
6955.991388
 20
10581.163906
 30
0.0
 11
6939.991388
 21
10581.163906
 31
0.0
  0
LINE
  5
6FF7A
330
702E4
100
AcDbEntity
  8
Level 41
  6
Continuous
 62
    12
370
    13
100
AcDbLine
 10
6939.991388
 20
10571.890926
 30
0.0
 11
6939.991388
 21
10581.163906
 31
0.0
  0
LINE
  5
6FF7B
330
702E4
100
AcDbEntity
  8
Level 41
  6
Continuous
 62
    12
370
    13
100
AcDbLine
 10
6939.991388
 20
10566.708059
 30
0.0
 11
6939.991388
 21
10571.890926
 31
0.0
  0
LINE
  5
6FF7C
330
702E4
100
AcDbEntity
  8
Level 41
  6
Continuous
 62
    12
370
    13
100
AcDbLine
 10
6955.991388
 20
10571.890926
 30
0.0
 11
6955.991388
 21
10581.163906
 31
0.0
  0
LINE
  5
6FF7D
330
702E4
100
AcDbEntity
  8
Level 41
  6
Continuous
 62
    12
370
    13
100
AcDbLine
 10
6939.991388
 20
10504.881707
 30
0.0
 11
6939.991388
 21
10566.708059
 31
0.0
  0
LINE
  5
6FF7E
330
702E4
100
AcDbEntity
  8
Level 41
  6
Continuous
 62
    12
370
    13
100
AcDbLine
 10
6939.991388
 20
10497.916361
 30
0.0
 11
6939.991388
 21
10504.881707
 31
0.0
  0
LINE
  5
6FF7F
330
702E4
100
AcDbEntity
  8
Level 41
  6
Continuous
 62
    12
370
    13
100
AcDbLine
 10
6939.991388
 20
10478.12779
 30
0.0
 11
6939.991388
 21
10497.916361
 31
0.0
  0
LINE
  5
6FF80
330
702E4
100
AcDbEntity
  8
Level 41
  6
Continuous
 62
    12
370
    13
100
AcDbLine
 10
6939.991388
 20
10473.717607
 30
0.0
 11
6939.991388
 21
10481.692694
 31
0.0
  0
LINE
  5
6FF81
330
702E4
100
AcDbEntity
  8
Level 41
  6
Continuous
 62
    12
370
    13
100
AcDbLine
 10
6939.991388
 20
10567.744053
 30
0.0
 11
6939.991388
 21
10481.692694
 31
0.0
  0
LINE
  5
6FF82
330
702E4
100
AcDbEntity
  8
Level 41
  6
Continuous
 62
    12
370
    13
100
AcDbLine
 10
6939.991388
 20
10567.744053
 30
0.0
 11
6939.991388
 21
10581.793704
 31
0.0
  0
LINE
  5
6FF83
330
702E4
100
AcDbEntity
  8
Level 41
  6
Continuous
 62
    12
370
    13
100
AcDbLine
 10
6955.991388
 20
10566.708059
 30
0.0
 11
6955.991388
 21
10571.890926
 31
0.0
  0
LINE
  5
6FF84
330
702E4
100
AcDbEntity
  8
Level 41
  6
Continuous
 62
    12
370
    13
100
AcDbLine
 10
6955.991388
 20
10504.881707
 30
0.0
 11
6955.991388
 21
10566.708059
 31
0.0
  0
LINE
  5
6FF85
330
702E4
100
AcDbEntity
  8
Level 41
  6
Continuous
 62
    12
370
    13
100
AcDbLine
 10
6955.991388
 20
10497.916361
 30
0.0
 11
6955.991388
 21
10504.881707
 31
0.0
  0
LINE
  5
6FF86
330
702E4
100
AcDbEntity
  8
Level 41
  6
Continuous
 62
    12
370
    13
100
AcDbLine
 10
6955.991388
 20
10478.12779
 30
0.0
 11
6955.991388
 21
10497.916361
 31
0.0
  0
LINE
  5
6FF87
330
702E4
100
AcDbEntity
  8
Level 41
  6
Continuous
 62
    12
370
    13
100
AcDbLine
 10
6955.991388
 20
10473.717607
 30
0.0
 11
6955.991388
 21
10481.692694
 31
0.0
  0
LINE
  5
6FF88
330
702E4
100
AcDbEntity
  8
Level 41
  6
Continuous
 62
    12
370
    13
100
AcDbLine
 10
6955.991388
 20
10567.744053
 30
0.0
 11
6955.991388
 21
10481.692694
 31
0.0
  0
LINE
  5
6FF89
330
702E4
100
AcDbEntity
  8
Level 41
  6
Continuous
 62
    12
370
    13
100
AcDbLine
 10
6955.991388
 20
10567.744053
 30
0.0
 11
6955.991388
 21
10581.793704
 31
0.0
  0
ENDBLK
  5
702E6
330
702E4
100
AcDbEntity
  8
0
 62
    98
370
     0
100
AcDbBlockEnd
  0
BLOCK
  5
702E8
330
702E7
100
AcDbEntity
  8
0
 62
    98
370
     0
100
AcDbBlockBegin
  2
Feature Solid_16
 70
     0
 10
0.0
 20
0.0
 30
0.0
  3
Feature Solid_16
  1

  0
INSERT
  5
6FF8B
330
702E7
100
AcDbEntity
  8
Level 41
  6
Continuous
 62
    12
370
    13
100
AcDbBlockReference
  2
DDPROJ_8
 10
0.0
 20
0.0
 30
0.0
  0
ENDBLK
  5
702E9
330
702E7
100
AcDbEntity
  8
0
 62
    98
370
     0
100
AcDbBlockEnd
  0
BLOCK
  5
702EB
330
702EA
100
AcDbEntity
  8
0
 62
    98
370
     0
100
AcDbBlockBegin
  2
DDPROJ_8
 70
     0
 10
0.0
 20
0.0
 30
0.0
  3
DDPROJ_8
  1

  0
LINE
  5
6FF8C
330
702EA
100
AcDbEntity
  8
Level 41
  6
Continuous
 62
    12
370
    13
100
AcDbLine
 10
6955.991388
 20
10581.163906
 30
0.0
 11
6939.991388
 21
10581.163906
 31
0.0
  0
LINE
  5
6FF8D
330
702EA
100
AcDbEntity
  8
Level 41
  6
Continuous
 62
    12
370
    13
100
AcDbLine
 10
6955.991388
 20
10567.744053
 30
0.0
 11
6939.991388
 21
10567.744053
 31
0.0
  0
LINE
  5
6FF8E
330
702EA
100
AcDbEntity
  8
Level 41
  6
Continuous
 62
    12
370
    13
100
AcDbLine
 10
6955.991388
 20
10481.692694
 30
0.0
 11
6939.991388
 21
10481.692694
 31
0.0
  0
LINE
  5
6FF8F
330
702EA
100
AcDbEntity
  8
Level 41
  6
Continuous
 62
    12
370
    13
100
AcDbLine
 10
6955.991388
 20
10478.12779
 30
0.0
 11
6939.991388
 21
10478.12779
 31
0.0
  0
LINE
  5
6FF90
330
702EA
100
AcDbEntity
  8
Level 41
  6
Continuous
 62
    12
370
    13
100
AcDbLine
 10
6955.991388
 20
10497.916361
 30
0.0
 11
6939.991388
 21
10497.916361
 31
0.0
  0
LINE
  5
6FF91
330
702EA
100
AcDbEntity
  8
Level 41
  6
Continuous
 62
    12
370
    13
100
AcDbLine
 10
6955.991388
 20
10504.881707
 30
0.0
 11
6939.991388
 21
10504.881707
 31
0.0
  0
LINE
  5
6FF92
330
702EA
100
AcDbEntity
  8
Level 41
  6
Continuous
 62
    12
370
    13
100
AcDbLine
 10
6955.991388
 20
10566.708059
 30
0.0
 11
6939.991388
 21
10566.708059
 31
0.0
  0
LINE
  5
6FF93
330
702EA
100
AcDbEntity
  8
Level 41
  6
Continuous
 62
    12
370
    13
100
AcDbLine
 10
6955.991388
 20
10571.890926
 30
0.0
 11
6939.991388
 21
10571.890926
 31
0.0
  0
LINE
  5
6FF94
330
702EA
100
AcDbEntity
  8
Level 41
  6
Continuous
 62
    12
370
    13
100
AcDbLine
 10
6955.991388
 20
10571.793704
 30
0.0
 11
6939.991388
 21
10571.793704
 31
0.0
  0
LINE
  5
6FF95
330
702EA
100
AcDbEntity
  8
Level 41
  6
Continuous
 62
    12
370
    13
100
AcDbLine
 10
6955.991388
 20
10581.793704
 30
0.0
 11
6939.991388
 21
10581.793704
 31
0.0
  0
LINE
  5
6FF96
330
702EA
100
AcDbEntity
  8
Level 41
  6
Continuous
 62
    12
370
    13
100
AcDbLine
 10
6955.991388
 20
10473.717607
 30
0.0
 11
6939.991388
 21
10473.717607
 31
0.0
  0
LINE
  5
6FF97
330
702EA
100
AcDbEntity
  8
Level 41
  6
Continuous
 62
    12
370
    13
100
AcDbLine
 10
6939.991388
 20
10566.708059
 30
0.0
 11
6939.991388
 21
10571.890926
 31
0.0
  0
LINE
  5
6FF98
330
702EA
100
AcDbEntity
  8
Level 41
  6
Continuous
 62
    12
370
    13
100
AcDbLine
 10
6955.991388
 20
10566.708059
 30
0.0
 11
6955.991388
 21
10571.890926
 31
0.0
  0
LINE
  5
6FF99
330
702EA
100
AcDbEntity
  8
Level 41
  6
Continuous
 62
    12
370
    13
100
AcDbLine
 10
6939.991388
 20
10504.881707
 30
0.0
 11
6939.991388
 21
10566.708059
 31
0.0
  0
LINE
  5
6FF9A
330
702EA
100
AcDbEntity
  8
Level 41
  6
Continuous
 62
    12
370
    13
100
AcDbLine
 10
6939.991388
 20
10497.916361
 30
0.0
 11
6939.991388
 21
10504.881707
 31
0.0
  0
LINE
  5
6FF9B
330
702EA
100
AcDbEntity
  8
Level 41
  6
Continuous
 62
    12
370
    13
100
AcDbLine
 10
6939.991388
 20
10571.890926
 30
0.0
 11
6939.991388
 21
10581.163906
 31
0.0
  0
LINE
  5
6FF9C
330
702EA
100
AcDbEntity
  8
Level 41
  6
Continuous
 62
    12
370
    13
100
AcDbLine
 10
6955.991388
 20
10571.890926
 30
0.0
 11
6955.991388
 21
10581.163906
 31
0.0
  0
LINE
  5
6FF9D
330
702EA
100
AcDbEntity
  8
Level 41
  6
Continuous
 62
    12
370
    13
100
AcDbLine
 10
6955.991388
 20
10567.744053
 30
0.0
 11
6955.991388
 21
10581.793704
 31
0.0
  0
LINE
  5
6FF9E
330
702EA
100
AcDbEntity
  8
Level 41
  6
Continuous
 62
    12
370
    13
100
AcDbLine
 10
6939.991388
 20
10478.12779
 30
0.0
 11
6939.991388
 21
10497.916361
 31
0.0
  0
LINE
  5
6FF9F
330
702EA
100
AcDbEntity
  8
Level 41
  6
Continuous
 62
    12
370
    13
100
AcDbLine
 10
6939.991388
 20
10473.717607
 30
0.0
 11
6939.991388
 21
10481.692694
 31
0.0
  0
LINE
  5
6FFA0
330
702EA
100
AcDbEntity
  8
Level 41
  6
Continuous
 62
    12
370
    13
100
AcDbLine
 10
6939.991388
 20
10567.744053
 30
0.0
 11
6939.991388
 21
10481.692694
 31
0.0
  0
LINE
  5
6FFA1
330
702EA
100
AcDbEntity
  8
Level 41
  6
Continuous
 62
    12
370
    13
100
AcDbLine
 10
6939.991388
 20
10567.744053
 30
0.0
 11
6939.991388
 21
10581.793704
 31
0.0
  0
LINE
  5
6FFA2
330
702EA
100
AcDbEntity
  8
Level 41
  6
Continuous
 62
    12
370
    13
100
AcDbLine
 10
6955.991388
 20
10504.881707
 30
0.0
 11
6955.991388
 21
10566.708059
 31
0.0
  0
LINE
  5
6FFA3
330
702EA
100
AcDbEntity
  8
Level 41
  6
Continuous
 62
    12
370
    13
100
AcDbLine
 10
6955.991388
 20
10497.916361
 30
0.0
 11
6955.991388
 21
10504.881707
 31
0.0
  0
LINE
  5
6FFA4
330
702EA
100
AcDbEntity
  8
Level 41
  6
Continuous
 62
    12
370
    13
100
AcDbLine
 10
6955.991388
 20
10478.12779
 30
0.0
 11
6955.991388
 21
10497.916361
 31
0.0
  0
LINE
  5
6FFA5
330
702EA
100
AcDbEntity
  8
Level 41
  6
Continuous
 62
    12
370
    13
100
AcDbLine
 10
6955.991388
 20
10473.717607
 30
0.0
 11
6955.991388
 21
10481.692694
 31
0.0
  0
LINE
  5
6FFA6
330
702EA
100
AcDbEntity
  8
Level 41
  6
Continuous
 62
    12
370
    13
100
AcDbLine
 10
6955.991388
 20
10567.744053
 30
0.0
 11
6955.991388
 21
10481.692694
 31
0.0
  0
ENDBLK
  5
702EC
330
702EA
100
AcDbEntity
  8
0
 62
    98
370
     0
100
AcDbBlockEnd
  0
BLOCK
  5
702EE
330
702ED
100
AcDbEntity
  8
0
 62
    98
370
     0
100
AcDbBlockBegin
  2
Feature Solid_17
 70
     0
 10
0.0
 20
0.0
 30
0.0
  3
Feature Solid_17
  1

  0
INSERT
  5
6FFA8
330
702ED
100
AcDbEntity
  8
Level 41
  6
Continuous
 62
    12
370
    13
100
AcDbBlockReference
  2
DDPROJ_9
 10
0.0
 20
0.0
 30
0.0
  0
ENDBLK
  5
702EF
330
702ED
100
AcDbEntity
  8
0
 62
    98
370
     0
100
AcDbBlockEnd
  0
BLOCK
  5
702F1
330
702F0
100
AcDbEntity
  8
0
 62
    98
370
     0
100
AcDbBlockBegin
  2
DDPROJ_9
 70
     0
 10
0.0
 20
0.0
 30
0.0
  3
DDPROJ_9
  1

  0
LINE
  5
6FFA9
330
702F0
100
AcDbEntity
  8
Level 41
  6
Continuous
 62
    12
370
    13
100
AcDbLine
 10
6947.991388
 20
10420.633899
 30
0.0
 11
6947.991388
 21
10370.633899
 31
0.0
  0
LINE
  5
6FFAA
330
702F0
100
AcDbEntity
  8
Level 41
  6
Continuous
 62
    12
370
    13
100
AcDbLine
 10
6931.991388
 20
10186.964613
 30
0.0
 11
6931.991388
 21
10604.303186
 31
0.0
  0
LINE
  5
6FFAB
330
702F0
100
AcDbEntity
  8
Level 41
  6
Continuous
 62
    12
370
    13
100
AcDbLine
 10
6947.991388
 20
10186.964613
 30
0.0
 11
6947.991388
 21
10604.303186
 31
0.0
  0
ENDBLK
  5
702F2
330
702F0
100
AcDbEntity
  8
0
 62
    98
370
     0
100
AcDbBlockEnd
  0
BLOCK
  5
702F4
330
702F3
100
AcDbEntity
  8
0
 62
    98
370
     0
100
AcDbBlockBegin
  2
Smart Solid_5
 70
     0
 10
0.0
 20
0.0
 30
0.0
  3
Smart Solid_5
  1

  0
ELLIPSE
  5
6FFDA
330
702F3
100
AcDbEntity
  8
Level 26
  6
Continuous
 62
     7
370
    13
100
AcDbEllipse
 10
11.65955
 20
0.094514
 30
0.0
 11
0.1222226798083585
 21
-14.99950204561941
 31
0.0
210
0.0
220
0.0
230
1.0
 40
0.9993723917760586
 41
0.0
 42
6.283185307179586
  0
ELLIPSE
  5
6FFDB
330
702F3
100
AcDbEntity
  8
Level 26
  6
Continuous
 62
     7
370
    13
100
AcDbEllipse
 10
-11.6595
 20
-0.0955
 30
0.0
 11
0.1222226798083585
 21
-14.99950204561941
 31
0.0
210
0.0
220
0.0
230
1.0
 40
0.9993723917760586
 41
0.0
 42
6.283185307179586
  0
LINE
  5
6FFDC
330
702F3
100
AcDbEntity
  8
Level 26
  6
Continuous
 62
     7
370
    13
100
AcDbLine
 10
11.659704
 20
-14.905485
 30
0.0
 11
-11.659347
 21
-15.095499
 31
0.0
  0
LINE
  5
6FFDD
330
702F3
100
AcDbEntity
  8
Level 26
  6
Continuous
 62
     7
370
    13
100
AcDbLine
 10
-3.331036
 20
0.094514
 30
0.0
 11
-26.650087
 21
-0.0955
 31
0.0
  0
LINE
  5
6FFDE
330
702F3
100
AcDbEntity
  8
Level 26
  6
Continuous
 62
     7
370
    13
100
AcDbLine
 10
11.659397
 20
15.094513
 30
0.0
 11
-11.659653
 21
14.904499
 31
0.0
  0
LINE
  5
6FFDF
330
702F3
100
AcDbEntity
  8
Level 26
  6
Continuous
 62
     7
370
    13
100
AcDbLine
 10
26.650137
 20
0.094514
 30
0.0
 11
3.331087
 21
-0.0955
 31
0.0
  0
ENDBLK
  5
702F5
330
702F3
100
AcDbEntity
  8
0
 62
    98
370
     0
100
AcDbBlockEnd
  0
BLOCK
  5
702F7
330
702F6
100
AcDbEntity
  8
0
 62
    98
370
     0
100
AcDbBlockBegin
  2
Smart Solid_6
 70
     0
 10
0.0
 20
0.0
 30
0.0
  3
Smart Solid_6
  1

  0
ELLIPSE
  5
6FFE2
330
702F6
100
AcDbEntity
  8
Level 26
  6
Continuous
 62
     7
370
    13
100
AcDbEllipse
 10
11.65955
 20
0.094514
 30
0.0
 11
0.1222226798083598
 21
-14.99950204561942
 31
0.0
210
0.0
220
0.0
230
1.0
 40
0.9993723917760583
 41
0.0
 42
6.283185307179586
  0
ELLIPSE
  5
6FFE3
330
702F6
100
AcDbEntity
  8
Level 26
  6
Continuous
 62
     7
370
    13
100
AcDbEllipse
 10
-11.6595
 20
-0.0955
 30
0.0
 11
0.1222226798083598
 21
-14.99950204561942
 31
0.0
210
0.0
220
0.0
230
1.0
 40
0.9993723917760583
 41
0.0
 42
6.283185307179586
  0
LINE
  5
6FFE4
330
702F6
100
AcDbEntity
  8
Level 26
  6
Continuous
 62
     7
370
    13
100
AcDbLine
 10
11.659704
 20
-14.905485
 30
0.0
 11
-11.659347
 21
-15.095499
 31
0.0
  0
LINE
  5
6FFE5
330
702F6
100
AcDbEntity
  8
Level 26
  6
Continuous
 62
     7
370
    13
100
AcDbLine
 10
-3.331036
 20
0.094514
 30
0.0
 11
-26.650087
 21
-0.0955
 31
0.0
  0
LINE
  5
6FFE6
330
702F6
100
AcDbEntity
  8
Level 26
  6
Continuous
 62
     7
370
    13
100
AcDbLine
 10
11.659397
 20
15.094513
 30
0.0
 11
-11.659653
 21
14.904499
 31
0.0
  0
LINE
  5
6FFE7
330
702F6
100
AcDbEntity
  8
Level 26
  6
Continuous
 62
     7
370
    13
100
AcDbLine
 10
26.650137
 20
0.094514
 30
0.0
 11
3.331087
 21
-0.0955
 31
0.0
  0
ENDBLK
  5
702F8
330
702F6
100
AcDbEntity
  8
0
 62
    98
370
     0
100
AcDbBlockEnd
  0
BLOCK
  5
702FA
330
702F9
100
AcDbEntity
  8
0
 62
    98
370
     0
100
AcDbBlockBegin
  2
From Cone
 70
     0
 10
0.0
 20
0.0
 30
0.0
  3
From Cone
  1

  0
LINE
  5
70193
330
702F9
100
AcDbEntity
  8
Level 27
  6
Continuous
 62
    40
370
    13
100
AcDbLine
 10
239.762463
 20
-202.388472
 30
0.0
 11
239.762463
 21
-142.388472
 31
0.0
  0
LINE
  5
70194
330
702F9
100
AcDbEntity
  8
Level 27
  6
Continuous
 62
    40
370
    13
100
AcDbLine
 10
215.562463
 20
-202.388472
 30
0.0
 11
215.562463
 21
-142.388472
 31
0.0
  0
LINE
  5
70195
330
702F9
100
AcDbEntity
  8
Level 27
  6
Continuous
 62
    40
370
    13
100
AcDbLine
 10
239.762463
 20
-202.388472
 30
0.0
 11
215.562463
 21
-202.388472
 31
0.0
  0
LINE
  5
70196
330
702F9
100
AcDbEntity
  8
Level 27
  6
Continuous
 62
    40
370
    13
100
AcDbLine
 10
239.762463
 20
-142.388472
 30
0.0
 11
215.562463
 21
-142.388472
 31
0.0
  0
ENDBLK
  5
702FB
330
702F9
100
AcDbEntity
  8
0
 62
    98
370
     0
100
AcDbBlockEnd
  0
BLOCK
  5
702FD
330
702FC
100
AcDbEntity
  8
0
 62
    98
370
     0
100
AcDbBlockBegin
  2
From Cone_1
 70
     0
 10
0.0
 20
0.0
 30
0.0
  3
From Cone_1
  1

  0
LINE
  5
70198
330
702FC
100
AcDbEntity
  8
Level 27
  6
Continuous
 62
    40
370
    13
100
AcDbLine
 10
239.762463
 20
259.611528
 30
0.0
 11
191.362463
 21
259.611528
 31
0.0
  0
LINE
  5
70199
330
702FC
100
AcDbEntity
  8
Level 27
  6
Continuous
 62
    40
370
    13
100
AcDbLine
 10
239.762463
 20
-604.388472
 30
0.0
 11
191.362463
 21
-604.388472
 31
0.0
  0
LINE
  5
7019A
330
702FC
100
AcDbEntity
  8
Level 27
  6
Continuous
 62
    40
370
    13
100
AcDbLine
 10
239.762463
 20
259.611528
 30
0.0
 11
239.762463
 21
-604.388472
 31
0.0
  0
LINE
  5
7019B
330
702FC
100
AcDbEntity
  8
Level 27
  6
Continuous
 62
    40
370
    13
100
AcDbLine
 10
191.362463
 20
259.611528
 30
0.0
 11
191.362463
 21
-604.388472
 31
0.0
  0
ENDBLK
  5
702FE
330
702FC
100
AcDbEntity
  8
0
 62
    98
370
     0
100
AcDbBlockEnd
  0
BLOCK
  5
70300
330
702FF
100
AcDbEntity
  8
0
 62
    98
370
     0
100
AcDbBlockBegin
  2
From Surface
 70
     0
 10
0.0
 20
0.0
 30
0.0
  3
From Surface
  1

  0
LINE
  5
6FFEC
330
702FF
100
AcDbEntity
  8
Level 27
  6
Continuous
 62
    40
370
    13
100
AcDbLine
 10
203.732614
 20
259.611528
 30
0.0
 11
227.392308
 21
259.611528
 31
0.0
  0
LINE
  5
6FFED
330
702FF
100
AcDbEntity
  8
Level 27
  6
Continuous
 62
    40
370
    13
100
AcDbLine
 10
203.732614
 20
262.611528
 30
0.0
 11
227.392308
 21
262.611528
 31
0.0
  0
LINE
  5
6FFEE
330
702FF
100
AcDbEntity
  8
Level 27
  6
Continuous
 62
    40
370
    13
100
AcDbLine
 10
227.392308
 20
262.611528
 30
0.0
 11
227.392308
 21
259.611528
 31
0.0
  0
LINE
  5
6FFEF
330
702FF
100
AcDbEntity
  8
Level 27
  6
Continuous
 62
    40
370
    13
100
AcDbLine
 10
203.732614
 20
262.611528
 30
0.0
 11
203.732614
 21
259.611528
 31
0.0
  0
ENDBLK
  5
70301
330
702FF
100
AcDbEntity
  8
0
 62
    98
370
     0
100
AcDbBlockEnd
  0
BLOCK
  5
70303
330
70302
100
AcDbEntity
  8
0
 62
    98
370
     0
100
AcDbBlockBegin
  2
From Surface_1
 70
     0
 10
0.0
 20
0.0
 30
0.0
  3
From Surface_1
  1

  0
LINE
  5
6FFF6
330
70302
100
AcDbEntity
  8
Level 27
  6
Continuous
 62
    40
370
    13
100
AcDbLine
 10
242.862107
 20
259.611528
 30
0.0
 11
245.562461
 21
259.611528
 31
0.0
  0
LINE
  5
6FFF7
330
70302
100
AcDbEntity
  8
Level 27
  6
Continuous
 62
    40
370
    13
100
AcDbLine
 10
242.862107
 20
262.611528
 30
0.0
 11
245.562461
 21
262.611528
 31
0.0
  0
LINE
  5
6FFF8
330
70302
100
AcDbEntity
  8
Level 27
  6
Continuous
 62
    40
370
    13
100
AcDbLine
 10
242.862107
 20
262.611528
 30
0.0
 11
242.862107
 21
259.611528
 31
0.0
  0
LINE
  5
6FFF9
330
70302
100
AcDbEntity
  8
Level 27
  6
Continuous
 62
    40
370
    13
100
AcDbLine
 10
242.862107
 20
262.611528
 30
0.0
 11
242.862107
 21
259.611528
 31
0.0
  0
ENDBLK
  5
70304
330
70302
100
AcDbEntity
  8
0
 62
    98
370
     0
100
AcDbBlockEnd
  0
BLOCK
  5
70306
330
70305
100
AcDbEntity
  8
0
 62
    98
370
     0
100
AcDbBlockBegin
  2
From Surface_2
 70
     0
 10
0.0
 20
0.0
 30
0.0
  3
From Surface_2
  1

  0
LINE
  5
70000
330
70305
100
AcDbEntity
  8
Level 27
  6
Continuous
 62
    40
370
    13
100
AcDbLine
 10
203.732614
 20
259.611528
 30
0.0
 11
227.392308
 21
259.611528
 31
0.0
  0
LINE
  5
70001
330
70305
100
AcDbEntity
  8
Level 27
  6
Continuous
 62
    40
370
    13
100
AcDbLine
 10
203.732614
 20
262.611528
 30
0.0
 11
227.392308
 21
262.611528
 31
0.0
  0
LINE
  5
70002
330
70305
100
AcDbEntity
  8
Level 27
  6
Continuous
 62
    40
370
    13
100
AcDbLine
 10
203.732614
 20
262.611528
 30
0.0
 11
203.732614
 21
259.611528
 31
0.0
  0
LINE
  5
70003
330
70305
100
AcDbEntity
  8
Level 27
  6
Continuous
 62
    40
370
    13
100
AcDbLine
 10
227.392308
 20
262.611528
 30
0.0
 11
227.392308
 21
259.611528
 31
0.0
  0
ENDBLK
  5
70307
330
70305
100
AcDbEntity
  8
0
 62
    98
370
     0
100
AcDbBlockEnd
  0
BLOCK
  5
70309
330
70308
100
AcDbEntity
  8
0
 62
    98
370
     0
100
AcDbBlockBegin
  2
From Surface_3
 70
     0
 10
0.0
 20
0.0
 30
0.0
  3
From Surface_3
  1

  0
LINE
  5
7000A
330
70308
100
AcDbEntity
  8
Level 27
  6
Continuous
 62
    40
370
    13
100
AcDbLine
 10
185.562461
 20
259.611528
 30
0.0
 11
188.262815
 21
259.611528
 31
0.0
  0
LINE
  5
7000B
330
70308
100
AcDbEntity
  8
Level 27
  6
Continuous
 62
    40
370
    13
100
AcDbLine
 10
185.562461
 20
262.611528
 30
0.0
 11
188.262815
 21
262.611528
 31
0.0
  0
LINE
  5
7000C
330
70308
100
AcDbEntity
  8
Level 27
  6
Continuous
 62
    40
370
    13
100
AcDbLine
 10
188.262815
 20
262.611528
 30
0.0
 11
188.262815
 21
259.611528
 31
0.0
  0
LINE
  5
7000D
330
70308
100
AcDbEntity
  8
Level 27
  6
Continuous
 62
    40
370
    13
100
AcDbLine
 10
188.262815
 20
262.611528
 30
0.0
 11
188.262815
 21
259.611528
 31
0.0
  0
ENDBLK
  5
7030A
330
70308
100
AcDbEntity
  8
0
 62
    98
370
     0
100
AcDbBlockEnd
  0
BLOCK
  5
7030C
330
7030B
100
AcDbEntity
  8
0
 62
    98
370
     0
100
AcDbBlockBegin
  2
From Surface_4
 70
     0
 10
0.0
 20
0.0
 30
0.0
  3
From Surface_4
  1

  0
LINE
  5
7001D
330
7030B
100
AcDbEntity
  8
Level 27
  6
Continuous
 62
    40
370
    13
100
AcDbLine
 10
203.732614
 20
-604.388472
 30
0.0
 11
227.392308
 21
-604.388472
 31
0.0
  0
LINE
  5
7001E
330
7030B
100
AcDbEntity
  8
Level 27
  6
Continuous
 62
    40
370
    13
100
AcDbLine
 10
203.732614
 20
-607.388472
 30
0.0
 11
227.392308
 21
-607.388472
 31
0.0
  0
LINE
  5
7001F
330
7030B
100
AcDbEntity
  8
Level 27
  6
Continuous
 62
    40
370
    13
100
AcDbLine
 10
227.392308
 20
-607.388472
 30
0.0
 11
227.392308
 21
-604.388472
 31
0.0
  0
LINE
  5
70020
330
7030B
100
AcDbEntity
  8
Level 27
  6
Continuous
 62
    40
370
    13
100
AcDbLine
 10
203.732614
 20
-607.388472
 30
0.0
 11
203.732614
 21
-604.388472
 31
0.0
  0
ENDBLK
  5
7030D
330
7030B
100
AcDbEntity
  8
0
 62
    98
370
     0
100
AcDbBlockEnd
  0
BLOCK
  5
7030F
330
7030E
100
AcDbEntity
  8
0
 62
    98
370
     0
100
AcDbBlockBegin
  2
From Surface_5
 70
     0
 10
0.0
 20
0.0
 30
0.0
  3
From Surface_5
  1

  0
LINE
  5
70027
330
7030E
100
AcDbEntity
  8
Level 27
  6
Continuous
 62
    40
370
    13
100
AcDbLine
 10
242.862107
 20
-604.388472
 30
0.0
 11
245.562461
 21
-604.388472
 31
0.0
  0
LINE
  5
70028
330
7030E
100
AcDbEntity
  8
Level 27
  6
Continuous
 62
    40
370
    13
100
AcDbLine
 10
242.862107
 20
-607.388472
 30
0.0
 11
245.562461
 21
-607.388472
 31
0.0
  0
LINE
  5
70029
330
7030E
100
AcDbEntity
  8
Level 27
  6
Continuous
 62
    40
370
    13
100
AcDbLine
 10
242.862107
 20
-607.388472
 30
0.0
 11
242.862107
 21
-604.388472
 31
0.0
  0
LINE
  5
7002A
330
7030E
100
AcDbEntity
  8
Level 27
  6
Continuous
 62
    40
370
    13
100
AcDbLine
 10
242.862107
 20
-607.388472
 30
0.0
 11
242.862107
 21
-604.388472
 31
0.0
  0
ENDBLK
  5
70310
330
7030E
100
AcDbEntity
  8
0
 62
    98
370
     0
100
AcDbBlockEnd
  0
BLOCK
  5
70312
330
70311
100
AcDbEntity
  8
0
 62
    98
370
     0
100
AcDbBlockBegin
  2
From Surface_6
 70
     0
 10
0.0
 20
0.0
 30
0.0
  3
From Surface_6
  1

  0
LINE
  5
70031
330
70311
100
AcDbEntity
  8
Level 27
  6
Continuous
 62
    40
370
    13
100
AcDbLine
 10
203.732614
 20
-604.388472
 30
0.0
 11
227.392308
 21
-604.388472
 31
0.0
  0
LINE
  5
70032
330
70311
100
AcDbEntity
  8
Level 27
  6
Continuous
 62
    40
370
    13
100
AcDbLine
 10
203.732614
 20
-607.388472
 30
0.0
 11
227.392308
 21
-607.388472
 31
0.0
  0
LINE
  5
70033
330
70311
100
AcDbEntity
  8
Level 27
  6
Continuous
 62
    40
370
    13
100
AcDbLine
 10
203.732614
 20
-607.388472
 30
0.0
 11
203.732614
 21
-604.388472
 31
0.0
  0
LINE
  5
70034
330
70311
100
AcDbEntity
  8
Level 27
  6
Continuous
 62
    40
370
    13
100
AcDbLine
 10
227.392308
 20
-607.388472
 30
0.0
 11
227.392308
 21
-604.388472
 31
0.0
  0
ENDBLK
  5
70313
330
70311
100
AcDbEntity
  8
0
 62
    98
370
     0
100
AcDbBlockEnd
  0
BLOCK
  5
70315
330
70314
100
AcDbEntity
  8
0
 62
    98
370
     0
100
AcDbBlockBegin
  2
From Surface_7
 70
     0
 10
0.0
 20
0.0
 30
0.0
  3
From Surface_7
  1

  0
LINE
  5
7003B
330
70314
100
AcDbEntity
  8
Level 27
  6
Continuous
 62
    40
370
    13
100
AcDbLine
 10
185.562461
 20
-604.388472
 30
0.0
 11
188.262815
 21
-604.388472
 31
0.0
  0
LINE
  5
7003C
330
70314
100
AcDbEntity
  8
Level 27
  6
Continuous
 62
    40
370
    13
100
AcDbLine
 10
185.562461
 20
-607.388472
 30
0.0
 11
188.262815
 21
-607.388472
 31
0.0
  0
LINE
  5
7003D
330
70314
100
AcDbEntity
  8
Level 27
  6
Continuous
 62
    40
370
    13
100
AcDbLine
 10
188.262815
 20
-607.388472
 30
0.0
 11
188.262815
 21
-604.388472
 31
0.0
  0
LINE
  5
7003E
330
70314
100
AcDbEntity
  8
Level 27
  6
Continuous
 62
    40
370
    13
100
AcDbLine
 10
188.262815
 20
-607.388472
 30
0.0
 11
188.262815
 21
-604.388472
 31
0.0
  0
ENDBLK
  5
70316
330
70314
100
AcDbEntity
  8
0
 62
    98
370
     0
100
AcDbBlockEnd
  0
BLOCK
  5
70318
330
70317
100
AcDbEntity
  8
0
 62
    98
370
     0
100
AcDbBlockBegin
  2
From Cone_2
 70
     0
 10
0.0
 20
0.0
 30
0.0
  3
From Cone_2
  1

  0
LINE
  5
701A5
330
70317
100
AcDbEntity
  8
Level 27
  6
Continuous
 62
    40
370
    13
100
AcDbLine
 10
6804.362463
 20
-202.388472
 30
0.0
 11
6804.362463
 21
-142.388472
 31
0.0
  0
LINE
  5
701A6
330
70317
100
AcDbEntity
  8
Level 27
  6
Continuous
 62
    40
370
    13
100
AcDbLine
 10
6828.562463
 20
-202.388472
 30
0.0
 11
6828.562463
 21
-142.388472
 31
0.0
  0
LINE
  5
701A7
330
70317
100
AcDbEntity
  8
Level 27
  6
Continuous
 62
    40
370
    13
100
AcDbLine
 10
6804.362463
 20
-202.388472
 30
0.0
 11
6828.562463
 21
-202.388472
 31
0.0
  0
LINE
  5
701A8
330
70317
100
AcDbEntity
  8
Level 27
  6
Continuous
 62
    40
370
    13
100
AcDbLine
 10
6804.362463
 20
-142.388472
 30
0.0
 11
6828.562463
 21
-142.388472
 31
0.0
  0
ENDBLK
  5
70319
330
70317
100
AcDbEntity
  8
0
 62
    98
370
     0
100
AcDbBlockEnd
  0
BLOCK
  5
7031B
330
7031A
100
AcDbEntity
  8
0
 62
    98
370
     0
100
AcDbBlockBegin
  2
From Cone_3
 70
     0
 10
0.0
 20
0.0
 30
0.0
  3
From Cone_3
  1

  0
LINE
  5
701AA
330
7031A
100
AcDbEntity
  8
Level 27
  6
Continuous
 62
    40
370
    13
100
AcDbLine
 10
6804.362463
 20
259.611528
 30
0.0
 11
6852.762463
 21
259.611528
 31
0.0
  0
LINE
  5
701AB
330
7031A
100
AcDbEntity
  8
Level 27
  6
Continuous
 62
    40
370
    13
100
AcDbLine
 10
6804.362463
 20
-604.388472
 30
0.0
 11
6852.762463
 21
-604.388472
 31
0.0
  0
LINE
  5
701AC
330
7031A
100
AcDbEntity
  8
Level 27
  6
Continuous
 62
    40
370
    13
100
AcDbLine
 10
6804.362463
 20
259.611528
 30
0.0
 11
6804.362463
 21
-604.388472
 31
0.0
  0
LINE
  5
701AD
330
7031A
100
AcDbEntity
  8
Level 27
  6
Continuous
 62
    40
370
    13
100
AcDbLine
 10
6852.762463
 20
259.611528
 30
0.0
 11
6852.762463
 21
-604.388472
 31
0.0
  0
ENDBLK
  5
7031C
330
7031A
100
AcDbEntity
  8
0
 62
    98
370
     0
100
AcDbBlockEnd
  0
BLOCK
  5
7031E
330
7031D
100
AcDbEntity
  8
0
 62
    98
370
     0
100
AcDbBlockBegin
  2
From Surface_8
 70
     0
 10
0.0
 20
0.0
 30
0.0
  3
From Surface_8
  1

  0
LINE
  5
70050
330
7031D
100
AcDbEntity
  8
Level 27
  6
Continuous
 62
    40
370
    13
100
AcDbLine
 10
6840.392312
 20
259.611528
 30
0.0
 11
6816.732618
 21
259.611528
 31
0.0
  0
LINE
  5
70051
330
7031D
100
AcDbEntity
  8
Level 27
  6
Continuous
 62
    40
370
    13
100
AcDbLine
 10
6840.392312
 20
262.611528
 30
0.0
 11
6816.732618
 21
262.611528
 31
0.0
  0
LINE
  5
70052
330
7031D
100
AcDbEntity
  8
Level 27
  6
Continuous
 62
    40
370
    13
100
AcDbLine
 10
6816.732618
 20
262.611528
 30
0.0
 11
6816.732618
 21
259.611528
 31
0.0
  0
LINE
  5
70053
330
7031D
100
AcDbEntity
  8
Level 27
  6
Continuous
 62
    40
370
    13
100
AcDbLine
 10
6840.392312
 20
262.611528
 30
0.0
 11
6840.392312
 21
259.611528
 31
0.0
  0
ENDBLK
  5
7031F
330
7031D
100
AcDbEntity
  8
0
 62
    98
370
     0
100
AcDbBlockEnd
  0
BLOCK
  5
70321
330
70320
100
AcDbEntity
  8
0
 62
    98
370
     0
100
AcDbBlockBegin
  2
From Surface_9
 70
     0
 10
0.0
 20
0.0
 30
0.0
  3
From Surface_9
  1

  0
LINE
  5
7005A
330
70320
100
AcDbEntity
  8
Level 27
  6
Continuous
 62
    40
370
    13
100
AcDbLine
 10
6801.262819
 20
259.611528
 30
0.0
 11
6798.562465
 21
259.611528
 31
0.0
  0
LINE
  5
7005B
330
70320
100
AcDbEntity
  8
Level 27
  6
Continuous
 62
    40
370
    13
100
AcDbLine
 10
6801.262819
 20
262.611528
 30
0.0
 11
6798.562465
 21
262.611528
 31
0.0
  0
LINE
  5
7005C
330
70320
100
AcDbEntity
  8
Level 27
  6
Continuous
 62
    40
370
    13
100
AcDbLine
 10
6801.262819
 20
262.611528
 30
0.0
 11
6801.262819
 21
259.611528
 31
0.0
  0
LINE
  5
7005D
330
70320
100
AcDbEntity
  8
Level 27
  6
Continuous
 62
    40
370
    13
100
AcDbLine
 10
6801.262819
 20
262.611528
 30
0.0
 11
6801.262819
 21
259.611528
 31
0.0
  0
ENDBLK
  5
70322
330
70320
100
AcDbEntity
  8
0
 62
    98
370
     0
100
AcDbBlockEnd
  0
BLOCK
  5
70324
330
70323
100
AcDbEntity
  8
0
 62
    98
370
     0
100
AcDbBlockBegin
  2
From Surface_10
 70
     0
 10
0.0
 20
0.0
 30
0.0
  3
From Surface_10
  1

  0
LINE
  5
70064
330
70323
100
AcDbEntity
  8
Level 27
  6
Continuous
 62
    40
370
    13
100
AcDbLine
 10
6840.392312
 20
259.611528
 30
0.0
 11
6816.732618
 21
259.611528
 31
0.0
  0
LINE
  5
70065
330
70323
100
AcDbEntity
  8
Level 27
  6
Continuous
 62
    40
370
    13
100
AcDbLine
 10
6840.392312
 20
262.611528
 30
0.0
 11
6816.732618
 21
262.611528
 31
0.0
  0
LINE
  5
70066
330
70323
100
AcDbEntity
  8
Level 27
  6
Continuous
 62
    40
370
    13
100
AcDbLine
 10
6840.392312
 20
262.611528
 30
0.0
 11
6840.392312
 21
259.611528
 31
0.0
  0
LINE
  5
70067
330
70323
100
AcDbEntity
  8
Level 27
  6
Continuous
 62
    40
370
    13
100
AcDbLine
 10
6816.732618
 20
262.611528
 30
0.0
 11
6816.732618
 21
259.611528
 31
0.0
  0
ENDBLK
  5
70325
330
70323
100
AcDbEntity
  8
0
 62
    98
370
     0
100
AcDbBlockEnd
  0
BLOCK
  5
70327
330
70326
100
AcDbEntity
  8
0
 62
    98
370
     0
100
AcDbBlockBegin
  2
From Surface_11
 70
     0
 10
0.0
 20
0.0
 30
0.0
  3
From Surface_11
  1

  0
LINE
  5
7006E
330
70326
100
AcDbEntity
  8
Level 27
  6
Continuous
 62
    40
370
    13
100
AcDbLine
 10
6858.562465
 20
259.611528
 30
0.0
 11
6855.862111
 21
259.611528
 31
0.0
  0
LINE
  5
7006F
330
70326
100
AcDbEntity
  8
Level 27
  6
Continuous
 62
    40
370
    13
100
AcDbLine
 10
6858.562465
 20
262.611528
 30
0.0
 11
6855.862111
 21
262.611528
 31
0.0
  0
LINE
  5
70070
330
70326
100
AcDbEntity
  8
Level 27
  6
Continuous
 62
    40
370
    13
100
AcDbLine
 10
6855.862111
 20
262.611528
 30
0.0
 11
6855.862111
 21
259.611528
 31
0.0
  0
LINE
  5
70071
330
70326
100
AcDbEntity
  8
Level 27
  6
Continuous
 62
    40
370
    13
100
AcDbLine
 10
6855.862111
 20
262.611528
 30
0.0
 11
6855.862111
 21
259.611528
 31
0.0
  0
ENDBLK
  5
70328
330
70326
100
AcDbEntity
  8
0
 62
    98
370
     0
100
AcDbBlockEnd
  0
BLOCK
  5
7032A
330
70329
100
AcDbEntity
  8
0
 62
    98
370
     0
100
AcDbBlockBegin
  2
From Surface_12
 70
     0
 10
0.0
 20
0.0
 30
0.0
  3
From Surface_12
  1

  0
LINE
  5
70081
330
70329
100
AcDbEntity
  8
Level 27
  6
Continuous
 62
    40
370
    13
100
AcDbLine
 10
6840.392312
 20
-604.388472
 30
0.0
 11
6816.732618
 21
-604.388472
 31
0.0
  0
LINE
  5
70082
330
70329
100
AcDbEntity
  8
Level 27
  6
Continuous
 62
    40
370
    13
100
AcDbLine
 10
6840.392312
 20
-607.388472
 30
0.0
 11
6816.732618
 21
-607.388472
 31
0.0
  0
LINE
  5
70083
330
70329
100
AcDbEntity
  8
Level 27
  6
Continuous
 62
    40
370
    13
100
AcDbLine
 10
6816.732618
 20
-607.388472
 30
0.0
 11
6816.732618
 21
-604.388472
 31
0.0
  0
LINE
  5
70084
330
70329
100
AcDbEntity
  8
Level 27
  6
Continuous
 62
    40
370
    13
100
AcDbLine
 10
6840.392312
 20
-607.388472
 30
0.0
 11
6840.392312
 21
-604.388472
 31
0.0
  0
ENDBLK
  5
7032B
330
70329
100
AcDbEntity
  8
0
 62
    98
370
     0
100
AcDbBlockEnd
  0
BLOCK
  5
7032D
330
7032C
100
AcDbEntity
  8
0
 62
    98
370
     0
100
AcDbBlockBegin
  2
From Surface_13
 70
     0
 10
0.0
 20
0.0
 30
0.0
  3
From Surface_13
  1

  0
LINE
  5
7008B
330
7032C
100
AcDbEntity
  8
Level 27
  6
Continuous
 62
    40
370
    13
100
AcDbLine
 10
6801.262819
 20
-604.388472
 30
0.0
 11
6798.562465
 21
-604.388472
 31
0.0
  0
LINE
  5
7008C
330
7032C
100
AcDbEntity
  8
Level 27
  6
Continuous
 62
    40
370
    13
100
AcDbLine
 10
6801.262819
 20
-607.388472
 30
0.0
 11
6798.562465
 21
-607.388472
 31
0.0
  0
LINE
  5
7008D
330
7032C
100
AcDbEntity
  8
Level 27
  6
Continuous
 62
    40
370
    13
100
AcDbLine
 10
6801.262819
 20
-607.388472
 30
0.0
 11
6801.262819
 21
-604.388472
 31
0.0
  0
LINE
  5
7008E
330
7032C
100
AcDbEntity
  8
Level 27
  6
Continuous
 62
    40
370
    13
100
AcDbLine
 10
6801.262819
 20
-607.388472
 30
0.0
 11
6801.262819
 21
-604.388472
 31
0.0
  0
ENDBLK
  5
7032E
330
7032C
100
AcDbEntity
  8
0
 62
    98
370
     0
100
AcDbBlockEnd
  0
BLOCK
  5
70330
330
7032F
100
AcDbEntity
  8
0
 62
    98
370
     0
100
AcDbBlockBegin
  2
From Surface_14
 70
     0
 10
0.0
 20
0.0
 30
0.0
  3
From Surface_14
  1

  0
LINE
  5
70095
330
7032F
100
AcDbEntity
  8
Level 27
  6
Continuous
 62
    40
370
    13
100
AcDbLine
 10
6840.392312
 20
-604.388472
 30
0.0
 11
6816.732618
 21
-604.388472
 31
0.0
  0
LINE
  5
70096
330
7032F
100
AcDbEntity
  8
Level 27
  6
Continuous
 62
    40
370
    13
100
AcDbLine
 10
6840.392312
 20
-607.388472
 30
0.0
 11
6816.732618
 21
-607.388472
 31
0.0
  0
LINE
  5
70097
330
7032F
100
AcDbEntity
  8
Level 27
  6
Continuous
 62
    40
370
    13
100
AcDbLine
 10
6840.392312
 20
-607.388472
 30
0.0
 11
6840.392312
 21
-604.388472
 31
0.0
  0
LINE
  5
70098
330
7032F
100
AcDbEntity
  8
Level 27
  6
Continuous
 62
    40
370
    13
100
AcDbLine
 10
6816.732618
 20
-607.388472
 30
0.0
 11
6816.732618
 21
-604.388472
 31
0.0
  0
ENDBLK
  5
70331
330
7032F
100
AcDbEntity
  8
0
 62
    98
370
     0
100
AcDbBlockEnd
  0
BLOCK
  5
70333
330
70332
100
AcDbEntity
  8
0
 62
    98
370
     0
100
AcDbBlockBegin
  2
From Surface_15
 70
     0
 10
0.0
 20
0.0
 30
0.0
  3
From Surface_15
  1

  0
LINE
  5
7009F
330
70332
100
AcDbEntity
  8
Level 27
  6
Continuous
 62
    40
370
    13
100
AcDbLine
 10
6858.562465
 20
-604.388472
 30
0.0
 11
6855.862111
 21
-604.388472
 31
0.0
  0
LINE
  5
700A0
330
70332
100
AcDbEntity
  8
Level 27
  6
Continuous
 62
    40
370
    13
100
AcDbLine
 10
6858.562465
 20
-607.388472
 30
0.0
 11
6855.862111
 21
-607.388472
 31
0.0
  0
LINE
  5
700A1
330
70332
100
AcDbEntity
  8
Level 27
  6
Continuous
 62
    40
370
    13
100
AcDbLine
 10
6855.862111
 20
-607.388472
 30
0.0
 11
6855.862111
 21
-604.388472
 31
0.0
  0
LINE
  5
700A2
330
70332
100
AcDbEntity
  8
Level 27
  6
Continuous
 62
    40
370
    13
100
AcDbLine
 10
6855.862111
 20
-607.388472
 30
0.0
 11
6855.862111
 21
-604.388472
 31
0.0
  0
ENDBLK
  5
70334
330
70332
100
AcDbEntity
  8
0
 62
    98
370
     0
100
AcDbBlockEnd
  0
BLOCK
  5
70336
330
70335
100
AcDbEntity
  8
0
 62
    98
370
     0
100
AcDbBlockBegin
  2
Feature Solid_18
 70
     0
 10
0.0
 20
0.0
 30
0.0
  3
Feature Solid_18
  1

  0
INSERT
  5
700B2
330
70335
100
AcDbEntity
  8
Level 26
  6
Continuous
 62
     7
370
    13
100
AcDbBlockReference
  2
CONE_1
 10
-6947.9915
 20
-13714.1335
 30
0.0
  0
ENDBLK
  5
70337
330
70335
100
AcDbEntity
  8
0
 62
    98
370
     0
100
AcDbBlockEnd
  0
BLOCK
  5
70339
330
70338
100
AcDbEntity
  8
0
 62
    98
370
     0
100
AcDbBlockBegin
  2
CONE_1
 70
     0
 10
0.0
 20
0.0
 30
0.0
  3
CONE_1
  1

  0
LINE
  5
700B3
330
70338
100
AcDbEntity
  8
Level 26
  6
Continuous
 62
     7
370
    13
100
AcDbLine
 10
6892.991388
 20
13694.133899
 30
0.0
 11
7002.991388
 21
13694.133899
 31
0.0
  0
LINE
  5
700B4
330
70338
100
AcDbEntity
  8
Level 26
  6
Continuous
 62
     7
370
    13
100
AcDbLine
 10
7002.991388
 20
13734.133899
 30
0.0
 11
6892.991388
 21
13734.133899
 31
0.0
  0
LINE
  5
700B5
330
70338
100
AcDbEntity
  8
Level 26
  6
Continuous
 62
     7
370
    13
100
AcDbLine
 10
7002.991388
 20
13734.133899
 30
0.0
 11
7002.991388
 21
13694.133899
 31
0.0
  0
LINE
  5
700B6
330
70338
100
AcDbEntity
  8
Level 26
  6
Continuous
 62
     7
370
    13
100
AcDbLine
 10
6947.991388
 20
13734.133899
 30
0.0
 11
6947.991388
 21
13694.133899
 31
0.0
  0
LINE
  5
700B7
330
70338
100
AcDbEntity
  8
Level 26
  6
Continuous
 62
     7
370
    13
100
AcDbLine
 10
6892.991388
 20
13734.133899
 30
0.0
 11
6892.991388
 21
13694.133899
 31
0.0
  0
LINE
  5
700B8
330
70338
100
AcDbEntity
  8
Level 26
  6
Continuous
 62
     7
370
    13
100
AcDbLine
 10
6947.991388
 20
13734.133899
 30
0.0
 11
6947.991388
 21
13694.133899
 31
0.0
  0
ENDBLK
  5
7033A
330
70338
100
AcDbEntity
  8
0
 62
    98
370
     0
100
AcDbBlockEnd
  0
ENDSEC
  0
SECTION
  2
ENTITIES
  0
INSERT
  5
6FDA4
330
701B8
100
AcDbEntity
  8
Level 26
  6
Continuous
 62
    25
370
    13
100
AcDbBlockReference
  2
FS30
 10
3523.062463
 20
-172.388472
 30
0.0
 50
90.0
  0
LWPOLYLINE
  5
700F8
330
701B8
100
AcDbEntity
  8
Level 15
  6
DGN Style 2
 62
     7
370
    13
100
AcDbPolyline
 90
        9
 70
   129
 43
0.0
 10
173.062463
 20
-2172.388472
 42
-0.414214
 10
-1326.937537
 20
-672.388472
 10
-1326.937537
 20
327.611528
 42
-0.414214
 10
173.062463
 20
1827.611528
 10
6873.062463
 20
1827.611528
 42
-0.414214
 10
8373.062463
 20
327.611528
 10
8373.062463
 20
-672.388472
 42
-0.414214
 10
6873.062463
 20
-2172.388472
 10
173.062463
 20
-2172.388472
  0
ENDSEC
  0
SECTION
  2
OBJECTS
  0
DICTIONARY
  5
701BF
330
0
100
AcDbDictionary
281
     1
  3
ACAD_COLOR
350
701FD
  3
ACAD_GROUP
350
701EA
  3
ACAD_LAYOUT
350
701CC
  3
ACAD_MATERIAL
350
701C1
  3
ACAD_MLEADERSTYLE
350
70200
  3
ACAD_MLINESTYLE
350
701EB
  3
ACAD_PLOTSETTINGS
350
701EC
  3
ACAD_PLOTSTYLENAME
350
701BE
  3
ACAD_SCALELIST
350
701FE
  3
ACAD_TABLESTYLE
350
701FF
  3
ACAD_VISUALSTYLE
350
701E4
  3
ACDB_RECOMPOSE_DATA
350
70349
  3
AcDbVariableDictionary
350
7033F
  0
DICTIONARY
  5
701D7
330
701D6
100
AcDbDictionary
280
     1
281
     1
  3
ACAD_LAYERFILTERS
360
7022A
  3
ACAD_LAYERSTATES
360
701D8
  3
ACLYDICTIONARY
360
7022B
  0
DICTIONARY
  5
701BB
330
701BA
100
AcDbDictionary
280
     1
281
     1
  3
ADSK_XREC_LAYER_RECONCILED
360
701BC
  0
DICTIONARY
  5
7033B
330
7024B
100
AcDbDictionary
280
     1
281
     1
  3
ACAD_SORTENTS
360
7033C
  0
DICTIONARY
  5
701FD
102
{ACAD_REACTORS
330
701BF
102
}
330
701BF
100
AcDbDictionary
281
     1
  0
DICTIONARY
  5
701EA
102
{ACAD_REACTORS
330
701BF
102
}
330
701BF
100
AcDbDictionary
281
     1
  0
DICTIONARY
  5
701CC
102
{ACAD_REACTORS
330
701BF
102
}
330
701BF
100
AcDbDictionary
281
     1
  3
Layout1
350
701D2
  3
Model
350
701CB
  0
DICTIONARY
  5
701C1
102
{ACAD_REACTORS
330
701BF
102
}
330
701BF
100
AcDbDictionary
281
     1
  3
ByBlock
350
701F5
  3
ByLayer
350
701ED
  3
Global
350
701C0
  0
DICTIONARY
  5
70200
102
{ACAD_REACTORS
330
701BF
102
}
330
701BF
100
AcDbDictionary
281
     1
  0
DICTIONARY
  5
701EB
102
{ACAD_REACTORS
330
701BF
102
}
330
701BF
100
AcDbDictionary
281
     1
  3
Standard
350
70201
  0
DICTIONARY
  5
701EC
102
{ACAD_REACTORS
330
701BF
102
}
330
701BF
100
AcDbDictionary
281
     1
  0
ACDBDICTIONARYWDFLT
  5
701BE
102
{ACAD_REACTORS
330
701BF
102
}
330
701BF
100
AcDbDictionary
281
     1
  3
Normal
350
701BD
100
AcDbDictionaryWithDefault
340
701BD
  0
DICTIONARY
  5
701FE
102
{ACAD_REACTORS
330
701BF
102
}
330
701BF
100
AcDbDictionary
281
     1
  3
A0
350
70206
  3
A1
350
70207
  3
A2
350
70208
  3
A3
350
70209
  3
A4
350
7020A
  3
A5
350
7020B
  3
A6
350
7020C
  3
A7
350
7020D
  3
A8
350
7020E
  3
A9
350
7020F
  3
B0
350
70210
  3
B1
350
70211
  3
B2
350
70212
  3
B3
350
70213
  3
B4
350
70214
  3
B5
350
70215
  3
B6
350
70216
  3
B7
350
70217
  3
B8
350
70218
  3
B9
350
70219
  3
C0
350
7021A
  3
C1
350
7021B
  3
C2
350
7021C
  3
C3
350
7021D
  3
C4
350
7021E
  3
C5
350
7021F
  3
C6
350
70220
  3
C7
350
70221
  3
C8
350
70222
  3
C9
350
70223
  3
D0
350
70224
  3
D1
350
70225
  3
D2
350
70226
  0
DICTIONARY
  5
701FF
102
{ACAD_REACTORS
330
701BF
102
}
330
701BF
100
AcDbDictionary
281
     1
  3
Standard
350
70202
  0
DICTIONARY
  5
701E4
102
{ACAD_REACTORS
330
701BF
102
}
330
701BF
100
AcDbDictionary
281
     1
  3
2dWireframe
350
701E3
  3
Realistic
350
70204
  3
Wireframe
350
70205
  0
XRECORD
  5
70349
102
{ACAD_REACTORS
330
701BF
102
}
330
701BF
100
AcDbXrecord
280
     1
 90
        1
330
70202
  0
DICTIONARY
  5
7033F
102
{ACAD_REACTORS
330
701BF
102
}
330
701BF
100
AcDbDictionary
281
     1
  3
CANNOSCALE
350
70345
  3
CMLEADERSTYLE
350
70341
  3
CTABLESTYLE
350
70340
  3
CVIEWDETAILSTYLE
350
70342
  3
CVIEWSECTIONSTYLE
350
70343
  3
LAYEREVAL
350
70346
  3
LAYERNOTIFY
350
70347
  3
MSLTSCALE
350
70344
  0
DICTIONARY
  5
7022A
102
{ACAD_REACTORS
330
701D7
102
}
330
701D7
100
AcDbDictionary
281
     1
  0
DICTIONARY
  5
701D8
102
{ACAD_REACTORS
330
701D7
102
}
330
701D7
100
AcDbDictionary
281
     1
  0
DICTIONARY
  5
7022B
102
{ACAD_REACTORS
330
701D7
102
}
330
701D7
100
AcDbDictionary
281
     1
  0
XRECORD
  5
701BC
102
{ACAD_REACTORS
330
701BB
102
}
330
701BB
100
AcDbXrecord
280
     1
290
     1
  0
SORTENTSTABLE
  5
7033C
102
{ACAD_REACTORS
330
7033B
102
}
330
7033B
100
AcDbSortentsTable
330
7024B
331
7000E
  5
70072
331
700BE
  5
700E2
331
70004
  5
7005E
331
700CE
  5
70197
331
700BC
  5
700E0
331
700CC
  5
70191
331
700BA
  5
700DA
331
6FF3B
  5
6FF52
331
700CA
  5
7018F
331
700C8
  5
700E8
331
6FFFA
  5
70044
331
700E7
  5
701B4
331
700A8
  5
700D7
331
700E5
  5
701B2
331
701AF
  5
700C0
331
6FF1D
  5
6FF36
331
700E3
  5
701B0
331
701B5
  5
700D5
331
700E1
  5
701AE
331
701B3
  5
700CD
331
6FE00
  5
6FE33
331
701B1
  5
700C8
331
701A9
  5
700BD
331
7003F
  5
700BA
331
7019E
  5
70054
331
6FFF0
  5
70035
331
7002B
  5
700A3
331
7019C
  5
7002B
331
6FF13
  5
6FF2C
331
70035
  5
700B1
331
6FF09
  5
6FF1D
331
6FEED
  5
6FF0E
331
6FDB0
  5
6FDB0
331
6FE9A
  5
6FEC5
331
70021
  5
7008F
331
6FDA8
  5
6FDA8
331
6FE33
  5
6FE66
331
701A3
  5
700B9
331
6FDA6
  5
6FDA6
331
701A1
  5
70099
331
700DB
  5
701A4
331
6FF4A
  5
6FFF0
331
70072
  5
700C9
331
700D9
  5
701A2
331
7005E
  5
700C1
331
70197
  5
70021
331
6FF52
  5
6FFFA
331
700C7
  5
700E7
331
6FF36
  5
6FF4A
331
700D7
  5
701A0
331
700D5
  5
7019E
331
70013
  5
70077
331
700D3
  5
7019C
331
70191
  5
6FF13
331
700C1
  5
700E5
331
7018F
  5
6FEEC
331
70068
  5
700C7
331
700BF
  5
700E3
331
6FF40
  5
6FFD9
331
6FE76
  5
6FE9A
331
700BD
  5
700E1
331
6FF2C
  5
6FF40
331
700CD
  5
70192
331
700BB
  5
700DB
331
700CB
  5
70190
331
700B9
  5
700D9
331
6FE66
  5
6FE76
331
700C9
  5
7018E
331
70054
  5
700BF
331
700E8
  5
701B5
331
700E6
  5
701B3
331
700E4
  5
701B1
331
701AE
  5
700BE
331
70044
  5
700BB
331
6FEC5
  5
6FEED
331
6FDCD
  5
6FE00
331
700E2
  5
701AF
331
700A3
  5
700D6
331
701B4
  5
700D3
331
700E0
  5
701A9
331
701B2
  5
700CB
331
7019F
  5
70068
331
6FF22
  5
6FF3B
331
6FF18
  5
6FF31
331
700B1
  5
700D8
331
701B0
  5
700C6
331
7019D
  5
7003F
331
6FF04
  5
6FF18
331
6FFE1
  5
7000E
331
6FDBB
  5
6FDBB
331
70099
  5
700D4
331
7008F
  5
700CE
331
6FF0E
  5
6FF22
331
6FFD9
  5
70004
331
6FEEC
  5
6FF09
331
70085
  5
700CC
331
6FDA9
  5
6FDA9
331
70077
  5
700CA
331
701A4
  5
700BC
331
6FDA7
  5
6FDA7
331
701A2
  5
700A8
331
6FDA5
  5
6FDA5
331
700DA
  5
701A3
331
701A0
  5
70085
331
700D8
  5
701A1
331
700C6
  5
700E6
331
700D6
  5
7019F
331
6FF45
  5
6FFE1
331
700D4
  5
7019D
331
70192
  5
70013
331
6FF31
  5
6FF45
331
70190
  5
6FF04
331
700C0
  5
700E4
331
7018E
  5
6FDCD
  0
LAYOUT
  5
701D2
102
{ACAD_XDICTIONARY
360
701D3
102
}
102
{ACAD_REACTORS
330
701CC
102
}
330
701CC
100
AcDbPlotSettings
  1

  2
none_device
  4
Letter_(8.50_x_11.00_Inches)
  6

 40
6.35
 41
6.35
 42
6.350006
 43
6.350006
 44
215.899994
 45
279.399994
 46
0.0
 47
0.0
 48
0.0
 49
0.0
140
0.0
141
0.0
142
1.0
143
1.0
 70
   688
 72
     0
 73
     1
 74
     5
  7

 75
    16
147
1.0
 76
     0
 77
     2
 78
   300
148
0.0
149
0.0
100
AcDbLayout
  1
Layout1
 70
     1
 71
     1
 10
-0.25
 20
-0.25
 11
10.75
 21
8.25
 12
0.0
 22
0.0
 32
0.0
 14
1.05
 24
0.8
 34
0.0
 15
9.45
 25
7.2
 35
0.0
146
0.0
 13
0.0
 23
0.0
 33
0.0
 16
1.0
 26
0.0
 36
0.0
 17
0.0
 27
1.0
 37
0.0
 76
     0
330
701CF
1001
ACAD_PSEXT
1000
None
1000
None
1000
Not applicable
1000
The layout will not be plotted unless a new plotter configuration name is selected.
1070
     0
  0
LAYOUT
  5
701CB
102
{ACAD_XDICTIONARY
360
701CD
102
}
102
{ACAD_REACTORS
330
701CC
102
}
330
701CC
100
AcDbPlotSettings
  1

  2
none_device
  4
ANSI_A_(8.50_x_11.00_Inches)
  6

 40
6.35
 41
19.049999
 42
6.350006
 43
19.049988
 44
215.899994
 45
279.399994
 46
0.0
 47
0.0
 48
0.0
 49
0.0
140
0.0
141
0.0
142
1.0
143
2.584895
 70
 11952
 72
     0
 73
     1
 74
     0
  7

 75
     0
147
0.386863
 76
     0
 77
     2
 78
   300
148
0.0
149
0.0
100
AcDbLayout
  1
Model
 70
     1
 71
     0
 10
0.0
 20
0.0
 11
12.0
 21
9.0
 12
0.0
 22
0.0
 32
0.0
 14
0.0
 24
0.0
 34
0.0
 15
0.0
 25
0.0
 35
0.0
146
0.0
 13
0.0
 23
0.0
 33
0.0
 16
1.0
 26
0.0
 36
0.0
 17
0.0
 27
1.0
 37
0.0
 76
     0
330
701B8
331
701E2
  0
MATERIAL
  5
701F5
102
{ACAD_XDICTIONARY
360
701F6
102
}
102
{ACAD_REACTORS
330
701C1
102
}
330
701C1
100
AcDbMaterial
  1
ByBlock
 72
     0
 43
0.020833
 43
0.0
 43
0.0
 43
0.0
 43
0.0
 43
0.020833
 43
0.0
 43
0.0
 43
0.0
 43
0.0
 43
1.0
 43
0.0
 43
0.0
 43
0.0
 43
0.0
 43
1.0
 77
     0
 47
0.020833
 47
0.0
 47
0.0
 47
0.0
 47
0.0
 47
0.020833
 47
0.0
 47
0.0
 47
0.0
 47
0.0
 47
1.0
 47
0.0
 47
0.0
 47
0.0
 47
0.0
 47
1.0
171
     0
 49
0.020833
 49
0.0
 49
0.0
 49
0.0
 49
0.0
 49
0.020833
 49
0.0
 49
0.0
 49
0.0
 49
0.0
 49
1.0
 49
0.0
 49
0.0
 49
0.0
 49
0.0
 49
1.0
175
     0
142
0.020833
142
0.0
142
0.0
142
0.0
142
0.0
142
0.020833
142
0.0
142
0.0
142
0.0
142
0.0
142
1.0
142
0.0
142
0.0
142
0.0
142
0.0
142
1.0
179
     0
144
0.020833
144
0.0
144
0.0
144
0.0
144
0.0
144
0.020833
144
0.0
144
0.0
144
0.0
144
0.0
144
1.0
144
0.0
144
0.0
144
0.0
144
0.0
144
1.0
147
0.020833
147
0.0
147
0.0
147
0.0
147
0.0
147
0.020833
147
0.0
147
0.0
147
0.0
147
0.0
147
1.0
147
0.0
147
0.0
147
0.0
147
0.0
147
1.0
  0
MATERIAL
  5
701ED
102
{ACAD_XDICTIONARY
360
701EE
102
}
102
{ACAD_REACTORS
330
701C1
102
}
330
701C1
100
AcDbMaterial
  1
ByLayer
 72
     0
 43
0.020833
 43
0.0
 43
0.0
 43
0.0
 43
0.0
 43
0.020833
 43
0.0
 43
0.0
 43
0.0
 43
0.0
 43
1.0
 43
0.0
 43
0.0
 43
0.0
 43
0.0
 43
1.0
 77
     0
 47
0.020833
 47
0.0
 47
0.0
 47
0.0
 47
0.0
 47
0.020833
 47
0.0
 47
0.0
 47
0.0
 47
0.0
 47
1.0
 47
0.0
 47
0.0
 47
0.0
 47
0.0
 47
1.0
171
     0
 49
0.020833
 49
0.0
 49
0.0
 49
0.0
 49
0.0
 49
0.020833
 49
0.0
 49
0.0
 49
0.0
 49
0.0
 49
1.0
 49
0.0
 49
0.0
 49
0.0
 49
0.0
 49
1.0
175
     0
142
0.020833
142
0.0
142
0.0
142
0.0
142
0.0
142
0.020833
142
0.0
142
0.0
142
0.0
142
0.0
142
1.0
142
0.0
142
0.0
142
0.0
142
0.0
142
1.0
179
     0
144
0.020833
144
0.0
144
0.0
144
0.0
144
0.0
144
0.020833
144
0.0
144
0.0
144
0.0
144
0.0
144
1.0
144
0.0
144
0.0
144
0.0
144
0.0
144
1.0
147
0.020833
147
0.0
147
0.0
147
0.0
147
0.0
147
0.020833
147
0.0
147
0.0
147
0.0
147
0.0
147
1.0
147
0.0
147
0.0
147
0.0
147
0.0
147
1.0
  0
MATERIAL
  5
701C0
102
{ACAD_XDICTIONARY
360
701C2
102
}
102
{ACAD_REACTORS
330
701C1
102
}
330
701C1
100
AcDbMaterial
  1
Global
 72
     0
 43
0.020833
 43
0.0
 43
0.0
 43
0.0
 43
0.0
 43
0.020833
 43
0.0
 43
0.0
 43
0.0
 43
0.0
 43
1.0
 43
0.0
 43
0.0
 43
0.0
 43
0.0
 43
1.0
 77
     0
 47
0.020833
 47
0.0
 47
0.0
 47
0.0
 47
0.0
 47
0.020833
 47
0.0
 47
0.0
 47
0.0
 47
0.0
 47
1.0
 47
0.0
 47
0.0
 47
0.0
 47
0.0
 47
1.0
171
     0
 49
0.020833
 49
0.0
 49
0.0
 49
0.0
 49
0.0
 49
0.020833
 49
0.0
 49
0.0
 49
0.0
 49
0.0
 49
1.0
 49
0.0
 49
0.0
 49
0.0
 49
0.0
 49
1.0
175
     0
142
0.020833
142
0.0
142
0.0
142
0.0
142
0.0
142
0.020833
142
0.0
142
0.0
142
0.0
142
0.0
142
1.0
142
0.0
142
0.0
142
0.0
142
0.0
142
1.0
179
     0
144
0.020833
144
0.0
144
0.0
144
0.0
144
0.0
144
0.020833
144
0.0
144
0.0
144
0.0
144
0.0
144
1.0
144
0.0
144
0.0
144
0.0
144
0.0
144
1.0
147
0.020833
147
0.0
147
0.0
147
0.0
147
0.0
147
0.020833
147
0.0
147
0.0
147
0.0
147
0.0
147
1.0
147
0.0
147
0.0
147
0.0
147
0.0
147
1.0
  0
MLINESTYLE
  5
70201
102
{ACAD_REACTORS
330
701EB
102
}
330
701EB
100
AcDbMlineStyle
  2
STANDARD
 70
     0
  3

 62
   256
 51
90.0
 52
90.0
 71
     2
 49
0.5
 62
   256
  6
BYLAYER
 49
-0.5
 62
   256
  6
BYLAYER
  0
ACDBPLACEHOLDER
  5
701BD
102
{ACAD_REACTORS
330
701BE
102
}
330
701BE
  0
SCALE
  5
70206
102
{ACAD_REACTORS
330
701FE
102
}
330
701FE
100
AcDbScale
 70
     0
300
1:1
140
1.0
141
1.0
290
     1
  0
SCALE
  5
70207
102
{ACAD_REACTORS
330
701FE
102
}
330
701FE
100
AcDbScale
 70
     0
300
1:2
140
1.0
141
2.0
290
     0
  0
SCALE
  5
70208
102
{ACAD_REACTORS
330
701FE
102
}
330
701FE
100
AcDbScale
 70
     0
300
1:4
140
1.0
141
4.0
290
     0
  0
SCALE
  5
70209
102
{ACAD_REACTORS
330
701FE
102
}
330
701FE
100
AcDbScale
 70
     0
300
1:5
140
1.0
141
5.0
290
     0
  0
SCALE
  5
7020A
102
{ACAD_REACTORS
330
701FE
102
}
330
701FE
100
AcDbScale
 70
     0
300
1:8
140
1.0
141
8.0
290
     0
  0
SCALE
  5
7020B
102
{ACAD_REACTORS
330
701FE
102
}
330
701FE
100
AcDbScale
 70
     0
300
1:10
140
1.0
141
10.0
290
     0
  0
SCALE
  5
7020C
102
{ACAD_REACTORS
330
701FE
102
}
330
701FE
100
AcDbScale
 70
     0
300
1:16
140
1.0
141
16.0
290
     0
  0
SCALE
  5
7020D
102
{ACAD_REACTORS
330
701FE
102
}
330
701FE
100
AcDbScale
 70
     0
300
1:20
140
1.0
141
20.0
290
     0
  0
SCALE
  5
7020E
102
{ACAD_REACTORS
330
701FE
102
}
330
701FE
100
AcDbScale
 70
     0
300
1:30
140
1.0
141
30.0
290
     0
  0
SCALE
  5
7020F
102
{ACAD_REACTORS
330
701FE
102
}
330
701FE
100
AcDbScale
 70
     0
300
1:40
140
1.0
141
40.0
290
     0
  0
SCALE
  5
70210
102
{ACAD_REACTORS
330
701FE
102
}
330
701FE
100
AcDbScale
 70
     0
300
1:50
140
1.0
141
50.0
290
     0
  0
SCALE
  5
70211
102
{ACAD_REACTORS
330
701FE
102
}
330
701FE
100
AcDbScale
 70
     0
300
1:100
140
1.0
141
100.0
290
     0
  0
SCALE
  5
70212
102
{ACAD_REACTORS
330
701FE
102
}
330
701FE
100
AcDbScale
 70
     0
300
2:1
140
2.0
141
1.0
290
     0
  0
SCALE
  5
70213
102
{ACAD_REACTORS
330
701FE
102
}
330
701FE
100
AcDbScale
 70
     0
300
4:1
140
4.0
141
1.0
290
     0
  0
SCALE
  5
70214
102
{ACAD_REACTORS
330
701FE
102
}
330
701FE
100
AcDbScale
 70
     0
300
8:1
140
8.0
141
1.0
290
     0
  0
SCALE
  5
70215
102
{ACAD_REACTORS
330
701FE
102
}
330
701FE
100
AcDbScale
 70
     0
300
10:1
140
10.0
141
1.0
290
     0
  0
SCALE
  5
70216
102
{ACAD_REACTORS
330
701FE
102
}
330
701FE
100
AcDbScale
 70
     0
300
100:1
140
100.0
141
1.0
290
     0
  0
SCALE
  5
70217
102
{ACAD_REACTORS
330
701FE
102
}
330
701FE
100
AcDbScale
 70
     0
300
1/128" = 1'-0"
140
0.007813
141
12.0
290
     0
  0
SCALE
  5
70218
102
{ACAD_REACTORS
330
701FE
102
}
330
701FE
100
AcDbScale
 70
     0
300
1/64" = 1'-0"
140
0.015625
141
12.0
290
     0
  0
SCALE
  5
70219
102
{ACAD_REACTORS
330
701FE
102
}
330
701FE
100
AcDbScale
 70
     0
300
1/32" = 1'-0"
140
0.03125
141
12.0
290
     0
  0
SCALE
  5
7021A
102
{ACAD_REACTORS
330
701FE
102
}
330
701FE
100
AcDbScale
 70
     0
300
1/16" = 1'-0"
140
0.0625
141
12.0
290
     0
  0
SCALE
  5
7021B
102
{ACAD_REACTORS
330
701FE
102
}
330
701FE
100
AcDbScale
 70
     0
300
3/32" = 1'-0"
140
0.09375
141
12.0
290
     0
  0
SCALE
  5
7021C
102
{ACAD_REACTORS
330
701FE
102
}
330
701FE
100
AcDbScale
 70
     0
300
1/8" = 1'-0"
140
0.125
141
12.0
290
     0
  0
SCALE
  5
7021D
102
{ACAD_REACTORS
330
701FE
102
}
330
701FE
100
AcDbScale
 70
     0
300
3/16" = 1'-0"
140
0.1875
141
12.0
290
     0
  0
SCALE
  5
7021E
102
{ACAD_REACTORS
330
701FE
102
}
330
701FE
100
AcDbScale
 70
     0
300
1/4" = 1'-0"
140
0.25
141
12.0
290
     0
  0
SCALE
  5
7021F
102
{ACAD_REACTORS
330
701FE
102
}
330
701FE
100
AcDbScale
 70
     0
300
3/8" = 1'-0"
140
0.375
141
12.0
290
     0
  0
SCALE
  5
70220
102
{ACAD_REACTORS
330
701FE
102
}
330
701FE
100
AcDbScale
 70
     0
300
1/2" = 1'-0"
140
0.5
141
12.0
290
     0
  0
SCALE
  5
70221
102
{ACAD_REACTORS
330
701FE
102
}
330
701FE
100
AcDbScale
 70
     0
300
3/4" = 1'-0"
140
0.75
141
12.0
290
     0
  0
SCALE
  5
70222
102
{ACAD_REACTORS
330
701FE
102
}
330
701FE
100
AcDbScale
 70
     0
300
1" = 1'-0"
140
1.0
141
12.0
290
     0
  0
SCALE
  5
70223
102
{ACAD_REACTORS
330
701FE
102
}
330
701FE
100
AcDbScale
 70
     0
300
1-1/2" = 1'-0"
140
1.5
141
12.0
290
     0
  0
SCALE
  5
70224
102
{ACAD_REACTORS
330
701FE
102
}
330
701FE
100
AcDbScale
 70
     0
300
3" = 1'-0"
140
3.0
141
12.0
290
     0
  0
SCALE
  5
70225
102
{ACAD_REACTORS
330
701FE
102
}
330
701FE
100
AcDbScale
 70
     0
300
6" = 1'-0"
140
6.0
141
12.0
290
     0
  0
SCALE
  5
70226
102
{ACAD_REACTORS
330
701FE
102
}
330
701FE
100
AcDbScale
 70
     0
300
1'-0" = 1'-0"
140
12.0
141
12.0
290
     0
  0
TABLESTYLE
  5
70202
102
{ACAD_XDICTIONARY
360
70203
102
}
102
{ACAD_REACTORS
330
701FF
102
}
330
701FF
100
AcDbTableStyle
280
     0
  3
Standard
 70
     0
 71
     0
 40
0.06
 41
0.06
280
     0
281
     0
  7
Standard
140
0.18
170
     2
 62
     0
 63
     7
283
     0
 90
        4
 91
        0
  1

274
    -2
284
     1
 64
     0
275
    -2
285
     1
 65
     0
276
    -2
286
     1
 66
     0
277
    -2
287
     1
 67
     0
278
    -2
288
     1
 68
     0
279
    -2
289
     1
 69
     0
  7
Standard
140
0.25
170
     5
 62
     0
 63
     7
283
     0
 90
        4
 91
        0
  1

274
    -2
284
     1
 64
     0
275
    -2
285
     1
 65
     0
276
    -2
286
     1
 66
     0
277
    -2
287
     1
 67
     0
278
    -2
288
     1
 68
     0
279
    -2
289
     1
 69
     0
  7
Standard
140
0.18
170
     5
 62
     0
 63
     7
283
     0
 90
        4
 91
        0
  1

274
    -2
284
     1
 64
     0
275
    -2
285
     1
 65
     0
276
    -2
286
     1
 66
     0
277
    -2
287
     1
 67
     0
278
    -2
288
     1
 68
     0
279
    -2
289
     1
 69
     0
  0
VISUALSTYLE
  5
701E3
102
{ACAD_REACTORS
330
701E4
102
}
330
701E4
100
AcDbVisualStyle
  2
2dWireframe
 70
     4
177
     3
291
     0
 70
    58
 90
        0
176
     1
 90
        2
176
     1
 90
        0
176
     1
 90
        0
176
     1
 40
0.6
176
     1
 40
30.0
176
     1
 62
     7
420
 16777215
176
     1
 90
        1
176
     1
 90
        4
176
     1
 62
     7
176
     1
 62
   257
176
     1
 90
        1
176
     1
 90
        1
176
     1
 40
1.0
176
     1
 90
        0
176
     1
 62
   257
176
     1
 40
1.0
176
     1
 90
        1
176
     1
 90
        6
176
     1
 90
        2
176
     1
 62
     7
176
     1
 90
        5
176
     1
 90
        0
176
     1
 90
        0
176
     1
290
     0
176
     1
 90
        1
176
     1
 40
0.0
176
     1
 90
        0
176
     1
290
     1
176
     1
290
     1
176
     1
290
     0
176
     1
290
     0
176
     1
290
     0
176
     1
290
     0
176
     1
290
     0
176
     1
290
     0
176
     1
290
     0
176
     1
 90
       50
176
     1
 40
0.0
176
     1
 40
1.0
176
     1
 90
        0
176
     1
 62
    18
420
        0
176
     1
 90
       50
176
     1
 90
        3
176
     1
 62
     5
420
      255
176
     1
290
     0
176
     1
 90
       50
176
     1
 90
       50
176
     1
 90
       50
176
     1
290
     0
176
     1
 90
       50
176
     1
 62
   256
176
     0
 40
1.0
176
     0
 90
        2
176
     1
  1
strokes_ogs.tif
176
     1
290
     0
176
     1
 40
1.0
176
     1
 40
1.0
176
     1
  0
VISUALSTYLE
  5
70204
102
{ACAD_REACTORS
330
701E4
102
}
330
701E4
100
AcDbVisualStyle
  2
Realistic
 70
     8
177
     3
291
     0
 70
    58
 90
        2
176
     1
 90
        2
176
     1
 90
        0
176
     1
 90
        0
176
     1
 40
0.6
176
     1
 40
30.0
176
     1
 62
     7
420
 16777215
176
     1
 90
        1
176
     1
 90
        0
176
     1
 62
     7
176
     1
 62
   257
176
     1
 90
        1
176
     1
 90
        1
176
     1
 40
1.0
176
     1
 90
        8
176
     1
 62
     8
420
  7895160
176
     1
 40
1.0
176
     1
 90
        1
176
     1
 90
        6
176
     1
 90
        2
176
     1
 62
     7
176
     1
 90
        5
176
     1
 90
        0
176
     1
 90
        0
176
     1
290
     0
176
     1
 90
       13
176
     1
 40
0.0
176
     1
 90
        0
176
     1
290
     0
176
     1
290
     1
176
     1
290
     1
176
     1
290
     0
176
     1
290
     0
176
     1
290
     0
176
     1
290
     0
176
     1
290
     0
176
     1
290
     0
176
     1
 90
       50
176
     1
 40
0.0
176
     1
 40
1.0
176
     1
 90
        0
176
     1
 62
    18
420
        0
176
     1
 90
       50
176
     1
 90
        3
176
     1
 62
     5
420
      255
176
     1
290
     0
176
     1
 90
       50
176
     1
 90
       50
176
     1
 90
       50
176
     1
290
     0
176
     1
 90
       50
176
     1
 62
   256
176
     0
 40
1.0
176
     0
 90
        2
176
     1
  1
strokes_ogs.tif
176
     1
290
     0
176
     1
 40
1.0
176
     1
 40
1.0
176
     1
  0
VISUALSTYLE
  5
70205
102
{ACAD_REACTORS
330
701E4
102
}
330
701E4
100
AcDbVisualStyle
  2
Wireframe
 70
     5
177
     3
291
     0
 70
    58
 90
        0
176
     1
 90
        2
176
     1
 90
        0
176
     1
 90
        0
176
     1
 40
0.6
176
     1
 40
30.0
176
     1
 62
     7
420
 16777215
176
     1
 90
        1
176
     1
 90
        4
176
     1
 62
     7
176
     1
 62
   257
176
     1
 90
        1
176
     1
 90
        1
176
     1
 40
1.0
176
     1
 90
        0
176
     1
 62
   257
176
     1
 40
1.0
176
     1
 90
        1
176
     1
 90
        6
176
     1
 90
        2
176
     1
 62
     7
176
     1
 90
        3
176
     1
 90
        0
176
     1
 90
        0
176
     1
290
     0
176
     1
 90
        1
176
     1
 40
0.0
176
     1
 90
        0
176
     1
290
     0
176
     1
290
     1
176
     1
290
     1
176
     1
290
     0
176
     1
290
     0
176
     1
290
     0
176
     1
290
     0
176
     1
290
     0
176
     1
290
     0
176
     1
 90
       50
176
     1
 40
0.0
176
     1
 40
1.0
176
     1
 90
        0
176
     1
 62
    18
420
        0
176
     1
 90
       50
176
     1
 90
        3
176
     1
 62
     5
420
      255
176
     1
290
     0
176
     1
 90
       50
176
     1
 90
       50
176
     1
 90
       50
176
     1
290
     0
176
     1
 90
       50
176
     1
 62
   256
176
     0
 40
1.0
176
     0
 90
        2
176
     1
  1
strokes_ogs.tif
176
     1
290
     0
176
     1
 40
1.0
176
     1
 40
1.0
176
     1
  0
DICTIONARYVAR
  5
70345
102
{ACAD_REACTORS
330
7033F
102
}
330
7033F
100
DictionaryVariables
280
     0
  1
1:1
  0
DICTIONARYVAR
  5
70341
102
{ACAD_REACTORS
330
7033F
102
}
330
7033F
100
DictionaryVariables
280
     0
  1
STANDARD
  0
DICTIONARYVAR
  5
70340
102
{ACAD_REACTORS
330
7033F
102
}
330
7033F
100
DictionaryVariables
280
     0
  1
STANDARD
  0
DICTIONARYVAR
  5
70342
102
{ACAD_REACTORS
330
7033F
102
}
330
7033F
100
DictionaryVariables
280
     0
  1

  0
DICTIONARYVAR
  5
70343
102
{ACAD_REACTORS
330
7033F
102
}
330
7033F
100
DictionaryVariables
280
     0
  1

  0
DICTIONARYVAR
  5
70346
102
{ACAD_REACTORS
330
7033F
102
}
330
7033F
100
DictionaryVariables
280
     0
  1
1
  0
DICTIONARYVAR
  5
70347
102
{ACAD_REACTORS
330
7033F
102
}
330
7033F
100
DictionaryVariables
280
     0
  1
15
  0
DICTIONARYVAR
  5
70344
102
{ACAD_REACTORS
330
7033F
102
}
330
7033F
100
DictionaryVariables
280
     0
  1
0
  0
DICTIONARY
  5
701D3
330
701D2
100
AcDbDictionary
280
     1
281
     1
  0
DICTIONARY
  5
701CD
330
701CB
100
AcDbDictionary
280
     1
281
     1
  0
DICTIONARY
  5
701F6
330
701F5
100
AcDbDictionary
280
     1
281
     1
  3
BUMPTILE
360
701F7
  3
DIFFUSETILE
360
701F8
  3
OPACITYTILE
360
701F9
  3
REFLECTIONTILE
360
701FA
  3
REFRACTIONTILE
360
701FB
  3
SPECULARTILE
360
701FC
  0
DICTIONARY
  5
701EE
330
701ED
100
AcDbDictionary
280
     1
281
     1
  3
BUMPTILE
360
701EF
  3
DIFFUSETILE
360
701F0
  3
OPACITYTILE
360
701F1
  3
REFLECTIONTILE
360
701F2
  3
REFRACTIONTILE
360
701F3
  3
SPECULARTILE
360
701F4
  0
DICTIONARY
  5
701C2
330
701C0
100
AcDbDictionary
280
     1
281
     1
  3
BUMPTILE
360
701C3
  3
DIFFUSETILE
360
701C4
  3
OPACITYTILE
360
701C5
  3
REFLECTIONTILE
360
701C6
  3
REFRACTIONTILE
360
701C7
  3
SPECULARTILE
360
701C8
  0
DICTIONARY
  5
70203
330
70202
100
AcDbDictionary
280
     1
281
     1
  3
ACAD_ROUNDTRIP_2008_TABLESTYLE_CELLSTYLEMAP
360
70348
  0
XRECORD
  5
701F7
102
{ACAD_REACTORS
330
701F6
102
}
330
701F6
100
AcDbXrecord
280
     1
270
     1
271
     1
  0
XRECORD
  5
701F8
102
{ACAD_REACTORS
330
701F6
102
}
330
701F6
100
AcDbXrecord
280
     1
270
     1
271
     1
  0
XRECORD
  5
701F9
102
{ACAD_REACTORS
330
701F6
102
}
330
701F6
100
AcDbXrecord
280
     1
270
     1
271
     1
  0
XRECORD
  5
701FA
102
{ACAD_REACTORS
330
701F6
102
}
330
701F6
100
AcDbXrecord
280
     1
270
     1
271
     1
  0
XRECORD
  5
701FB
102
{ACAD_REACTORS
330
701F6
102
}
330
701F6
100
AcDbXrecord
280
     1
270
     1
271
     1
  0
XRECORD
  5
701FC
102
{ACAD_REACTORS
330
701F6
102
}
330
701F6
100
AcDbXrecord
280
     1
270
     1
271
     1
  0
XRECORD
  5
701EF
102
{ACAD_REACTORS
330
701EE
102
}
330
701EE
100
AcDbXrecord
280
     1
270
     1
271
     1
  0
XRECORD
  5
701F0
102
{ACAD_REACTORS
330
701EE
102
}
330
701EE
100
AcDbXrecord
280
     1
270
     1
271
     1
  0
XRECORD
  5
701F1
102
{ACAD_REACTORS
330
701EE
102
}
330
701EE
100
AcDbXrecord
280
     1
270
     1
271
     1
  0
XRECORD
  5
701F2
102
{ACAD_REACTORS
330
701EE
102
}
330
701EE
100
AcDbXrecord
280
     1
270
     1
271
     1
  0
XRECORD
  5
701F3
102
{ACAD_REACTORS
330
701EE
102
}
330
701EE
100
AcDbXrecord
280
     1
270
     1
271
     1
  0
XRECORD
  5
701F4
102
{ACAD_REACTORS
330
701EE
102
}
330
701EE
100
AcDbXrecord
280
     1
270
     1
271
     1
  0
XRECORD
  5
701C3
102
{ACAD_REACTORS
330
701C2
102
}
330
701C2
100
AcDbXrecord
280
     1
270
     1
271
     1
  0
XRECORD
  5
701C4
102
{ACAD_REACTORS
330
701C2
102
}
330
701C2
100
AcDbXrecord
280
     1
270
     1
271
     1
  0
XRECORD
  5
701C5
102
{ACAD_REACTORS
330
701C2
102
}
330
701C2
100
AcDbXrecord
280
     1
270
     1
271
     1
  0
XRECORD
  5
701C6
102
{ACAD_REACTORS
330
701C2
102
}
330
701C2
100
AcDbXrecord
280
     1
270
     1
271
     1
  0
XRECORD
  5
701C7
102
{ACAD_REACTORS
330
701C2
102
}
330
701C2
100
AcDbXrecord
280
     1
270
     1
271
     1
  0
XRECORD
  5
701C8
102
{ACAD_REACTORS
330
701C2
102
}
330
701C2
100
AcDbXrecord
280
     1
270
     1
271
     1
  0
CELLSTYLEMAP
  5
70348
102
{ACAD_REACTORS
330
70203
102
}
330
70203
100
AcDbCellStyleMap
 90
        3
300
CELLSTYLE
  1
TABLEFORMAT_BEGIN
 90
        5
170
     1
 91
        0
 92
    32768
 62
   257
 93
        1
300
CONTENTFORMAT
  1
CONTENTFORMAT_BEGIN
 90
        0
 91
        0
 92
        4
 93
        0
300

 40
0.0
140
1.0
 94
        5
 62
     0
340
701DA
144
0.25
309
CONTENTFORMAT_END
171
     0
 94
        6
 95
        1
302
GRIDFORMAT
  1
GRIDFORMAT_BEGIN
 90
        0
 91
        1
 62
     0
 92
       -2
340
0
 93
        0
 40
0.045
309
GRIDFORMAT_END
 95
        2
302
GRIDFORMAT
  1
GRIDFORMAT_BEGIN
 90
        0
 91
        1
 62
     0
 92
       -2
340
0
 93
        0
 40
0.045
309
GRIDFORMAT_END
 95
        4
302
GRIDFORMAT
  1
GRIDFORMAT_BEGIN
 90
        0
 91
        1
 62
     0
 92
       -2
340
0
 93
        0
 40
0.045
309
GRIDFORMAT_END
 95
        8
302
GRIDFORMAT
  1
GRIDFORMAT_BEGIN
 90
        0
 91
        1
 62
     0
 92
       -2
340
0
 93
        0
 40
0.045
309
GRIDFORMAT_END
 95
       16
302
GRIDFORMAT
  1
GRIDFORMAT_BEGIN
 90
        0
 91
        1
 62
     0
 92
       -2
340
0
 93
        0
 40
0.045
309
GRIDFORMAT_END
 95
       32
302
GRIDFORMAT
  1
GRIDFORMAT_BEGIN
 90
        0
 91
        1
 62
     0
 92
       -2
340
0
 93
        0
 40
0.045
309
GRIDFORMAT_END
309
TABLEFORMAT_END
  1
CELLSTYLE_BEGIN
 90
        1
 91
        1
300
_TITLE
309
CELLSTYLE_END
300
CELLSTYLE
  1
TABLEFORMAT_BEGIN
 90
        5
170
     1
 91
        0
 92
        0
 62
   257
 93
        1
300
CONTENTFORMAT
  1
CONTENTFORMAT_BEGIN
 90
        0
 91
        0
 92
        4
 93
        0
300

 40
0.0
140
1.0
 94
        5
 62
     0
340
701DA
144
0.18
309
CONTENTFORMAT_END
171
     0
 94
        6
 95
        1
302
GRIDFORMAT
  1
GRIDFORMAT_BEGIN
 90
        0
 91
        1
 62
     0
 92
       -2
340
0
 93
        0
 40
0.045
309
GRIDFORMAT_END
 95
        2
302
GRIDFORMAT
  1
GRIDFORMAT_BEGIN
 90
        0
 91
        1
 62
     0
 92
       -2
340
0
 93
        0
 40
0.045
309
GRIDFORMAT_END
 95
        4
302
GRIDFORMAT
  1
GRIDFORMAT_BEGIN
 90
        0
 91
        1
 62
     0
 92
       -2
340
0
 93
        0
 40
0.045
309
GRIDFORMAT_END
 95
        8
302
GRIDFORMAT
  1
GRIDFORMAT_BEGIN
 90
        0
 91
        1
 62
     0
 92
       -2
340
0
 93
        0
 40
0.045
309
GRIDFORMAT_END
 95
       16
302
GRIDFORMAT
  1
GRIDFORMAT_BEGIN
 90
        0
 91
        1
 62
     0
 92
       -2
340
0
 93
        0
 40
0.045
309
GRIDFORMAT_END
 95
       32
302
GRIDFORMAT
  1
GRIDFORMAT_BEGIN
 90
        0
 91
        1
 62
     0
 92
       -2
340
0
 93
        0
 40
0.045
309
GRIDFORMAT_END
309
TABLEFORMAT_END
  1
CELLSTYLE_BEGIN
 90
        2
 91
        1
300
_HEADER
309
CELLSTYLE_END
300
CELLSTYLE
  1
TABLEFORMAT_BEGIN
 90
        5
170
     1
 91
        0
 92
        0
 62
   257
 93
        1
300
CONTENTFORMAT
  1
CONTENTFORMAT_BEGIN
 90
        0
 91
        0
 92
        4
 93
        0
300

 40
0.0
140
1.0
 94
        2
 62
     0
340
701DA
144
0.18
309
CONTENTFORMAT_END
171
     0
 94
        6
 95
        1
302
GRIDFORMAT
  1
GRIDFORMAT_BEGIN
 90
        0
 91
        1
 62
     0
 92
       -2
340
0
 93
        0
 40
0.045
309
GRIDFORMAT_END
 95
        2
302
GRIDFORMAT
  1
GRIDFORMAT_BEGIN
 90
        0
 91
        1
 62
     0
 92
       -2
340
0
 93
        0
 40
0.045
309
GRIDFORMAT_END
 95
        4
302
GRIDFORMAT
  1
GRIDFORMAT_BEGIN
 90
        0
 91
        1
 62
     0
 92
       -2
340
0
 93
        0
 40
0.045
309
GRIDFORMAT_END
 95
        8
302
GRIDFORMAT
  1
GRIDFORMAT_BEGIN
 90
        0
 91
        1
 62
     0
 92
       -2
340
0
 93
        0
 40
0.045
309
GRIDFORMAT_END
 95
       16
302
GRIDFORMAT
  1
GRIDFORMAT_BEGIN
 90
        0
 91
        1
 62
     0
 92
       -2
340
0
 93
        0
 40
0.045
309
GRIDFORMAT_END
 95
       32
302
GRIDFORMAT
  1
GRIDFORMAT_BEGIN
 90
        0
 91
        1
 62
     0
 92
       -2
340
0
 93
        0
 40
0.045
309
GRIDFORMAT_END
309
TABLEFORMAT_END
  1
CELLSTYLE_BEGIN
 90
        3
 91
        2
300
_DATA
309
CELLSTYLE_END
  0
ENDSEC
  0
SECTION
  2
ACDSDATA
 70
     2
 71
     6
  0
ACDSSCHEMA
 90
        0
  1
AcDb_Thumbnail_Schema
  2
AcDbDs::ID
280
    10
 91
        8
  2
Thumbnail_Data
280
    15
 91
        0
101
ACDSRECORD
 95
        0
 90
        1
  2
AcDbDs::TreatedAsObjectData
280
     1
291
     1
101
ACDSRECORD
 95
        0
 90
        2
  2
AcDbDs::Legacy
280
     1
291
     1
101
ACDSRECORD
  1
AcDbDs::ID
 90
        3
  2
AcDs:Indexable
280
     1
291
     1
101
ACDSRECORD
  1
AcDbDs::ID
 90
        4
  2
AcDbDs::HandleAttribute
280
     7
282
     1
  0
ACDSSCHEMA
 90
        1
  1
AcDbDs::TreatedAsObjectDataSchema
  2
AcDbDs::TreatedAsObjectData
280
     1
 91
        0
  0
ACDSSCHEMA
 90
        2
  1
AcDbDs::LegacySchema
  2
AcDbDs::Legacy
280
     1
 91
        0
  0
ACDSSCHEMA
 90
        3
  1
AcDbDs::IndexedPropertySchema
  2
AcDs:Indexable
280
     1
 91
        0
  0
ACDSSCHEMA
 90
        4
  1
AcDbDs::HandleAttributeSchema
  2
AcDbDs::HandleAttribute
280
     7
 91
        1
284
     1
  0
ACDSRECORD
 90
        0
  2
AcDbDs::ID
280
    10
320
701D2
  2
Thumbnail_Data
280
    15
 94
     1183
310
89504E470D0A1A0A0000000D4948445200000100000000C508030000008CFEDCE700000300504C5445FFFFFF000000FFFFFF0000000000000000000000000000000000000000000000000000330000660000990000CC0000FF0033000033330033660033990033CC0033FF0066000066330066660066990066CC0066FF0099
310
000099330099660099990099CC0099FF00CC0000CC3300CC6600CC9900CCCC00CCFF00FF0000FF3300FF6600FF9900FFCC00FFFF3300003300333300663300993300CC3300FF3333003333333333663333993333CC3333FF3366003366333366663366993366CC3366FF3399003399333399663399993399CC3399FF33CC00
310
33CC3333CC6633CC9933CCCC33CCFF33FF0033FF3333FF6633FF9933FFCC33FFFF6600006600336600666600996600CC6600FF6633006633336633666633996633CC6633FF6666006666336666666666996666CC6666FF6699006699336699666699996699CC6699FF66CC0066CC3366CC6666CC9966CCCC66CCFF66FF0066
310
FF3366FF6666FF9966FFCC66FFFF9900009900339900669900999900CC9900FF9933009933339933669933999933CC9933FF9966009966339966669966999966CC9966FF9999009999339999669999999999CC9999FF99CC0099CC3399CC6699CC9999CCCC99CCFF99FF0099FF3399FF6699FF9999FFCC99FFFFCC0000CC00
310
33CC0066CC0099CC00CCCC00FFCC3300CC3333CC3366CC3399CC33CCCC33FFCC6600CC6633CC6666CC6699CC66CCCC66FFCC9900CC9933CC9966CC9999CC99CCCC99FFCCCC00CCCC33CCCC66CCCC99CCCCCCCCCCFFCCFF00CCFF33CCFF66CCFF99CCFFCCCCFFFFFF0000FF0033FF0066FF0099FF00CCFF00FFFF3300FF3333
310
FF3366FF3399FF33CCFF33FFFF6600FF6633FF6666FF6699FF66CCFF66FFFF9900FF9933FF9966FF9999FF99CCFF99FFFFCC00FFCC33FFCC66FFCC99FFCCCCFFCCFFFFFF00FFFF33FFFF66FFFF99FFFFCCFFFFFF0000000D0D0D1A1A1A2828283535354343435050505D5D5D6B6B6B787878868686939393A1A1A1AEAEAEBB
310
BBBBC9C9C9D6D6D6E4E4E4F1F1F1FFFFFF000000000000000000000000000000000000000000000000000000000000790CAC0F0000015A4944415478DAEDD8410A8340100440FFFFCCF9C09EE61E104224896014844D579F64F420A587DE592A3A632CD5C101100F500500C0F36ACDF6D636BFCEEBAEF9E9177D0788FBF600
310
000000000000004D1000000000000000100F50FB4F4C9E8B5578FAFF0300000000000000000000000000000000B00BD069000D0000000000000000A009020000000000000000000000000000000052013A0DA001000000000000000000A8C2000000000000000000000000000000402A40FC420400000000000000002016C0
310
5900000000000000000000000000000000C803885F88000000000000000000C402380B0000000000000000000000000000000000E2003A0DA0010000000000000000344100000000000000000000000000000000C0E7C660F21C04080D0000000000000000C01F54DE73151900000000000000D0AFCDCFB6227CDDAB1C9CD7
310
5DF3D32FAA0902000000C00A109E658C110DF0000E6CC6FBCCF8EC2E0000000049454E44AE426082
  0
ACDSRECORD
 90
        0
  2
AcDbDs::ID
280
    10
320
701CB
  2
Thumbnail_Data
280
    15
 94
     1017
310
89504E470D0A1A0A0000000D4948445200000100000000890803000000F46416F000000300504C5445FEFCF0000000FFFFFF0000000000000000000000000000000000000000000000000000330000660000990000CC0000FF0033000033330033660033990033CC0033FF0066000066330066660066990066CC0066FF0099
310
000099330099660099990099CC0099FF00CC0000CC3300CC6600CC9900CCCC00CCFF00FF0000FF3300FF6600FF9900FFCC00FFFF3300003300333300663300993300CC3300FF3333003333333333663333993333CC3333FF3366003366333366663366993366CC3366FF3399003399333399663399993399CC3399FF33CC00
310
33CC3333CC6633CC9933CCCC33CCFF33FF0033FF3333FF6633FF9933FFCC33FFFF6600006600336600666600996600CC6600FF6633006633336633666633996633CC6633FF6666006666336666666666996666CC6666FF6699006699336699666699996699CC6699FF66CC0066CC3366CC6666CC9966CCCC66CCFF66FF0066
310
FF3366FF6666FF9966FFCC66FFFF9900009900339900669900999900CC9900FF9933009933339933669933999933CC9933FF9966009966339966669966999966CC9966FF9999009999339999669999999999CC9999FF99CC0099CC3399CC6699CC9999CCCC99CCFF99FF0099FF3399FF6699FF9999FFCC99FFFFCC0000CC00
310
33CC0066CC0099CC00CCCC00FFCC3300CC3333CC3366CC3399CC33CCCC33FFCC6600CC6633CC6666CC6699CC66CCCC66FFCC9900CC9933CC9966CC9999CC99CCCC99FFCCCC00CCCC33CCCC66CCCC99CCCCCCCCCCFFCCFF00CCFF33CCFF66CCFF99CCFFCCCCFFFFFF0000FF0033FF0066FF0099FF00CCFF00FFFF3300FF3333
310
FF3366FF3399FF33CCFF33FFFF6600FF6633FF6666FF6699FF66CCFF66FFFF9900FF9933FF9966FF9999FF99CCFF99FFFFCC00FFCC33FFCC66FFCC99FFCCCCFFCCFFFFFF00FFFF33FFFF66FFFF99FFFFCCFFFFFF0000000D0D0D1A1A1A2828283535354343435050505D5D5D6B6B6B787878868686939393A1A1A1AEAEAEBB
310
BBBBC9C9C9D6D6D6E4E4E4F1F1F1FFFFFF0000000000000000000000000000000000000000000000000000000000007C77BAA7000000B44944415478DAEDD0310100000C0220FBB7B48931760C22903E1701020408102040800001020408102040800001020408102040800001020408102040800001020408102040800001
310
020408102040800001020408102040800001020408102040800001020408102040800001020408102040800001020408102040800001020408102040800001020408102040800001020408102040800001020408102040800001020408102040800001020408102040C099016B33700943E05F3C0000000049454E44AE4260
310
82
  0
ENDSEC
  0
EOF
