  0
SECTION
  2
HEADER
  9
$ACADVER
  1
AC1027
  9
$ACADMAINTVER
 70
    55
  9
$DWGCODEPAGE
  3
ANSI_1252
  9
$AUTHOR
  1
WAEngineering1
  9
$LASTSAVEDBY
  1
WAMarketing2
  9
$REQUIREDVERSIONS
160
                 0
  9
$INSBASE
 10
0.0
 20
0.0
 30
0.0
  9
$EXTMIN
 10
-900.58
 20
-3759.161
 30
0.0
  9
$EXTMAX
 10
6931.778
 20
4073.196
 30
0.0
  9
$LIMMIN
 10
-19137.653404
 20
-21996.234904
  9
$LIMMAX
 10
25168.851404
 20
22310.269904
  9
$ORTHOMODE
 70
     0
  9
$REGENMODE
 70
     1
  9
$FILLMODE
 70
     1
  9
$QTEXTMODE
 70
     0
  9
$MIRRTEXT
 70
     0
  9
$LTSCALE
 40
1.0
  9
$ATTMODE
 70
     1
  9
$TEXTSIZE
 40
100.0
  9
$TRACEWID
 40
0.05
  9
$TEXTSTYLE
  7
Standard
  9
$CLAYER
  8
Level 8
  9
$CELTYPE
  6
Continuous
  9
$CECOLOR
 62
    98
  9
$CELTSCALE
 40
1.0
  9
$DISPSILH
 70
     0
  9
$DIMSCALE
 40
1.0
  9
$DIMASZ
 40
0.18
  9
$DIMEXO
 40
0.0625
  9
$DIMDLI
 40
0.38
  9
$DIMRND
 40
0.0
  9
$DIMDLE
 40
0.0
  9
$DIMEXE
 40
0.18
  9
$DIMTP
 40
0.0
  9
$DIMTM
 40
0.0
  9
$DIMTXT
 40
0.18
  9
$DIMCEN
 40
0.09
  9
$DIMTSZ
 40
0.0
  9
$DIMTOL
 70
     0
  9
$DIMLIM
 70
     0
  9
$DIMTIH
 70
     1
  9
$DIMTOH
 70
     1
  9
$DIMSE1
 70
     0
  9
$DIMSE2
 70
     0
  9
$DIMTAD
 70
     0
  9
$DIMZIN
 70
     0
  9
$DIMBLK
  1

  9
$DIMASO
 70
     1
  9
$DIMSHO
 70
     1
  9
$DIMPOST
  1

  9
$DIMAPOST
  1

  9
$DIMALT
 70
     0
  9
$DIMALTD
 70
     2
  9
$DIMALTF
 40
25.4
  9
$DIMLFAC
 40
1.0
  9
$DIMTOFL
 70
     0
  9
$DIMTVP
 40
0.0
  9
$DIMTIX
 70
     0
  9
$DIMSOXD
 70
     0
  9
$DIMSAH
 70
     0
  9
$DIMBLK1
  1

  9
$DIMBLK2
  1

  9
$DIMSTYLE
  2
Standard
  9
$DIMCLRD
 70
     0
  9
$DIMCLRE
 70
     0
  9
$DIMCLRT
 70
     0
  9
$DIMTFAC
 40
1.0
  9
$DIMGAP
 40
0.09
  9
$DIMJUST
 70
     0
  9
$DIMSD1
 70
     0
  9
$DIMSD2
 70
     0
  9
$DIMTOLJ
 70
     1
  9
$DIMTZIN
 70
     0
  9
$DIMALTZ
 70
     0
  9
$DIMALTTZ
 70
     0
  9
$DIMUPT
 70
     0
  9
$DIMDEC
 70
     4
  9
$DIMTDEC
 70
     4
  9
$DIMALTU
 70
     2
  9
$DIMALTTD
 70
     2
  9
$DIMTXSTY
  7
Standard
  9
$DIMAUNIT
 70
     0
  9
$DIMADEC
 70
     0
  9
$DIMALTRND
 40
0.0
  9
$DIMAZIN
 70
     0
  9
$DIMDSEP
 70
    46
  9
$DIMATFIT
 70
     3
  9
$DIMFRAC
 70
     0
  9
$DIMLDRBLK
  1

  9
$DIMLUNIT
 70
     2
  9
$DIMLWD
 70
    -2
  9
$DIMLWE
 70
    -2
  9
$DIMTMOVE
 70
     0
  9
$DIMFXL
 40
1.0
  9
$DIMFXLON
 70
     0
  9
$DIMJOGANG
 40
0.785398
  9
$DIMTFILL
 70
     0
  9
$DIMTFILLCLR
 70
     0
  9
$DIMARCSYM
 70
     0
  9
$DIMLTYPE
  6

  9
$DIMLTEX1
  6

  9
$DIMLTEX2
  6

  9
$DIMTXTDIRECTION
 70
     0
  9
$LUNITS
 70
     2
  9
$LUPREC
 70
     0
  9
$SKETCHINC
 40
0.1
  9
$FILLETRAD
 40
0.0
  9
$AUNITS
 70
     0
  9
$AUPREC
 70
     0
  9
$MENU
  1
.
  9
$ELEVATION
 40
0.0
  9
$PELEVATION
 40
0.0
  9
$THICKNESS
 40
0.0
  9
$LIMCHECK
 70
     0
  9
$CHAMFERA
 40
0.0
  9
$CHAMFERB
 40
0.0
  9
$CHAMFERC
 40
0.0
  9
$CHAMFERD
 40
0.0
  9
$SKPOLY
 70
     0
  9
$TDCREATE
 40
2454145.111357350
  9
$TDUCREATE
 40
2454144.778024017
  9
$TDUPDATE
 40
2455657.145108565
  9
$TDUUPDATE
 40
2455656.811775231
  9
$TDINDWG
 40
0.0262180556
  9
$TDUSRTIMER
 40
0.0262178704
  9
$USRTIMER
 70
     1
  9
$ANGBASE
 50
0.0
  9
$ANGDIR
 70
     0
  9
$PDMODE
 70
     0
  9
$PDSIZE
 40
0.0
  9
$PLINEWID
 40
0.0
  9
$SPLFRAME
 70
     0
  9
$SPLINETYPE
 70
     6
  9
$SPLINESEGS
 70
     8
  9
$HANDSEED
  5
700AF
  9
$SURFTAB1
 70
     6
  9
$SURFTAB2
 70
     6
  9
$SURFTYPE
 70
     6
  9
$SURFU
 70
     6
  9
$SURFV
 70
     6
  9
$UCSBASE
  2

  9
$UCSNAME
  2

  9
$UCSORG
 10
0.0
 20
0.0
 30
0.0
  9
$UCSXDIR
 10
1.0
 20
0.0
 30
0.0
  9
$UCSYDIR
 10
0.0
 20
1.0
 30
0.0
  9
$UCSORTHOREF
  2

  9
$UCSORTHOVIEW
 70
     0
  9
$UCSORGTOP
 10
0.0
 20
0.0
 30
0.0
  9
$UCSORGBOTTOM
 10
0.0
 20
0.0
 30
0.0
  9
$UCSORGLEFT
 10
0.0
 20
0.0
 30
0.0
  9
$UCSORGRIGHT
 10
0.0
 20
0.0
 30
0.0
  9
$UCSORGFRONT
 10
0.0
 20
0.0
 30
0.0
  9
$UCSORGBACK
 10
0.0
 20
0.0
 30
0.0
  9
$PUCSBASE
  2

  9
$PUCSNAME
  2

  9
$PUCSORG
 10
0.0
 20
0.0
 30
0.0
  9
$PUCSXDIR
 10
1.0
 20
0.0
 30
0.0
  9
$PUCSYDIR
 10
0.0
 20
1.0
 30
0.0
  9
$PUCSORTHOREF
  2

  9
$PUCSORTHOVIEW
 70
     0
  9
$PUCSORGTOP
 10
0.0
 20
0.0
 30
0.0
  9
$PUCSORGBOTTOM
 10
0.0
 20
0.0
 30
0.0
  9
$PUCSORGLEFT
 10
0.0
 20
0.0
 30
0.0
  9
$PUCSORGRIGHT
 10
0.0
 20
0.0
 30
0.0
  9
$PUCSORGFRONT
 10
0.0
 20
0.0
 30
0.0
  9
$PUCSORGBACK
 10
0.0
 20
0.0
 30
0.0
  9
$USERI1
 70
     0
  9
$USERI2
 70
     0
  9
$USERI3
 70
     0
  9
$USERI4
 70
     0
  9
$USERI5
 70
     0
  9
$USERR1
 40
0.0
  9
$USERR2
 40
0.0
  9
$USERR3
 40
0.0
  9
$USERR4
 40
0.0
  9
$USERR5
 40
0.0
  9
$WORLDVIEW
 70
     1
  9
$SHADEDGE
 70
     3
  9
$SHADEDIF
 70
    70
  9
$TILEMODE
 70
     1
  9
$MAXACTVP
 70
    64
  9
$PINSBASE
 10
0.0
 20
0.0
 30
0.0
  9
$PLIMCHECK
 70
     0
  9
$PEXTMIN
 10
1.05
 20
0.8
 30
0.0
  9
$PEXTMAX
 10
9.45
 20
7.2
 30
0.0
  9
$PLIMMIN
 10
-0.25
 20
-0.25
  9
$PLIMMAX
 10
10.75
 20
8.25
  9
$UNITMODE
 70
     0
  9
$VISRETAIN
 70
     1
  9
$PLINEGEN
 70
     0
  9
$PSLTSCALE
 70
     0
  9
$TREEDEPTH
 70
  3020
  9
$CMLSTYLE
  2
Standard
  9
$CMLJUST
 70
     0
  9
$CMLSCALE
 40
1.0
  9
$PROXYGRAPHICS
 70
     1
  9
$MEASUREMENT
 70
     0
  9
$CELWEIGHT
370
     0
  9
$ENDCAPS
280
     0
  9
$JOINSTYLE
280
     0
  9
$LWDISPLAY
290
     1
  9
$INSUNITS
 70
     4
  9
$HYPERLINKBASE
  1

  9
$STYLESHEET
  1

  9
$XEDIT
290
     1
  9
$CEPSNTYPE
380
     0
  9
$PSTYLEMODE
290
     1
  9
$FINGERPRINTGUID
  2
{50AA0B73-003F-479D-AC58-28768AAD9361}
  9
$VERSIONGUID
  2
{5066CCA6-5121-4C7B-A04C-375F92FA871B}
  9
$EXTNAMES
290
     1
  9
$PSVPSCALE
 40
0.0
  9
$OLESTARTUP
290
     0
  9
$SORTENTS
280
   127
  9
$INDEXCTL
280
     0
  9
$HIDETEXT
280
     1
  9
$XCLIPFRAME
280
     0
  9
$HALOGAP
280
     0
  9
$OBSCOLOR
 70
   257
  9
$OBSLTYPE
280
     0
  9
$INTERSECTIONDISPLAY
280
     0
  9
$INTERSECTIONCOLOR
 70
   257
  9
$DIMASSOC
280
     1
  9
$PROJECTNAME
  1

  9
$CAMERADISPLAY
290
     0
  9
$LENSLENGTH
 40
50.0
  9
$CAMERAHEIGHT
 40
0.0
  9
$STEPSPERSEC
 40
2.0
  9
$STEPSIZE
 40
6.0
  9
$3DDWFPREC
 40
2.0
  9
$PSOLWIDTH
 40
0.25
  9
$PSOLHEIGHT
 40
4.0
  9
$LOFTANG1
 40
1.570796
  9
$LOFTANG2
 40
1.570796
  9
$LOFTMAG1
 40
0.0
  9
$LOFTMAG2
 40
0.0
  9
$LOFTPARAM
 70
     7
  9
$LOFTNORMALS
280
     1
  9
$LATITUDE
 40
37.795
  9
$LONGITUDE
 40
-122.394
  9
$NORTHDIRECTION
 40
0.0
  9
$TIMEZONE
 70
 -8000
  9
$LIGHTGLYPHDISPLAY
280
     1
  9
$TILEMODELIGHTSYNCH
280
     1
  9
$CMATERIAL
347
6FFB3
  9
$SOLIDHIST
280
     1
  9
$SHOWHIST
280
     1
  9
$DWFFRAME
280
     2
  9
$DGNFRAME
280
     0
  9
$REALWORLDSCALE
290
     1
  9
$INTERFERECOLOR
 62
     1
  9
$INTERFEREOBJVS
345
6FFCA
  9
$INTERFEREVPVS
346
6FFCB
  9
$CSHADOW
280
     0
  9
$SHADOWPLANELOCATION
 40
0.0
  0
ENDSEC
  0
SECTION
  2
CLASSES
  0
CLASS
  1
ACDBDICTIONARYWDFLT
  2
AcDbDictionaryWithDefault
  3
ObjectDBX Classes
 90
        0
 91
        1
280
     0
281
     0
  0
CLASS
  1
DICTIONARYVAR
  2
AcDbDictionaryVar
  3
ObjectDBX Classes
 90
        0
 91
        8
280
     0
281
     0
  0
CLASS
  1
TABLESTYLE
  2
AcDbTableStyle
  3
ObjectDBX Classes
 90
     4095
 91
        1
280
     0
281
     0
  0
CLASS
  1
MATERIAL
  2
AcDbMaterial
  3
ObjectDBX Classes
 90
     1153
 91
        3
280
     0
281
     0
  0
CLASS
  1
VISUALSTYLE
  2
AcDbVisualStyle
  3
ObjectDBX Classes
 90
     4095
 91
        3
280
     0
281
     0
  0
CLASS
  1
SCALE
  2
AcDbScale
  3
ObjectDBX Classes
 90
     1153
 91
       33
280
     0
281
     0
  0
CLASS
  1
MLEADERSTYLE
  2
AcDbMLeaderStyle
  3
ACDB_MLEADERSTYLE_CLASS
 90
     4095
 91
        0
280
     0
281
     0
  0
CLASS
  1
EXACXREFPANELOBJECT
  2
ExAcXREFPanelObject
  3
EXAC_ESW
 90
     1025
 91
        0
280
     1
281
     0
  0
CLASS
  1
NPOCOLLECTION
  2
AcDbImpNonPersistentObjectsCollection
  3
ObjectDBX Classes
 90
     1153
 91
        0
280
     0
281
     0
  0
CLASS
  1
CELLSTYLEMAP
  2
AcDbCellStyleMap
  3
ObjectDBX Classes
 90
     1152
 91
        1
280
     0
281
     0
  0
CLASS
  1
ACDBSECTIONVIEWSTYLE
  2
AcDbSectionViewStyle
  3
ObjectDBX Classes
 90
     1025
 91
        0
280
     0
281
     0
  0
CLASS
  1
ACDBDETAILVIEWSTYLE
  2
AcDbDetailViewStyle
  3
ObjectDBX Classes
 90
     1025
 91
        0
280
     0
281
     0
  0
CLASS
  1
SORTENTSTABLE
  2
AcDbSortentsTable
  3
ObjectDBX Classes
 90
        0
 91
        1
280
     0
281
     0
  0
ENDSEC
  0
SECTION
  2
TABLES
  0
TABLE
  2
VPORT
  5
6FFA7
330
0
100
AcDbSymbolTable
 70
     2
  0
VPORT
  5
4B
330
6FFA7
100
AcDbSymbolTableRecord
100
AcDbViewportTableRecord
  2
*ACTIVE
 70
     0
 10
0.0
 20
0.0
 11
1.0
 21
1.0
 12
3015.599
 22
157.0175
 13
0.0
 23
0.0
 14
1.0
 24
1.0
 15
1.0
 25
1.0
 16
0.0
 26
0.0
 36
1.0
 17
0.0
 27
0.0
 37
0.0
 40
8145.65128
 41
2.090493
 42
50.0
 43
0.0
 44
0.0
 50
0.0
 51
0.0
 71
     0
 72
   100
 73
     1
 74
     0
 75
     0
 76
     0
 77
     0
 78
     1
281
     0
 65
     1
110
0.0
120
0.0
130
0.0
111
1.0
121
0.0
131
0.0
112
0.0
122
1.0
132
0.0
 79
     0
146
0.0
 60
     3
 61
    10
292
     0
282
     1
141
0.0
142
0.0
 63
     7
421
 16777215
  0
ENDTAB
  0
TABLE
  2
LTYPE
  5
6FFA2
330
0
100
AcDbSymbolTable
 70
     2
  0
LTYPE
  5
6FFA3
330
6FFA2
100
AcDbSymbolTableRecord
100
AcDbLinetypeTableRecord
  2
ByBlock
 70
     0
  3

 72
    65
 73
     0
 40
0.0
  0
LTYPE
  5
6FFA4
330
6FFA2
100
AcDbSymbolTableRecord
100
AcDbLinetypeTableRecord
  2
ByLayer
 70
     0
  3

 72
    65
 73
     0
 40
0.0
  0
LTYPE
  5
6FF8F
330
6FFA2
100
AcDbSymbolTableRecord
100
AcDbLinetypeTableRecord
  2
Continuous
 70
     0
  3
Solid line
 72
    65
 73
     0
 40
0.0
  0
LTYPE
  5
700A2
330
6FFA2
100
AcDbSymbolTableRecord
100
AcDbLinetypeTableRecord
  2
DGN Style 2
 70
     0
  3
Dgn Style 2
 72
    65
 73
     2
 40
170.284234
 49
102.17054
 74
     0
 49
-68.113693
 74
     0
  0
ENDTAB
  0
TABLE
  2
LAYER
  5
6FF9C
102
{ACAD_XDICTIONARY
360
6FF9D
102
}
330
0
100
AcDbSymbolTable
 70
    65
  0
LAYER
  5
6FF80
102
{ACAD_XDICTIONARY
360
6FF81
102
}
330
6FF9C
100
AcDbSymbolTableRecord
100
AcDbLayerTableRecord
  2
0
 70
     0
 62
     7
  6
Continuous
370
    -3
390
6FF83
347
6FF86
348
0
1001
AcCmTransparency
1071
 33554687
  0
LAYER
  5
7
330
6FF9C
100
AcDbSymbolTableRecord
100
AcDbLayerTableRecord
  2
Level 1
 70
     0
 62
     7
  6
Continuous
370
     0
390
6FF83
347
6FF86
348
0
1001
AcCmTransparency
1071
 33554687
  0
LAYER
  5
8
330
6FF9C
100
AcDbSymbolTableRecord
100
AcDbLayerTableRecord
  2
Level 2
 70
     0
 62
     7
  6
Continuous
370
     0
390
6FF83
347
6FF86
348
0
1001
AcCmTransparency
1071
 33554687
  0
LAYER
  5
9
330
6FF9C
100
AcDbSymbolTableRecord
100
AcDbLayerTableRecord
  2
Level 3
 70
     0
 62
     7
  6
Continuous
370
     0
390
6FF83
347
6FF86
348
0
1001
AcCmTransparency
1071
 33554687
  0
LAYER
  5
A
330
6FF9C
100
AcDbSymbolTableRecord
100
AcDbLayerTableRecord
  2
Level 4
 70
     0
 62
     7
  6
Continuous
370
     0
390
6FF83
347
6FF86
348
0
1001
AcCmTransparency
1071
 33554687
  0
LAYER
  5
B
330
6FF9C
100
AcDbSymbolTableRecord
100
AcDbLayerTableRecord
  2
Level 5
 70
     0
 62
     7
  6
Continuous
370
     0
390
6FF83
347
6FF86
348
0
1001
AcCmTransparency
1071
 33554687
  0
LAYER
  5
C
330
6FF9C
100
AcDbSymbolTableRecord
100
AcDbLayerTableRecord
  2
Level 6
 70
     0
 62
     7
  6
Continuous
370
     0
390
6FF83
347
6FF86
348
0
1001
AcCmTransparency
1071
 33554687
  0
LAYER
  5
D
330
6FF9C
100
AcDbSymbolTableRecord
100
AcDbLayerTableRecord
  2
Level 7
 70
     0
 62
     7
  6
Continuous
370
     0
390
6FF83
347
6FF86
348
0
1001
AcCmTransparency
1071
 33554687
  0
LAYER
  5
E
330
6FF9C
100
AcDbSymbolTableRecord
100
AcDbLayerTableRecord
  2
Level 8
 70
     0
 62
     7
  6
Continuous
370
     0
390
6FF83
347
6FF86
348
0
1001
AcCmTransparency
1071
 33554687
  0
LAYER
  5
F
330
6FF9C
100
AcDbSymbolTableRecord
100
AcDbLayerTableRecord
  2
Level 9
 70
     0
 62
     7
  6
Continuous
370
     0
390
6FF83
347
6FF86
348
0
1001
AcCmTransparency
1071
 33554687
  0
LAYER
  5
10
330
6FF9C
100
AcDbSymbolTableRecord
100
AcDbLayerTableRecord
  2
Level 10
 70
     0
 62
     7
  6
Continuous
370
     0
390
6FF83
347
6FF86
348
0
1001
AcCmTransparency
1071
 33554687
  0
LAYER
  5
11
330
6FF9C
100
AcDbSymbolTableRecord
100
AcDbLayerTableRecord
  2
Level 11
 70
     0
 62
     7
  6
Continuous
370
     0
390
6FF83
347
6FF86
348
0
1001
AcCmTransparency
1071
 33554687
  0
LAYER
  5
12
330
6FF9C
100
AcDbSymbolTableRecord
100
AcDbLayerTableRecord
  2
Level 12
 70
     0
 62
     7
  6
Continuous
370
     0
390
6FF83
347
6FF86
348
0
1001
AcCmTransparency
1071
 33554687
  0
LAYER
  5
13
330
6FF9C
100
AcDbSymbolTableRecord
100
AcDbLayerTableRecord
  2
Level 13
 70
     0
 62
     7
  6
Continuous
370
     0
390
6FF83
347
6FF86
348
0
1001
AcCmTransparency
1071
 33554687
  0
LAYER
  5
14
330
6FF9C
100
AcDbSymbolTableRecord
100
AcDbLayerTableRecord
  2
Level 14
 70
     0
 62
     7
  6
Continuous
370
     0
390
6FF83
347
6FF86
348
0
1001
AcCmTransparency
1071
 33554687
  0
LAYER
  5
15
330
6FF9C
100
AcDbSymbolTableRecord
100
AcDbLayerTableRecord
  2
Level 15
 70
     0
 62
     7
  6
Continuous
370
     0
390
6FF83
347
6FF86
348
0
1001
AcCmTransparency
1071
 33554687
  0
LAYER
  5
16
330
6FF9C
100
AcDbSymbolTableRecord
100
AcDbLayerTableRecord
  2
Level 16
 70
     0
 62
     7
  6
Continuous
370
     0
390
6FF83
347
6FF86
348
0
1001
AcCmTransparency
1071
 33554687
  0
LAYER
  5
17
330
6FF9C
100
AcDbSymbolTableRecord
100
AcDbLayerTableRecord
  2
Level 17
 70
     0
 62
     7
  6
Continuous
370
     0
390
6FF83
347
6FF86
348
0
1001
AcCmTransparency
1071
 33554687
  0
LAYER
  5
18
330
6FF9C
100
AcDbSymbolTableRecord
100
AcDbLayerTableRecord
  2
Level 18
 70
     0
 62
     7
  6
Continuous
370
     0
390
6FF83
347
6FF86
348
0
1001
AcCmTransparency
1071
 33554687
  0
LAYER
  5
19
330
6FF9C
100
AcDbSymbolTableRecord
100
AcDbLayerTableRecord
  2
Level 19
 70
     0
 62
     7
  6
Continuous
370
     0
390
6FF83
347
6FF86
348
0
1001
AcCmTransparency
1071
 33554687
  0
LAYER
  5
1A
330
6FF9C
100
AcDbSymbolTableRecord
100
AcDbLayerTableRecord
  2
Level 20
 70
     0
 62
     7
  6
Continuous
370
     0
390
6FF83
347
6FF86
348
0
1001
AcCmTransparency
1071
 33554687
  0
LAYER
  5
1B
330
6FF9C
100
AcDbSymbolTableRecord
100
AcDbLayerTableRecord
  2
Level 21
 70
     0
 62
     7
  6
Continuous
370
     0
390
6FF83
347
6FF86
348
0
1001
AcCmTransparency
1071
 33554687
  0
LAYER
  5
1C
330
6FF9C
100
AcDbSymbolTableRecord
100
AcDbLayerTableRecord
  2
Level 22
 70
     0
 62
     7
  6
Continuous
370
     0
390
6FF83
347
6FF86
348
0
1001
AcCmTransparency
1071
 33554687
  0
LAYER
  5
1D
330
6FF9C
100
AcDbSymbolTableRecord
100
AcDbLayerTableRecord
  2
Level 23
 70
     0
 62
     7
  6
Continuous
370
     0
390
6FF83
347
6FF86
348
0
1001
AcCmTransparency
1071
 33554687
  0
LAYER
  5
1E
330
6FF9C
100
AcDbSymbolTableRecord
100
AcDbLayerTableRecord
  2
Level 24
 70
     0
 62
     7
  6
Continuous
370
     0
390
6FF83
347
6FF86
348
0
1001
AcCmTransparency
1071
 33554687
  0
LAYER
  5
1F
330
6FF9C
100
AcDbSymbolTableRecord
100
AcDbLayerTableRecord
  2
Level 25
 70
     0
 62
     7
  6
Continuous
370
     0
390
6FF83
347
6FF86
348
0
1001
AcCmTransparency
1071
 33554687
  0
LAYER
  5
20
330
6FF9C
100
AcDbSymbolTableRecord
100
AcDbLayerTableRecord
  2
Level 26
 70
     0
 62
     7
  6
Continuous
370
     0
390
6FF83
347
6FF86
348
0
1001
AcCmTransparency
1071
 33554687
  0
LAYER
  5
21
330
6FF9C
100
AcDbSymbolTableRecord
100
AcDbLayerTableRecord
  2
Level 27
 70
     0
 62
     7
  6
Continuous
370
     0
390
6FF83
347
6FF86
348
0
1001
AcCmTransparency
1071
 33554687
  0
LAYER
  5
22
330
6FF9C
100
AcDbSymbolTableRecord
100
AcDbLayerTableRecord
  2
Level 28
 70
     0
 62
     7
  6
Continuous
370
     0
390
6FF83
347
6FF86
348
0
1001
AcCmTransparency
1071
 33554687
  0
LAYER
  5
23
330
6FF9C
100
AcDbSymbolTableRecord
100
AcDbLayerTableRecord
  2
Level 29
 70
     0
 62
     7
  6
Continuous
370
     0
390
6FF83
347
6FF86
348
0
1001
AcCmTransparency
1071
 33554687
  0
LAYER
  5
24
330
6FF9C
100
AcDbSymbolTableRecord
100
AcDbLayerTableRecord
  2
Level 30
 70
     0
 62
     7
  6
Continuous
370
     0
390
6FF83
347
6FF86
348
0
1001
AcCmTransparency
1071
 33554687
  0
LAYER
  5
25
330
6FF9C
100
AcDbSymbolTableRecord
100
AcDbLayerTableRecord
  2
Level 31
 70
     0
 62
     7
  6
Continuous
370
     0
390
6FF83
347
6FF86
348
0
1001
AcCmTransparency
1071
 33554687
  0
LAYER
  5
26
330
6FF9C
100
AcDbSymbolTableRecord
100
AcDbLayerTableRecord
  2
Level 32
 70
     0
 62
     7
  6
Continuous
370
     0
390
6FF83
347
6FF86
348
0
1001
AcCmTransparency
1071
 33554687
  0
LAYER
  5
27
330
6FF9C
100
AcDbSymbolTableRecord
100
AcDbLayerTableRecord
  2
Level 33
 70
     0
 62
     7
  6
Continuous
370
     0
390
6FF83
347
6FF86
348
0
1001
AcCmTransparency
1071
 33554687
  0
LAYER
  5
28
330
6FF9C
100
AcDbSymbolTableRecord
100
AcDbLayerTableRecord
  2
Level 34
 70
     0
 62
     7
  6
Continuous
370
     0
390
6FF83
347
6FF86
348
0
1001
AcCmTransparency
1071
 33554687
  0
LAYER
  5
29
330
6FF9C
100
AcDbSymbolTableRecord
100
AcDbLayerTableRecord
  2
Level 35
 70
     0
 62
     7
  6
Continuous
370
     0
390
6FF83
347
6FF86
348
0
1001
AcCmTransparency
1071
 33554687
  0
LAYER
  5
2A
330
6FF9C
100
AcDbSymbolTableRecord
100
AcDbLayerTableRecord
  2
Level 36
 70
     0
 62
     7
  6
Continuous
370
     0
390
6FF83
347
6FF86
348
0
1001
AcCmTransparency
1071
 33554687
  0
LAYER
  5
2B
330
6FF9C
100
AcDbSymbolTableRecord
100
AcDbLayerTableRecord
  2
Level 37
 70
     0
 62
     7
  6
Continuous
370
     0
390
6FF83
347
6FF86
348
0
1001
AcCmTransparency
1071
 33554687
  0
LAYER
  5
2C
330
6FF9C
100
AcDbSymbolTableRecord
100
AcDbLayerTableRecord
  2
Level 38
 70
     0
 62
     7
  6
Continuous
370
     0
390
6FF83
347
6FF86
348
0
1001
AcCmTransparency
1071
 33554687
  0
LAYER
  5
2D
330
6FF9C
100
AcDbSymbolTableRecord
100
AcDbLayerTableRecord
  2
Level 39
 70
     0
 62
     7
  6
Continuous
370
     0
390
6FF83
347
6FF86
348
0
1001
AcCmTransparency
1071
 33554687
  0
LAYER
  5
2E
330
6FF9C
100
AcDbSymbolTableRecord
100
AcDbLayerTableRecord
  2
Level 40
 70
     0
 62
     7
  6
Continuous
370
     0
390
6FF83
347
6FF86
348
0
1001
AcCmTransparency
1071
 33554687
  0
LAYER
  5
2F
330
6FF9C
100
AcDbSymbolTableRecord
100
AcDbLayerTableRecord
  2
Level 41
 70
     0
 62
     7
  6
Continuous
370
     0
390
6FF83
347
6FF86
348
0
1001
AcCmTransparency
1071
 33554687
  0
LAYER
  5
30
330
6FF9C
100
AcDbSymbolTableRecord
100
AcDbLayerTableRecord
  2
Level 42
 70
     0
 62
     7
  6
Continuous
370
     0
390
6FF83
347
6FF86
348
0
1001
AcCmTransparency
1071
 33554687
  0
LAYER
  5
31
330
6FF9C
100
AcDbSymbolTableRecord
100
AcDbLayerTableRecord
  2
Level 43
 70
     0
 62
     7
  6
Continuous
370
     0
390
6FF83
347
6FF86
348
0
1001
AcCmTransparency
1071
 33554687
  0
LAYER
  5
32
330
6FF9C
100
AcDbSymbolTableRecord
100
AcDbLayerTableRecord
  2
Level 44
 70
     0
 62
     7
  6
Continuous
370
     0
390
6FF83
347
6FF86
348
0
1001
AcCmTransparency
1071
 33554687
  0
LAYER
  5
33
330
6FF9C
100
AcDbSymbolTableRecord
100
AcDbLayerTableRecord
  2
Level 45
 70
     0
 62
     7
  6
Continuous
370
     0
390
6FF83
347
6FF86
348
0
1001
AcCmTransparency
1071
 33554687
  0
LAYER
  5
34
330
6FF9C
100
AcDbSymbolTableRecord
100
AcDbLayerTableRecord
  2
Level 46
 70
     0
 62
     7
  6
Continuous
370
     0
390
6FF83
347
6FF86
348
0
1001
AcCmTransparency
1071
 33554687
  0
LAYER
  5
35
330
6FF9C
100
AcDbSymbolTableRecord
100
AcDbLayerTableRecord
  2
Level 47
 70
     0
 62
     7
  6
Continuous
370
     0
390
6FF83
347
6FF86
348
0
1001
AcCmTransparency
1071
 33554687
  0
LAYER
  5
36
330
6FF9C
100
AcDbSymbolTableRecord
100
AcDbLayerTableRecord
  2
Level 48
 70
     0
 62
     7
  6
Continuous
370
     0
390
6FF83
347
6FF86
348
0
1001
AcCmTransparency
1071
 33554687
  0
LAYER
  5
37
330
6FF9C
100
AcDbSymbolTableRecord
100
AcDbLayerTableRecord
  2
Level 49
 70
     0
 62
     7
  6
Continuous
370
     0
390
6FF83
347
6FF86
348
0
1001
AcCmTransparency
1071
 33554687
  0
LAYER
  5
38
330
6FF9C
100
AcDbSymbolTableRecord
100
AcDbLayerTableRecord
  2
Level 50
 70
     0
 62
     7
  6
Continuous
370
     0
390
6FF83
347
6FF86
348
0
1001
AcCmTransparency
1071
 33554687
  0
LAYER
  5
39
330
6FF9C
100
AcDbSymbolTableRecord
100
AcDbLayerTableRecord
  2
Level 51
 70
     0
 62
     7
  6
Continuous
370
     0
390
6FF83
347
6FF86
348
0
1001
AcCmTransparency
1071
 33554687
  0
LAYER
  5
3A
330
6FF9C
100
AcDbSymbolTableRecord
100
AcDbLayerTableRecord
  2
Level 52
 70
     0
 62
     7
  6
Continuous
370
     0
390
6FF83
347
6FF86
348
0
1001
AcCmTransparency
1071
 33554687
  0
LAYER
  5
3B
330
6FF9C
100
AcDbSymbolTableRecord
100
AcDbLayerTableRecord
  2
Level 53
 70
     0
 62
     7
  6
Continuous
370
     0
390
6FF83
347
6FF86
348
0
1001
AcCmTransparency
1071
 33554687
  0
LAYER
  5
3C
330
6FF9C
100
AcDbSymbolTableRecord
100
AcDbLayerTableRecord
  2
Level 54
 70
     0
 62
     7
  6
Continuous
370
     0
390
6FF83
347
6FF86
348
0
1001
AcCmTransparency
1071
 33554687
  0
LAYER
  5
3D
330
6FF9C
100
AcDbSymbolTableRecord
100
AcDbLayerTableRecord
  2
Level 55
 70
     0
 62
     7
  6
Continuous
370
     0
390
6FF83
347
6FF86
348
0
1001
AcCmTransparency
1071
 33554687
  0
LAYER
  5
3E
330
6FF9C
100
AcDbSymbolTableRecord
100
AcDbLayerTableRecord
  2
Level 56
 70
     0
 62
     7
  6
Continuous
370
     0
390
6FF83
347
6FF86
348
0
1001
AcCmTransparency
1071
 33554687
  0
LAYER
  5
3F
330
6FF9C
100
AcDbSymbolTableRecord
100
AcDbLayerTableRecord
  2
Level 57
 70
     0
 62
     7
  6
Continuous
370
     0
390
6FF83
347
6FF86
348
0
1001
AcCmTransparency
1071
 33554687
  0
LAYER
  5
40
330
6FF9C
100
AcDbSymbolTableRecord
100
AcDbLayerTableRecord
  2
Level 58
 70
     0
 62
     7
  6
Continuous
370
     0
390
6FF83
347
6FF86
348
0
1001
AcCmTransparency
1071
 33554687
  0
LAYER
  5
41
330
6FF9C
100
AcDbSymbolTableRecord
100
AcDbLayerTableRecord
  2
Level 59
 70
     0
 62
     7
  6
Continuous
370
     0
390
6FF83
347
6FF86
348
0
1001
AcCmTransparency
1071
 33554687
  0
LAYER
  5
42
330
6FF9C
100
AcDbSymbolTableRecord
100
AcDbLayerTableRecord
  2
Level 60
 70
     0
 62
     7
  6
Continuous
370
     0
390
6FF83
347
6FF86
348
0
1001
AcCmTransparency
1071
 33554687
  0
LAYER
  5
43
330
6FF9C
100
AcDbSymbolTableRecord
100
AcDbLayerTableRecord
  2
Level 61
 70
     0
 62
     7
  6
Continuous
370
     0
390
6FF83
347
6FF86
348
0
1001
AcCmTransparency
1071
 33554687
  0
LAYER
  5
44
330
6FF9C
100
AcDbSymbolTableRecord
100
AcDbLayerTableRecord
  2
Level 62
 70
     0
 62
     7
  6
Continuous
370
     0
390
6FF83
347
6FF86
348
0
1001
AcCmTransparency
1071
 33554687
  0
LAYER
  5
45
330
6FF9C
100
AcDbSymbolTableRecord
100
AcDbLayerTableRecord
  2
Level 63
 70
     0
 62
     7
  6
Continuous
370
     0
390
6FF83
347
6FF86
348
0
1001
AcCmTransparency
1071
 33554687
  0
LAYER
  5
50CA0
330
6FF9C
100
AcDbSymbolTableRecord
100
AcDbLayerTableRecord
  2
25
 70
     0
 62
     7
  6
Continuous
370
     0
390
6FF83
347
6FF86
348
0
1001
AcCmTransparency
1071
 33554687
  0
ENDTAB
  0
TABLE
  2
STYLE
  5
6FF9F
330
0
100
AcDbSymbolTable
 70
     1
  0
STYLE
  5
6FFA0
330
6FF9F
100
AcDbSymbolTableRecord
100
AcDbTextStyleTableRecord
  2
Standard
 70
     0
 40
0.0
 41
1.0
 50
0.0
 71
     0
 42
100.0
  3
txt
  4

  0
ENDTAB
  0
TABLE
  2
VIEW
  5
6FFA5
330
0
100
AcDbSymbolTable
 70
     0
  0
ENDTAB
  0
TABLE
  2
UCS
  5
6FFA6
330
0
100
AcDbSymbolTable
 70
     0
  0
ENDTAB
  0
TABLE
  2
APPID
  5
6FFAB
330
0
100
AcDbSymbolTable
 70
     3
  0
APPID
  5
6FFAC
330
6FFAB
100
AcDbSymbolTableRecord
100
AcDbRegAppTableRecord
  2
ACAD
 70
     0
  0
APPID
  5
6FF9B
330
6FFAB
100
AcDbSymbolTableRecord
100
AcDbRegAppTableRecord
  2
ACAD_PSEXT
 70
     0
  0
APPID
  5
6FFEF
330
6FFAB
100
AcDbSymbolTableRecord
100
AcDbRegAppTableRecord
  2
AcCmTransparency
 70
     0
  0
ENDTAB
  0
TABLE
  2
DIMSTYLE
  5
6FFAD
330
0
100
AcDbSymbolTable
 70
     1
100
AcDbDimStyleTable
 71
     1
340
6FFAE
  0
DIMSTYLE
105
6FFAE
330
6FFAD
100
AcDbSymbolTableRecord
100
AcDbDimStyleTableRecord
  2
Standard
 70
     0
340
6FFA0
  0
ENDTAB
  0
TABLE
  2
BLOCK_RECORD
  5
6FF7D
330
0
100
AcDbSymbolTable
 70
    58
  0
BLOCK_RECORD
  5
6FF7E
330
6FF7D
100
AcDbSymbolTableRecord
100
AcDbBlockTableRecord
  2
*Model_Space
340
6FF91
 70
     0
280
     1
281
     0
  0
BLOCK_RECORD
  5
6FF95
330
6FF7D
100
AcDbSymbolTableRecord
100
AcDbBlockTableRecord
  2
*Paper_Space
340
6FF98
 70
     0
280
     1
281
     0
  0
BLOCK_RECORD
  5
6FFF2
102
{ACAD_XDICTIONARY
360
700A0
102
}
330
6FF7D
100
AcDbSymbolTableRecord
100
AcDbBlockTableRecord
  2
FS34
340
0
102
{BLKREFS
331
6FD89
102
}
 70
     0
280
     1
281
     0
  0
BLOCK_RECORD
  5
6FFF5
330
6FF7D
100
AcDbSymbolTableRecord
100
AcDbBlockTableRecord
  2
Feature Solid
340
0
102
{BLKREFS
331
6FD8A
102
}
 70
     0
280
     1
281
     0
  0
BLOCK_RECORD
  5
6FFF8
330
6FF7D
100
AcDbSymbolTableRecord
100
AcDbBlockTableRecord
  2
CONE
340
0
102
{BLKREFS
331
6FD8B
102
}
 70
     0
280
     1
281
     0
  0
BLOCK_RECORD
  5
6FFFB
330
6FF7D
100
AcDbSymbolTableRecord
100
AcDbBlockTableRecord
  2
Feature Solid_1
340
0
102
{BLKREFS
331
6FD92
102
}
 70
     0
280
     1
281
     0
  0
BLOCK_RECORD
  5
6FFFE
330
6FF7D
100
AcDbSymbolTableRecord
100
AcDbBlockTableRecord
  2
ROUNDE
340
0
102
{BLKREFS
331
6FD93
102
}
 70
     0
280
     1
281
     0
  0
BLOCK_RECORD
  5
70001
330
6FF7D
100
AcDbSymbolTableRecord
100
AcDbBlockTableRecord
  2
CONE_1
340
0
102
{BLKREFS
331
6FD94
102
}
 70
     0
280
     1
281
     0
  0
BLOCK_RECORD
  5
70004
330
6FF7D
100
AcDbSymbolTableRecord
100
AcDbBlockTableRecord
  2
Smart Solid
340
0
102
{BLKREFS
331
6FD9C
102
}
 70
     0
280
     1
281
     0
  0
BLOCK_RECORD
  5
70007
330
6FF7D
100
AcDbSymbolTableRecord
100
AcDbBlockTableRecord
  2
Smart Solid_1
340
0
102
{BLKREFS
331
6FDA4
102
}
 70
     0
280
     1
281
     0
  0
BLOCK_RECORD
  5
7000A
330
6FF7D
100
AcDbSymbolTableRecord
100
AcDbBlockTableRecord
  2
Smart Solid_2
340
0
102
{BLKREFS
331
6FDAC
102
}
 70
     0
280
     1
281
     0
  0
BLOCK_RECORD
  5
7000D
330
6FF7D
100
AcDbSymbolTableRecord
100
AcDbBlockTableRecord
  2
Smart Solid_3
340
0
102
{BLKREFS
331
6FDB4
102
}
 70
     0
280
     1
281
     0
  0
BLOCK_RECORD
  5
70010
330
6FF7D
100
AcDbSymbolTableRecord
100
AcDbBlockTableRecord
  2
Smart Solid_4
340
0
102
{BLKREFS
331
6FDBC
102
}
 70
     0
280
     1
281
     0
  0
BLOCK_RECORD
  5
70013
330
6FF7D
100
AcDbSymbolTableRecord
100
AcDbBlockTableRecord
  2
Smart Solid_5
340
0
102
{BLKREFS
331
6FDC4
102
}
 70
     0
280
     1
281
     0
  0
BLOCK_RECORD
  5
70016
330
6FF7D
100
AcDbSymbolTableRecord
100
AcDbBlockTableRecord
  2
Feature Solid_2
340
0
102
{BLKREFS
331
6FDCC
102
}
 70
     0
280
     1
281
     0
  0
BLOCK_RECORD
  5
70019
330
6FF7D
100
AcDbSymbolTableRecord
100
AcDbBlockTableRecord
  2
CONE_2
340
0
102
{BLKREFS
331
6FDCD
102
}
 70
     0
280
     1
281
     0
  0
BLOCK_RECORD
  5
7001C
330
6FF7D
100
AcDbSymbolTableRecord
100
AcDbBlockTableRecord
  2
Feature Solid_3
340
0
102
{BLKREFS
331
6FDD4
102
}
 70
     0
280
     1
281
     0
  0
BLOCK_RECORD
  5
7001F
330
6FF7D
100
AcDbSymbolTableRecord
100
AcDbBlockTableRecord
  2
SUBTRC
340
0
102
{BLKREFS
331
6FDD5
102
}
 70
     0
280
     1
281
     0
  0
BLOCK_RECORD
  5
70022
330
6FF7D
100
AcDbSymbolTableRecord
100
AcDbBlockTableRecord
  2
Feature Solid_4
340
0
102
{BLKREFS
331
6FDD8
102
}
 70
     0
280
     1
281
     0
  0
BLOCK_RECORD
  5
70025
330
6FF7D
100
AcDbSymbolTableRecord
100
AcDbBlockTableRecord
  2
CONE_3
340
0
102
{BLKREFS
331
6FDD9
102
}
 70
     0
280
     1
281
     0
  0
BLOCK_RECORD
  5
70028
330
6FF7D
100
AcDbSymbolTableRecord
100
AcDbBlockTableRecord
  2
Feature Solid_5
340
0
102
{BLKREFS
331
6FDE0
102
}
 70
     0
280
     1
281
     0
  0
BLOCK_RECORD
  5
7002B
330
6FF7D
100
AcDbSymbolTableRecord
100
AcDbBlockTableRecord
  2
SUBTRC_1
340
0
102
{BLKREFS
331
6FDE1
102
}
 70
     0
280
     1
281
     0
  0
BLOCK_RECORD
  5
7002E
330
6FF7D
100
AcDbSymbolTableRecord
100
AcDbBlockTableRecord
  2
Feature Solid_6
340
0
102
{BLKREFS
331
6FDE4
102
}
 70
     0
280
     1
281
     0
  0
BLOCK_RECORD
  5
70031
330
6FF7D
100
AcDbSymbolTableRecord
100
AcDbBlockTableRecord
  2
CONE_4
340
0
102
{BLKREFS
331
6FDE5
102
}
 70
     0
280
     1
281
     0
  0
BLOCK_RECORD
  5
70034
330
6FF7D
100
AcDbSymbolTableRecord
100
AcDbBlockTableRecord
  2
Feature Solid_7
340
0
102
{BLKREFS
331
6FDEC
102
}
 70
     0
280
     1
281
     0
  0
BLOCK_RECORD
  5
70037
330
6FF7D
100
AcDbSymbolTableRecord
100
AcDbBlockTableRecord
  2
CONE_5
340
0
102
{BLKREFS
331
6FDED
102
}
 70
     0
280
     1
281
     0
  0
BLOCK_RECORD
  5
7003A
330
6FF7D
100
AcDbSymbolTableRecord
100
AcDbBlockTableRecord
  2
Feature Solid_8
340
0
102
{BLKREFS
331
6FDF4
102
}
 70
     0
280
     1
281
     0
  0
BLOCK_RECORD
  5
7003D
330
6FF7D
100
AcDbSymbolTableRecord
100
AcDbBlockTableRecord
  2
SUBTRC_2
340
0
102
{BLKREFS
331
6FDF5
102
}
 70
     0
280
     1
281
     0
  0
BLOCK_RECORD
  5
70040
330
6FF7D
100
AcDbSymbolTableRecord
100
AcDbBlockTableRecord
  2
Feature Solid_9
340
0
102
{BLKREFS
331
6FDF8
102
}
 70
     0
280
     1
281
     0
  0
BLOCK_RECORD
  5
70043
330
6FF7D
100
AcDbSymbolTableRecord
100
AcDbBlockTableRecord
  2
CONE_6
340
0
102
{BLKREFS
331
6FDF9
102
}
 70
     0
280
     1
281
     0
  0
BLOCK_RECORD
  5
70046
330
6FF7D
100
AcDbSymbolTableRecord
100
AcDbBlockTableRecord
  2
Feature Solid_10
340
0
102
{BLKREFS
331
6FE00
102
}
 70
     0
280
     1
281
     0
  0
BLOCK_RECORD
  5
70049
330
6FF7D
100
AcDbSymbolTableRecord
100
AcDbBlockTableRecord
  2
CONE_7
340
0
102
{BLKREFS
331
6FE01
102
}
 70
     0
280
     1
281
     0
  0
BLOCK_RECORD
  5
7004C
330
6FF7D
100
AcDbSymbolTableRecord
100
AcDbBlockTableRecord
  2
Feature Solid_11
340
0
102
{BLKREFS
331
6FE08
102
}
 70
     0
280
     1
281
     0
  0
BLOCK_RECORD
  5
7004F
330
6FF7D
100
AcDbSymbolTableRecord
100
AcDbBlockTableRecord
  2
CONE_8
340
0
102
{BLKREFS
331
6FE09
102
}
 70
     0
280
     1
281
     0
  0
BLOCK_RECORD
  5
70052
330
6FF7D
100
AcDbSymbolTableRecord
100
AcDbBlockTableRecord
  2
From Surface
340
0
102
{BLKREFS
331
6FF6C
102
}
 70
     0
280
     1
281
     0
  0
BLOCK_RECORD
  5
70055
330
6FF7D
100
AcDbSymbolTableRecord
100
AcDbBlockTableRecord
  2
From Surface_1
340
0
102
{BLKREFS
331
6FF6D
102
}
 70
     0
280
     1
281
     0
  0
BLOCK_RECORD
  5
70058
330
6FF7D
100
AcDbSymbolTableRecord
100
AcDbBlockTableRecord
  2
From Surface_2
340
0
102
{BLKREFS
331
6FF6E
102
}
 70
     0
280
     1
281
     0
  0
BLOCK_RECORD
  5
7005B
330
6FF7D
100
AcDbSymbolTableRecord
100
AcDbBlockTableRecord
  2
From Surface_3
340
0
102
{BLKREFS
331
6FF6F
102
}
 70
     0
280
     1
281
     0
  0
BLOCK_RECORD
  5
7005E
330
6FF7D
100
AcDbSymbolTableRecord
100
AcDbBlockTableRecord
  2
From Surface_4
340
0
102
{BLKREFS
331
6FF70
102
}
 70
     0
280
     1
281
     0
  0
BLOCK_RECORD
  5
70061
330
6FF7D
100
AcDbSymbolTableRecord
100
AcDbBlockTableRecord
  2
From Surface_5
340
0
102
{BLKREFS
331
6FF71
102
}
 70
     0
280
     1
281
     0
  0
BLOCK_RECORD
  5
70064
330
6FF7D
100
AcDbSymbolTableRecord
100
AcDbBlockTableRecord
  2
From Surface_6
340
0
102
{BLKREFS
331
6FF72
102
}
 70
     0
280
     1
281
     0
  0
BLOCK_RECORD
  5
70067
330
6FF7D
100
AcDbSymbolTableRecord
100
AcDbBlockTableRecord
  2
From Surface_7
340
0
102
{BLKREFS
331
6FF73
102
}
 70
     0
280
     1
281
     0
  0
BLOCK_RECORD
  5
7006A
330
6FF7D
100
AcDbSymbolTableRecord
100
AcDbBlockTableRecord
  2
Feature Solid_12
340
0
102
{BLKREFS
331
6FE7E
102
}
 70
     0
280
     1
281
     0
  0
BLOCK_RECORD
  5
7006D
330
6FF7D
100
AcDbSymbolTableRecord
100
AcDbBlockTableRecord
  2
CONE_9
340
0
102
{BLKREFS
331
6FE7F
102
}
 70
     0
280
     1
281
     0
  0
BLOCK_RECORD
  5
70070
330
6FF7D
100
AcDbSymbolTableRecord
100
AcDbBlockTableRecord
  2
Feature Solid_13
340
0
102
{BLKREFS
331
6FE86
102
}
 70
     0
280
     1
281
     0
  0
BLOCK_RECORD
  5
70073
330
6FF7D
100
AcDbSymbolTableRecord
100
AcDbBlockTableRecord
  2
SUBTRC_3
340
0
102
{BLKREFS
331
6FE87
102
}
 70
     0
280
     1
281
     0
  0
BLOCK_RECORD
  5
70076
330
6FF7D
100
AcDbSymbolTableRecord
100
AcDbBlockTableRecord
  2
Feature Solid_14
340
0
102
{BLKREFS
331
6FE8A
102
}
 70
     0
280
     1
281
     0
  0
BLOCK_RECORD
  5
70079
330
6FF7D
100
AcDbSymbolTableRecord
100
AcDbBlockTableRecord
  2
CONE_10
340
0
102
{BLKREFS
331
6FE8B
102
}
 70
     0
280
     1
281
     0
  0
BLOCK_RECORD
  5
7007C
330
6FF7D
100
AcDbSymbolTableRecord
100
AcDbBlockTableRecord
  2
Feature Solid_15
340
0
102
{BLKREFS
331
6FE92
102
}
 70
     0
280
     1
281
     0
  0
BLOCK_RECORD
  5
7007F
330
6FF7D
100
AcDbSymbolTableRecord
100
AcDbBlockTableRecord
  2
CONE_11
340
0
102
{BLKREFS
331
6FE93
102
}
 70
     0
280
     1
281
     0
  0
BLOCK_RECORD
  5
70082
330
6FF7D
100
AcDbSymbolTableRecord
100
AcDbBlockTableRecord
  2
Feature Solid_16
340
0
102
{BLKREFS
331
6FE9A
102
}
 70
     0
280
     1
281
     0
  0
BLOCK_RECORD
  5
70085
330
6FF7D
100
AcDbSymbolTableRecord
100
AcDbBlockTableRecord
  2
CONE_12
340
0
102
{BLKREFS
331
6FE9B
102
}
 70
     0
280
     1
281
     0
  0
BLOCK_RECORD
  5
70088
330
6FF7D
100
AcDbSymbolTableRecord
100
AcDbBlockTableRecord
  2
From Surface_8
340
0
102
{BLKREFS
331
6FF74
102
}
 70
     0
280
     1
281
     0
  0
BLOCK_RECORD
  5
7008B
330
6FF7D
100
AcDbSymbolTableRecord
100
AcDbBlockTableRecord
  2
From Surface_9
340
0
102
{BLKREFS
331
6FF75
102
}
 70
     0
280
     1
281
     0
  0
BLOCK_RECORD
  5
7008E
330
6FF7D
100
AcDbSymbolTableRecord
100
AcDbBlockTableRecord
  2
From Surface_10
340
0
102
{BLKREFS
331
6FF76
102
}
 70
     0
280
     1
281
     0
  0
BLOCK_RECORD
  5
70091
330
6FF7D
100
AcDbSymbolTableRecord
100
AcDbBlockTableRecord
  2
From Surface_11
340
0
102
{BLKREFS
331
6FF77
102
}
 70
     0
280
     1
281
     0
  0
BLOCK_RECORD
  5
70094
330
6FF7D
100
AcDbSymbolTableRecord
100
AcDbBlockTableRecord
  2
From Surface_12
340
0
102
{BLKREFS
331
6FF78
102
}
 70
     0
280
     1
281
     0
  0
BLOCK_RECORD
  5
70097
330
6FF7D
100
AcDbSymbolTableRecord
100
AcDbBlockTableRecord
  2
From Surface_13
340
0
102
{BLKREFS
331
6FF79
102
}
 70
     0
280
     1
281
     0
  0
BLOCK_RECORD
  5
7009A
330
6FF7D
100
AcDbSymbolTableRecord
100
AcDbBlockTableRecord
  2
From Surface_14
340
0
102
{BLKREFS
331
6FF7A
102
}
 70
     0
280
     1
281
     0
  0
BLOCK_RECORD
  5
7009D
330
6FF7D
100
AcDbSymbolTableRecord
100
AcDbBlockTableRecord
  2
From Surface_15
340
0
102
{BLKREFS
331
6FF7B
102
}
 70
     0
280
     1
281
     0
  0
ENDTAB
  0
ENDSEC
  0
SECTION
  2
BLOCKS
  0
BLOCK
  5
6FF7F
330
6FF7E
100
AcDbEntity
  8
0
100
AcDbBlockBegin
  2
*Model_Space
 70
     0
 10
0.0
 20
0.0
 30
0.0
  3
*Model_Space
  1

  0
ENDBLK
  5
6FF90
330
6FF7E
100
AcDbEntity
  8
0
100
AcDbBlockEnd
  0
BLOCK
  5
6FF96
330
6FF95
100
AcDbEntity
 67
     1
  8
0
100
AcDbBlockBegin
  2
*Paper_Space
 70
     0
 10
0.0
 20
0.0
 30
0.0
  3
*Paper_Space
  1

  0
ENDBLK
  5
6FF97
330
6FF95
100
AcDbEntity
 67
     1
  8
0
100
AcDbBlockEnd
  0
BLOCK
  5
6FFF3
330
6FFF2
100
AcDbEntity
  8
0
 62
    98
370
     0
100
AcDbBlockBegin
  2
FS34
 70
     0
 10
0.0
 20
0.0
 30
0.0
  3
FS34
  1

  0
INSERT
  5
6FD8A
330
6FFF2
100
AcDbEntity
  8
Level 26
 62
     7
370
    13
100
AcDbBlockReference
  2
Feature Solid
 10
-28.098437
 20
-0.044148
 30
0.0
 41
10000.0
 42
10000.0
 43
10000.0
  0
INSERT
  5
6FD92
330
6FFF2
100
AcDbEntity
  8
Level 26
 62
     7
370
    13
100
AcDbBlockReference
  2
Feature Solid_1
 10
-54.705247
 20
0.004804
 30
0.0
 41
6743.252674
 42
6743.252674
 43
6743.252674
  0
ELLIPSE
  5
6FD9B
330
6FFF2
100
AcDbEntity
  8
Level 27
 62
    40
370
    13
100
AcDbEllipse
 10
-31.586823
 20
-0.000021
 30
0.0
 11
0.0
 21
69.99999999999933
 31
0.0
210
0.0
220
0.0
230
1.0
 40
0.9840820706346915
 41
0.0
 42
6.283185307179586
  0
INSERT
  5
6FD9C
330
6FFF2
100
AcDbEntity
  8
Level 27
 62
    40
370
    13
100
AcDbBlockReference
  2
Smart Solid
 10
-0.049984
 20
-844.830066
 30
152.567189
 41
10000.0
 42
10000.0
 43
10000.0
 50
90.0
210
-0.1777145977553255
220
0.0000000010297995
230
0.9840820706346919
  0
INSERT
  5
6FDA4
330
6FFF2
100
AcDbEntity
  8
Level 27
 62
    40
370
    13
100
AcDbBlockReference
  2
Smart Solid_1
 10
736.096612
 20
-433.294557
 30
78.248319
 41
10000.0
 42
10000.0
 43
10000.0
 50
150.0
210
-0.1777145977553255
220
0.0000000010297995
230
0.9840820706346919
  0
INSERT
  5
6FDAC
330
6FFF2
100
AcDbEntity
  8
Level 27
 62
    40
370
    13
100
AcDbBlockReference
  2
Smart Solid_2
 10
736.146617
 20
389.860336
 30
-70.404568
 41
10000.0
 42
10000.0
 43
10000.0
 50
210.0
210
-0.1777145977553255
220
0.0000000010297995
230
0.9840820706346919
  0
INSERT
  5
6FDB4
330
6FFF2
100
AcDbEntity
  8
Level 27
 62
    40
370
    13
100
AcDbBlockReference
  2
Smart Solid_3
 10
0.050026
 20
801.479721
 30
-144.738585
 41
10000.0
 42
10000.0
 43
10000.0
 50
270.0
210
-0.1777145977553255
220
0.0000000010297995
230
0.9840820706346919
  0
INSERT
  5
6FDBC
330
6FFF2
100
AcDbEntity
  8
Level 27
 62
    40
370
    13
100
AcDbBlockReference
  2
Smart Solid_4
 10
-736.09657
 20
389.944212
 30
-70.419715
 41
10000.0
 42
10000.0
 43
10000.0
 50
330.0
210
-0.1777145977553255
220
0.0000000010297995
230
0.9840820706346919
  0
INSERT
  5
6FDC4
330
6FFF2
100
AcDbEntity
  8
Level 27
 62
    40
370
    13
100
AcDbBlockReference
  2
Smart Solid_5
 10
-736.146574
 20
-433.210681
 30
78.233172
 41
10000.0
 42
10000.0
 43
10000.0
 50
30.0
210
-0.1777145977553255
220
0.0000000010297995
230
0.9840820706346919
  0
INSERT
  5
6FDCC
330
6FFF2
100
AcDbEntity
  8
Level 27
 62
    40
370
    13
100
AcDbBlockReference
  2
Feature Solid_2
 10
-30.698437
 20
0.005852
 30
0.0
 41
10000.0
 42
10000.0
 43
10000.0
  0
INSERT
  5
6FDD4
330
6FFF2
100
AcDbEntity
  8
Level 25
 62
   252
370
    13
100
AcDbBlockReference
  2
Feature Solid_3
 10
0.05
 20
0.0
 30
0.0
 41
10000.0
 42
10000.0
 43
10000.0
  0
INSERT
  5
6FDE0
330
6FFF2
100
AcDbEntity
  8
Level 25
 62
   252
370
    13
100
AcDbBlockReference
  2
Feature Solid_5
 10
-12.2155
 20
0.0
 30
0.0
 41
10000.0
 42
10000.0
 43
10000.0
  0
INSERT
  5
6FDEC
330
6FFF2
100
AcDbEntity
  8
Level 27
 62
    40
370
    13
100
AcDbBlockReference
  2
Feature Solid_7
 10
-43.15
 20
-0.05
 30
0.0
 41
10000.0
 42
10000.0
 43
10000.0
  0
INSERT
  5
6FDF4
330
6FFF2
100
AcDbEntity
  8
Level 25
 62
   252
370
    13
100
AcDbBlockReference
  2
Feature Solid_8
 10
-12.2
 20
0.0
 30
0.0
 41
10000.0
 42
10000.0
 43
10000.0
  0
INSERT
  5
6FE00
330
6FFF2
100
AcDbEntity
  8
Level 27
 62
    40
370
    13
100
AcDbBlockReference
  2
Feature Solid_10
 10
-43.15
 20
-0.05
 30
0.0
 41
10000.0
 42
10000.0
 43
10000.0
  0
INSERT
  5
6FE08
330
6FFF2
100
AcDbEntity
  8
Level 27
 62
    40
370
    13
100
AcDbBlockReference
  2
Feature Solid_11
 10
-43.15
 20
-0.05
 30
0.0
 41
10000.0
 42
10000.0
 43
10000.0
  0
INSERT
  5
6FF6C
330
6FFF2
100
AcDbEntity
  8
Level 27
 62
    40
370
    13
100
AcDbBlockReference
  2
From Surface
 10
-3015.599073
 20
-157.017589
 30
0.0
  0
INSERT
  5
6FF6D
330
6FFF2
100
AcDbEntity
  8
Level 27
 62
    40
370
    13
100
AcDbBlockReference
  2
From Surface_1
 10
-3015.599073
 20
-157.017589
 30
0.0
  0
INSERT
  5
6FF6E
330
6FFF2
100
AcDbEntity
  8
Level 27
 62
    40
370
    13
100
AcDbBlockReference
  2
From Surface_2
 10
-3015.599073
 20
-157.017589
 30
0.0
  0
SPLINE
  5
6FE43
330
6FFF2
100
AcDbEntity
  8
Level 27
 62
    40
370
    13
100
AcDbSpline
210
0.0
220
0.0
230
1.0
 70
    13
 71
     2
 72
    10
 73
     7
 74
     0
 42
0.000000001
 43
0.0000000001
 40
0.0
 40
0.0
 40
0.0
 40
0.3333333333333333
 40
0.3333333333333333
 40
0.6666666666666666
 40
0.6666666666666666
 40
1.0
 40
1.0
 40
1.0
 10
-53.42186161351264
 20
10.59997917556202
 30
0.0
 41
1.0
 10
-46.89627450726357
 20
10.59997913774833
 30
0.0
 41
0.5000000000000001
 10
-23.05783393519823
 20
-5.300021159971208
 30
0.0
 41
1.0
 10
0.7806066368675602
 20
-21.20002145769072
 30
0.0
 41
0.5000000000000001
 10
-29.58342104144686
 20
-5.300021122157517
 30
0.0
 41
1.0
 10
-59.94744871976081
 20
10.59997921337569
 30
0.0
 41
0.5000000000000001
 10
-53.42186161351264
 20
10.59997917556202
 30
0.0
 41
1.0
  0
SPLINE
  5
6FE45
330
6FFF2
100
AcDbEntity
  8
Level 27
 62
    40
370
    13
100
AcDbSpline
210
0.0
220
0.0
230
1.0
 70
    13
 71
     2
 72
    10
 73
     7
 74
     0
 42
0.000000001
 43
0.0000000001
 40
0.0
 40
0.0
 40
0.0
 40
0.3333333333333333
 40
0.3333333333333333
 40
0.6666666666666666
 40
0.6666666666666666
 40
1.0
 40
1.0
 40
1.0
 10
689.0496946249763
 20
446.1999705011993
 30
0.0
 41
1.0
 10
682.5241075187277
 20
446.1999705762249
 30
0.0
 41
0.5000000000000001
 10
685.7869007062431
 20
414.3999705387122
 30
0.0
 41
1.0
 10
689.0496938937586
 20
382.5999705011994
 30
0.0
 41
0.5000000000000001
 10
692.3124878124918
 20
414.3999704636866
 30
0.0
 41
1.0
 10
695.5752817312245
 20
446.1999704261737
 30
0.0
 41
0.5000000000000001
 10
689.0496946249763
 20
446.1999705011993
 30
0.0
 41
1.0
  0
INSERT
  5
6FF6F
330
6FFF2
100
AcDbEntity
  8
Level 27
 62
    40
370
    13
100
AcDbBlockReference
  2
From Surface_3
 10
-3015.599073
 20
-157.017589
 30
0.0
  0
SPLINE
  5
6FE4E
330
6FFF2
100
AcDbEntity
  8
Level 27
 62
    40
370
    13
100
AcDbSpline
210
0.0
220
0.0
230
1.0
 70
    13
 71
     2
 72
    10
 73
     7
 74
     0
 42
0.000000001
 43
0.0000000001
 40
0.0
 40
0.0
 40
0.0
 40
0.3333333333333333
 40
0.3333333333333333
 40
0.6666666666666666
 40
0.6666666666666666
 40
1.0
 40
1.0
 40
1.0
 10
-53.42186185725859
 20
-10.60002082443796
 30
0.0
 41
1.0
 10
-46.89627475101042
 20
-10.60002086225168
 30
0.0
 41
0.5000000000000001
 10
-23.05783381333595
 20
5.299978840028785
 30
0.0
 41
1.0
 10
0.7806071243385305
 20
21.19997854230928
 30
0.0
 41
0.5000000000000001
 10
-29.58342091958457
 20
5.299978877842505
 30
0.0
 41
1.0
 10
-59.94744896350721
 20
-10.60002078662427
 30
0.0
 41
0.5000000000000001
 10
-53.42186185725859
 20
-10.60002082443796
 30
0.0
 41
1.0
  0
SPLINE
  5
6FE50
330
6FFF2
100
AcDbEntity
  8
Level 27
 62
    40
370
    13
100
AcDbSpline
210
0.0
220
0.0
230
1.0
 70
    13
 71
     2
 72
    10
 73
     7
 74
     0
 42
0.000000001
 43
0.0000000001
 40
0.0
 40
0.0
 40
0.0
 40
0.3333333333333333
 40
0.3333333333333333
 40
0.6666666666666666
 40
0.6666666666666666
 40
1.0
 40
1.0
 40
1.0
 10
-53.42185184095114
 20
860.5999791755696
 30
0.0
 41
1.0
 10
-59.94743894719931
 20
860.5999792133832
 30
0.0
 41
0.5000000000000001
 10
-29.58341126888536
 20
844.69997887785
 30
0.0
 41
1.0
 10
0.780616409429058
 20
828.7999785423165
 30
0.0
 41
0.5000000000000001
 10
-23.05782416263673
 20
844.6999788400361
 30
0.0
 41
1.0
 10
-46.89626473470207
 20
860.5999791377559
 30
0.0
 41
0.5000000000000001
 10
-53.42185184095114
 20
860.5999791755696
 30
0.0
 41
1.0
  0
INSERT
  5
6FF70
330
6FFF2
100
AcDbEntity
  8
Level 27
 62
    40
370
    13
100
AcDbBlockReference
  2
From Surface_4
 10
-3015.599073
 20
-157.017589
 30
0.0
  0
SPLINE
  5
6FE59
330
6FFF2
100
AcDbEntity
  8
Level 27
 62
    40
370
    13
100
AcDbSpline
210
0.0
220
0.0
230
1.0
 70
    13
 71
     2
 72
    10
 73
     7
 74
     0
 42
0.000000001
 43
0.0000000001
 40
0.0
 40
0.0
 40
0.0
 40
0.3333333333333333
 40
0.3333333333333333
 40
0.6666666666666666
 40
0.6666666666666666
 40
1.0
 40
1.0
 40
1.0
 10
-35.35437244045807
 20
-21.20002103552969
 30
0.0
 41
1.0
 10
-28.8287853342099
 20
-21.20002111055516
 30
0.0
 41
0.5000000000000001
 10
-32.0915785217253
 20
10.59997892695753
 30
0.0
 41
1.0
 10
-35.35437170924115
 20
42.39997896447031
 30
0.0
 41
0.5000000000000001
 10
-38.61716562797346
 20
10.59997900198308
 30
0.0
 41
1.0
 10
-41.87995954670668
 20
-21.20002096050413
 30
0.0
 41
0.5000000000000001
 10
-35.35437244045807
 20
-21.20002103552969
 30
0.0
 41
1.0
  0
SPLINE
  5
6FE5B
330
6FFF2
100
AcDbEntity
  8
Level 27
 62
    40
370
    13
100
AcDbSpline
210
0.0
220
0.0
230
1.0
 70
    15
 71
     2
 72
    10
 73
     7
 74
     0
 42
0.000000001
 43
0.0000000001
 40
0.0
 40
0.0
 40
0.0
 40
0.3333333333333333
 40
0.3333333333333333
 40
0.6666666666666666
 40
0.6666666666666666
 40
1.0
 40
1.0
 40
1.0
 10
-777.825918662646
 20
414.3999876388405
 30
0.0
 41
1.0
 10
-784.3515057688946
 20
414.3999876766542
 30
0.0
 41
0.5000000000000001
 10
-753.9874777249715
 20
430.2999873411208
 30
0.0
 41
1.0
 10
-723.6234496810489
 20
446.1999870055875
 30
0.0
 41
0.5000000000000001
 10
-747.4618906187234
 20
430.2999873033071
 30
0.0
 41
1.0
 10
-771.3003315563974
 20
414.3999876010269
 30
0.0
 41
0.5000000000000001
 10
-777.825918662646
 20
414.3999876388405
 30
0.0
 41
1.0
  0
INSERT
  5
6FF71
330
6FFF2
100
AcDbEntity
  8
Level 27
 62
    40
370
    13
100
AcDbBlockReference
  2
From Surface_5
 10
-3015.599073
 20
-157.017589
 30
0.0
  0
SPLINE
  5
6FE64
330
6FFF2
100
AcDbEntity
  8
Level 27
 62
    40
370
    13
100
AcDbSpline
210
0.0
220
0.0
230
1.0
 70
    13
 71
     2
 72
    10
 73
     7
 74
     0
 42
0.000000001
 43
0.0000000001
 40
0.0
 40
0.0
 40
0.0
 40
0.3333333333333333
 40
0.3333333333333333
 40
0.6666666666666666
 40
0.6666666666666666
 40
1.0
 40
1.0
 40
1.0
 10
-17.28688277993297
 20
-10.60002124661395
 30
0.0
 41
1.0
 10
-10.7612956736848
 20
-10.60002128442764
 30
0.0
 41
0.5000000000000001
 10
-41.12532335199875
 20
5.299979051105594
 30
0.0
 41
1.0
 10
-71.48935103031272
 20
21.19997938663883
 30
0.0
 41
0.5000000000000001
 10
-47.65091045824692
 20
5.299979088919286
 30
0.0
 41
1.0
 10
-23.81246988618205
 20
-10.60002120880023
 30
0.0
 41
0.5000000000000001
 10
-17.28688277993297
 20
-10.60002124661395
 30
0.0
 41
1.0
  0
SPLINE
  5
6FE66
330
6FFF2
100
AcDbEntity
  8
Level 27
 62
    40
370
    13
100
AcDbSpline
210
0.0
220
0.0
230
1.0
 70
    13
 71
     2
 72
    10
 73
     7
 74
     0
 42
0.000000001
 43
0.0000000001
 40
0.0
 40
0.0
 40
0.0
 40
0.3333333333333333
 40
0.3333333333333333
 40
0.6666666666666666
 40
0.6666666666666666
 40
1.0
 40
1.0
 40
1.0
 10
-759.7584390184143
 20
-446.2000125722512
 30
0.0
 41
1.0
 10
-766.2840261246628
 20
-446.2000124972258
 30
0.0
 41
0.5000000000000001
 10
-763.0212322059296
 20
-414.4000125347385
 30
0.0
 41
1.0
 10
-759.7584382871964
 20
-382.6000125722513
 30
0.0
 41
0.5000000000000001
 10
-756.4956450996815
 20
-414.400012609764
 30
0.0
 41
1.0
 10
-753.232851912166
 20
-446.2000126472768
 30
0.0
 41
0.5000000000000001
 10
-759.7584390184143
 20
-446.2000125722512
 30
0.0
 41
1.0
  0
INSERT
  5
6FF72
330
6FFF2
100
AcDbEntity
  8
Level 27
 62
    40
370
    13
100
AcDbBlockReference
  2
From Surface_6
 10
-3015.599073
 20
-157.017589
 30
0.0
  0
SPLINE
  5
6FE6F
330
6FFF2
100
AcDbEntity
  8
Level 27
 62
    40
370
    13
100
AcDbSpline
210
0.0
220
0.0
230
1.0
 70
    13
 71
     2
 72
    10
 73
     7
 74
     0
 42
0.000000001
 43
0.0000000001
 40
0.0
 40
0.0
 40
0.0
 40
0.3333333333333333
 40
0.3333333333333333
 40
0.6666666666666666
 40
0.6666666666666666
 40
1.0
 40
1.0
 40
1.0
 10
-17.2868825361943
 20
10.59997875338604
 30
0.0
 41
1.0
 10
-10.76129542994522
 20
10.59997871557235
 30
0.0
 41
0.5000000000000001
 10
-41.12532347386832
 20
-5.300020948894427
 30
0.0
 41
1.0
 10
-71.48935151779141
 20
-21.20002061336121
 30
0.0
 41
0.5000000000000001
 10
-47.65091058011694
 20
-5.300020911080707
 30
0.0
 41
1.0
 10
-23.81246964244247
 20
10.59997879119976
 30
0.0
 41
0.5000000000000001
 10
-17.2868825361943
 20
10.59997875338604
 30
0.0
 41
1.0
  0
SPLINE
  5
6FE71
330
6FFF2
100
AcDbEntity
  8
Level 27
 62
    40
370
    13
100
AcDbSpline
210
0.0
220
0.0
230
1.0
 70
    13
 71
     2
 72
    10
 73
     7
 74
     0
 42
0.000000001
 43
0.0000000001
 40
0.0
 40
0.0
 40
0.0
 40
0.3333333333333333
 40
0.3333333333333333
 40
0.6666666666666666
 40
0.6666666666666666
 40
1.0
 40
1.0
 40
1.0
 10
-17.28689255249446
 20
-860.600021246614
 30
0.0
 41
1.0
 10
-23.81247965874309
 20
-860.6000212088003
 30
0.0
 41
0.5000000000000001
 10
-47.65092023080842
 20
-844.7000209110806
 30
0.0
 41
1.0
 10
-71.48936080287422
 20
-828.8000206133611
 30
0.0
 41
0.5000000000000001
 10
-41.12533312456025
 20
-844.7000209488944
 30
0.0
 41
1.0
 10
-10.76130544624629
 20
-860.6000212844277
 30
0.0
 41
0.5000000000000001
 10
-17.28689255249446
 20
-860.600021246614
 30
0.0
 41
1.0
  0
INSERT
  5
6FF73
330
6FFF2
100
AcDbEntity
  8
Level 27
 62
    40
370
    13
100
AcDbBlockReference
  2
From Surface_7
 10
-3015.599073
 20
-157.017589
 30
0.0
  0
SPLINE
  5
6FE7A
330
6FFF2
100
AcDbEntity
  8
Level 27
 62
    40
370
    13
100
AcDbSpline
210
0.0
220
0.0
230
1.0
 70
    13
 71
     2
 72
    10
 73
     7
 74
     0
 42
0.000000001
 43
0.0000000001
 40
0.0
 40
0.0
 40
0.0
 40
0.3333333333333333
 40
0.3333333333333333
 40
0.6666666666666666
 40
0.6666666666666666
 40
1.0
 40
1.0
 40
1.0
 10
-35.35437195297982
 20
21.19997896447035
 30
0.0
 41
1.0
 10
-28.8287848467312
 20
21.19997888944482
 30
0.0
 41
0.5000000000000001
 10
-32.09157876546442
 20
-10.60002107304242
 30
0.0
 41
1.0
 10
-35.35437268419719
 20
-42.40002103552972
 30
0.0
 41
0.5000000000000001
 10
-38.61716587171259
 20
-10.60002099801693
 30
0.0
 41
1.0
 10
-41.87995905922798
 20
21.19997903949579
 30
0.0
 41
0.5000000000000001
 10
-35.35437195297982
 20
21.19997896447035
 30
0.0
 41
1.0
  0
SPLINE
  5
6FE7C
330
6FFF2
100
AcDbEntity
  8
Level 27
 62
    40
370
    13
100
AcDbSpline
210
0.0
220
0.0
230
1.0
 70
    15
 71
     2
 72
    10
 73
     7
 74
     0
 42
0.000000001
 43
0.0000000001
 40
0.0
 40
0.0
 40
0.0
 40
0.3333333333333333
 40
0.3333333333333333
 40
0.6666666666666666
 40
0.6666666666666666
 40
1.0
 40
1.0
 40
1.0
 10
707.1171742692004
 20
-414.4000297098998
 30
0.0
 41
1.0
 10
700.5915871629517
 20
-414.4000296720861
 30
0.0
 41
0.5000000000000001
 10
676.7531462252777
 20
-430.3000293743665
 30
0.0
 41
1.0
 10
652.9147052876033
 20
-446.2000290766469
 30
0.0
 41
0.5000000000000001
 10
683.2787333315264
 20
-430.3000294121802
 30
0.0
 41
1.0
 10
713.642761375449
 20
-414.4000297477135
 30
0.0
 41
0.5000000000000001
 10
707.1171742692004
 20
-414.4000297098998
 30
0.0
 41
1.0
  0
INSERT
  5
6FE7E
330
6FFF2
100
AcDbEntity
  8
Level 27
 62
    40
370
    13
100
AcDbBlockReference
  2
Feature Solid_12
 10
-43.15
 20
-0.05
 30
0.0
 41
10000.0
 42
10000.0
 43
10000.0
  0
INSERT
  5
6FE86
330
6FFF2
100
AcDbEntity
  8
Level 25
 62
   252
370
    13
100
AcDbBlockReference
  2
Feature Solid_13
 10
-12.2
 20
0.0
 30
0.0
 41
10000.0
 42
10000.0
 43
10000.0
  0
INSERT
  5
6FE92
330
6FFF2
100
AcDbEntity
  8
Level 27
 62
    40
370
    13
100
AcDbBlockReference
  2
Feature Solid_15
 10
-43.15
 20
-0.05
 30
0.0
 41
10000.0
 42
10000.0
 43
10000.0
  0
INSERT
  5
6FE9A
330
6FFF2
100
AcDbEntity
  8
Level 27
 62
    40
370
    13
100
AcDbBlockReference
  2
Feature Solid_16
 10
-43.15
 20
-0.05
 30
0.0
 41
10000.0
 42
10000.0
 43
10000.0
  0
INSERT
  5
6FF74
330
6FFF2
100
AcDbEntity
  8
Level 27
 62
    40
370
    13
100
AcDbBlockReference
  2
From Surface_8
 10
-3015.599073
 20
-157.017589
 30
0.0
  0
INSERT
  5
6FF75
330
6FFF2
100
AcDbEntity
  8
Level 27
 62
    40
370
    13
100
AcDbBlockReference
  2
From Surface_9
 10
-3015.599073
 20
-157.017589
 30
0.0
  0
INSERT
  5
6FF76
330
6FFF2
100
AcDbEntity
  8
Level 27
 62
    40
370
    13
100
AcDbBlockReference
  2
From Surface_10
 10
-3015.599073
 20
-157.017589
 30
0.0
  0
SPLINE
  5
6FED5
330
6FFF2
100
AcDbEntity
  8
Level 27
 62
    40
370
    13
100
AcDbSpline
210
0.0
220
0.0
230
1.0
 70
    13
 71
     2
 72
    10
 73
     7
 74
     0
 42
0.000000001
 43
0.0000000001
 40
0.0
 40
0.0
 40
0.0
 40
0.3333333333333333
 40
0.3333333333333333
 40
0.6666666666666666
 40
0.6666666666666666
 40
1.0
 40
1.0
 40
1.0
 10
-53.42186161351264
 20
10.59997917556202
 30
0.0
 41
1.0
 10
-46.89627450726357
 20
10.59997913774833
 30
0.0
 41
0.5000000000000001
 10
-23.05783393519823
 20
-5.300021159971208
 30
0.0
 41
1.0
 10
0.7806066368675602
 20
-21.20002145769072
 30
0.0
 41
0.5000000000000001
 10
-29.58342104144686
 20
-5.300021122157517
 30
0.0
 41
1.0
 10
-59.94744871976081
 20
10.59997921337569
 30
0.0
 41
0.5000000000000001
 10
-53.42186161351264
 20
10.59997917556202
 30
0.0
 41
1.0
  0
SPLINE
  5
6FED7
330
6FFF2
100
AcDbEntity
  8
Level 27
 62
    40
370
    13
100
AcDbSpline
210
0.0
220
0.0
230
1.0
 70
    13
 71
     2
 72
    10
 73
     7
 74
     0
 42
0.000000001
 43
0.0000000001
 40
0.0
 40
0.0
 40
0.0
 40
0.3333333333333333
 40
0.3333333333333333
 40
0.6666666666666666
 40
0.6666666666666666
 40
1.0
 40
1.0
 40
1.0
 10
689.0496946249763
 20
446.1999705011993
 30
0.0
 41
1.0
 10
682.5241075187277
 20
446.1999705762249
 30
0.0
 41
0.5000000000000001
 10
685.7869007062431
 20
414.3999705387122
 30
0.0
 41
1.0
 10
689.0496938937586
 20
382.5999705011994
 30
0.0
 41
0.5000000000000001
 10
692.3124878124918
 20
414.3999704636866
 30
0.0
 41
1.0
 10
695.5752817312245
 20
446.1999704261737
 30
0.0
 41
0.5000000000000001
 10
689.0496946249763
 20
446.1999705011993
 30
0.0
 41
1.0
  0
INSERT
  5
6FF77
330
6FFF2
100
AcDbEntity
  8
Level 27
 62
    40
370
    13
100
AcDbBlockReference
  2
From Surface_11
 10
-3015.599073
 20
-157.017589
 30
0.0
  0
SPLINE
  5
6FEE0
330
6FFF2
100
AcDbEntity
  8
Level 27
 62
    40
370
    13
100
AcDbSpline
210
0.0
220
0.0
230
1.0
 70
    13
 71
     2
 72
    10
 73
     7
 74
     0
 42
0.000000001
 43
0.0000000001
 40
0.0
 40
0.0
 40
0.0
 40
0.3333333333333333
 40
0.3333333333333333
 40
0.6666666666666666
 40
0.6666666666666666
 40
1.0
 40
1.0
 40
1.0
 10
-53.42186185725859
 20
-10.60002082443796
 30
0.0
 41
1.0
 10
-46.89627475101042
 20
-10.60002086225168
 30
0.0
 41
0.5000000000000001
 10
-23.05783381333595
 20
5.299978840028785
 30
0.0
 41
1.0
 10
0.7806071243385305
 20
21.19997854230928
 30
0.0
 41
0.5000000000000001
 10
-29.58342091958457
 20
5.299978877842505
 30
0.0
 41
1.0
 10
-59.94744896350721
 20
-10.60002078662427
 30
0.0
 41
0.5000000000000001
 10
-53.42186185725859
 20
-10.60002082443796
 30
0.0
 41
1.0
  0
SPLINE
  5
6FEE2
330
6FFF2
100
AcDbEntity
  8
Level 27
 62
    40
370
    13
100
AcDbSpline
210
0.0
220
0.0
230
1.0
 70
    13
 71
     2
 72
    10
 73
     7
 74
     0
 42
0.000000001
 43
0.0000000001
 40
0.0
 40
0.0
 40
0.0
 40
0.3333333333333333
 40
0.3333333333333333
 40
0.6666666666666666
 40
0.6666666666666666
 40
1.0
 40
1.0
 40
1.0
 10
-53.42185184095114
 20
860.5999791755696
 30
0.0
 41
1.0
 10
-59.94743894719931
 20
860.5999792133832
 30
0.0
 41
0.5000000000000001
 10
-29.58341126888536
 20
844.69997887785
 30
0.0
 41
1.0
 10
0.780616409429058
 20
828.7999785423165
 30
0.0
 41
0.5000000000000001
 10
-23.05782416263673
 20
844.6999788400361
 30
0.0
 41
1.0
 10
-46.89626473470207
 20
860.5999791377559
 30
0.0
 41
0.5000000000000001
 10
-53.42185184095114
 20
860.5999791755696
 30
0.0
 41
1.0
  0
INSERT
  5
6FF78
330
6FFF2
100
AcDbEntity
  8
Level 27
 62
    40
370
    13
100
AcDbBlockReference
  2
From Surface_12
 10
-3015.599073
 20
-157.017589
 30
0.0
  0
SPLINE
  5
6FEEB
330
6FFF2
100
AcDbEntity
  8
Level 27
 62
    40
370
    13
100
AcDbSpline
210
0.0
220
0.0
230
1.0
 70
    13
 71
     2
 72
    10
 73
     7
 74
     0
 42
0.000000001
 43
0.0000000001
 40
0.0
 40
0.0
 40
0.0
 40
0.3333333333333333
 40
0.3333333333333333
 40
0.6666666666666666
 40
0.6666666666666666
 40
1.0
 40
1.0
 40
1.0
 10
-35.35437244045807
 20
-21.20002103552969
 30
0.0
 41
1.0
 10
-28.8287853342099
 20
-21.20002111055516
 30
0.0
 41
0.5000000000000001
 10
-32.0915785217253
 20
10.59997892695753
 30
0.0
 41
1.0
 10
-35.35437170924115
 20
42.39997896447031
 30
0.0
 41
0.5000000000000001
 10
-38.61716562797346
 20
10.59997900198308
 30
0.0
 41
1.0
 10
-41.87995954670668
 20
-21.20002096050413
 30
0.0
 41
0.5000000000000001
 10
-35.35437244045807
 20
-21.20002103552969
 30
0.0
 41
1.0
  0
SPLINE
  5
6FEED
330
6FFF2
100
AcDbEntity
  8
Level 27
 62
    40
370
    13
100
AcDbSpline
210
0.0
220
0.0
230
1.0
 70
    15
 71
     2
 72
    10
 73
     7
 74
     0
 42
0.000000001
 43
0.0000000001
 40
0.0
 40
0.0
 40
0.0
 40
0.3333333333333333
 40
0.3333333333333333
 40
0.6666666666666666
 40
0.6666666666666666
 40
1.0
 40
1.0
 40
1.0
 10
-777.825918662646
 20
414.3999876388405
 30
0.0
 41
1.0
 10
-784.3515057688946
 20
414.3999876766542
 30
0.0
 41
0.5000000000000001
 10
-753.9874777249715
 20
430.2999873411208
 30
0.0
 41
1.0
 10
-723.6234496810489
 20
446.1999870055875
 30
0.0
 41
0.5000000000000001
 10
-747.4618906187234
 20
430.2999873033071
 30
0.0
 41
1.0
 10
-771.3003315563974
 20
414.3999876010269
 30
0.0
 41
0.5000000000000001
 10
-777.825918662646
 20
414.3999876388405
 30
0.0
 41
1.0
  0
INSERT
  5
6FF79
330
6FFF2
100
AcDbEntity
  8
Level 27
 62
    40
370
    13
100
AcDbBlockReference
  2
From Surface_13
 10
-3015.599073
 20
-157.017589
 30
0.0
  0
SPLINE
  5
6FEF6
330
6FFF2
100
AcDbEntity
  8
Level 27
 62
    40
370
    13
100
AcDbSpline
210
0.0
220
0.0
230
1.0
 70
    13
 71
     2
 72
    10
 73
     7
 74
     0
 42
0.000000001
 43
0.0000000001
 40
0.0
 40
0.0
 40
0.0
 40
0.3333333333333333
 40
0.3333333333333333
 40
0.6666666666666666
 40
0.6666666666666666
 40
1.0
 40
1.0
 40
1.0
 10
-17.28688277993297
 20
-10.60002124661395
 30
0.0
 41
1.0
 10
-10.7612956736848
 20
-10.60002128442764
 30
0.0
 41
0.5000000000000001
 10
-41.12532335199875
 20
5.299979051105594
 30
0.0
 41
1.0
 10
-71.48935103031272
 20
21.19997938663883
 30
0.0
 41
0.5000000000000001
 10
-47.65091045824692
 20
5.299979088919286
 30
0.0
 41
1.0
 10
-23.81246988618205
 20
-10.60002120880023
 30
0.0
 41
0.5000000000000001
 10
-17.28688277993297
 20
-10.60002124661395
 30
0.0
 41
1.0
  0
SPLINE
  5
6FEF8
330
6FFF2
100
AcDbEntity
  8
Level 27
 62
    40
370
    13
100
AcDbSpline
210
0.0
220
0.0
230
1.0
 70
    13
 71
     2
 72
    10
 73
     7
 74
     0
 42
0.000000001
 43
0.0000000001
 40
0.0
 40
0.0
 40
0.0
 40
0.3333333333333333
 40
0.3333333333333333
 40
0.6666666666666666
 40
0.6666666666666666
 40
1.0
 40
1.0
 40
1.0
 10
-759.7584390184143
 20
-446.2000125722512
 30
0.0
 41
1.0
 10
-766.2840261246628
 20
-446.2000124972258
 30
0.0
 41
0.5000000000000001
 10
-763.0212322059296
 20
-414.4000125347385
 30
0.0
 41
1.0
 10
-759.7584382871964
 20
-382.6000125722513
 30
0.0
 41
0.5000000000000001
 10
-756.4956450996815
 20
-414.400012609764
 30
0.0
 41
1.0
 10
-753.232851912166
 20
-446.2000126472768
 30
0.0
 41
0.5000000000000001
 10
-759.7584390184143
 20
-446.2000125722512
 30
0.0
 41
1.0
  0
INSERT
  5
6FF7A
330
6FFF2
100
AcDbEntity
  8
Level 27
 62
    40
370
    13
100
AcDbBlockReference
  2
From Surface_14
 10
-3015.599073
 20
-157.017589
 30
0.0
  0
SPLINE
  5
6FF01
330
6FFF2
100
AcDbEntity
  8
Level 27
 62
    40
370
    13
100
AcDbSpline
210
0.0
220
0.0
230
1.0
 70
    13
 71
     2
 72
    10
 73
     7
 74
     0
 42
0.000000001
 43
0.0000000001
 40
0.0
 40
0.0
 40
0.0
 40
0.3333333333333333
 40
0.3333333333333333
 40
0.6666666666666666
 40
0.6666666666666666
 40
1.0
 40
1.0
 40
1.0
 10
-17.2868825361943
 20
10.59997875338604
 30
0.0
 41
1.0
 10
-10.76129542994522
 20
10.59997871557235
 30
0.0
 41
0.5000000000000001
 10
-41.12532347386832
 20
-5.300020948894427
 30
0.0
 41
1.0
 10
-71.48935151779141
 20
-21.20002061336121
 30
0.0
 41
0.5000000000000001
 10
-47.65091058011694
 20
-5.300020911080707
 30
0.0
 41
1.0
 10
-23.81246964244247
 20
10.59997879119976
 30
0.0
 41
0.5000000000000001
 10
-17.2868825361943
 20
10.59997875338604
 30
0.0
 41
1.0
  0
SPLINE
  5
6FF03
330
6FFF2
100
AcDbEntity
  8
Level 27
 62
    40
370
    13
100
AcDbSpline
210
0.0
220
0.0
230
1.0
 70
    13
 71
     2
 72
    10
 73
     7
 74
     0
 42
0.000000001
 43
0.0000000001
 40
0.0
 40
0.0
 40
0.0
 40
0.3333333333333333
 40
0.3333333333333333
 40
0.6666666666666666
 40
0.6666666666666666
 40
1.0
 40
1.0
 40
1.0
 10
-17.28689255249446
 20
-860.600021246614
 30
0.0
 41
1.0
 10
-23.81247965874309
 20
-860.6000212088003
 30
0.0
 41
0.5000000000000001
 10
-47.65092023080842
 20
-844.7000209110806
 30
0.0
 41
1.0
 10
-71.48936080287422
 20
-828.8000206133611
 30
0.0
 41
0.5000000000000001
 10
-41.12533312456025
 20
-844.7000209488944
 30
0.0
 41
1.0
 10
-10.76130544624629
 20
-860.6000212844277
 30
0.0
 41
0.5000000000000001
 10
-17.28689255249446
 20
-860.600021246614
 30
0.0
 41
1.0
  0
INSERT
  5
6FF7B
330
6FFF2
100
AcDbEntity
  8
Level 27
 62
    40
370
    13
100
AcDbBlockReference
  2
From Surface_15
 10
-3015.599073
 20
-157.017589
 30
0.0
  0
SPLINE
  5
6FF0C
330
6FFF2
100
AcDbEntity
  8
Level 27
 62
    40
370
    13
100
AcDbSpline
210
0.0
220
0.0
230
1.0
 70
    13
 71
     2
 72
    10
 73
     7
 74
     0
 42
0.000000001
 43
0.0000000001
 40
0.0
 40
0.0
 40
0.0
 40
0.3333333333333333
 40
0.3333333333333333
 40
0.6666666666666666
 40
0.6666666666666666
 40
1.0
 40
1.0
 40
1.0
 10
-35.35437195297982
 20
21.19997896447035
 30
0.0
 41
1.0
 10
-28.8287848467312
 20
21.19997888944482
 30
0.0
 41
0.5000000000000001
 10
-32.09157876546442
 20
-10.60002107304242
 30
0.0
 41
1.0
 10
-35.35437268419719
 20
-42.40002103552972
 30
0.0
 41
0.5000000000000001
 10
-38.61716587171259
 20
-10.60002099801693
 30
0.0
 41
1.0
 10
-41.87995905922798
 20
21.19997903949579
 30
0.0
 41
0.5000000000000001
 10
-35.35437195297982
 20
21.19997896447035
 30
0.0
 41
1.0
  0
SPLINE
  5
6FF0E
330
6FFF2
100
AcDbEntity
  8
Level 27
 62
    40
370
    13
100
AcDbSpline
210
0.0
220
0.0
230
1.0
 70
    15
 71
     2
 72
    10
 73
     7
 74
     0
 42
0.000000001
 43
0.0000000001
 40
0.0
 40
0.0
 40
0.0
 40
0.3333333333333333
 40
0.3333333333333333
 40
0.6666666666666666
 40
0.6666666666666666
 40
1.0
 40
1.0
 40
1.0
 10
707.1171742692004
 20
-414.4000297098998
 30
0.0
 41
1.0
 10
700.5915871629517
 20
-414.4000296720861
 30
0.0
 41
0.5000000000000001
 10
676.7531462252777
 20
-430.3000293743665
 30
0.0
 41
1.0
 10
652.9147052876033
 20
-446.2000290766469
 30
0.0
 41
0.5000000000000001
 10
683.2787333315264
 20
-430.3000294121802
 30
0.0
 41
1.0
 10
713.642761375449
 20
-414.4000297477135
 30
0.0
 41
0.5000000000000001
 10
707.1171742692004
 20
-414.4000297098998
 30
0.0
 41
1.0
  0
ENDBLK
  5
6FFF4
330
6FFF2
100
AcDbEntity
  8
0
 62
    98
370
     0
100
AcDbBlockEnd
  0
BLOCK
  5
6FFF6
330
6FFF5
100
AcDbEntity
  8
0
 62
    98
370
     0
100
AcDbBlockBegin
  2
Feature Solid
 70
     0
 10
0.0
 20
0.0
 30
0.0
  3
Feature Solid
  1

  0
INSERT
  5
6FD8B
330
6FFF5
100
AcDbEntity
  8
Level 26
 62
     7
370
    13
100
AcDbBlockReference
  2
CONE
 10
0.34005
 20
-0.265396
 30
0.047928
 41
1.0
 42
1.0
 43
1.0
 50
89.999958
210
-0.1777145977553298
220
-0.0000001287312902
230
0.9840820706346828
  0
ENDBLK
  5
6FFF7
330
6FFF5
100
AcDbEntity
  8
0
 62
    98
370
     0
100
AcDbBlockEnd
  0
BLOCK
  5
6FFF9
330
6FFF8
100
AcDbEntity
  8
0
 62
    98
370
     0
100
AcDbBlockBegin
  2
CONE
 70
     0
 10
0.0
 20
0.0
 30
0.0
  3
CONE
  1

  0
ELLIPSE
  5
6FD8C
330
6FFF8
100
AcDbEntity
  8
Level 26
 62
     7
370
    13
100
AcDbEllipse
 10
0.26556
 20
0.340054
 30
-0.047957
 11
0.0
 21
0.0104500000000001
 31
0.0
210
0.1777145977554215
220
0.0
230
0.9840820706346745
 40
0.9840820706346825
 41
0.0
 42
6.283185307179586
  0
ELLIPSE
  5
6FD8D
330
6FFF8
100
AcDbEntity
  8
Level 26
 62
     7
370
    13
100
AcDbEllipse
 10
0.265228
 20
0.340054
 30
-0.047897
 11
0.0
 21
0.0104500000000001
 31
0.0
210
-0.1777145977554215
220
0.0
230
-0.9840820706346747
 40
0.984082070634683
 41
0.0
 42
6.283185307179586
  0
LINE
  5
6FD8E
330
6FFF8
100
AcDbEntity
  8
Level 26
 62
     7
370
    13
100
AcDbLine
 10
0.265228
 20
0.329604
 30
-0.047897
 11
0.26556
 21
0.329604
 31
-0.047957
  0
LINE
  5
6FD8F
330
6FFF8
100
AcDbEntity
  8
Level 26
 62
     7
370
    13
100
AcDbLine
 10
0.275348
 20
0.340054
 30
-0.049725
 11
0.27568
 21
0.340054
 31
-0.049785
  0
LINE
  5
6FD90
330
6FFF8
100
AcDbEntity
  8
Level 26
 62
     7
370
    13
100
AcDbLine
 10
0.265228
 20
0.350504
 30
-0.047897
 11
0.26556
 21
0.350504
 31
-0.047957
  0
LINE
  5
6FD91
330
6FFF8
100
AcDbEntity
  8
Level 26
 62
     7
370
    13
100
AcDbLine
 10
0.255108
 20
0.340054
 30
-0.04607
 11
0.25544
 21
0.340054
 31
-0.04613
  0
ENDBLK
  5
6FFFA
330
6FFF8
100
AcDbEntity
  8
0
 62
    98
370
     0
100
AcDbBlockEnd
  0
BLOCK
  5
6FFFC
330
6FFFB
100
AcDbEntity
  8
0
 62
    98
370
     0
100
AcDbBlockBegin
  2
Feature Solid_1
 70
     0
 10
0.0
 20
0.0
 30
0.0
  3
Feature Solid_1
  1

  0
INSERT
  5
6FD93
330
6FFFB
100
AcDbEntity
  8
Level 26
 62
     7
370
    13
100
AcDbBlockReference
  2
ROUNDE
 10
-0.475478
 20
-0.414109
 30
0.0
 41
1.0
 42
1.0
 43
1.0
  0
ENDBLK
  5
6FFFD
330
6FFFB
100
AcDbEntity
  8
0
 62
    98
370
     0
100
AcDbBlockEnd
  0
BLOCK
  5
6FFFF
330
6FFFE
100
AcDbEntity
  8
0
 62
    98
370
     0
100
AcDbBlockBegin
  2
ROUNDE
 70
     0
 10
0.0
 20
0.0
 30
0.0
  3
ROUNDE
  1

  0
INSERT
  5
6FD94
330
6FFFE
100
AcDbEntity
  8
Level 26
 62
     7
370
    13
100
AcDbBlockReference
  2
CONE_1
 10
0.0
 20
0.0
 30
0.0
 41
1.0
 42
1.0
 43
1.0
  0
ELLIPSE
  5
6FD96
330
6FFFE
100
AcDbEntity
  8
Level 26
 62
     7
370
    13
100
AcDbEllipse
 10
0.475307
 20
0.414108
 30
0.0
 11
0.0
 21
0.0075379965156797
 31
0.0
210
0.0
220
0.0
230
1.0
 40
0.9840820706346965
 41
0.0
 42
6.283185307179586
  0
ELLIPSE
  5
6FD97
330
6FFFE
100
AcDbEntity
  8
Level 26
 62
     7
370
    13
100
AcDbEllipse
 10
0.475481
 20
0.40657
 30
0.0
 11
0.0
 21
-0.0009742160278746
 31
0.0
210
0.0
220
0.0
230
-1.0
 40
0.1777145977553003
 41
-0.0000000000000631
 42
1.570796326794896
  0
LINE
  5
6FD98
330
6FFFE
100
AcDbEntity
  8
Level 26
 62
     7
370
    13
100
AcDbLine
 10
0.467889
 20
0.414108
 30
0.0
 11
0.467088
 21
0.414108
 31
0.0
  0
ELLIPSE
  5
6FD99
330
6FFFE
100
AcDbEntity
  8
Level 26
 62
     7
370
    13
100
AcDbEllipse
 10
0.475481
 20
0.421646
 30
0.0
 11
0.0
 21
0.0009742160278746
 31
0.0
210
0.0
220
0.0
230
0.9999999999999998
 40
0.1777145977553005
 41
-0.0000000000000631
 42
1.570796326794896
  0
LINE
  5
6FD9A
330
6FFFE
100
AcDbEntity
  8
Level 26
 62
     7
370
    13
100
AcDbLine
 10
0.482725
 20
0.414108
 30
0.0
 11
0.483857
 21
0.414108
 31
0.0
  0
ENDBLK
  5
70000
330
6FFFE
100
AcDbEntity
  8
0
 62
    98
370
     0
100
AcDbBlockEnd
  0
BLOCK
  5
70002
330
70001
100
AcDbEntity
  8
0
 62
    98
370
     0
100
AcDbBlockBegin
  2
CONE_1
 70
     0
 10
0.0
 20
0.0
 30
0.0
  3
CONE_1
  1

  0
ELLIPSE
  5
6FD95
330
70001
100
AcDbEntity
  8
Level 26
 62
     7
370
    13
100
AcDbEllipse
 10
0.475481
 20
0.414108
 30
0.0
 11
0.0
 21
0.0085122125435542
 31
0.0
210
0.0
220
0.0
230
1.0
 40
0.9840820706346967
 41
0.0
 42
6.283185307179586
  0
ENDBLK
  5
70003
330
70001
100
AcDbEntity
  8
0
 62
    98
370
     0
100
AcDbBlockEnd
  0
BLOCK
  5
70005
330
70004
100
AcDbEntity
  8
0
 62
    98
370
     0
100
AcDbBlockBegin
  2
Smart Solid
 70
     0
 10
0.0
 20
0.0
 30
0.0
  3
Smart Solid
  1

  0
ELLIPSE
  5
6FD9D
330
70004
100
AcDbEntity
  8
Level 27
 62
    40
370
    13
100
AcDbEllipse
 10
0.001312
 20
-0.000005
 30
-0.000237
 11
0.0
 21
0.00212
 31
0.0
210
0.1777145977553254
220
0.0
230
0.9840820706346919
 40
0.9840820706346924
 41
0.0
 42
6.283185307179586
  0
ELLIPSE
  5
6FD9E
330
70004
100
AcDbEntity
  8
Level 27
 62
    40
370
    13
100
AcDbEllipse
 10
-0.001312
 20
-0.000005
 30
0.000237
 11
0.0
 21
0.00212
 31
0.0
210
0.1777145977553254
220
0.0
230
0.9840820706346919
 40
0.9840820706346924
 41
0.0
 42
6.283185307179586
  0
LINE
  5
6FD9F
330
70004
100
AcDbEntity
  8
Level 27
 62
    40
370
    13
100
AcDbLine
 10
0.001312
 20
-0.002125
 30
-0.000237
 11
-0.001312
 21
-0.002125
 31
0.000237
  0
LINE
  5
6FDA0
330
70004
100
AcDbEntity
  8
Level 27
 62
    40
370
    13
100
AcDbLine
 10
-0.000741
 20
-0.000005
 30
0.000134
 11
-0.003365
 21
-0.000005
 31
0.000608
  0
LINE
  5
6FDA1
330
70004
100
AcDbEntity
  8
Level 27
 62
    40
370
    13
100
AcDbLine
 10
0.001312
 20
0.002115
 30
-0.000237
 11
-0.001312
 21
0.002115
 31
0.000237
  0
LINE
  5
6FDA2
330
70004
100
AcDbEntity
  8
Level 27
 62
    40
370
    13
100
AcDbLine
 10
0.003365
 20
-0.000005
 30
-0.000608
 11
0.000741
 21
-0.000005
 31
-0.000134
  0
ENDBLK
  5
70006
330
70004
100
AcDbEntity
  8
0
 62
    98
370
     0
100
AcDbBlockEnd
  0
BLOCK
  5
70008
330
70007
100
AcDbEntity
  8
0
 62
    98
370
     0
100
AcDbBlockBegin
  2
Smart Solid_1
 70
     0
 10
0.0
 20
0.0
 30
0.0
  3
Smart Solid_1
  1

  0
ELLIPSE
  5
6FDA5
330
70007
100
AcDbEntity
  8
Level 27
 62
    40
370
    13
100
AcDbEllipse
 10
0.000656
 20
-0.001141
 30
-0.000238
 11
0.0018359738498806
 21
0.0010600000106389
 31
0.0
210
0.0888572997694962
220
-0.1539053557645446
230
0.9840820706346917
 40
0.9840820706346921
 41
0.0
 42
6.283185307179586
  0
ELLIPSE
  5
6FDA6
330
70007
100
AcDbEntity
  8
Level 27
 62
    40
370
    13
100
AcDbEllipse
 10
-0.000656
 20
0.001131
 30
0.000236
 11
0.0018359738498806
 21
0.0010600000106389
 31
0.0
210
0.0888572997694962
220
-0.1539053557645446
230
0.9840820706346917
 40
0.9840820706346921
 41
0.0
 42
6.283185307179586
  0
LINE
  5
6FDA7
330
70007
100
AcDbEntity
  8
Level 27
 62
    40
370
    13
100
AcDbLine
 10
0.000627
 20
-0.003211
 30
-0.000559
 11
-0.000685
 21
-0.000939
 31
-0.000085
  0
LINE
  5
6FDA8
330
70007
100
AcDbEntity
  8
Level 27
 62
    40
370
    13
100
AcDbLine
 10
-0.001448
 20
-0.00117
 30
-0.000052
 11
-0.002759
 21
0.001102
 31
0.000421
  0
LINE
  5
6FDA9
330
70007
100
AcDbEntity
  8
Level 27
 62
    40
370
    13
100
AcDbLine
 10
0.000685
 20
0.000929
 30
0.000083
 11
-0.000627
 21
0.003201
 31
0.000557
  0
LINE
  5
6FDAA
330
70007
100
AcDbEntity
  8
Level 27
 62
    40
370
    13
100
AcDbLine
 10
0.002759
 20
-0.001112
 30
-0.000423
 11
0.001447
 21
0.00116
 31
0.000051
  0
ENDBLK
  5
70009
330
70007
100
AcDbEntity
  8
0
 62
    98
370
     0
100
AcDbBlockEnd
  0
BLOCK
  5
7000B
330
7000A
100
AcDbEntity
  8
0
 62
    98
370
     0
100
AcDbBlockBegin
  2
Smart Solid_2
 70
     0
 10
0.0
 20
0.0
 30
0.0
  3
Smart Solid_2
  1

  0
ELLIPSE
  5
6FDAD
330
7000A
100
AcDbEntity
  8
Level 27
 62
    40
370
    13
100
AcDbEllipse
 10
-0.000656
 20
-0.001141
 30
-0.000238
 11
0.0018359738621654
 21
-0.0010599999893611
 31
0.0
210
-0.0888572979858285
220
-0.1539053567943455
230
0.9840820706346919
 40
0.9840820706346921
 41
0.0
 42
6.283185307179586
  0
ELLIPSE
  5
6FDAE
330
7000A
100
AcDbEntity
  8
Level 27
 62
    40
370
    13
100
AcDbEllipse
 10
0.000656
 20
0.001131
 30
0.000236
 11
0.0018359738621654
 21
-0.0010599999893611
 31
0.0
210
-0.0888572979858285
220
-0.1539053567943455
230
0.9840820706346919
 40
0.9840820706346921
 41
0.0
 42
6.283185307179586
  0
LINE
  5
6FDAF
330
7000A
100
AcDbEntity
  8
Level 27
 62
    40
370
    13
100
AcDbLine
 10
-0.000627
 20
-0.003211
 30
-0.000559
 11
0.000685
 21
-0.000939
 31
-0.000085
  0
LINE
  5
6FDB0
330
7000A
100
AcDbEntity
  8
Level 27
 62
    40
370
    13
100
AcDbLine
 10
-0.002759
 20
-0.001112
 30
-0.000423
 11
-0.001447
 21
0.00116
 31
0.000051
  0
LINE
  5
6FDB1
330
7000A
100
AcDbEntity
  8
Level 27
 62
    40
370
    13
100
AcDbLine
 10
-0.000685
 20
0.000929
 30
0.000083
 11
0.000627
 21
0.003201
 31
0.000557
  0
LINE
  5
6FDB2
330
7000A
100
AcDbEntity
  8
Level 27
 62
    40
370
    13
100
AcDbLine
 10
0.001448
 20
-0.00117
 30
-0.000052
 11
0.002759
 21
0.001102
 31
0.000421
  0
ENDBLK
  5
7000C
330
7000A
100
AcDbEntity
  8
0
 62
    98
370
     0
100
AcDbBlockEnd
  0
BLOCK
  5
7000E
330
7000D
100
AcDbEntity
  8
0
 62
    98
370
     0
100
AcDbBlockBegin
  2
Smart Solid_3
 70
     0
 10
0.0
 20
0.0
 30
0.0
  3
Smart Solid_3
  1

  0
ELLIPSE
  5
6FDB5
330
7000D
100
AcDbEntity
  8
Level 27
 62
    40
370
    13
100
AcDbEllipse
 10
-0.001312
 20
-0.000005
 30
-0.000237
 11
0.0
 21
0.00212
 31
0.0
210
-0.1777145977553254
220
0.0
230
0.9840820706346919
 40
0.9840820706346926
 41
0.0
 42
6.283185307179586
  0
ELLIPSE
  5
6FDB6
330
7000D
100
AcDbEntity
  8
Level 27
 62
    40
370
    13
100
AcDbEllipse
 10
0.001312
 20
-0.000005
 30
0.000237
 11
0.0
 21
0.00212
 31
0.0
210
-0.1777145977553254
220
0.0
230
0.9840820706346919
 40
0.9840820706346926
 41
0.0
 42
6.283185307179586
  0
LINE
  5
6FDB7
330
7000D
100
AcDbEntity
  8
Level 27
 62
    40
370
    13
100
AcDbLine
 10
-0.001312
 20
-0.002125
 30
-0.000237
 11
0.001312
 21
-0.002125
 31
0.000237
  0
LINE
  5
6FDB8
330
7000D
100
AcDbEntity
  8
Level 27
 62
    40
370
    13
100
AcDbLine
 10
-0.003365
 20
-0.000005
 30
-0.000608
 11
-0.000741
 21
-0.000005
 31
-0.000134
  0
LINE
  5
6FDB9
330
7000D
100
AcDbEntity
  8
Level 27
 62
    40
370
    13
100
AcDbLine
 10
-0.001312
 20
0.002115
 30
-0.000237
 11
0.001312
 21
0.002115
 31
0.000237
  0
LINE
  5
6FDBA
330
7000D
100
AcDbEntity
  8
Level 27
 62
    40
370
    13
100
AcDbLine
 10
0.000741
 20
-0.000005
 30
0.000134
 11
0.003365
 21
-0.000005
 31
0.000608
  0
ENDBLK
  5
7000F
330
7000D
100
AcDbEntity
  8
0
 62
    98
370
     0
100
AcDbBlockEnd
  0
BLOCK
  5
70011
330
70010
100
AcDbEntity
  8
0
 62
    98
370
     0
100
AcDbBlockBegin
  2
Smart Solid_4
 70
     0
 10
0.0
 20
0.0
 30
0.0
  3
Smart Solid_4
  1

  0
ELLIPSE
  5
6FDBD
330
70010
100
AcDbEntity
  8
Level 27
 62
    40
370
    13
100
AcDbEllipse
 10
-0.000656
 20
0.001131
 30
-0.000236
 11
0.0018359738498806
 21
0.0010600000106389
 31
0.0
210
-0.0888572997694962
220
0.1539053557645446
230
0.9840820706346919
 40
0.9840820706346921
 41
0.0
 42
6.283185307179586
  0
ELLIPSE
  5
6FDBE
330
70010
100
AcDbEntity
  8
Level 27
 62
    40
370
    13
100
AcDbEllipse
 10
0.000656
 20
-0.001141
 30
0.000238
 11
0.0018359738498806
 21
0.0010600000106389
 31
0.0
210
-0.0888572997694962
220
0.1539053557645446
230
0.9840820706346919
 40
0.9840820706346921
 41
0.0
 42
6.283185307179586
  0
LINE
  5
6FDBF
330
70010
100
AcDbEntity
  8
Level 27
 62
    40
370
    13
100
AcDbLine
 10
-0.000685
 20
-0.000939
 30
0.000085
 11
0.000627
 21
-0.003211
 31
0.000559
  0
LINE
  5
6FDC0
330
70010
100
AcDbEntity
  8
Level 27
 62
    40
370
    13
100
AcDbLine
 10
-0.002759
 20
0.001102
 30
-0.000421
 11
-0.001448
 21
-0.00117
 31
0.000052
  0
LINE
  5
6FDC1
330
70010
100
AcDbEntity
  8
Level 27
 62
    40
370
    13
100
AcDbLine
 10
-0.000627
 20
0.003201
 30
-0.000557
 11
0.000685
 21
0.000929
 31
-0.000083
  0
LINE
  5
6FDC2
330
70010
100
AcDbEntity
  8
Level 27
 62
    40
370
    13
100
AcDbLine
 10
0.001447
 20
0.00116
 30
-0.000051
 11
0.002759
 21
-0.001112
 31
0.000423
  0
ENDBLK
  5
70012
330
70010
100
AcDbEntity
  8
0
 62
    98
370
     0
100
AcDbBlockEnd
  0
BLOCK
  5
70014
330
70013
100
AcDbEntity
  8
0
 62
    98
370
     0
100
AcDbBlockBegin
  2
Smart Solid_5
 70
     0
 10
0.0
 20
0.0
 30
0.0
  3
Smart Solid_5
  1

  0
ELLIPSE
  5
6FDC5
330
70013
100
AcDbEntity
  8
Level 27
 62
    40
370
    13
100
AcDbEllipse
 10
0.000656
 20
0.001131
 30
-0.000236
 11
0.0018359738621654
 21
-0.0010599999893611
 31
0.0
210
0.0888572979858277
220
0.1539053567943461
230
0.9840820706346919
 40
0.9840820706346919
 41
0.0
 42
6.283185307179586
  0
ELLIPSE
  5
6FDC6
330
70013
100
AcDbEntity
  8
Level 27
 62
    40
370
    13
100
AcDbEllipse
 10
-0.000656
 20
-0.001141
 30
0.000238
 11
0.0018359738621654
 21
-0.0010599999893611
 31
0.0
210
0.0888572979858277
220
0.1539053567943461
230
0.9840820706346919
 40
0.9840820706346919
 41
0.0
 42
6.283185307179586
  0
LINE
  5
6FDC7
330
70013
100
AcDbEntity
  8
Level 27
 62
    40
370
    13
100
AcDbLine
 10
0.000685
 20
-0.000939
 30
0.000085
 11
-0.000627
 21
-0.003211
 31
0.000559
  0
LINE
  5
6FDC8
330
70013
100
AcDbEntity
  8
Level 27
 62
    40
370
    13
100
AcDbLine
 10
-0.001447
 20
0.00116
 30
-0.000051
 11
-0.002759
 21
-0.001112
 31
0.000423
  0
LINE
  5
6FDC9
330
70013
100
AcDbEntity
  8
Level 27
 62
    40
370
    13
100
AcDbLine
 10
0.000627
 20
0.003201
 30
-0.000557
 11
-0.000685
 21
0.000929
 31
-0.000083
  0
LINE
  5
6FDCA
330
70013
100
AcDbEntity
  8
Level 27
 62
    40
370
    13
100
AcDbLine
 10
0.002759
 20
0.001102
 30
-0.000421
 11
0.001448
 21
-0.00117
 31
0.000052
  0
ENDBLK
  5
70015
330
70013
100
AcDbEntity
  8
0
 62
    98
370
     0
100
AcDbBlockEnd
  0
BLOCK
  5
70017
330
70016
100
AcDbEntity
  8
0
 62
    98
370
     0
100
AcDbBlockBegin
  2
Feature Solid_2
 70
     0
 10
0.0
 20
0.0
 30
0.0
  3
Feature Solid_2
  1

  0
INSERT
  5
6FDCD
330
70016
100
AcDbEntity
  8
Level 27
 62
    40
370
    13
100
AcDbBlockReference
  2
CONE_2
 10
0.340052
 20
-0.647736
 30
0.116974
 50
90.0
210
-0.1777145977553255
220
0.0000000010297995
230
0.9840820706346919
  0
ENDBLK
  5
70018
330
70016
100
AcDbEntity
  8
0
 62
    98
370
     0
100
AcDbBlockEnd
  0
BLOCK
  5
7001A
330
70019
100
AcDbEntity
  8
0
 62
    98
370
     0
100
AcDbBlockBegin
  2
CONE_2
 70
     0
 10
0.0
 20
0.0
 30
0.0
  3
CONE_2
  1

  0
ELLIPSE
  5
6FDCE
330
70019
100
AcDbEntity
  8
Level 27
 62
    40
370
    13
100
AcDbEllipse
 10
0.647824
 20
0.340051
 30
-0.11699
 11
0.0
 21
-0.01045
 31
0.0
210
0.1777145977553255
220
0.0
230
0.9840820706346921
 40
0.9840820706346926
 41
0.0
 42
6.283185307179586
  0
ELLIPSE
  5
6FDCF
330
70019
100
AcDbEntity
  8
Level 27
 62
    40
370
    13
100
AcDbEllipse
 10
0.647649
 20
0.340051
 30
-0.116958
 11
0.0
 21
0.01045
 31
0.0
210
-0.1777145977553255
220
0.0
230
-0.9840820706346921
 40
0.9840820706346926
 41
0.0
 42
6.283185307179586
  0
LINE
  5
6FDD0
330
70019
100
AcDbEntity
  8
Level 27
 62
    40
370
    13
100
AcDbLine
 10
0.647649
 20
0.329601
 30
-0.116958
 11
0.647824
 21
0.329601
 31
-0.11699
  0
LINE
  5
6FDD1
330
70019
100
AcDbEntity
  8
Level 27
 62
    40
370
    13
100
AcDbLine
 10
0.657769
 20
0.340051
 30
-0.118786
 11
0.657944
 21
0.340051
 31
-0.118818
  0
LINE
  5
6FDD2
330
70019
100
AcDbEntity
  8
Level 27
 62
    40
370
    13
100
AcDbLine
 10
0.647649
 20
0.350501
 30
-0.116958
 11
0.647824
 21
0.350501
 31
-0.11699
  0
LINE
  5
6FDD3
330
70019
100
AcDbEntity
  8
Level 27
 62
    40
370
    13
100
AcDbLine
 10
0.637529
 20
0.340051
 30
-0.115131
 11
0.637704
 21
0.340051
 31
-0.115162
  0
ENDBLK
  5
7001B
330
70019
100
AcDbEntity
  8
0
 62
    98
370
     0
100
AcDbBlockEnd
  0
BLOCK
  5
7001D
330
7001C
100
AcDbEntity
  8
0
 62
    98
370
     0
100
AcDbBlockBegin
  2
Feature Solid_3
 70
     0
 10
0.0
 20
0.0
 30
0.0
  3
Feature Solid_3
  1

  0
INSERT
  5
6FDD5
330
7001C
100
AcDbEntity
  8
Level 25
 62
   252
370
    13
100
AcDbBlockReference
  2
SUBTRC
 10
-0.396215
 20
-0.340054
 30
0.0
  0
ENDBLK
  5
7001E
330
7001C
100
AcDbEntity
  8
0
 62
    98
370
     0
100
AcDbBlockEnd
  0
BLOCK
  5
70020
330
7001F
100
AcDbEntity
  8
0
 62
    98
370
     0
100
AcDbBlockBegin
  2
SUBTRC
 70
     0
 10
0.0
 20
0.0
 30
0.0
  3
SUBTRC
  1

  0
INSERT
  5
6FDD8
330
7001F
100
AcDbEntity
  8
Level 25
 62
   252
370
    13
100
AcDbBlockReference
  2
Feature Solid_4
 10
0.396205
 20
0.340055
 30
0.0
  0
ENDBLK
  5
70021
330
7001F
100
AcDbEntity
  8
0
 62
    98
370
     0
100
AcDbBlockEnd
  0
BLOCK
  5
70023
330
70022
100
AcDbEntity
  8
0
 62
    98
370
     0
100
AcDbBlockBegin
  2
Feature Solid_4
 70
     0
 10
0.0
 20
0.0
 30
0.0
  3
Feature Solid_4
  1

  0
INSERT
  5
6FDD9
330
70022
100
AcDbEntity
  8
Level 25
 62
   252
370
    13
100
AcDbBlockReference
  2
CONE_3
 10
-0.396205
 20
-0.340055
 30
0.0
  0
ENDBLK
  5
70024
330
70022
100
AcDbEntity
  8
0
 62
    98
370
     0
100
AcDbBlockEnd
  0
BLOCK
  5
70026
330
70025
100
AcDbEntity
  8
0
 62
    98
370
     0
100
AcDbBlockBegin
  2
CONE_3
 70
     0
 10
0.0
 20
0.0
 30
0.0
  3
CONE_3
  1

  0
ARC
  5
6FDDA
330
70025
100
AcDbEntity
  8
Level 25
 62
   252
370
    13
100
AcDbCircle
 10
0.39621
 20
0.340054
 30
0.0
 40
0.00699
100
AcDbArc
 50
0.0
 51
359.999994
  0
ARC
  5
6FDDB
330
70025
100
AcDbEntity
  8
Level 25
 62
   252
370
    13
100
AcDbCircle
 10
0.39621
 20
0.340054
 30
0.0
 40
0.00699
100
AcDbArc
 50
0.0
 51
359.999994
  0
LINE
  5
6FDDC
330
70025
100
AcDbEntity
  8
Level 25
 62
   252
370
    13
100
AcDbLine
 10
0.39621
 20
0.347044
 30
0.0
 11
0.39621
 21
0.347044
 31
0.0
  0
LINE
  5
6FDDD
330
70025
100
AcDbEntity
  8
Level 25
 62
   252
370
    13
100
AcDbLine
 10
0.4032
 20
0.340054
 30
0.0
 11
0.4032
 21
0.340054
 31
0.0
  0
LINE
  5
6FDDE
330
70025
100
AcDbEntity
  8
Level 25
 62
   252
370
    13
100
AcDbLine
 10
0.39621
 20
0.333064
 30
0.0
 11
0.39621
 21
0.333064
 31
0.0
  0
LINE
  5
6FDDF
330
70025
100
AcDbEntity
  8
Level 25
 62
   252
370
    13
100
AcDbLine
 10
0.38922
 20
0.340054
 30
0.0
 11
0.38922
 21
0.340054
 31
0.0
  0
ENDBLK
  5
70027
330
70025
100
AcDbEntity
  8
0
 62
    98
370
     0
100
AcDbBlockEnd
  0
BLOCK
  5
70029
330
70028
100
AcDbEntity
  8
0
 62
    98
370
     0
100
AcDbBlockBegin
  2
Feature Solid_5
 70
     0
 10
0.0
 20
0.0
 30
0.0
  3
Feature Solid_5
  1

  0
INSERT
  5
6FDE1
330
70028
100
AcDbEntity
  8
Level 25
 62
   252
370
    13
100
AcDbBlockReference
  2
SUBTRC_1
 10
-0.394988
 20
-0.340054
 30
0.0
  0
ENDBLK
  5
7002A
330
70028
100
AcDbEntity
  8
0
 62
    98
370
     0
100
AcDbBlockEnd
  0
BLOCK
  5
7002C
330
7002B
100
AcDbEntity
  8
0
 62
    98
370
     0
100
AcDbBlockBegin
  2
SUBTRC_1
 70
     0
 10
0.0
 20
0.0
 30
0.0
  3
SUBTRC_1
  1

  0
INSERT
  5
6FDE4
330
7002B
100
AcDbEntity
  8
Level 25
 62
   252
370
    13
100
AcDbBlockReference
  2
Feature Solid_6
 10
-0.340055
 20
0.388704
 30
-0.070196
 41
1.0
 42
1.0
 43
1.0
 50
89.999958
210
-0.1777145977553298
220
-0.0000001287312902
230
0.9840820706346828
  0
ENDBLK
  5
7002D
330
7002B
100
AcDbEntity
  8
0
 62
    98
370
     0
100
AcDbBlockEnd
  0
BLOCK
  5
7002F
330
7002E
100
AcDbEntity
  8
0
 62
    98
370
     0
100
AcDbBlockBegin
  2
Feature Solid_6
 70
     0
 10
0.0
 20
0.0
 30
0.0
  3
Feature Solid_6
  1

  0
INSERT
  5
6FDE5
330
7002E
100
AcDbEntity
  8
Level 25
 62
   252
370
    13
100
AcDbBlockReference
  2
CONE_4
 10
-0.266542
 20
-0.340055
 30
0.048135
 41
1.0
 42
1.0
 43
1.0
 50
0.0
  0
ENDBLK
  5
70030
330
7002E
100
AcDbEntity
  8
0
 62
    98
370
     0
100
AcDbBlockEnd
  0
BLOCK
  5
70032
330
70031
100
AcDbEntity
  8
0
 62
    98
370
     0
100
AcDbBlockBegin
  2
CONE_4
 70
     0
 10
0.0
 20
0.0
 30
0.0
  3
CONE_4
  1

  0
ELLIPSE
  5
6FDE6
330
70031
100
AcDbEntity
  8
Level 25
 62
   252
370
    13
100
AcDbEllipse
 10
0.265228
 20
0.340054
 30
-0.047897
 11
0.0
 21
0.00699
 31
0.0
210
-0.1777145977554214
220
0.0
230
-0.9840820706346747
 40
0.9840820706346827
 41
0.0
 42
6.283185307179586
  0
ARC
  5
6FDE7
330
70031
100
AcDbEntity
  8
Level 25
 62
   252
370
    13
100
AcDbCircle
 10
-0.340054
 20
-0.272072
 30
0.0
 40
0.0069900000402991
210
-0.1777145977553298
220
-0.0000001287253604
230
-0.9840820706346828
100
AcDbArc
 50
0.0
 51
359.999994
  0
LINE
  5
6FDE8
330
70031
100
AcDbEntity
  8
Level 25
 62
   252
370
    13
100
AcDbLine
 10
0.265228
 20
0.333064
 30
-0.047897
 11
0.267741
 21
0.333064
 31
-0.048351
  0
LINE
  5
6FDE9
330
70031
100
AcDbEntity
  8
Level 25
 62
   252
370
    13
100
AcDbLine
 10
0.271997
 20
0.340054
 30
-0.04912
 11
0.27462
 21
0.340054
 31
-0.049593
  0
LINE
  5
6FDEA
330
70031
100
AcDbEntity
  8
Level 25
 62
   252
370
    13
100
AcDbLine
 10
0.265228
 20
0.347044
 30
-0.047897
 11
0.267741
 21
0.347044
 31
-0.048351
  0
LINE
  5
6FDEB
330
70031
100
AcDbEntity
  8
Level 25
 62
   252
370
    13
100
AcDbLine
 10
0.258458
 20
0.340054
 30
-0.046675
 11
0.260863
 21
0.340054
 31
-0.047109
  0
ENDBLK
  5
70033
330
70031
100
AcDbEntity
  8
0
 62
    98
370
     0
100
AcDbBlockEnd
  0
BLOCK
  5
70035
330
70034
100
AcDbEntity
  8
0
 62
    98
370
     0
100
AcDbBlockBegin
  2
Feature Solid_7
 70
     0
 10
0.0
 20
0.0
 30
0.0
  3
Feature Solid_7
  1

  0
INSERT
  5
6FDED
330
70034
100
AcDbEntity
  8
Level 27
 62
    40
370
    13
100
AcDbBlockReference
  2
CONE_5
 10
0.340046
 20
-0.646511
 30
0.116753
 50
90.0
210
-0.1777145977553255
220
0.0000000010297995
230
0.9840820706346919
  0
ENDBLK
  5
70036
330
70034
100
AcDbEntity
  8
0
 62
    98
370
     0
100
AcDbBlockEnd
  0
BLOCK
  5
70038
330
70037
100
AcDbEntity
  8
0
 62
    98
370
     0
100
AcDbBlockBegin
  2
CONE_5
 70
     0
 10
0.0
 20
0.0
 30
0.0
  3
CONE_5
  1

  0
ELLIPSE
  5
6FDEE
330
70037
100
AcDbEntity
  8
Level 27
 62
    40
370
    13
100
AcDbEllipse
 10
0.645375
 20
0.340051
 30
-0.116548
 11
0.0
 21
0.00574
 31
0.0
210
-0.1777145977553254
220
0.0
230
-0.9840820706346919
 40
0.9840820706346928
 41
0.0
 42
6.283185307179586
  0
ELLIPSE
  5
6FDEF
330
70037
100
AcDbEntity
  8
Level 27
 62
    40
370
    13
100
AcDbEllipse
 10
0.647649
 20
0.340051
 30
-0.116958
 11
0.0
 21
-0.00574
 31
0.0
210
0.1777145977553254
220
0.0
230
0.9840820706346919
 40
0.9840820706346928
 41
0.0
 42
6.283185307179586
  0
LINE
  5
6FDF0
330
70037
100
AcDbEntity
  8
Level 27
 62
    40
370
    13
100
AcDbLine
 10
0.647649
 20
0.345791
 30
-0.116958
 11
0.645375
 21
0.345791
 31
-0.116548
  0
LINE
  5
6FDF1
330
70037
100
AcDbEntity
  8
Level 27
 62
    40
370
    13
100
AcDbLine
 10
0.653207
 20
0.340051
 30
-0.117962
 11
0.650934
 21
0.340051
 31
-0.117552
  0
LINE
  5
6FDF2
330
70037
100
AcDbEntity
  8
Level 27
 62
    40
370
    13
100
AcDbLine
 10
0.647649
 20
0.334311
 30
-0.116958
 11
0.645375
 21
0.334311
 31
-0.116548
  0
LINE
  5
6FDF3
330
70037
100
AcDbEntity
  8
Level 27
 62
    40
370
    13
100
AcDbLine
 10
0.64209
 20
0.340051
 30
-0.115955
 11
0.639816
 21
0.340051
 31
-0.115544
  0
ENDBLK
  5
70039
330
70037
100
AcDbEntity
  8
0
 62
    98
370
     0
100
AcDbBlockEnd
  0
BLOCK
  5
7003B
330
7003A
100
AcDbEntity
  8
0
 62
    98
370
     0
100
AcDbBlockBegin
  2
Feature Solid_8
 70
     0
 10
0.0
 20
0.0
 30
0.0
  3
Feature Solid_8
  1

  0
INSERT
  5
6FDF5
330
7003A
100
AcDbEntity
  8
Level 25
 62
   252
370
    13
100
AcDbBlockReference
  2
SUBTRC_2
 10
-0.39499
 20
-0.340054
 30
0.0
  0
ENDBLK
  5
7003C
330
7003A
100
AcDbEntity
  8
0
 62
    98
370
     0
100
AcDbBlockEnd
  0
BLOCK
  5
7003E
330
7003D
100
AcDbEntity
  8
0
 62
    98
370
     0
100
AcDbBlockBegin
  2
SUBTRC_2
 70
     0
 10
0.0
 20
0.0
 30
0.0
  3
SUBTRC_2
  1

  0
INSERT
  5
6FDF8
330
7003D
100
AcDbEntity
  8
Level 25
 62
   252
370
    13
100
AcDbBlockReference
  2
Feature Solid_9
 10
-0.340055
 20
0.388704
 30
-0.070196
 41
1.0
 42
1.0
 43
1.0
 50
89.999958
210
-0.1777145977553298
220
-0.0000001287312902
230
0.9840820706346828
  0
ENDBLK
  5
7003F
330
7003D
100
AcDbEntity
  8
0
 62
    98
370
     0
100
AcDbBlockEnd
  0
BLOCK
  5
70041
330
70040
100
AcDbEntity
  8
0
 62
    98
370
     0
100
AcDbBlockBegin
  2
Feature Solid_9
 70
     0
 10
0.0
 20
0.0
 30
0.0
  3
Feature Solid_9
  1

  0
INSERT
  5
6FDF9
330
70040
100
AcDbEntity
  8
Level 25
 62
   252
370
    13
100
AcDbBlockReference
  2
CONE_6
 10
-0.266542
 20
-0.340055
 30
0.048135
 41
1.0
 42
1.0
 43
1.0
 50
0.0
  0
ENDBLK
  5
70042
330
70040
100
AcDbEntity
  8
0
 62
    98
370
     0
100
AcDbBlockEnd
  0
BLOCK
  5
70044
330
70043
100
AcDbEntity
  8
0
 62
    98
370
     0
100
AcDbBlockBegin
  2
CONE_6
 70
     0
 10
0.0
 20
0.0
 30
0.0
  3
CONE_6
  1

  0
ELLIPSE
  5
6FDFA
330
70043
100
AcDbEntity
  8
Level 25
 62
   252
370
    13
100
AcDbEllipse
 10
0.265228
 20
0.340054
 30
-0.047897
 11
0.0
 21
0.00699
 31
0.0
210
-0.1777145977554214
220
0.0
230
-0.9840820706346747
 40
0.9840820706346827
 41
0.0
 42
6.283185307179586
  0
ARC
  5
6FDFB
330
70043
100
AcDbEntity
  8
Level 25
 62
   252
370
    13
100
AcDbCircle
 10
-0.340054
 20
-0.272072
 30
0.0
 40
0.0069900000402991
210
-0.1777145977553298
220
-0.0000001287253604
230
-0.9840820706346828
100
AcDbArc
 50
0.0
 51
359.999994
  0
LINE
  5
6FDFC
330
70043
100
AcDbEntity
  8
Level 25
 62
   252
370
    13
100
AcDbLine
 10
0.265228
 20
0.333064
 30
-0.047897
 11
0.267741
 21
0.333064
 31
-0.048351
  0
LINE
  5
6FDFD
330
70043
100
AcDbEntity
  8
Level 25
 62
   252
370
    13
100
AcDbLine
 10
0.271997
 20
0.340054
 30
-0.04912
 11
0.27462
 21
0.340054
 31
-0.049593
  0
LINE
  5
6FDFE
330
70043
100
AcDbEntity
  8
Level 25
 62
   252
370
    13
100
AcDbLine
 10
0.265228
 20
0.347044
 30
-0.047897
 11
0.267741
 21
0.347044
 31
-0.048351
  0
LINE
  5
6FDFF
330
70043
100
AcDbEntity
  8
Level 25
 62
   252
370
    13
100
AcDbLine
 10
0.258458
 20
0.340054
 30
-0.046675
 11
0.260863
 21
0.340054
 31
-0.047109
  0
ENDBLK
  5
70045
330
70043
100
AcDbEntity
  8
0
 62
    98
370
     0
100
AcDbBlockEnd
  0
BLOCK
  5
70047
330
70046
100
AcDbEntity
  8
0
 62
    98
370
     0
100
AcDbBlockBegin
  2
Feature Solid_10
 70
     0
 10
0.0
 20
0.0
 30
0.0
  3
Feature Solid_10
  1

  0
INSERT
  5
6FE01
330
70046
100
AcDbEntity
  8
Level 27
 62
    40
370
    13
100
AcDbBlockReference
  2
CONE_7
 10
0.340046
 20
-0.646511
 30
0.116753
 50
90.0
210
-0.1777145977553255
220
0.0000000010297995
230
0.9840820706346919
  0
ENDBLK
  5
70048
330
70046
100
AcDbEntity
  8
0
 62
    98
370
     0
100
AcDbBlockEnd
  0
BLOCK
  5
7004A
330
70049
100
AcDbEntity
  8
0
 62
    98
370
     0
100
AcDbBlockBegin
  2
CONE_7
 70
     0
 10
0.0
 20
0.0
 30
0.0
  3
CONE_7
  1

  0
ELLIPSE
  5
6FE02
330
70049
100
AcDbEntity
  8
Level 27
 62
    40
370
    13
100
AcDbEllipse
 10
0.645375
 20
0.340051
 30
-0.116548
 11
0.0
 21
0.00574
 31
0.0
210
-0.1777145977553254
220
0.0
230
-0.9840820706346919
 40
0.9840820706346928
 41
0.0
 42
6.283185307179586
  0
ELLIPSE
  5
6FE03
330
70049
100
AcDbEntity
  8
Level 27
 62
    40
370
    13
100
AcDbEllipse
 10
0.647649
 20
0.340051
 30
-0.116958
 11
0.0
 21
-0.00574
 31
0.0
210
0.1777145977553254
220
0.0
230
0.9840820706346919
 40
0.9840820706346928
 41
0.0
 42
6.283185307179586
  0
LINE
  5
6FE04
330
70049
100
AcDbEntity
  8
Level 27
 62
    40
370
    13
100
AcDbLine
 10
0.647649
 20
0.345791
 30
-0.116958
 11
0.645375
 21
0.345791
 31
-0.116548
  0
LINE
  5
6FE05
330
70049
100
AcDbEntity
  8
Level 27
 62
    40
370
    13
100
AcDbLine
 10
0.653207
 20
0.340051
 30
-0.117962
 11
0.650934
 21
0.340051
 31
-0.117552
  0
LINE
  5
6FE06
330
70049
100
AcDbEntity
  8
Level 27
 62
    40
370
    13
100
AcDbLine
 10
0.647649
 20
0.334311
 30
-0.116958
 11
0.645375
 21
0.334311
 31
-0.116548
  0
LINE
  5
6FE07
330
70049
100
AcDbEntity
  8
Level 27
 62
    40
370
    13
100
AcDbLine
 10
0.64209
 20
0.340051
 30
-0.115955
 11
0.639816
 21
0.340051
 31
-0.115544
  0
ENDBLK
  5
7004B
330
70049
100
AcDbEntity
  8
0
 62
    98
370
     0
100
AcDbBlockEnd
  0
BLOCK
  5
7004D
330
7004C
100
AcDbEntity
  8
0
 62
    98
370
     0
100
AcDbBlockBegin
  2
Feature Solid_11
 70
     0
 10
0.0
 20
0.0
 30
0.0
  3
Feature Solid_11
  1

  0
INSERT
  5
6FE09
330
7004C
100
AcDbEntity
  8
Level 27
 62
    40
370
    13
100
AcDbBlockReference
  2
CONE_8
 10
0.340046
 20
-0.646511
 30
0.116753
 50
90.0
210
-0.1777145977553255
220
0.0000000010297995
230
0.9840820706346919
  0
ENDBLK
  5
7004E
330
7004C
100
AcDbEntity
  8
0
 62
    98
370
     0
100
AcDbBlockEnd
  0
BLOCK
  5
70050
330
7004F
100
AcDbEntity
  8
0
 62
    98
370
     0
100
AcDbBlockBegin
  2
CONE_8
 70
     0
 10
0.0
 20
0.0
 30
0.0
  3
CONE_8
  1

  0
ELLIPSE
  5
6FE0A
330
7004F
100
AcDbEntity
  8
Level 27
 62
    40
370
    13
100
AcDbEllipse
 10
0.645375
 20
0.340051
 30
-0.116548
 11
0.0
 21
0.00574
 31
0.0
210
-0.1777145977553254
220
0.0
230
-0.9840820706346919
 40
0.9840820706346928
 41
0.0
 42
6.283185307179586
  0
ELLIPSE
  5
6FE0B
330
7004F
100
AcDbEntity
  8
Level 27
 62
    40
370
    13
100
AcDbEllipse
 10
0.647649
 20
0.340051
 30
-0.116958
 11
0.0
 21
-0.00574
 31
0.0
210
0.1777145977553254
220
0.0
230
0.9840820706346919
 40
0.9840820706346928
 41
0.0
 42
6.283185307179586
  0
LINE
  5
6FE0C
330
7004F
100
AcDbEntity
  8
Level 27
 62
    40
370
    13
100
AcDbLine
 10
0.647649
 20
0.345791
 30
-0.116958
 11
0.645375
 21
0.345791
 31
-0.116548
  0
LINE
  5
6FE0D
330
7004F
100
AcDbEntity
  8
Level 27
 62
    40
370
    13
100
AcDbLine
 10
0.653207
 20
0.340051
 30
-0.117962
 11
0.650934
 21
0.340051
 31
-0.117552
  0
LINE
  5
6FE0E
330
7004F
100
AcDbEntity
  8
Level 27
 62
    40
370
    13
100
AcDbLine
 10
0.647649
 20
0.334311
 30
-0.116958
 11
0.645375
 21
0.334311
 31
-0.116548
  0
LINE
  5
6FE0F
330
7004F
100
AcDbEntity
  8
Level 27
 62
    40
370
    13
100
AcDbLine
 10
0.64209
 20
0.340051
 30
-0.115955
 11
0.639816
 21
0.340051
 31
-0.115544
  0
ENDBLK
  5
70051
330
7004F
100
AcDbEntity
  8
0
 62
    98
370
     0
100
AcDbBlockEnd
  0
BLOCK
  5
70053
330
70052
100
AcDbEntity
  8
0
 62
    98
370
     0
100
AcDbBlockBegin
  2
From Surface
 70
     0
 10
0.0
 20
0.0
 30
0.0
  3
From Surface
  1

  0
ELLIPSE
  5
6FE11
330
70052
100
AcDbEntity
  8
Level 27
 62
    40
370
    13
100
AcDbEllipse
 10
3180.776229
 20
-674.41588
 30
0.0
 11
4.474914456153014
 21
-20.72233434268719
 31
0.0
210
0.0
220
0.0
230
1.0
 40
0.1738327875102104
 41
0.0
 42
6.283185307179584
  0
ELLIPSE
  5
6FE12
330
70052
100
AcDbEntity
  8
Level 27
 62
    40
370
    13
100
AcDbEllipse
 10
3825.100639
 20
333.704679
 30
0.0
 11
20.75109470438461
 21
4.339593134115457
 31
0.0
210
0.0
220
0.0
230
-1.0
 40
0.0369428589222579
 41
0.0
 42
6.28318530717958
  0
ELLIPSE
  5
6FE13
330
70052
100
AcDbEntity
  8
Level 27
 62
    40
370
    13
100
AcDbEllipse
 10
3006.90189
 20
157.017567
 30
0.0
 11
-0.0084487451816392
 21
-828.7999486281709
 31
0.0
210
0.0
220
0.0
230
1.0
 40
0.9840820022544258
 41
0.2094040604877758
 42
1.780200387282671
  0
ELLIPSE
  5
6FE14
330
70052
100
AcDbEntity
  8
Level 27
 62
    40
370
    13
100
AcDbEllipse
 10
3003.134333
 20
157.017606
 30
0.0
 11
-0.0086648569215505
 21
-849.9999486270695
 31
0.0
210
0.0
220
0.0
230
1.0
 40
0.984082002254426
 41
0.2094040604877767
 42
1.780200387282673
  0
ELLIPSE
  5
6FE15
330
70052
100
AcDbEntity
  8
Level 27
 62
    40
370
    13
100
AcDbEllipse
 10
3006.90189
 20
157.017567
 30
0.0
 11
-0.0088809686609473
 21
-871.1999486259678
 31
0.0
210
0.0
220
0.0
230
1.0
 40
0.984082002254426
 41
0.2094040604877776
 42
1.780200387282674
  0
ELLIPSE
  5
6FE16
330
70052
100
AcDbEntity
  8
Level 27
 62
    40
370
    13
100
AcDbEllipse
 10
3010.669448
 20
157.017529
 30
0.0
 11
-0.0086648569215505
 21
-849.9999486270695
 31
0.0
210
0.0
220
0.0
230
1.0
 40
0.984082002254426
 41
0.2094040604877767
 42
1.780200387282673
  0
ELLIPSE
  5
6FE17
330
70052
100
AcDbEntity
  8
Level 27
 62
    40
370
    13
100
AcDbEllipse
 10
2833.027551
 20
988.451015
 30
0.0
 11
-4.47491445615301
 21
20.72233434268722
 31
0.0
210
0.0
220
0.0
230
-1.0
 40
0.1738327875102105
 41
0.0
 42
6.283185307179584
  0
ELLIPSE
  5
6FE18
330
70052
100
AcDbEntity
  8
Level 27
 62
    40
370
    13
100
AcDbEllipse
 10
3006.90189
 20
157.017567
 30
0.0
 11
0.0084487451817407
 21
828.7999486281709
 31
0.0
210
0.0
220
0.0
230
1.0
 40
0.9840820022544258
 41
4.921793040872465
 42
6.492589367667362
  0
ELLIPSE
  5
6FE19
330
70052
100
AcDbEntity
  8
Level 27
 62
    40
370
    13
100
AcDbEllipse
 10
3003.134333
 20
157.017606
 30
0.0
 11
0.0086648569224095
 21
849.9999486270692
 31
0.0
210
0.0
220
0.0
230
0.9999999999999998
 40
0.9840820022544264
 41
4.921793040872467
 42
6.492589367667363
  0
ELLIPSE
  5
6FE1A
330
70052
100
AcDbEntity
  8
Level 27
 62
    40
370
    13
100
AcDbEllipse
 10
3006.90189
 20
157.017567
 30
0.0
 11
0.0088809686595065
 21
871.1999486259678
 31
0.0
210
0.0
220
0.0
230
1.0
 40
0.984082002254426
 41
4.921793040872465
 42
6.492589367667362
  0
ELLIPSE
  5
6FE1B
330
70052
100
AcDbEntity
  8
Level 27
 62
    40
370
    13
100
AcDbEllipse
 10
3010.669448
 20
157.017529
 30
0.0
 11
0.0086648569224095
 21
849.9999486270692
 31
0.0
210
0.0
220
0.0
230
0.9999999999999998
 40
0.9840820022544264
 41
4.921793040872467
 42
6.492589367667363
  0
ELLIPSE
  5
6FE1C
330
70052
100
AcDbEntity
  8
Level 27
 62
    40
370
    13
100
AcDbEllipse
 10
2188.703142
 20
-19.669544
 30
0.0
 11
-20.75109470438461
 21
-4.339593134115454
 31
0.0
210
0.0
220
0.0
230
1.0
 40
0.036942858922258
 41
0.0
 42
6.28318530717958
  0
ELLIPSE
  5
6FE1D
330
70052
100
AcDbEntity
  8
Level 27
 62
    40
370
    13
100
AcDbEllipse
 10
3006.90189
 20
157.017567
 30
0.0
 11
0.0084487451787962
 21
828.7999486281712
 31
0.0
210
0.0
220
0.0
230
1.0
 40
0.9840820022544257
 41
0.2094040604877723
 42
1.780200387282669
  0
ELLIPSE
  5
6FE1E
330
70052
100
AcDbEntity
  8
Level 27
 62
    40
370
    13
100
AcDbEllipse
 10
3003.134333
 20
157.017606
 30
0.0
 11
0.0086648569208996
 21
849.9999486270697
 31
0.0
210
0.0
220
0.0
230
1.0
 40
0.9840820022544264
 41
0.2094040604877767
 42
1.780200387282673
  0
ELLIPSE
  5
6FE1F
330
70052
100
AcDbEntity
  8
Level 27
 62
    40
370
    13
100
AcDbEllipse
 10
3006.90189
 20
157.017567
 30
0.0
 11
0.0088809686546703
 21
871.1999486259681
 31
0.0
210
0.0
220
0.0
230
1.0
 40
0.9840820022544262
 41
0.2094040604877705
 42
1.780200387282667
  0
ELLIPSE
  5
6FE20
330
70052
100
AcDbEntity
  8
Level 27
 62
    40
370
    13
100
AcDbEllipse
 10
3010.669448
 20
157.017529
 30
0.0
 11
0.0086648569208996
 21
849.9999486270697
 31
0.0
210
0.0
220
0.0
230
1.0
 40
0.9840820022544264
 41
0.2094040604877767
 42
1.780200387282673
  0
ELLIPSE
  5
6FE21
330
70052
100
AcDbEntity
  8
Level 27
 62
    40
370
    13
100
AcDbEllipse
 10
3180.776229
 20
-674.41588
 30
0.0
 11
4.474914456153006
 21
-20.72233434268721
 31
0.0
210
0.0
220
0.0
230
1.0
 40
0.1738327875102104
 41
0.0
 42
6.283185307179584
  0
ELLIPSE
  5
6FE22
330
70052
100
AcDbEntity
  8
Level 27
 62
    40
370
    13
100
AcDbEllipse
 10
3006.90189
 20
157.017567
 30
0.0
 11
-0.0084487451820072
 21
-828.7999486281709
 31
0.0
210
0.0
220
0.0
230
1.0
 40
0.9840820022544258
 41
4.921793040872465
 42
6.492589367667362
  0
ELLIPSE
  5
6FE23
330
70052
100
AcDbEntity
  8
Level 27
 62
    40
370
    13
100
AcDbEllipse
 10
3003.134333
 20
157.017606
 30
0.0
 11
-0.0086648569230604
 21
-849.9999486270692
 31
0.0
210
0.0
220
0.0
230
0.9999999999999998
 40
0.9840820022544264
 41
4.921793040872468
 42
6.492589367667364
  0
ELLIPSE
  5
6FE24
330
70052
100
AcDbEntity
  8
Level 27
 62
    40
370
    13
100
AcDbEllipse
 10
3006.90189
 20
157.017567
 30
0.0
 11
-0.0088809686582391
 21
-871.1999486259676
 31
0.0
210
0.0
220
0.0
230
0.9999999999999998
 40
0.984082002254426
 41
4.921793040872463
 42
6.49258936766736
  0
ELLIPSE
  5
6FE25
330
70052
100
AcDbEntity
  8
Level 27
 62
    40
370
    13
100
AcDbEllipse
 10
3010.669448
 20
157.017529
 30
0.0
 11
-0.0086648569230604
 21
-849.9999486270692
 31
0.0
210
0.0
220
0.0
230
0.9999999999999998
 40
0.9840820022544264
 41
4.921793040872468
 42
6.492589367667364
  0
ENDBLK
  5
70054
330
70052
100
AcDbEntity
  8
0
 62
    98
370
     0
100
AcDbBlockEnd
  0
BLOCK
  5
70056
330
70055
100
AcDbEntity
  8
0
 62
    98
370
     0
100
AcDbBlockBegin
  2
From Surface_1
 70
     0
 10
0.0
 20
0.0
 30
0.0
  3
From Surface_1
  1

  0
LINE
  5
6FE27
330
70055
100
AcDbEntity
  8
Level 27
 62
    40
370
    13
100
AcDbLine
 10
2173.97494
 20
157.017577
 30
0.0
 11
2113.57494
 21
157.017578
 31
0.0
  0
ELLIPSE
  5
6FE28
330
70055
100
AcDbEntity
  8
Level 27
 62
    40
370
    13
100
AcDbEllipse
 10
2980.24471
 20
1007.017568
 30
0.0
 11
0.0
 21
30.20000000000001
 31
0.0
210
0.0
220
0.0
230
0.9999999999999998
 40
0.1777145977553254
 41
0.0
 42
6.283185307179584
  0
ELLIPSE
  5
6FE29
330
70055
100
AcDbEntity
  8
Level 27
 62
    40
370
    13
100
AcDbEllipse
 10
2980.2447
 20
157.017568
 30
0.0
 11
0.0
 21
819.7999999999998
 31
0.0
210
0.0
220
0.0
230
-1.0
 40
0.9840820706346921
 41
4.712388980384689
 42
6.283185307179586
  0
ELLIPSE
  5
6FE2A
330
70055
100
AcDbEntity
  8
Level 27
 62
    40
370
    13
100
AcDbEllipse
 10
2985.611681
 20
157.017568
 30
0.0
 11
0.0
 21
849.9999999999998
 31
0.0
210
0.0
220
0.0
230
-1.0
 40
0.9840820706346917
 41
4.712388980384689
 42
6.283185307179586
  0
ELLIPSE
  5
6FE2B
330
70055
100
AcDbEntity
  8
Level 27
 62
    40
370
    13
100
AcDbEllipse
 10
2980.2447
 20
157.017568
 30
0.0
 11
0.0
 21
880.1999999999999
 31
0.0
210
0.0
220
0.0
230
-1.0
 40
0.9840820706346919
 41
4.712388980384689
 42
6.283185307179586
  0
ELLIPSE
  5
6FE2C
330
70055
100
AcDbEntity
  8
Level 27
 62
    40
370
    13
100
AcDbEllipse
 10
2974.87772
 20
157.017568
 30
0.0
 11
0.0
 21
849.9999999999998
 31
0.0
210
0.0
220
0.0
230
-1.0
 40
0.9840820706346917
 41
4.712388980384689
 42
6.283185307179586
  0
LINE
  5
6FE2D
330
70055
100
AcDbEntity
  8
Level 27
 62
    40
370
    13
100
AcDbLine
 10
3786.51446
 20
157.017558
 30
0.0
 11
3846.91446
 21
157.017557
 31
0.0
  0
ELLIPSE
  5
6FE2E
330
70055
100
AcDbEntity
  8
Level 27
 62
    40
370
    13
100
AcDbEllipse
 10
2980.2447
 20
157.017568
 30
0.0
 11
0.0
 21
819.7999999999995
 31
0.0
210
0.0
220
0.0
230
-1.0
 40
0.9840820706346921
 41
0.0
 42
1.570796326794896
  0
ELLIPSE
  5
6FE2F
330
70055
100
AcDbEntity
  8
Level 27
 62
    40
370
    13
100
AcDbEllipse
 10
2985.611681
 20
157.017568
 30
0.0
 11
0.0
 21
849.9999999999994
 31
0.0
210
0.0
220
0.0
230
-0.9999999999999998
 40
0.9840820706346917
 41
0.0
 42
1.570796326794896
  0
ELLIPSE
  5
6FE30
330
70055
100
AcDbEntity
  8
Level 27
 62
    40
370
    13
100
AcDbEllipse
 10
2980.2447
 20
157.017568
 30
0.0
 11
0.0
 21
880.1999999999996
 31
0.0
210
0.0
220
0.0
230
-1.0
 40
0.9840820706346919
 41
0.0
 42
1.570796326794896
  0
ELLIPSE
  5
6FE31
330
70055
100
AcDbEntity
  8
Level 27
 62
    40
370
    13
100
AcDbEllipse
 10
2974.87772
 20
157.017568
 30
0.0
 11
0.0
 21
849.9999999999994
 31
0.0
210
0.0
220
0.0
230
-0.9999999999999998
 40
0.9840820706346917
 41
0.0
 42
1.570796326794896
  0
ELLIPSE
  5
6FE32
330
70055
100
AcDbEntity
  8
Level 27
 62
    40
370
    13
100
AcDbEllipse
 10
2980.244691
 20
-692.982432
 30
0.0
 11
0.0
 21
-30.20000000000004
 31
0.0
210
0.0
220
0.0
230
-1.0
 40
0.1777145977553255
 41
0.0
 42
6.283185307179584
  0
ELLIPSE
  5
6FE33
330
70055
100
AcDbEntity
  8
Level 27
 62
    40
370
    13
100
AcDbEllipse
 10
2980.2447
 20
157.017568
 30
0.0
 11
0.0
 21
-819.7999999999998
 31
0.0
210
0.0
220
0.0
230
-1.0
 40
0.9840820706346921
 41
4.712388980384689
 42
6.283185307179586
  0
ELLIPSE
  5
6FE34
330
70055
100
AcDbEntity
  8
Level 27
 62
    40
370
    13
100
AcDbEllipse
 10
2985.611681
 20
157.017568
 30
0.0
 11
0.0
 21
-849.9999999999998
 31
0.0
210
0.0
220
0.0
230
-1.0
 40
0.9840820706346917
 41
4.712388980384689
 42
6.283185307179586
  0
ELLIPSE
  5
6FE35
330
70055
100
AcDbEntity
  8
Level 27
 62
    40
370
    13
100
AcDbEllipse
 10
2980.2447
 20
157.017568
 30
0.0
 11
0.0
 21
-880.1999999999999
 31
0.0
210
0.0
220
0.0
230
-1.0
 40
0.9840820706346919
 41
4.712388980384689
 42
6.283185307179586
  0
ELLIPSE
  5
6FE36
330
70055
100
AcDbEntity
  8
Level 27
 62
    40
370
    13
100
AcDbEllipse
 10
2974.87772
 20
157.017568
 30
0.0
 11
0.0
 21
-849.9999999999998
 31
0.0
210
0.0
220
0.0
230
-1.0
 40
0.9840820706346917
 41
4.712388980384689
 42
6.283185307179586
  0
LINE
  5
6FE37
330
70055
100
AcDbEntity
  8
Level 27
 62
    40
370
    13
100
AcDbLine
 10
2173.97494
 20
157.017577
 30
0.0
 11
2113.57494
 21
157.017578
 31
0.0
  0
ELLIPSE
  5
6FE38
330
70055
100
AcDbEntity
  8
Level 27
 62
    40
370
    13
100
AcDbEllipse
 10
2980.2447
 20
157.017568
 30
0.0
 11
0.0
 21
-819.7999999999995
 31
0.0
210
0.0
220
0.0
230
-0.9999999999999998
 40
0.9840820706346921
 41
0.0
 42
1.570796326794896
  0
ELLIPSE
  5
6FE39
330
70055
100
AcDbEntity
  8
Level 27
 62
    40
370
    13
100
AcDbEllipse
 10
2985.611681
 20
157.017568
 30
0.0
 11
0.0
 21
-849.9999999999994
 31
0.0
210
0.0
220
0.0
230
-0.9999999999999998
 40
0.9840820706346917
 41
0.0
 42
1.570796326794896
  0
ELLIPSE
  5
6FE3A
330
70055
100
AcDbEntity
  8
Level 27
 62
    40
370
    13
100
AcDbEllipse
 10
2980.2447
 20
157.017568
 30
0.0
 11
0.0
 21
-880.1999999999996
 31
0.0
210
0.0
220
0.0
230
-1.0
 40
0.9840820706346919
 41
0.0
 42
1.570796326794896
  0
ELLIPSE
  5
6FE3B
330
70055
100
AcDbEntity
  8
Level 27
 62
    40
370
    13
100
AcDbEllipse
 10
2974.87772
 20
157.017568
 30
0.0
 11
0.0
 21
-849.9999999999994
 31
0.0
210
0.0
220
0.0
230
-0.9999999999999998
 40
0.9840820706346917
 41
0.0
 42
1.570796326794896
  0
ENDBLK
  5
70057
330
70055
100
AcDbEntity
  8
0
 62
    98
370
     0
100
AcDbBlockEnd
  0
BLOCK
  5
70059
330
70058
100
AcDbEntity
  8
0
 62
    98
370
     0
100
AcDbBlockBegin
  2
From Surface_2
 70
     0
 10
0.0
 20
0.0
 30
0.0
  3
From Surface_2
  1

  0
ELLIPSE
  5
6FE3D
330
70058
100
AcDbEntity
  8
Level 27
 62
    40
370
    13
100
AcDbEllipse
 10
2980.2447
 20
157.017568
 30
0.0
 11
-18.4326512489019
 21
10.47269630689038
 31
0.0
210
0.0
220
0.0
230
1.0
 40
0.0888572997694961
 41
0.0
 42
6.283185307179583
  0
ELLIPSE
  5
6FE3E
330
70058
100
AcDbEntity
  8
Level 27
 62
    40
370
    13
100
AcDbEllipse
 10
3704.648767
 20
582.017559
 30
0.0
 11
0.0
 21
21.2
 31
0.0
210
0.0
220
0.0
230
1.0
 40
0.1777145977553256
 41
0.0
 42
6.283185307179584
  0
ELLIPSE
  5
6FE3F
330
70058
100
AcDbEntity
  8
Level 27
 62
    40
370
    13
100
AcDbEllipse
 10
3704.648757
 20
-267.982441
 30
0.0
 11
0.0
 21
828.800000000001
 31
0.0
210
0.0
220
0.0
230
-1.0
 40
0.9840820706346919
 41
5.23598776177767
 42
6.283185312974271
  0
ELLIPSE
  5
6FE40
330
70058
100
AcDbEntity
  8
Level 27
 62
    40
370
    13
100
AcDbEllipse
 10
3708.416307
 20
-267.982441
 30
0.0
 11
0.0
 21
850.000000000001
 31
0.0
210
0.0
220
0.0
230
-1.0
 40
0.9840820706346921
 41
5.235987761777677
 42
6.283185312974279
  0
ELLIPSE
  5
6FE41
330
70058
100
AcDbEntity
  8
Level 27
 62
    40
370
    13
100
AcDbEllipse
 10
3704.648757
 20
-267.982441
 30
0.0
 11
0.0
 21
871.2000000000008
 31
0.0
210
0.0
220
0.0
230
-0.9999999999999998
 40
0.9840820706346919
 41
5.235987761777673
 42
6.283185312974276
  0
ELLIPSE
  5
6FE42
330
70058
100
AcDbEntity
  8
Level 27
 62
    40
370
    13
100
AcDbEllipse
 10
3700.881208
 20
-267.982441
 30
0.0
 11
0.0
 21
850.000000000001
 31
0.0
210
0.0
220
0.0
230
-1.0
 40
0.9840820706346921
 41
5.235987761777677
 42
6.283185312974279
  0
ENDBLK
  5
7005A
330
70058
100
AcDbEntity
  8
0
 62
    98
370
     0
100
AcDbBlockEnd
  0
BLOCK
  5
7005C
330
7005B
100
AcDbEntity
  8
0
 62
    98
370
     0
100
AcDbBlockBegin
  2
From Surface_3
 70
     0
 10
0.0
 20
0.0
 30
0.0
  3
From Surface_3
  1

  0
ELLIPSE
  5
6FE48
330
7005B
100
AcDbEntity
  8
Level 27
 62
    40
370
    13
100
AcDbEllipse
 10
2980.2447
 20
157.017568
 30
0.0
 11
-18.43265149066433
 21
-10.47269588137219
 31
0.0
210
0.0
220
0.0
230
-0.9999999999999998
 40
0.0888572979858293
 41
0.0
 42
6.283185307179583
  0
ELLIPSE
  5
6FE49
330
7005B
100
AcDbEntity
  8
Level 27
 62
    40
370
    13
100
AcDbEllipse
 10
2980.24471
 20
1007.017568
 30
0.0
 11
-18.43265124890184
 21
10.4726963068905
 31
0.0
210
0.0
220
0.0
230
0.9999999999999998
 40
0.088857299769497
 41
0.0
 42
6.283185307179583
  0
ELLIPSE
  5
6FE4A
330
7005B
100
AcDbEntity
  8
Level 27
 62
    40
370
    13
100
AcDbEllipse
 10
3704.648767
 20
582.017559
 30
0.0
 11
0.0
 21
-828.8000000000012
 31
0.0
210
0.0
220
0.0
230
-1.0
 40
0.9840820706346919
 41
1.047197556991282
 42
2.094395108187884
  0
ELLIPSE
  5
6FE4B
330
7005B
100
AcDbEntity
  8
Level 27
 62
    40
370
    13
100
AcDbEllipse
 10
3708.416316
 20
582.017559
 30
0.0
 11
0.0
 21
-850.000000000001
 31
0.0
210
0.0
220
0.0
230
-1.0
 40
0.9840820706346919
 41
1.047197556991295
 42
2.094395108187898
  0
ELLIPSE
  5
6FE4C
330
7005B
100
AcDbEntity
  8
Level 27
 62
    40
370
    13
100
AcDbEllipse
 10
3704.648767
 20
582.017559
 30
0.0
 11
0.0
 21
-871.2000000000012
 31
0.0
210
0.0
220
0.0
230
-1.0
 40
0.9840820706346917
 41
1.047197556991292
 42
2.094395108187895
  0
ELLIPSE
  5
6FE4D
330
7005B
100
AcDbEntity
  8
Level 27
 62
    40
370
    13
100
AcDbEllipse
 10
3700.881218
 20
582.017559
 30
0.0
 11
0.0
 21
-850.000000000001
 31
0.0
210
0.0
220
0.0
230
-1.0
 40
0.9840820706346919
 41
1.047197556991295
 42
2.094395108187898
  0
ENDBLK
  5
7005D
330
7005B
100
AcDbEntity
  8
0
 62
    98
370
     0
100
AcDbBlockEnd
  0
BLOCK
  5
7005F
330
7005E
100
AcDbEntity
  8
0
 62
    98
370
     0
100
AcDbBlockBegin
  2
From Surface_4
 70
     0
 10
0.0
 20
0.0
 30
0.0
  3
From Surface_4
  1

  0
ELLIPSE
  5
6FE53
330
7005E
100
AcDbEntity
  8
Level 27
 62
    40
370
    13
100
AcDbEllipse
 10
2980.2447
 20
157.017568
 30
0.0
 11
0.0
 21
-21.2
 31
0.0
210
0.0
220
0.0
230
-1.0
 40
0.1777145977553256
 41
0.0
 42
6.283185307179584
  0
ELLIPSE
  5
6FE54
330
7005E
100
AcDbEntity
  8
Level 27
 62
    40
370
    13
100
AcDbEllipse
 10
2255.840644
 20
582.017576
 30
0.0
 11
-18.43265149066435
 21
-10.47269588137218
 31
0.0
210
0.0
220
0.0
230
-1.0
 40
0.0888572979858292
 41
0.0
 42
6.283185307179583
  0
ELLIPSE
  5
6FE55
330
7005E
100
AcDbEntity
  8
Level 27
 62
    40
370
    13
100
AcDbEllipse
 10
2980.24471
 20
1007.017568
 30
0.0
 11
0.0
 21
-828.8000000000012
 31
0.0
210
0.0
220
0.0
230
-1.0
 40
0.9840820706346919
 41
0.0
 42
1.047197551196602
  0
ELLIPSE
  5
6FE56
330
7005E
100
AcDbEntity
  8
Level 27
 62
    40
370
    13
100
AcDbEllipse
 10
2984.01226
 20
1007.017568
 30
0.0
 11
0.0
 21
-850.000000000001
 31
0.0
210
0.0
220
0.0
230
-1.0
 40
0.9840820706346921
 41
0.0
 42
1.047197551196602
  0
ELLIPSE
  5
6FE57
330
7005E
100
AcDbEntity
  8
Level 27
 62
    40
370
    13
100
AcDbEllipse
 10
2980.24471
 20
1007.017568
 30
0.0
 11
0.0
 21
-871.2000000000012
 31
0.0
210
0.0
220
0.0
230
-1.0
 40
0.9840820706346915
 41
0.0
 42
1.047197551196602
  0
ELLIPSE
  5
6FE58
330
7005E
100
AcDbEntity
  8
Level 27
 62
    40
370
    13
100
AcDbEllipse
 10
2976.477161
 20
1007.017568
 30
0.0
 11
0.0
 21
-850.000000000001
 31
0.0
210
0.0
220
0.0
230
-1.0
 40
0.9840820706346921
 41
0.0
 42
1.047197551196602
  0
ENDBLK
  5
70060
330
7005E
100
AcDbEntity
  8
0
 62
    98
370
     0
100
AcDbBlockEnd
  0
BLOCK
  5
70062
330
70061
100
AcDbEntity
  8
0
 62
    98
370
     0
100
AcDbBlockBegin
  2
From Surface_5
 70
     0
 10
0.0
 20
0.0
 30
0.0
  3
From Surface_5
  1

  0
ELLIPSE
  5
6FE5E
330
70061
100
AcDbEntity
  8
Level 27
 62
    40
370
    13
100
AcDbEllipse
 10
2980.2447
 20
157.017568
 30
0.0
 11
18.43265124890192
 21
-10.47269630689037
 31
0.0
210
0.0
220
0.0
230
-1.0
 40
0.0888572997694959
 41
0.0
 42
6.283185307179583
  0
ELLIPSE
  5
6FE5F
330
70061
100
AcDbEntity
  8
Level 27
 62
    40
370
    13
100
AcDbEllipse
 10
2255.840634
 20
-267.982424
 30
0.0
 11
0.0
 21
-21.20000000000002
 31
0.0
210
0.0
220
0.0
230
-1.0
 40
0.1777145977553254
 41
0.0
 42
6.283185307179584
  0
ELLIPSE
  5
6FE60
330
70061
100
AcDbEntity
  8
Level 27
 62
    40
370
    13
100
AcDbEllipse
 10
2255.840644
 20
582.017576
 30
0.0
 11
0.0
 21
-828.8000000000005
 31
0.0
210
0.0
220
0.0
230
-1.0
 40
0.9840820706346917
 41
5.235987761777668
 42
6.28318531297427
  0
ELLIPSE
  5
6FE61
330
70061
100
AcDbEntity
  8
Level 27
 62
    40
370
    13
100
AcDbEllipse
 10
2259.608193
 20
582.017576
 30
0.0
 11
0.0
 21
-850.0000000000005
 31
0.0
210
0.0
220
0.0
230
-1.0
 40
0.9840820706346921
 41
5.235987761777681
 42
6.283185312974283
  0
ELLIPSE
  5
6FE62
330
70061
100
AcDbEntity
  8
Level 27
 62
    40
370
    13
100
AcDbEllipse
 10
2255.840644
 20
582.017576
 30
0.0
 11
0.0
 21
-871.2000000000006
 31
0.0
210
0.0
220
0.0
230
-1.0
 40
0.9840820706346917
 41
5.235987761777663
 42
6.283185312974265
  0
ELLIPSE
  5
6FE63
330
70061
100
AcDbEntity
  8
Level 27
 62
    40
370
    13
100
AcDbEllipse
 10
2252.073094
 20
582.017576
 30
0.0
 11
0.0
 21
-850.0000000000005
 31
0.0
210
0.0
220
0.0
230
-1.0
 40
0.9840820706346921
 41
5.235987761777681
 42
6.283185312974283
  0
ENDBLK
  5
70063
330
70061
100
AcDbEntity
  8
0
 62
    98
370
     0
100
AcDbBlockEnd
  0
BLOCK
  5
70065
330
70064
100
AcDbEntity
  8
0
 62
    98
370
     0
100
AcDbBlockBegin
  2
From Surface_6
 70
     0
 10
0.0
 20
0.0
 30
0.0
  3
From Surface_6
  1

  0
ELLIPSE
  5
6FE69
330
70064
100
AcDbEntity
  8
Level 27
 62
    40
370
    13
100
AcDbEllipse
 10
2980.2447
 20
157.017568
 30
0.0
 11
18.43265149066431
 21
10.47269588137222
 31
0.0
210
0.0
220
0.0
230
1.0
 40
0.0888572979858294
 41
0.0
 42
6.283185307179583
  0
ELLIPSE
  5
6FE6A
330
70064
100
AcDbEntity
  8
Level 27
 62
    40
370
    13
100
AcDbEllipse
 10
2980.244691
 20
-692.982432
 30
0.0
 11
18.43265124890185
 21
-10.47269630689046
 31
0.0
210
0.0
220
0.0
230
-1.0
 40
0.0888572997694967
 41
0.0
 42
6.283185307179583
  0
ELLIPSE
  5
6FE6B
330
70064
100
AcDbEntity
  8
Level 27
 62
    40
370
    13
100
AcDbEllipse
 10
2255.840634
 20
-267.982424
 30
0.0
 11
0.0
 21
828.7999999999993
 31
0.0
210
0.0
220
0.0
230
-1.0
 40
0.9840820706346919
 41
1.047197556991281
 42
2.094395108187883
  0
ELLIPSE
  5
6FE6C
330
70064
100
AcDbEntity
  8
Level 27
 62
    40
370
    13
100
AcDbEllipse
 10
2259.608183
 20
-267.982424
 30
0.0
 11
0.0
 21
849.9999999999992
 31
0.0
210
0.0
220
0.0
230
-1.0
 40
0.9840820706346917
 41
1.047197556991283
 42
2.094395108187885
  0
ELLIPSE
  5
6FE6D
330
70064
100
AcDbEntity
  8
Level 27
 62
    40
370
    13
100
AcDbEllipse
 10
2255.840634
 20
-267.982424
 30
0.0
 11
0.0
 21
871.1999999999996
 31
0.0
210
0.0
220
0.0
230
-1.0
 40
0.9840820706346915
 41
1.047197556991294
 42
2.094395108187896
  0
ELLIPSE
  5
6FE6E
330
70064
100
AcDbEntity
  8
Level 27
 62
    40
370
    13
100
AcDbEllipse
 10
2252.073084
 20
-267.982424
 30
0.0
 11
0.0
 21
849.9999999999992
 31
0.0
210
0.0
220
0.0
230
-1.0
 40
0.9840820706346917
 41
1.047197556991283
 42
2.094395108187885
  0
ENDBLK
  5
70066
330
70064
100
AcDbEntity
  8
0
 62
    98
370
     0
100
AcDbBlockEnd
  0
BLOCK
  5
70068
330
70067
100
AcDbEntity
  8
0
 62
    98
370
     0
100
AcDbBlockBegin
  2
From Surface_7
 70
     0
 10
0.0
 20
0.0
 30
0.0
  3
From Surface_7
  1

  0
ELLIPSE
  5
6FE74
330
70067
100
AcDbEntity
  8
Level 27
 62
    40
370
    13
100
AcDbEllipse
 10
2980.2447
 20
157.017568
 30
0.0
 11
0.0
 21
21.20000000000002
 31
0.0
210
0.0
220
0.0
230
1.0
 40
0.1777145977553254
 41
0.0
 42
6.283185307179584
  0
ELLIPSE
  5
6FE75
330
70067
100
AcDbEntity
  8
Level 27
 62
    40
370
    13
100
AcDbEllipse
 10
3704.648757
 20
-267.982441
 30
0.0
 11
18.43265149066438
 21
10.47269588137217
 31
0.0
210
0.0
220
0.0
230
1.0
 40
0.0888572979858291
 41
0.0
 42
6.283185307179583
  0
ELLIPSE
  5
6FE76
330
70067
100
AcDbEntity
  8
Level 27
 62
    40
370
    13
100
AcDbEllipse
 10
2980.244691
 20
-692.982432
 30
0.0
 11
0.0
 21
828.7999999999978
 31
0.0
210
0.0
220
0.0
230
-0.9999999999999998
 40
0.9840820706346919
 41
0.0
 42
1.047197551196602
  0
ELLIPSE
  5
6FE77
330
70067
100
AcDbEntity
  8
Level 27
 62
    40
370
    13
100
AcDbEllipse
 10
2984.01224
 20
-692.982432
 30
0.0
 11
0.0
 21
849.999999999998
 31
0.0
210
0.0
220
0.0
230
-1.0
 40
0.9840820706346919
 41
0.0
 42
1.047197551196602
  0
ELLIPSE
  5
6FE78
330
70067
100
AcDbEntity
  8
Level 27
 62
    40
370
    13
100
AcDbEllipse
 10
2980.244691
 20
-692.982432
 30
0.0
 11
0.0
 21
871.1999999999981
 31
0.0
210
0.0
220
0.0
230
-1.0
 40
0.9840820706346919
 41
0.0
 42
1.047197551196602
  0
ELLIPSE
  5
6FE79
330
70067
100
AcDbEntity
  8
Level 27
 62
    40
370
    13
100
AcDbEllipse
 10
2976.477141
 20
-692.982432
 30
0.0
 11
0.0
 21
849.999999999998
 31
0.0
210
0.0
220
0.0
230
-1.0
 40
0.9840820706346919
 41
0.0
 42
1.047197551196602
  0
ENDBLK
  5
70069
330
70067
100
AcDbEntity
  8
0
 62
    98
370
     0
100
AcDbBlockEnd
  0
BLOCK
  5
7006B
330
7006A
100
AcDbEntity
  8
0
 62
    98
370
     0
100
AcDbBlockBegin
  2
Feature Solid_12
 70
     0
 10
0.0
 20
0.0
 30
0.0
  3
Feature Solid_12
  1

  0
INSERT
  5
6FE7F
330
7006A
100
AcDbEntity
  8
Level 27
 62
    40
370
    13
100
AcDbBlockReference
  2
CONE_9
 10
0.340046
 20
-0.646511
 30
0.116753
 50
90.0
210
-0.1777145977553255
220
0.0000000010297995
230
0.9840820706346919
  0
ENDBLK
  5
7006C
330
7006A
100
AcDbEntity
  8
0
 62
    98
370
     0
100
AcDbBlockEnd
  0
BLOCK
  5
7006E
330
7006D
100
AcDbEntity
  8
0
 62
    98
370
     0
100
AcDbBlockBegin
  2
CONE_9
 70
     0
 10
0.0
 20
0.0
 30
0.0
  3
CONE_9
  1

  0
ELLIPSE
  5
6FE80
330
7006D
100
AcDbEntity
  8
Level 27
 62
    40
370
    13
100
AcDbEllipse
 10
0.645375
 20
0.340051
 30
-0.116548
 11
0.0
 21
0.00574
 31
0.0
210
-0.1777145977553254
220
0.0
230
-0.9840820706346919
 40
0.9840820706346928
 41
0.0
 42
6.283185307179586
  0
ELLIPSE
  5
6FE81
330
7006D
100
AcDbEntity
  8
Level 27
 62
    40
370
    13
100
AcDbEllipse
 10
0.647649
 20
0.340051
 30
-0.116958
 11
0.0
 21
-0.00574
 31
0.0
210
0.1777145977553254
220
0.0
230
0.9840820706346919
 40
0.9840820706346928
 41
0.0
 42
6.283185307179586
  0
LINE
  5
6FE82
330
7006D
100
AcDbEntity
  8
Level 27
 62
    40
370
    13
100
AcDbLine
 10
0.647649
 20
0.345791
 30
-0.116958
 11
0.645375
 21
0.345791
 31
-0.116548
  0
LINE
  5
6FE83
330
7006D
100
AcDbEntity
  8
Level 27
 62
    40
370
    13
100
AcDbLine
 10
0.653207
 20
0.340051
 30
-0.117962
 11
0.650934
 21
0.340051
 31
-0.117552
  0
LINE
  5
6FE84
330
7006D
100
AcDbEntity
  8
Level 27
 62
    40
370
    13
100
AcDbLine
 10
0.647649
 20
0.334311
 30
-0.116958
 11
0.645375
 21
0.334311
 31
-0.116548
  0
LINE
  5
6FE85
330
7006D
100
AcDbEntity
  8
Level 27
 62
    40
370
    13
100
AcDbLine
 10
0.64209
 20
0.340051
 30
-0.115955
 11
0.639816
 21
0.340051
 31
-0.115544
  0
ENDBLK
  5
7006F
330
7006D
100
AcDbEntity
  8
0
 62
    98
370
     0
100
AcDbBlockEnd
  0
BLOCK
  5
70071
330
70070
100
AcDbEntity
  8
0
 62
    98
370
     0
100
AcDbBlockBegin
  2
Feature Solid_13
 70
     0
 10
0.0
 20
0.0
 30
0.0
  3
Feature Solid_13
  1

  0
INSERT
  5
6FE87
330
70070
100
AcDbEntity
  8
Level 25
 62
   252
370
    13
100
AcDbBlockReference
  2
SUBTRC_3
 10
-0.39499
 20
-0.340054
 30
0.0
  0
ENDBLK
  5
70072
330
70070
100
AcDbEntity
  8
0
 62
    98
370
     0
100
AcDbBlockEnd
  0
BLOCK
  5
70074
330
70073
100
AcDbEntity
  8
0
 62
    98
370
     0
100
AcDbBlockBegin
  2
SUBTRC_3
 70
     0
 10
0.0
 20
0.0
 30
0.0
  3
SUBTRC_3
  1

  0
INSERT
  5
6FE8A
330
70073
100
AcDbEntity
  8
Level 25
 62
   252
370
    13
100
AcDbBlockReference
  2
Feature Solid_14
 10
-0.340055
 20
0.388704
 30
-0.070196
 41
1.0
 42
1.0
 43
1.0
 50
89.999958
210
-0.1777145977553298
220
-0.0000001287312902
230
0.9840820706346828
  0
ENDBLK
  5
70075
330
70073
100
AcDbEntity
  8
0
 62
    98
370
     0
100
AcDbBlockEnd
  0
BLOCK
  5
70077
330
70076
100
AcDbEntity
  8
0
 62
    98
370
     0
100
AcDbBlockBegin
  2
Feature Solid_14
 70
     0
 10
0.0
 20
0.0
 30
0.0
  3
Feature Solid_14
  1

  0
INSERT
  5
6FE8B
330
70076
100
AcDbEntity
  8
Level 25
 62
   252
370
    13
100
AcDbBlockReference
  2
CONE_10
 10
-0.266542
 20
-0.340055
 30
0.048135
 41
1.0
 42
1.0
 43
1.0
 50
0.0
  0
ENDBLK
  5
70078
330
70076
100
AcDbEntity
  8
0
 62
    98
370
     0
100
AcDbBlockEnd
  0
BLOCK
  5
7007A
330
70079
100
AcDbEntity
  8
0
 62
    98
370
     0
100
AcDbBlockBegin
  2
CONE_10
 70
     0
 10
0.0
 20
0.0
 30
0.0
  3
CONE_10
  1

  0
ELLIPSE
  5
6FE8C
330
70079
100
AcDbEntity
  8
Level 25
 62
   252
370
    13
100
AcDbEllipse
 10
0.265228
 20
0.340054
 30
-0.047897
 11
0.0
 21
0.00699
 31
0.0
210
-0.1777145977554214
220
0.0
230
-0.9840820706346747
 40
0.9840820706346827
 41
0.0
 42
6.283185307179586
  0
ARC
  5
6FE8D
330
70079
100
AcDbEntity
  8
Level 25
 62
   252
370
    13
100
AcDbCircle
 10
-0.340054
 20
-0.272072
 30
0.0
 40
0.0069900000402991
210
-0.1777145977553298
220
-0.0000001287253604
230
-0.9840820706346828
100
AcDbArc
 50
0.0
 51
359.999994
  0
LINE
  5
6FE8E
330
70079
100
AcDbEntity
  8
Level 25
 62
   252
370
    13
100
AcDbLine
 10
0.265228
 20
0.333064
 30
-0.047897
 11
0.267741
 21
0.333064
 31
-0.048351
  0
LINE
  5
6FE8F
330
70079
100
AcDbEntity
  8
Level 25
 62
   252
370
    13
100
AcDbLine
 10
0.271997
 20
0.340054
 30
-0.04912
 11
0.27462
 21
0.340054
 31
-0.049593
  0
LINE
  5
6FE90
330
70079
100
AcDbEntity
  8
Level 25
 62
   252
370
    13
100
AcDbLine
 10
0.265228
 20
0.347044
 30
-0.047897
 11
0.267741
 21
0.347044
 31
-0.048351
  0
LINE
  5
6FE91
330
70079
100
AcDbEntity
  8
Level 25
 62
   252
370
    13
100
AcDbLine
 10
0.258458
 20
0.340054
 30
-0.046675
 11
0.260863
 21
0.340054
 31
-0.047109
  0
ENDBLK
  5
7007B
330
70079
100
AcDbEntity
  8
0
 62
    98
370
     0
100
AcDbBlockEnd
  0
BLOCK
  5
7007D
330
7007C
100
AcDbEntity
  8
0
 62
    98
370
     0
100
AcDbBlockBegin
  2
Feature Solid_15
 70
     0
 10
0.0
 20
0.0
 30
0.0
  3
Feature Solid_15
  1

  0
INSERT
  5
6FE93
330
7007C
100
AcDbEntity
  8
Level 27
 62
    40
370
    13
100
AcDbBlockReference
  2
CONE_11
 10
0.340046
 20
-0.646511
 30
0.116753
 50
90.0
210
-0.1777145977553255
220
0.0000000010297995
230
0.9840820706346919
  0
ENDBLK
  5
7007E
330
7007C
100
AcDbEntity
  8
0
 62
    98
370
     0
100
AcDbBlockEnd
  0
BLOCK
  5
70080
330
7007F
100
AcDbEntity
  8
0
 62
    98
370
     0
100
AcDbBlockBegin
  2
CONE_11
 70
     0
 10
0.0
 20
0.0
 30
0.0
  3
CONE_11
  1

  0
ELLIPSE
  5
6FE94
330
7007F
100
AcDbEntity
  8
Level 27
 62
    40
370
    13
100
AcDbEllipse
 10
0.645375
 20
0.340051
 30
-0.116548
 11
0.0
 21
0.00574
 31
0.0
210
-0.1777145977553254
220
0.0
230
-0.9840820706346919
 40
0.9840820706346928
 41
0.0
 42
6.283185307179586
  0
ELLIPSE
  5
6FE95
330
7007F
100
AcDbEntity
  8
Level 27
 62
    40
370
    13
100
AcDbEllipse
 10
0.647649
 20
0.340051
 30
-0.116958
 11
0.0
 21
-0.00574
 31
0.0
210
0.1777145977553254
220
0.0
230
0.9840820706346919
 40
0.9840820706346928
 41
0.0
 42
6.283185307179586
  0
LINE
  5
6FE96
330
7007F
100
AcDbEntity
  8
Level 27
 62
    40
370
    13
100
AcDbLine
 10
0.647649
 20
0.345791
 30
-0.116958
 11
0.645375
 21
0.345791
 31
-0.116548
  0
LINE
  5
6FE97
330
7007F
100
AcDbEntity
  8
Level 27
 62
    40
370
    13
100
AcDbLine
 10
0.653207
 20
0.340051
 30
-0.117962
 11
0.650934
 21
0.340051
 31
-0.117552
  0
LINE
  5
6FE98
330
7007F
100
AcDbEntity
  8
Level 27
 62
    40
370
    13
100
AcDbLine
 10
0.647649
 20
0.334311
 30
-0.116958
 11
0.645375
 21
0.334311
 31
-0.116548
  0
LINE
  5
6FE99
330
7007F
100
AcDbEntity
  8
Level 27
 62
    40
370
    13
100
AcDbLine
 10
0.64209
 20
0.340051
 30
-0.115955
 11
0.639816
 21
0.340051
 31
-0.115544
  0
ENDBLK
  5
70081
330
7007F
100
AcDbEntity
  8
0
 62
    98
370
     0
100
AcDbBlockEnd
  0
BLOCK
  5
70083
330
70082
100
AcDbEntity
  8
0
 62
    98
370
     0
100
AcDbBlockBegin
  2
Feature Solid_16
 70
     0
 10
0.0
 20
0.0
 30
0.0
  3
Feature Solid_16
  1

  0
INSERT
  5
6FE9B
330
70082
100
AcDbEntity
  8
Level 27
 62
    40
370
    13
100
AcDbBlockReference
  2
CONE_12
 10
0.340046
 20
-0.646511
 30
0.116753
 50
90.0
210
-0.1777145977553255
220
0.0000000010297995
230
0.9840820706346919
  0
ENDBLK
  5
70084
330
70082
100
AcDbEntity
  8
0
 62
    98
370
     0
100
AcDbBlockEnd
  0
BLOCK
  5
70086
330
70085
100
AcDbEntity
  8
0
 62
    98
370
     0
100
AcDbBlockBegin
  2
CONE_12
 70
     0
 10
0.0
 20
0.0
 30
0.0
  3
CONE_12
  1

  0
ELLIPSE
  5
6FE9C
330
70085
100
AcDbEntity
  8
Level 27
 62
    40
370
    13
100
AcDbEllipse
 10
0.645375
 20
0.340051
 30
-0.116548
 11
0.0
 21
0.00574
 31
0.0
210
-0.1777145977553254
220
0.0
230
-0.9840820706346919
 40
0.9840820706346928
 41
0.0
 42
6.283185307179586
  0
ELLIPSE
  5
6FE9D
330
70085
100
AcDbEntity
  8
Level 27
 62
    40
370
    13
100
AcDbEllipse
 10
0.647649
 20
0.340051
 30
-0.116958
 11
0.0
 21
-0.00574
 31
0.0
210
0.1777145977553254
220
0.0
230
0.9840820706346919
 40
0.9840820706346928
 41
0.0
 42
6.283185307179586
  0
LINE
  5
6FE9E
330
70085
100
AcDbEntity
  8
Level 27
 62
    40
370
    13
100
AcDbLine
 10
0.647649
 20
0.345791
 30
-0.116958
 11
0.645375
 21
0.345791
 31
-0.116548
  0
LINE
  5
6FE9F
330
70085
100
AcDbEntity
  8
Level 27
 62
    40
370
    13
100
AcDbLine
 10
0.653207
 20
0.340051
 30
-0.117962
 11
0.650934
 21
0.340051
 31
-0.117552
  0
LINE
  5
6FEA0
330
70085
100
AcDbEntity
  8
Level 27
 62
    40
370
    13
100
AcDbLine
 10
0.647649
 20
0.334311
 30
-0.116958
 11
0.645375
 21
0.334311
 31
-0.116548
  0
LINE
  5
6FEA1
330
70085
100
AcDbEntity
  8
Level 27
 62
    40
370
    13
100
AcDbLine
 10
0.64209
 20
0.340051
 30
-0.115955
 11
0.639816
 21
0.340051
 31
-0.115544
  0
ENDBLK
  5
70087
330
70085
100
AcDbEntity
  8
0
 62
    98
370
     0
100
AcDbBlockEnd
  0
BLOCK
  5
70089
330
70088
100
AcDbEntity
  8
0
 62
    98
370
     0
100
AcDbBlockBegin
  2
From Surface_8
 70
     0
 10
0.0
 20
0.0
 30
0.0
  3
From Surface_8
  1

  0
ELLIPSE
  5
6FEA3
330
70088
100
AcDbEntity
  8
Level 27
 62
    40
370
    13
100
AcDbEllipse
 10
3180.776229
 20
-674.41588
 30
0.0
 11
4.474914456153014
 21
-20.72233434268719
 31
0.0
210
0.0
220
0.0
230
1.0
 40
0.1738327875102104
 41
0.0
 42
6.283185307179584
  0
ELLIPSE
  5
6FEA4
330
70088
100
AcDbEntity
  8
Level 27
 62
    40
370
    13
100
AcDbEllipse
 10
3825.100639
 20
333.704679
 30
0.0
 11
20.75109470438461
 21
4.339593134115457
 31
0.0
210
0.0
220
0.0
230
-1.0
 40
0.0369428589222579
 41
0.0
 42
6.28318530717958
  0
ELLIPSE
  5
6FEA5
330
70088
100
AcDbEntity
  8
Level 27
 62
    40
370
    13
100
AcDbEllipse
 10
3006.90189
 20
157.017567
 30
0.0
 11
-0.0084487451816392
 21
-828.7999486281709
 31
0.0
210
0.0
220
0.0
230
1.0
 40
0.9840820022544258
 41
0.2094040604877758
 42
1.780200387282671
  0
ELLIPSE
  5
6FEA6
330
70088
100
AcDbEntity
  8
Level 27
 62
    40
370
    13
100
AcDbEllipse
 10
3003.134333
 20
157.017606
 30
0.0
 11
-0.0086648569215505
 21
-849.9999486270695
 31
0.0
210
0.0
220
0.0
230
1.0
 40
0.984082002254426
 41
0.2094040604877767
 42
1.780200387282673
  0
ELLIPSE
  5
6FEA7
330
70088
100
AcDbEntity
  8
Level 27
 62
    40
370
    13
100
AcDbEllipse
 10
3006.90189
 20
157.017567
 30
0.0
 11
-0.0088809686609473
 21
-871.1999486259678
 31
0.0
210
0.0
220
0.0
230
1.0
 40
0.984082002254426
 41
0.2094040604877776
 42
1.780200387282674
  0
ELLIPSE
  5
6FEA8
330
70088
100
AcDbEntity
  8
Level 27
 62
    40
370
    13
100
AcDbEllipse
 10
3010.669448
 20
157.017529
 30
0.0
 11
-0.0086648569215505
 21
-849.9999486270695
 31
0.0
210
0.0
220
0.0
230
1.0
 40
0.984082002254426
 41
0.2094040604877767
 42
1.780200387282673
  0
ELLIPSE
  5
6FEA9
330
70088
100
AcDbEntity
  8
Level 27
 62
    40
370
    13
100
AcDbEllipse
 10
2833.027551
 20
988.451015
 30
0.0
 11
-4.47491445615301
 21
20.72233434268722
 31
0.0
210
0.0
220
0.0
230
-1.0
 40
0.1738327875102105
 41
0.0
 42
6.283185307179584
  0
ELLIPSE
  5
6FEAA
330
70088
100
AcDbEntity
  8
Level 27
 62
    40
370
    13
100
AcDbEllipse
 10
3006.90189
 20
157.017567
 30
0.0
 11
0.0084487451817407
 21
828.7999486281709
 31
0.0
210
0.0
220
0.0
230
1.0
 40
0.9840820022544258
 41
4.921793040872465
 42
6.492589367667362
  0
ELLIPSE
  5
6FEAB
330
70088
100
AcDbEntity
  8
Level 27
 62
    40
370
    13
100
AcDbEllipse
 10
3003.134333
 20
157.017606
 30
0.0
 11
0.0086648569224095
 21
849.9999486270692
 31
0.0
210
0.0
220
0.0
230
0.9999999999999998
 40
0.9840820022544264
 41
4.921793040872467
 42
6.492589367667363
  0
ELLIPSE
  5
6FEAC
330
70088
100
AcDbEntity
  8
Level 27
 62
    40
370
    13
100
AcDbEllipse
 10
3006.90189
 20
157.017567
 30
0.0
 11
0.0088809686595065
 21
871.1999486259678
 31
0.0
210
0.0
220
0.0
230
1.0
 40
0.984082002254426
 41
4.921793040872465
 42
6.492589367667362
  0
ELLIPSE
  5
6FEAD
330
70088
100
AcDbEntity
  8
Level 27
 62
    40
370
    13
100
AcDbEllipse
 10
3010.669448
 20
157.017529
 30
0.0
 11
0.0086648569224095
 21
849.9999486270692
 31
0.0
210
0.0
220
0.0
230
0.9999999999999998
 40
0.9840820022544264
 41
4.921793040872467
 42
6.492589367667363
  0
ELLIPSE
  5
6FEAE
330
70088
100
AcDbEntity
  8
Level 27
 62
    40
370
    13
100
AcDbEllipse
 10
2188.703142
 20
-19.669544
 30
0.0
 11
-20.75109470438461
 21
-4.339593134115454
 31
0.0
210
0.0
220
0.0
230
1.0
 40
0.036942858922258
 41
0.0
 42
6.28318530717958
  0
ELLIPSE
  5
6FEAF
330
70088
100
AcDbEntity
  8
Level 27
 62
    40
370
    13
100
AcDbEllipse
 10
3006.90189
 20
157.017567
 30
0.0
 11
0.0084487451787962
 21
828.7999486281712
 31
0.0
210
0.0
220
0.0
230
1.0
 40
0.9840820022544257
 41
0.2094040604877723
 42
1.780200387282669
  0
ELLIPSE
  5
6FEB0
330
70088
100
AcDbEntity
  8
Level 27
 62
    40
370
    13
100
AcDbEllipse
 10
3003.134333
 20
157.017606
 30
0.0
 11
0.0086648569208996
 21
849.9999486270697
 31
0.0
210
0.0
220
0.0
230
1.0
 40
0.9840820022544264
 41
0.2094040604877767
 42
1.780200387282673
  0
ELLIPSE
  5
6FEB1
330
70088
100
AcDbEntity
  8
Level 27
 62
    40
370
    13
100
AcDbEllipse
 10
3006.90189
 20
157.017567
 30
0.0
 11
0.0088809686546703
 21
871.1999486259681
 31
0.0
210
0.0
220
0.0
230
1.0
 40
0.9840820022544262
 41
0.2094040604877705
 42
1.780200387282667
  0
ELLIPSE
  5
6FEB2
330
70088
100
AcDbEntity
  8
Level 27
 62
    40
370
    13
100
AcDbEllipse
 10
3010.669448
 20
157.017529
 30
0.0
 11
0.0086648569208996
 21
849.9999486270697
 31
0.0
210
0.0
220
0.0
230
1.0
 40
0.9840820022544264
 41
0.2094040604877767
 42
1.780200387282673
  0
ELLIPSE
  5
6FEB3
330
70088
100
AcDbEntity
  8
Level 27
 62
    40
370
    13
100
AcDbEllipse
 10
3180.776229
 20
-674.41588
 30
0.0
 11
4.474914456153006
 21
-20.72233434268721
 31
0.0
210
0.0
220
0.0
230
1.0
 40
0.1738327875102104
 41
0.0
 42
6.283185307179584
  0
ELLIPSE
  5
6FEB4
330
70088
100
AcDbEntity
  8
Level 27
 62
    40
370
    13
100
AcDbEllipse
 10
3006.90189
 20
157.017567
 30
0.0
 11
-0.0084487451820072
 21
-828.7999486281709
 31
0.0
210
0.0
220
0.0
230
1.0
 40
0.9840820022544258
 41
4.921793040872465
 42
6.492589367667362
  0
ELLIPSE
  5
6FEB5
330
70088
100
AcDbEntity
  8
Level 27
 62
    40
370
    13
100
AcDbEllipse
 10
3003.134333
 20
157.017606
 30
0.0
 11
-0.0086648569230604
 21
-849.9999486270692
 31
0.0
210
0.0
220
0.0
230
0.9999999999999998
 40
0.9840820022544264
 41
4.921793040872468
 42
6.492589367667364
  0
ELLIPSE
  5
6FEB6
330
70088
100
AcDbEntity
  8
Level 27
 62
    40
370
    13
100
AcDbEllipse
 10
3006.90189
 20
157.017567
 30
0.0
 11
-0.0088809686582391
 21
-871.1999486259676
 31
0.0
210
0.0
220
0.0
230
0.9999999999999998
 40
0.984082002254426
 41
4.921793040872463
 42
6.49258936766736
  0
ELLIPSE
  5
6FEB7
330
70088
100
AcDbEntity
  8
Level 27
 62
    40
370
    13
100
AcDbEllipse
 10
3010.669448
 20
157.017529
 30
0.0
 11
-0.0086648569230604
 21
-849.9999486270692
 31
0.0
210
0.0
220
0.0
230
0.9999999999999998
 40
0.9840820022544264
 41
4.921793040872468
 42
6.492589367667364
  0
ENDBLK
  5
7008A
330
70088
100
AcDbEntity
  8
0
 62
    98
370
     0
100
AcDbBlockEnd
  0
BLOCK
  5
7008C
330
7008B
100
AcDbEntity
  8
0
 62
    98
370
     0
100
AcDbBlockBegin
  2
From Surface_9
 70
     0
 10
0.0
 20
0.0
 30
0.0
  3
From Surface_9
  1

  0
LINE
  5
6FEB9
330
7008B
100
AcDbEntity
  8
Level 27
 62
    40
370
    13
100
AcDbLine
 10
2173.97494
 20
157.017577
 30
0.0
 11
2113.57494
 21
157.017578
 31
0.0
  0
ELLIPSE
  5
6FEBA
330
7008B
100
AcDbEntity
  8
Level 27
 62
    40
370
    13
100
AcDbEllipse
 10
2980.24471
 20
1007.017568
 30
0.0
 11
0.0
 21
30.20000000000001
 31
0.0
210
0.0
220
0.0
230
0.9999999999999998
 40
0.1777145977553254
 41
0.0
 42
6.283185307179584
  0
ELLIPSE
  5
6FEBB
330
7008B
100
AcDbEntity
  8
Level 27
 62
    40
370
    13
100
AcDbEllipse
 10
2980.2447
 20
157.017568
 30
0.0
 11
0.0
 21
819.7999999999998
 31
0.0
210
0.0
220
0.0
230
-1.0
 40
0.9840820706346921
 41
4.712388980384689
 42
6.283185307179586
  0
ELLIPSE
  5
6FEBC
330
7008B
100
AcDbEntity
  8
Level 27
 62
    40
370
    13
100
AcDbEllipse
 10
2985.611681
 20
157.017568
 30
0.0
 11
0.0
 21
849.9999999999998
 31
0.0
210
0.0
220
0.0
230
-1.0
 40
0.9840820706346917
 41
4.712388980384689
 42
6.283185307179586
  0
ELLIPSE
  5
6FEBD
330
7008B
100
AcDbEntity
  8
Level 27
 62
    40
370
    13
100
AcDbEllipse
 10
2980.2447
 20
157.017568
 30
0.0
 11
0.0
 21
880.1999999999999
 31
0.0
210
0.0
220
0.0
230
-1.0
 40
0.9840820706346919
 41
4.712388980384689
 42
6.283185307179586
  0
ELLIPSE
  5
6FEBE
330
7008B
100
AcDbEntity
  8
Level 27
 62
    40
370
    13
100
AcDbEllipse
 10
2974.87772
 20
157.017568
 30
0.0
 11
0.0
 21
849.9999999999998
 31
0.0
210
0.0
220
0.0
230
-1.0
 40
0.9840820706346917
 41
4.712388980384689
 42
6.283185307179586
  0
LINE
  5
6FEBF
330
7008B
100
AcDbEntity
  8
Level 27
 62
    40
370
    13
100
AcDbLine
 10
3786.51446
 20
157.017558
 30
0.0
 11
3846.91446
 21
157.017557
 31
0.0
  0
ELLIPSE
  5
6FEC0
330
7008B
100
AcDbEntity
  8
Level 27
 62
    40
370
    13
100
AcDbEllipse
 10
2980.2447
 20
157.017568
 30
0.0
 11
0.0
 21
819.7999999999995
 31
0.0
210
0.0
220
0.0
230
-1.0
 40
0.9840820706346921
 41
0.0
 42
1.570796326794896
  0
ELLIPSE
  5
6FEC1
330
7008B
100
AcDbEntity
  8
Level 27
 62
    40
370
    13
100
AcDbEllipse
 10
2985.611681
 20
157.017568
 30
0.0
 11
0.0
 21
849.9999999999994
 31
0.0
210
0.0
220
0.0
230
-0.9999999999999998
 40
0.9840820706346917
 41
0.0
 42
1.570796326794896
  0
ELLIPSE
  5
6FEC2
330
7008B
100
AcDbEntity
  8
Level 27
 62
    40
370
    13
100
AcDbEllipse
 10
2980.2447
 20
157.017568
 30
0.0
 11
0.0
 21
880.1999999999996
 31
0.0
210
0.0
220
0.0
230
-1.0
 40
0.9840820706346919
 41
0.0
 42
1.570796326794896
  0
ELLIPSE
  5
6FEC3
330
7008B
100
AcDbEntity
  8
Level 27
 62
    40
370
    13
100
AcDbEllipse
 10
2974.87772
 20
157.017568
 30
0.0
 11
0.0
 21
849.9999999999994
 31
0.0
210
0.0
220
0.0
230
-0.9999999999999998
 40
0.9840820706346917
 41
0.0
 42
1.570796326794896
  0
ELLIPSE
  5
6FEC4
330
7008B
100
AcDbEntity
  8
Level 27
 62
    40
370
    13
100
AcDbEllipse
 10
2980.244691
 20
-692.982432
 30
0.0
 11
0.0
 21
-30.20000000000004
 31
0.0
210
0.0
220
0.0
230
-1.0
 40
0.1777145977553255
 41
0.0
 42
6.283185307179584
  0
ELLIPSE
  5
6FEC5
330
7008B
100
AcDbEntity
  8
Level 27
 62
    40
370
    13
100
AcDbEllipse
 10
2980.2447
 20
157.017568
 30
0.0
 11
0.0
 21
-819.7999999999998
 31
0.0
210
0.0
220
0.0
230
-1.0
 40
0.9840820706346921
 41
4.712388980384689
 42
6.283185307179586
  0
ELLIPSE
  5
6FEC6
330
7008B
100
AcDbEntity
  8
Level 27
 62
    40
370
    13
100
AcDbEllipse
 10
2985.611681
 20
157.017568
 30
0.0
 11
0.0
 21
-849.9999999999998
 31
0.0
210
0.0
220
0.0
230
-1.0
 40
0.9840820706346917
 41
4.712388980384689
 42
6.283185307179586
  0
ELLIPSE
  5
6FEC7
330
7008B
100
AcDbEntity
  8
Level 27
 62
    40
370
    13
100
AcDbEllipse
 10
2980.2447
 20
157.017568
 30
0.0
 11
0.0
 21
-880.1999999999999
 31
0.0
210
0.0
220
0.0
230
-1.0
 40
0.9840820706346919
 41
4.712388980384689
 42
6.283185307179586
  0
ELLIPSE
  5
6FEC8
330
7008B
100
AcDbEntity
  8
Level 27
 62
    40
370
    13
100
AcDbEllipse
 10
2974.87772
 20
157.017568
 30
0.0
 11
0.0
 21
-849.9999999999998
 31
0.0
210
0.0
220
0.0
230
-1.0
 40
0.9840820706346917
 41
4.712388980384689
 42
6.283185307179586
  0
LINE
  5
6FEC9
330
7008B
100
AcDbEntity
  8
Level 27
 62
    40
370
    13
100
AcDbLine
 10
2173.97494
 20
157.017577
 30
0.0
 11
2113.57494
 21
157.017578
 31
0.0
  0
ELLIPSE
  5
6FECA
330
7008B
100
AcDbEntity
  8
Level 27
 62
    40
370
    13
100
AcDbEllipse
 10
2980.2447
 20
157.017568
 30
0.0
 11
0.0
 21
-819.7999999999995
 31
0.0
210
0.0
220
0.0
230
-0.9999999999999998
 40
0.9840820706346921
 41
0.0
 42
1.570796326794896
  0
ELLIPSE
  5
6FECB
330
7008B
100
AcDbEntity
  8
Level 27
 62
    40
370
    13
100
AcDbEllipse
 10
2985.611681
 20
157.017568
 30
0.0
 11
0.0
 21
-849.9999999999994
 31
0.0
210
0.0
220
0.0
230
-0.9999999999999998
 40
0.9840820706346917
 41
0.0
 42
1.570796326794896
  0
ELLIPSE
  5
6FECC
330
7008B
100
AcDbEntity
  8
Level 27
 62
    40
370
    13
100
AcDbEllipse
 10
2980.2447
 20
157.017568
 30
0.0
 11
0.0
 21
-880.1999999999996
 31
0.0
210
0.0
220
0.0
230
-1.0
 40
0.9840820706346919
 41
0.0
 42
1.570796326794896
  0
ELLIPSE
  5
6FECD
330
7008B
100
AcDbEntity
  8
Level 27
 62
    40
370
    13
100
AcDbEllipse
 10
2974.87772
 20
157.017568
 30
0.0
 11
0.0
 21
-849.9999999999994
 31
0.0
210
0.0
220
0.0
230
-0.9999999999999998
 40
0.9840820706346917
 41
0.0
 42
1.570796326794896
  0
ENDBLK
  5
7008D
330
7008B
100
AcDbEntity
  8
0
 62
    98
370
     0
100
AcDbBlockEnd
  0
BLOCK
  5
7008F
330
7008E
100
AcDbEntity
  8
0
 62
    98
370
     0
100
AcDbBlockBegin
  2
From Surface_10
 70
     0
 10
0.0
 20
0.0
 30
0.0
  3
From Surface_10
  1

  0
ELLIPSE
  5
6FECF
330
7008E
100
AcDbEntity
  8
Level 27
 62
    40
370
    13
100
AcDbEllipse
 10
2980.2447
 20
157.017568
 30
0.0
 11
-18.4326512489019
 21
10.47269630689038
 31
0.0
210
0.0
220
0.0
230
1.0
 40
0.0888572997694961
 41
0.0
 42
6.283185307179583
  0
ELLIPSE
  5
6FED0
330
7008E
100
AcDbEntity
  8
Level 27
 62
    40
370
    13
100
AcDbEllipse
 10
3704.648767
 20
582.017559
 30
0.0
 11
0.0
 21
21.2
 31
0.0
210
0.0
220
0.0
230
1.0
 40
0.1777145977553256
 41
0.0
 42
6.283185307179584
  0
ELLIPSE
  5
6FED1
330
7008E
100
AcDbEntity
  8
Level 27
 62
    40
370
    13
100
AcDbEllipse
 10
3704.648757
 20
-267.982441
 30
0.0
 11
0.0
 21
828.800000000001
 31
0.0
210
0.0
220
0.0
230
-1.0
 40
0.9840820706346919
 41
5.23598776177767
 42
6.283185312974271
  0
ELLIPSE
  5
6FED2
330
7008E
100
AcDbEntity
  8
Level 27
 62
    40
370
    13
100
AcDbEllipse
 10
3708.416307
 20
-267.982441
 30
0.0
 11
0.0
 21
850.000000000001
 31
0.0
210
0.0
220
0.0
230
-1.0
 40
0.9840820706346921
 41
5.235987761777677
 42
6.283185312974279
  0
ELLIPSE
  5
6FED3
330
7008E
100
AcDbEntity
  8
Level 27
 62
    40
370
    13
100
AcDbEllipse
 10
3704.648757
 20
-267.982441
 30
0.0
 11
0.0
 21
871.2000000000008
 31
0.0
210
0.0
220
0.0
230
-0.9999999999999998
 40
0.9840820706346919
 41
5.235987761777673
 42
6.283185312974276
  0
ELLIPSE
  5
6FED4
330
7008E
100
AcDbEntity
  8
Level 27
 62
    40
370
    13
100
AcDbEllipse
 10
3700.881208
 20
-267.982441
 30
0.0
 11
0.0
 21
850.000000000001
 31
0.0
210
0.0
220
0.0
230
-1.0
 40
0.9840820706346921
 41
5.235987761777677
 42
6.283185312974279
  0
ENDBLK
  5
70090
330
7008E
100
AcDbEntity
  8
0
 62
    98
370
     0
100
AcDbBlockEnd
  0
BLOCK
  5
70092
330
70091
100
AcDbEntity
  8
0
 62
    98
370
     0
100
AcDbBlockBegin
  2
From Surface_11
 70
     0
 10
0.0
 20
0.0
 30
0.0
  3
From Surface_11
  1

  0
ELLIPSE
  5
6FEDA
330
70091
100
AcDbEntity
  8
Level 27
 62
    40
370
    13
100
AcDbEllipse
 10
2980.2447
 20
157.017568
 30
0.0
 11
-18.43265149066433
 21
-10.47269588137219
 31
0.0
210
0.0
220
0.0
230
-0.9999999999999998
 40
0.0888572979858293
 41
0.0
 42
6.283185307179583
  0
ELLIPSE
  5
6FEDB
330
70091
100
AcDbEntity
  8
Level 27
 62
    40
370
    13
100
AcDbEllipse
 10
2980.24471
 20
1007.017568
 30
0.0
 11
-18.43265124890184
 21
10.4726963068905
 31
0.0
210
0.0
220
0.0
230
0.9999999999999998
 40
0.088857299769497
 41
0.0
 42
6.283185307179583
  0
ELLIPSE
  5
6FEDC
330
70091
100
AcDbEntity
  8
Level 27
 62
    40
370
    13
100
AcDbEllipse
 10
3704.648767
 20
582.017559
 30
0.0
 11
0.0
 21
-828.8000000000012
 31
0.0
210
0.0
220
0.0
230
-1.0
 40
0.9840820706346919
 41
1.047197556991282
 42
2.094395108187884
  0
ELLIPSE
  5
6FEDD
330
70091
100
AcDbEntity
  8
Level 27
 62
    40
370
    13
100
AcDbEllipse
 10
3708.416316
 20
582.017559
 30
0.0
 11
0.0
 21
-850.000000000001
 31
0.0
210
0.0
220
0.0
230
-1.0
 40
0.9840820706346919
 41
1.047197556991295
 42
2.094395108187898
  0
ELLIPSE
  5
6FEDE
330
70091
100
AcDbEntity
  8
Level 27
 62
    40
370
    13
100
AcDbEllipse
 10
3704.648767
 20
582.017559
 30
0.0
 11
0.0
 21
-871.2000000000012
 31
0.0
210
0.0
220
0.0
230
-1.0
 40
0.9840820706346917
 41
1.047197556991292
 42
2.094395108187895
  0
ELLIPSE
  5
6FEDF
330
70091
100
AcDbEntity
  8
Level 27
 62
    40
370
    13
100
AcDbEllipse
 10
3700.881218
 20
582.017559
 30
0.0
 11
0.0
 21
-850.000000000001
 31
0.0
210
0.0
220
0.0
230
-1.0
 40
0.9840820706346919
 41
1.047197556991295
 42
2.094395108187898
  0
ENDBLK
  5
70093
330
70091
100
AcDbEntity
  8
0
 62
    98
370
     0
100
AcDbBlockEnd
  0
BLOCK
  5
70095
330
70094
100
AcDbEntity
  8
0
 62
    98
370
     0
100
AcDbBlockBegin
  2
From Surface_12
 70
     0
 10
0.0
 20
0.0
 30
0.0
  3
From Surface_12
  1

  0
ELLIPSE
  5
6FEE5
330
70094
100
AcDbEntity
  8
Level 27
 62
    40
370
    13
100
AcDbEllipse
 10
2980.2447
 20
157.017568
 30
0.0
 11
0.0
 21
-21.2
 31
0.0
210
0.0
220
0.0
230
-1.0
 40
0.1777145977553256
 41
0.0
 42
6.283185307179584
  0
ELLIPSE
  5
6FEE6
330
70094
100
AcDbEntity
  8
Level 27
 62
    40
370
    13
100
AcDbEllipse
 10
2255.840644
 20
582.017576
 30
0.0
 11
-18.43265149066435
 21
-10.47269588137218
 31
0.0
210
0.0
220
0.0
230
-1.0
 40
0.0888572979858292
 41
0.0
 42
6.283185307179583
  0
ELLIPSE
  5
6FEE7
330
70094
100
AcDbEntity
  8
Level 27
 62
    40
370
    13
100
AcDbEllipse
 10
2980.24471
 20
1007.017568
 30
0.0
 11
0.0
 21
-828.8000000000012
 31
0.0
210
0.0
220
0.0
230
-1.0
 40
0.9840820706346919
 41
0.0
 42
1.047197551196602
  0
ELLIPSE
  5
6FEE8
330
70094
100
AcDbEntity
  8
Level 27
 62
    40
370
    13
100
AcDbEllipse
 10
2984.01226
 20
1007.017568
 30
0.0
 11
0.0
 21
-850.000000000001
 31
0.0
210
0.0
220
0.0
230
-1.0
 40
0.9840820706346921
 41
0.0
 42
1.047197551196602
  0
ELLIPSE
  5
6FEE9
330
70094
100
AcDbEntity
  8
Level 27
 62
    40
370
    13
100
AcDbEllipse
 10
2980.24471
 20
1007.017568
 30
0.0
 11
0.0
 21
-871.2000000000012
 31
0.0
210
0.0
220
0.0
230
-1.0
 40
0.9840820706346915
 41
0.0
 42
1.047197551196602
  0
ELLIPSE
  5
6FEEA
330
70094
100
AcDbEntity
  8
Level 27
 62
    40
370
    13
100
AcDbEllipse
 10
2976.477161
 20
1007.017568
 30
0.0
 11
0.0
 21
-850.000000000001
 31
0.0
210
0.0
220
0.0
230
-1.0
 40
0.9840820706346921
 41
0.0
 42
1.047197551196602
  0
ENDBLK
  5
70096
330
70094
100
AcDbEntity
  8
0
 62
    98
370
     0
100
AcDbBlockEnd
  0
BLOCK
  5
70098
330
70097
100
AcDbEntity
  8
0
 62
    98
370
     0
100
AcDbBlockBegin
  2
From Surface_13
 70
     0
 10
0.0
 20
0.0
 30
0.0
  3
From Surface_13
  1

  0
ELLIPSE
  5
6FEF0
330
70097
100
AcDbEntity
  8
Level 27
 62
    40
370
    13
100
AcDbEllipse
 10
2980.2447
 20
157.017568
 30
0.0
 11
18.43265124890192
 21
-10.47269630689037
 31
0.0
210
0.0
220
0.0
230
-1.0
 40
0.0888572997694959
 41
0.0
 42
6.283185307179583
  0
ELLIPSE
  5
6FEF1
330
70097
100
AcDbEntity
  8
Level 27
 62
    40
370
    13
100
AcDbEllipse
 10
2255.840634
 20
-267.982424
 30
0.0
 11
0.0
 21
-21.20000000000002
 31
0.0
210
0.0
220
0.0
230
-1.0
 40
0.1777145977553254
 41
0.0
 42
6.283185307179584
  0
ELLIPSE
  5
6FEF2
330
70097
100
AcDbEntity
  8
Level 27
 62
    40
370
    13
100
AcDbEllipse
 10
2255.840644
 20
582.017576
 30
0.0
 11
0.0
 21
-828.8000000000005
 31
0.0
210
0.0
220
0.0
230
-1.0
 40
0.9840820706346917
 41
5.235987761777668
 42
6.28318531297427
  0
ELLIPSE
  5
6FEF3
330
70097
100
AcDbEntity
  8
Level 27
 62
    40
370
    13
100
AcDbEllipse
 10
2259.608193
 20
582.017576
 30
0.0
 11
0.0
 21
-850.0000000000005
 31
0.0
210
0.0
220
0.0
230
-1.0
 40
0.9840820706346921
 41
5.235987761777681
 42
6.283185312974283
  0
ELLIPSE
  5
6FEF4
330
70097
100
AcDbEntity
  8
Level 27
 62
    40
370
    13
100
AcDbEllipse
 10
2255.840644
 20
582.017576
 30
0.0
 11
0.0
 21
-871.2000000000006
 31
0.0
210
0.0
220
0.0
230
-1.0
 40
0.9840820706346917
 41
5.235987761777663
 42
6.283185312974265
  0
ELLIPSE
  5
6FEF5
330
70097
100
AcDbEntity
  8
Level 27
 62
    40
370
    13
100
AcDbEllipse
 10
2252.073094
 20
582.017576
 30
0.0
 11
0.0
 21
-850.0000000000005
 31
0.0
210
0.0
220
0.0
230
-1.0
 40
0.9840820706346921
 41
5.235987761777681
 42
6.283185312974283
  0
ENDBLK
  5
70099
330
70097
100
AcDbEntity
  8
0
 62
    98
370
     0
100
AcDbBlockEnd
  0
BLOCK
  5
7009B
330
7009A
100
AcDbEntity
  8
0
 62
    98
370
     0
100
AcDbBlockBegin
  2
From Surface_14
 70
     0
 10
0.0
 20
0.0
 30
0.0
  3
From Surface_14
  1

  0
ELLIPSE
  5
6FEFB
330
7009A
100
AcDbEntity
  8
Level 27
 62
    40
370
    13
100
AcDbEllipse
 10
2980.2447
 20
157.017568
 30
0.0
 11
18.43265149066431
 21
10.47269588137222
 31
0.0
210
0.0
220
0.0
230
1.0
 40
0.0888572979858294
 41
0.0
 42
6.283185307179583
  0
ELLIPSE
  5
6FEFC
330
7009A
100
AcDbEntity
  8
Level 27
 62
    40
370
    13
100
AcDbEllipse
 10
2980.244691
 20
-692.982432
 30
0.0
 11
18.43265124890185
 21
-10.47269630689046
 31
0.0
210
0.0
220
0.0
230
-1.0
 40
0.0888572997694967
 41
0.0
 42
6.283185307179583
  0
ELLIPSE
  5
6FEFD
330
7009A
100
AcDbEntity
  8
Level 27
 62
    40
370
    13
100
AcDbEllipse
 10
2255.840634
 20
-267.982424
 30
0.0
 11
0.0
 21
828.7999999999993
 31
0.0
210
0.0
220
0.0
230
-1.0
 40
0.9840820706346919
 41
1.047197556991281
 42
2.094395108187883
  0
ELLIPSE
  5
6FEFE
330
7009A
100
AcDbEntity
  8
Level 27
 62
    40
370
    13
100
AcDbEllipse
 10
2259.608183
 20
-267.982424
 30
0.0
 11
0.0
 21
849.9999999999992
 31
0.0
210
0.0
220
0.0
230
-1.0
 40
0.9840820706346917
 41
1.047197556991283
 42
2.094395108187885
  0
ELLIPSE
  5
6FEFF
330
7009A
100
AcDbEntity
  8
Level 27
 62
    40
370
    13
100
AcDbEllipse
 10
2255.840634
 20
-267.982424
 30
0.0
 11
0.0
 21
871.1999999999996
 31
0.0
210
0.0
220
0.0
230
-1.0
 40
0.9840820706346915
 41
1.047197556991294
 42
2.094395108187896
  0
ELLIPSE
  5
6FF00
330
7009A
100
AcDbEntity
  8
Level 27
 62
    40
370
    13
100
AcDbEllipse
 10
2252.073084
 20
-267.982424
 30
0.0
 11
0.0
 21
849.9999999999992
 31
0.0
210
0.0
220
0.0
230
-1.0
 40
0.9840820706346917
 41
1.047197556991283
 42
2.094395108187885
  0
ENDBLK
  5
7009C
330
7009A
100
AcDbEntity
  8
0
 62
    98
370
     0
100
AcDbBlockEnd
  0
BLOCK
  5
7009E
330
7009D
100
AcDbEntity
  8
0
 62
    98
370
     0
100
AcDbBlockBegin
  2
From Surface_15
 70
     0
 10
0.0
 20
0.0
 30
0.0
  3
From Surface_15
  1

  0
ELLIPSE
  5
6FF06
330
7009D
100
AcDbEntity
  8
Level 27
 62
    40
370
    13
100
AcDbEllipse
 10
2980.2447
 20
157.017568
 30
0.0
 11
0.0
 21
21.20000000000002
 31
0.0
210
0.0
220
0.0
230
1.0
 40
0.1777145977553254
 41
0.0
 42
6.283185307179584
  0
ELLIPSE
  5
6FF07
330
7009D
100
AcDbEntity
  8
Level 27
 62
    40
370
    13
100
AcDbEllipse
 10
3704.648757
 20
-267.982441
 30
0.0
 11
18.43265149066438
 21
10.47269588137217
 31
0.0
210
0.0
220
0.0
230
1.0
 40
0.0888572979858291
 41
0.0
 42
6.283185307179583
  0
ELLIPSE
  5
6FF08
330
7009D
100
AcDbEntity
  8
Level 27
 62
    40
370
    13
100
AcDbEllipse
 10
2980.244691
 20
-692.982432
 30
0.0
 11
0.0
 21
828.7999999999978
 31
0.0
210
0.0
220
0.0
230
-0.9999999999999998
 40
0.9840820706346919
 41
0.0
 42
1.047197551196602
  0
ELLIPSE
  5
6FF09
330
7009D
100
AcDbEntity
  8
Level 27
 62
    40
370
    13
100
AcDbEllipse
 10
2984.01224
 20
-692.982432
 30
0.0
 11
0.0
 21
849.999999999998
 31
0.0
210
0.0
220
0.0
230
-1.0
 40
0.9840820706346919
 41
0.0
 42
1.047197551196602
  0
ELLIPSE
  5
6FF0A
330
7009D
100
AcDbEntity
  8
Level 27
 62
    40
370
    13
100
AcDbEllipse
 10
2980.244691
 20
-692.982432
 30
0.0
 11
0.0
 21
871.1999999999981
 31
0.0
210
0.0
220
0.0
230
-1.0
 40
0.9840820706346919
 41
0.0
 42
1.047197551196602
  0
ELLIPSE
  5
6FF0B
330
7009D
100
AcDbEntity
  8
Level 27
 62
    40
370
    13
100
AcDbEllipse
 10
2976.477141
 20
-692.982432
 30
0.0
 11
0.0
 21
849.999999999998
 31
0.0
210
0.0
220
0.0
230
-1.0
 40
0.9840820706346919
 41
0.0
 42
1.047197551196602
  0
ENDBLK
  5
7009F
330
7009D
100
AcDbEntity
  8
0
 62
    98
370
     0
100
AcDbBlockEnd
  0
ENDSEC
  0
SECTION
  2
ENTITIES
  0
INSERT
  5
6FD89
330
6FF7E
100
AcDbEntity
  8
Level 26
 62
     7
370
    13
100
AcDbBlockReference
  2
FS34
 10
3015.599073
 20
157.017589
 30
0.0
  0
CIRCLE
  5
6FF13
330
6FF7E
100
AcDbEntity
  8
Level 15
  6
DGN Style 2
 62
     7
370
    13
100
AcDbCircle
 10
3015.599073
 20
157.017589
 30
0.0
 40
3916.178276822533
  0
ENDSEC
  0
SECTION
  2
OBJECTS
  0
DICTIONARY
  5
6FF85
330
0
100
AcDbDictionary
281
     1
  3
ACAD_COLOR
350
6FFC3
  3
ACAD_GROUP
350
6FFB0
  3
ACAD_LAYOUT
350
6FF92
  3
ACAD_MATERIAL
350
6FF87
  3
ACAD_MLEADERSTYLE
350
6FFC6
  3
ACAD_MLINESTYLE
350
6FFB1
  3
ACAD_PLOTSETTINGS
350
6FFB2
  3
ACAD_PLOTSTYLENAME
350
6FF84
  3
ACAD_SCALELIST
350
6FFC4
  3
ACAD_TABLESTYLE
350
6FFC5
  3
ACAD_VISUALSTYLE
350
6FFAA
  3
ACDB_RECOMPOSE_DATA
350
700AE
  3
AcDbVariableDictionary
350
700A4
  0
DICTIONARY
  5
6FF9D
330
6FF9C
100
AcDbDictionary
280
     1
281
     1
  3
ACAD_LAYERFILTERS
360
6FFF0
  3
ACAD_LAYERSTATES
360
6FF9E
  3
ACLYDICTIONARY
360
6FFF1
  0
DICTIONARY
  5
6FF81
330
6FF80
100
AcDbDictionary
280
     1
281
     1
  3
ADSK_XREC_LAYER_RECONCILED
360
6FF82
  0
DICTIONARY
  5
700A0
330
6FFF2
100
AcDbDictionary
280
     1
281
     1
  3
ACAD_SORTENTS
360
700A1
  0
DICTIONARY
  5
6FFC3
102
{ACAD_REACTORS
330
6FF85
102
}
330
6FF85
100
AcDbDictionary
281
     1
  0
DICTIONARY
  5
6FFB0
102
{ACAD_REACTORS
330
6FF85
102
}
330
6FF85
100
AcDbDictionary
281
     1
  0
DICTIONARY
  5
6FF92
102
{ACAD_REACTORS
330
6FF85
102
}
330
6FF85
100
AcDbDictionary
281
     1
  3
Layout1
350
6FF98
  3
Model
350
6FF91
  0
DICTIONARY
  5
6FF87
102
{ACAD_REACTORS
330
6FF85
102
}
330
6FF85
100
AcDbDictionary
281
     1
  3
ByBlock
350
6FFBB
  3
ByLayer
350
6FFB3
  3
Global
350
6FF86
  0
DICTIONARY
  5
6FFC6
102
{ACAD_REACTORS
330
6FF85
102
}
330
6FF85
100
AcDbDictionary
281
     1
  0
DICTIONARY
  5
6FFB1
102
{ACAD_REACTORS
330
6FF85
102
}
330
6FF85
100
AcDbDictionary
281
     1
  3
Standard
350
6FFC7
  0
DICTIONARY
  5
6FFB2
102
{ACAD_REACTORS
330
6FF85
102
}
330
6FF85
100
AcDbDictionary
281
     1
  0
ACDBDICTIONARYWDFLT
  5
6FF84
102
{ACAD_REACTORS
330
6FF85
102
}
330
6FF85
100
AcDbDictionary
281
     1
  3
Normal
350
6FF83
100
AcDbDictionaryWithDefault
340
6FF83
  0
DICTIONARY
  5
6FFC4
102
{ACAD_REACTORS
330
6FF85
102
}
330
6FF85
100
AcDbDictionary
281
     1
  3
A0
350
6FFCC
  3
A1
350
6FFCD
  3
A2
350
6FFCE
  3
A3
350
6FFCF
  3
A4
350
6FFD0
  3
A5
350
6FFD1
  3
A6
350
6FFD2
  3
A7
350
6FFD3
  3
A8
350
6FFD4
  3
A9
350
6FFD5
  3
B0
350
6FFD6
  3
B1
350
6FFD7
  3
B2
350
6FFD8
  3
B3
350
6FFD9
  3
B4
350
6FFDA
  3
B5
350
6FFDB
  3
B6
350
6FFDC
  3
B7
350
6FFDD
  3
B8
350
6FFDE
  3
B9
350
6FFDF
  3
C0
350
6FFE0
  3
C1
350
6FFE1
  3
C2
350
6FFE2
  3
C3
350
6FFE3
  3
C4
350
6FFE4
  3
C5
350
6FFE5
  3
C6
350
6FFE6
  3
C7
350
6FFE7
  3
C8
350
6FFE8
  3
C9
350
6FFE9
  3
D0
350
6FFEA
  3
D1
350
6FFEB
  3
D2
350
6FFEC
  0
DICTIONARY
  5
6FFC5
102
{ACAD_REACTORS
330
6FF85
102
}
330
6FF85
100
AcDbDictionary
281
     1
  3
Standard
350
6FFC8
  0
DICTIONARY
  5
6FFAA
102
{ACAD_REACTORS
330
6FF85
102
}
330
6FF85
100
AcDbDictionary
281
     1
  3
2dWireframe
350
6FFA9
  3
Realistic
350
6FFCA
  3
Wireframe
350
6FFCB
  0
XRECORD
  5
700AE
102
{ACAD_REACTORS
330
6FF85
102
}
330
6FF85
100
AcDbXrecord
280
     1
 90
        1
330
6FFC8
  0
DICTIONARY
  5
700A4
102
{ACAD_REACTORS
330
6FF85
102
}
330
6FF85
100
AcDbDictionary
281
     1
  3
CANNOSCALE
350
700AA
  3
CMLEADERSTYLE
350
700A6
  3
CTABLESTYLE
350
700A5
  3
CVIEWDETAILSTYLE
350
700A7
  3
CVIEWSECTIONSTYLE
350
700A8
  3
LAYEREVAL
350
700AB
  3
LAYERNOTIFY
350
700AC
  3
MSLTSCALE
350
700A9
  0
DICTIONARY
  5
6FFF0
102
{ACAD_REACTORS
330
6FF9D
102
}
330
6FF9D
100
AcDbDictionary
281
     1
  0
DICTIONARY
  5
6FF9E
102
{ACAD_REACTORS
330
6FF9D
102
}
330
6FF9D
100
AcDbDictionary
281
     1
  0
DICTIONARY
  5
6FFF1
102
{ACAD_REACTORS
330
6FF9D
102
}
330
6FF9D
100
AcDbDictionary
281
     1
  0
XRECORD
  5
6FF82
102
{ACAD_REACTORS
330
6FF81
102
}
330
6FF81
100
AcDbXrecord
280
     1
290
     1
  0
SORTENTSTABLE
  5
700A1
102
{ACAD_REACTORS
330
700A0
102
}
330
700A0
100
AcDbSortentsTable
330
6FFF2
331
6FE7E
  5
6FEEB
331
6FF72
  5
6FE92
331
6FE59
  5
6FE71
331
6FF6D
  5
6FE45
331
6FD9B
  5
6FD9B
331
6FF78
  5
6FF70
331
6FE86
  5
6FEED
331
6FE00
  5
6FE00
331
6FF73
  5
6FED7
331
6FF03
  5
6FF78
331
6FEED
  5
6FF72
331
6FF6E
  5
6FE4E
331
6FD9C
  5
6FD9C
331
6FF79
  5
6FF73
331
6FED7
  5
6FF6C
331
6FE71
  5
6FED5
331
6FE45
  5
6FE59
331
6FE08
  5
6FE08
331
6FDA4
  5
6FDA4
331
6FF74
  5
6FF01
331
6FE5B
  5
6FE7A
331
6FF6F
  5
6FE5B
331
6FDEC
  5
6FDEC
331
6FF0C
  5
6FF7A
331
6FF7A
  5
6FF76
331
6FDAC
  5
6FDAC
331
6FEF6
  5
6FF74
331
6FEE0
  5
6FF6E
331
6FF75
  5
6FF03
331
6FE4E
  5
6FE64
331
6FDF4
  5
6FDF4
331
6FDB4
  5
6FDB4
331
6FF7B
  5
6FF79
331
6FE7A
  5
6FEE0
331
6FE64
  5
6FE7E
331
6FDBC
  5
6FDBC
331
6FF76
  5
6FF0C
331
6FDE0
  5
6FDE0
331
6FF0E
  5
6FF7B
331
6FDC4
  5
6FDC4
331
6FD8A
  5
6FD8A
331
6FE50
  5
6FE66
331
6FEF8
  5
6FF75
331
6FEE2
  5
6FF6F
331
6FF77
  5
6FF6D
331
6FDCC
  5
6FDCC
331
6FE7C
  5
6FEE2
331
6FE66
  5
6FE86
331
6FF70
  5
6FE6F
331
6FD92
  5
6FD92
331
6FE92
  5
6FEF6
331
6FDD4
  5
6FDD4
331
6FF71
  5
6FE7C
331
6FF01
  5
6FF77
331
6FEEB
  5
6FF71
331
6FF6C
  5
6FE43
331
6FED5
  5
6FF0E
331
6FE6F
  5
6FE9A
331
6FE9A
  5
6FEF8
331
6FE43
  5
6FE50
  0
LAYOUT
  5
6FF98
102
{ACAD_XDICTIONARY
360
6FF99
102
}
102
{ACAD_REACTORS
330
6FF92
102
}
330
6FF92
100
AcDbPlotSettings
  1

  2
none_device
  4
Letter_(8.50_x_11.00_Inches)
  6

 40
6.35
 41
6.35
 42
6.350006
 43
6.350006
 44
215.899994
 45
279.399994
 46
0.0
 47
0.0
 48
0.0
 49
0.0
140
0.0
141
0.0
142
1.0
143
1.0
 70
   688
 72
     0
 73
     1
 74
     5
  7

 75
    16
147
1.0
 76
     0
 77
     2
 78
   300
148
0.0
149
0.0
100
AcDbLayout
  1
Layout1
 70
     1
 71
     1
 10
-0.25
 20
-0.25
 11
10.75
 21
8.25
 12
0.0
 22
0.0
 32
0.0
 14
1.05
 24
0.8
 34
0.0
 15
9.45
 25
7.2
 35
0.0
146
0.0
 13
0.0
 23
0.0
 33
0.0
 16
1.0
 26
0.0
 36
0.0
 17
0.0
 27
1.0
 37
0.0
 76
     0
330
6FF95
1001
ACAD_PSEXT
1000
None
1000
None
1000
Not applicable
1000
The layout will not be plotted unless a new plotter configuration name is selected.
1070
     0
  0
LAYOUT
  5
6FF91
102
{ACAD_XDICTIONARY
360
6FF93
102
}
102
{ACAD_REACTORS
330
6FF92
102
}
330
6FF92
100
AcDbPlotSettings
  1

  2
none_device
  4
ANSI_A_(8.50_x_11.00_Inches)
  6

 40
6.35
 41
19.049999
 42
6.350006
 43
19.049988
 44
215.899994
 45
279.399994
 46
0.0
 47
0.0
 48
0.0
 49
0.0
140
0.0
141
0.0
142
1.0
143
2.584895
 70
 11952
 72
     0
 73
     1
 74
     0
  7

 75
     0
147
0.386863
 76
     0
 77
     2
 78
   300
148
0.0
149
0.0
100
AcDbLayout
  1
Model
 70
     1
 71
     0
 10
0.0
 20
0.0
 11
12.0
 21
9.0
 12
0.0
 22
0.0
 32
0.0
 14
0.0
 24
0.0
 34
0.0
 15
0.0
 25
0.0
 35
0.0
146
0.0
 13
0.0
 23
0.0
 33
0.0
 16
1.0
 26
0.0
 36
0.0
 17
0.0
 27
1.0
 37
0.0
 76
     0
330
6FF7E
331
6FFA8
  0
MATERIAL
  5
6FFBB
102
{ACAD_XDICTIONARY
360
6FFBC
102
}
102
{ACAD_REACTORS
330
6FF87
102
}
330
6FF87
100
AcDbMaterial
  1
ByBlock
 72
     0
 43
0.020833
 43
0.0
 43
0.0
 43
0.0
 43
0.0
 43
0.020833
 43
0.0
 43
0.0
 43
0.0
 43
0.0
 43
1.0
 43
0.0
 43
0.0
 43
0.0
 43
0.0
 43
1.0
 77
     0
 47
0.020833
 47
0.0
 47
0.0
 47
0.0
 47
0.0
 47
0.020833
 47
0.0
 47
0.0
 47
0.0
 47
0.0
 47
1.0
 47
0.0
 47
0.0
 47
0.0
 47
0.0
 47
1.0
171
     0
 49
0.020833
 49
0.0
 49
0.0
 49
0.0
 49
0.0
 49
0.020833
 49
0.0
 49
0.0
 49
0.0
 49
0.0
 49
1.0
 49
0.0
 49
0.0
 49
0.0
 49
0.0
 49
1.0
175
     0
142
0.020833
142
0.0
142
0.0
142
0.0
142
0.0
142
0.020833
142
0.0
142
0.0
142
0.0
142
0.0
142
1.0
142
0.0
142
0.0
142
0.0
142
0.0
142
1.0
179
     0
144
0.020833
144
0.0
144
0.0
144
0.0
144
0.0
144
0.020833
144
0.0
144
0.0
144
0.0
144
0.0
144
1.0
144
0.0
144
0.0
144
0.0
144
0.0
144
1.0
147
0.020833
147
0.0
147
0.0
147
0.0
147
0.0
147
0.020833
147
0.0
147
0.0
147
0.0
147
0.0
147
1.0
147
0.0
147
0.0
147
0.0
147
0.0
147
1.0
  0
MATERIAL
  5
6FFB3
102
{ACAD_XDICTIONARY
360
6FFB4
102
}
102
{ACAD_REACTORS
330
6FF87
102
}
330
6FF87
100
AcDbMaterial
  1
ByLayer
 72
     0
 43
0.020833
 43
0.0
 43
0.0
 43
0.0
 43
0.0
 43
0.020833
 43
0.0
 43
0.0
 43
0.0
 43
0.0
 43
1.0
 43
0.0
 43
0.0
 43
0.0
 43
0.0
 43
1.0
 77
     0
 47
0.020833
 47
0.0
 47
0.0
 47
0.0
 47
0.0
 47
0.020833
 47
0.0
 47
0.0
 47
0.0
 47
0.0
 47
1.0
 47
0.0
 47
0.0
 47
0.0
 47
0.0
 47
1.0
171
     0
 49
0.020833
 49
0.0
 49
0.0
 49
0.0
 49
0.0
 49
0.020833
 49
0.0
 49
0.0
 49
0.0
 49
0.0
 49
1.0
 49
0.0
 49
0.0
 49
0.0
 49
0.0
 49
1.0
175
     0
142
0.020833
142
0.0
142
0.0
142
0.0
142
0.0
142
0.020833
142
0.0
142
0.0
142
0.0
142
0.0
142
1.0
142
0.0
142
0.0
142
0.0
142
0.0
142
1.0
179
     0
144
0.020833
144
0.0
144
0.0
144
0.0
144
0.0
144
0.020833
144
0.0
144
0.0
144
0.0
144
0.0
144
1.0
144
0.0
144
0.0
144
0.0
144
0.0
144
1.0
147
0.020833
147
0.0
147
0.0
147
0.0
147
0.0
147
0.020833
147
0.0
147
0.0
147
0.0
147
0.0
147
1.0
147
0.0
147
0.0
147
0.0
147
0.0
147
1.0
  0
MATERIAL
  5
6FF86
102
{ACAD_XDICTIONARY
360
6FF88
102
}
102
{ACAD_REACTORS
330
6FF87
102
}
330
6FF87
100
AcDbMaterial
  1
Global
 72
     0
 43
0.020833
 43
0.0
 43
0.0
 43
0.0
 43
0.0
 43
0.020833
 43
0.0
 43
0.0
 43
0.0
 43
0.0
 43
1.0
 43
0.0
 43
0.0
 43
0.0
 43
0.0
 43
1.0
 77
     0
 47
0.020833
 47
0.0
 47
0.0
 47
0.0
 47
0.0
 47
0.020833
 47
0.0
 47
0.0
 47
0.0
 47
0.0
 47
1.0
 47
0.0
 47
0.0
 47
0.0
 47
0.0
 47
1.0
171
     0
 49
0.020833
 49
0.0
 49
0.0
 49
0.0
 49
0.0
 49
0.020833
 49
0.0
 49
0.0
 49
0.0
 49
0.0
 49
1.0
 49
0.0
 49
0.0
 49
0.0
 49
0.0
 49
1.0
175
     0
142
0.020833
142
0.0
142
0.0
142
0.0
142
0.0
142
0.020833
142
0.0
142
0.0
142
0.0
142
0.0
142
1.0
142
0.0
142
0.0
142
0.0
142
0.0
142
1.0
179
     0
144
0.020833
144
0.0
144
0.0
144
0.0
144
0.0
144
0.020833
144
0.0
144
0.0
144
0.0
144
0.0
144
1.0
144
0.0
144
0.0
144
0.0
144
0.0
144
1.0
147
0.020833
147
0.0
147
0.0
147
0.0
147
0.0
147
0.020833
147
0.0
147
0.0
147
0.0
147
0.0
147
1.0
147
0.0
147
0.0
147
0.0
147
0.0
147
1.0
  0
MLINESTYLE
  5
6FFC7
102
{ACAD_REACTORS
330
6FFB1
102
}
330
6FFB1
100
AcDbMlineStyle
  2
STANDARD
 70
     0
  3

 62
   256
 51
90.0
 52
90.0
 71
     2
 49
0.5
 62
   256
  6
BYLAYER
 49
-0.5
 62
   256
  6
BYLAYER
  0
ACDBPLACEHOLDER
  5
6FF83
102
{ACAD_REACTORS
330
6FF84
102
}
330
6FF84
  0
SCALE
  5
6FFCC
102
{ACAD_REACTORS
330
6FFC4
102
}
330
6FFC4
100
AcDbScale
 70
     0
300
1:1
140
1.0
141
1.0
290
     1
  0
SCALE
  5
6FFCD
102
{ACAD_REACTORS
330
6FFC4
102
}
330
6FFC4
100
AcDbScale
 70
     0
300
1:2
140
1.0
141
2.0
290
     0
  0
SCALE
  5
6FFCE
102
{ACAD_REACTORS
330
6FFC4
102
}
330
6FFC4
100
AcDbScale
 70
     0
300
1:4
140
1.0
141
4.0
290
     0
  0
SCALE
  5
6FFCF
102
{ACAD_REACTORS
330
6FFC4
102
}
330
6FFC4
100
AcDbScale
 70
     0
300
1:5
140
1.0
141
5.0
290
     0
  0
SCALE
  5
6FFD0
102
{ACAD_REACTORS
330
6FFC4
102
}
330
6FFC4
100
AcDbScale
 70
     0
300
1:8
140
1.0
141
8.0
290
     0
  0
SCALE
  5
6FFD1
102
{ACAD_REACTORS
330
6FFC4
102
}
330
6FFC4
100
AcDbScale
 70
     0
300
1:10
140
1.0
141
10.0
290
     0
  0
SCALE
  5
6FFD2
102
{ACAD_REACTORS
330
6FFC4
102
}
330
6FFC4
100
AcDbScale
 70
     0
300
1:16
140
1.0
141
16.0
290
     0
  0
SCALE
  5
6FFD3
102
{ACAD_REACTORS
330
6FFC4
102
}
330
6FFC4
100
AcDbScale
 70
     0
300
1:20
140
1.0
141
20.0
290
     0
  0
SCALE
  5
6FFD4
102
{ACAD_REACTORS
330
6FFC4
102
}
330
6FFC4
100
AcDbScale
 70
     0
300
1:30
140
1.0
141
30.0
290
     0
  0
SCALE
  5
6FFD5
102
{ACAD_REACTORS
330
6FFC4
102
}
330
6FFC4
100
AcDbScale
 70
     0
300
1:40
140
1.0
141
40.0
290
     0
  0
SCALE
  5
6FFD6
102
{ACAD_REACTORS
330
6FFC4
102
}
330
6FFC4
100
AcDbScale
 70
     0
300
1:50
140
1.0
141
50.0
290
     0
  0
SCALE
  5
6FFD7
102
{ACAD_REACTORS
330
6FFC4
102
}
330
6FFC4
100
AcDbScale
 70
     0
300
1:100
140
1.0
141
100.0
290
     0
  0
SCALE
  5
6FFD8
102
{ACAD_REACTORS
330
6FFC4
102
}
330
6FFC4
100
AcDbScale
 70
     0
300
2:1
140
2.0
141
1.0
290
     0
  0
SCALE
  5
6FFD9
102
{ACAD_REACTORS
330
6FFC4
102
}
330
6FFC4
100
AcDbScale
 70
     0
300
4:1
140
4.0
141
1.0
290
     0
  0
SCALE
  5
6FFDA
102
{ACAD_REACTORS
330
6FFC4
102
}
330
6FFC4
100
AcDbScale
 70
     0
300
8:1
140
8.0
141
1.0
290
     0
  0
SCALE
  5
6FFDB
102
{ACAD_REACTORS
330
6FFC4
102
}
330
6FFC4
100
AcDbScale
 70
     0
300
10:1
140
10.0
141
1.0
290
     0
  0
SCALE
  5
6FFDC
102
{ACAD_REACTORS
330
6FFC4
102
}
330
6FFC4
100
AcDbScale
 70
     0
300
100:1
140
100.0
141
1.0
290
     0
  0
SCALE
  5
6FFDD
102
{ACAD_REACTORS
330
6FFC4
102
}
330
6FFC4
100
AcDbScale
 70
     0
300
1/128" = 1'-0"
140
0.007813
141
12.0
290
     0
  0
SCALE
  5
6FFDE
102
{ACAD_REACTORS
330
6FFC4
102
}
330
6FFC4
100
AcDbScale
 70
     0
300
1/64" = 1'-0"
140
0.015625
141
12.0
290
     0
  0
SCALE
  5
6FFDF
102
{ACAD_REACTORS
330
6FFC4
102
}
330
6FFC4
100
AcDbScale
 70
     0
300
1/32" = 1'-0"
140
0.03125
141
12.0
290
     0
  0
SCALE
  5
6FFE0
102
{ACAD_REACTORS
330
6FFC4
102
}
330
6FFC4
100
AcDbScale
 70
     0
300
1/16" = 1'-0"
140
0.0625
141
12.0
290
     0
  0
SCALE
  5
6FFE1
102
{ACAD_REACTORS
330
6FFC4
102
}
330
6FFC4
100
AcDbScale
 70
     0
300
3/32" = 1'-0"
140
0.09375
141
12.0
290
     0
  0
SCALE
  5
6FFE2
102
{ACAD_REACTORS
330
6FFC4
102
}
330
6FFC4
100
AcDbScale
 70
     0
300
1/8" = 1'-0"
140
0.125
141
12.0
290
     0
  0
SCALE
  5
6FFE3
102
{ACAD_REACTORS
330
6FFC4
102
}
330
6FFC4
100
AcDbScale
 70
     0
300
3/16" = 1'-0"
140
0.1875
141
12.0
290
     0
  0
SCALE
  5
6FFE4
102
{ACAD_REACTORS
330
6FFC4
102
}
330
6FFC4
100
AcDbScale
 70
     0
300
1/4" = 1'-0"
140
0.25
141
12.0
290
     0
  0
SCALE
  5
6FFE5
102
{ACAD_REACTORS
330
6FFC4
102
}
330
6FFC4
100
AcDbScale
 70
     0
300
3/8" = 1'-0"
140
0.375
141
12.0
290
     0
  0
SCALE
  5
6FFE6
102
{ACAD_REACTORS
330
6FFC4
102
}
330
6FFC4
100
AcDbScale
 70
     0
300
1/2" = 1'-0"
140
0.5
141
12.0
290
     0
  0
SCALE
  5
6FFE7
102
{ACAD_REACTORS
330
6FFC4
102
}
330
6FFC4
100
AcDbScale
 70
     0
300
3/4" = 1'-0"
140
0.75
141
12.0
290
     0
  0
SCALE
  5
6FFE8
102
{ACAD_REACTORS
330
6FFC4
102
}
330
6FFC4
100
AcDbScale
 70
     0
300
1" = 1'-0"
140
1.0
141
12.0
290
     0
  0
SCALE
  5
6FFE9
102
{ACAD_REACTORS
330
6FFC4
102
}
330
6FFC4
100
AcDbScale
 70
     0
300
1-1/2" = 1'-0"
140
1.5
141
12.0
290
     0
  0
SCALE
  5
6FFEA
102
{ACAD_REACTORS
330
6FFC4
102
}
330
6FFC4
100
AcDbScale
 70
     0
300
3" = 1'-0"
140
3.0
141
12.0
290
     0
  0
SCALE
  5
6FFEB
102
{ACAD_REACTORS
330
6FFC4
102
}
330
6FFC4
100
AcDbScale
 70
     0
300
6" = 1'-0"
140
6.0
141
12.0
290
     0
  0
SCALE
  5
6FFEC
102
{ACAD_REACTORS
330
6FFC4
102
}
330
6FFC4
100
AcDbScale
 70
     0
300
1'-0" = 1'-0"
140
12.0
141
12.0
290
     0
  0
TABLESTYLE
  5
6FFC8
102
{ACAD_XDICTIONARY
360
6FFC9
102
}
102
{ACAD_REACTORS
330
6FFC5
102
}
330
6FFC5
100
AcDbTableStyle
280
     0
  3
Standard
 70
     0
 71
     0
 40
0.06
 41
0.06
280
     0
281
     0
  7
Standard
140
0.18
170
     2
 62
     0
 63
     7
283
     0
 90
        4
 91
        0
  1

274
    -2
284
     1
 64
     0
275
    -2
285
     1
 65
     0
276
    -2
286
     1
 66
     0
277
    -2
287
     1
 67
     0
278
    -2
288
     1
 68
     0
279
    -2
289
     1
 69
     0
  7
Standard
140
0.25
170
     5
 62
     0
 63
     7
283
     0
 90
        4
 91
        0
  1

274
    -2
284
     1
 64
     0
275
    -2
285
     1
 65
     0
276
    -2
286
     1
 66
     0
277
    -2
287
     1
 67
     0
278
    -2
288
     1
 68
     0
279
    -2
289
     1
 69
     0
  7
Standard
140
0.18
170
     5
 62
     0
 63
     7
283
     0
 90
        4
 91
        0
  1

274
    -2
284
     1
 64
     0
275
    -2
285
     1
 65
     0
276
    -2
286
     1
 66
     0
277
    -2
287
     1
 67
     0
278
    -2
288
     1
 68
     0
279
    -2
289
     1
 69
     0
  0
VISUALSTYLE
  5
6FFA9
102
{ACAD_REACTORS
330
6FFAA
102
}
330
6FFAA
100
AcDbVisualStyle
  2
2dWireframe
 70
     4
177
     3
291
     0
 70
    58
 90
        0
176
     1
 90
        2
176
     1
 90
        0
176
     1
 90
        0
176
     1
 40
0.6
176
     1
 40
30.0
176
     1
 62
     7
420
 16777215
176
     1
 90
        1
176
     1
 90
        4
176
     1
 62
     7
176
     1
 62
   257
176
     1
 90
        1
176
     1
 90
        1
176
     1
 40
1.0
176
     1
 90
        0
176
     1
 62
   257
176
     1
 40
1.0
176
     1
 90
        1
176
     1
 90
        6
176
     1
 90
        2
176
     1
 62
     7
176
     1
 90
        5
176
     1
 90
        0
176
     1
 90
        0
176
     1
290
     0
176
     1
 90
        1
176
     1
 40
0.0
176
     1
 90
        0
176
     1
290
     1
176
     1
290
     1
176
     1
290
     0
176
     1
290
     0
176
     1
290
     0
176
     1
290
     0
176
     1
290
     0
176
     1
290
     0
176
     1
290
     0
176
     1
 90
       50
176
     1
 40
0.0
176
     1
 40
1.0
176
     1
 90
        0
176
     1
 62
    18
420
        0
176
     1
 90
       50
176
     1
 90
        3
176
     1
 62
     5
420
      255
176
     1
290
     0
176
     1
 90
       50
176
     1
 90
       50
176
     1
 90
       50
176
     1
290
     0
176
     1
 90
       50
176
     1
 62
   256
176
     0
 40
1.0
176
     0
 90
        2
176
     1
  1
strokes_ogs.tif
176
     1
290
     0
176
     1
 40
1.0
176
     1
 40
1.0
176
     1
  0
VISUALSTYLE
  5
6FFCA
102
{ACAD_REACTORS
330
6FFAA
102
}
330
6FFAA
100
AcDbVisualStyle
  2
Realistic
 70
     8
177
     3
291
     0
 70
    58
 90
        2
176
     1
 90
        2
176
     1
 90
        0
176
     1
 90
        0
176
     1
 40
0.6
176
     1
 40
30.0
176
     1
 62
     7
420
 16777215
176
     1
 90
        1
176
     1
 90
        0
176
     1
 62
     7
176
     1
 62
   257
176
     1
 90
        1
176
     1
 90
        1
176
     1
 40
1.0
176
     1
 90
        8
176
     1
 62
     8
420
  7895160
176
     1
 40
1.0
176
     1
 90
        1
176
     1
 90
        6
176
     1
 90
        2
176
     1
 62
     7
176
     1
 90
        5
176
     1
 90
        0
176
     1
 90
        0
176
     1
290
     0
176
     1
 90
       13
176
     1
 40
0.0
176
     1
 90
        0
176
     1
290
     0
176
     1
290
     1
176
     1
290
     1
176
     1
290
     0
176
     1
290
     0
176
     1
290
     0
176
     1
290
     0
176
     1
290
     0
176
     1
290
     0
176
     1
 90
       50
176
     1
 40
0.0
176
     1
 40
1.0
176
     1
 90
        0
176
     1
 62
    18
420
        0
176
     1
 90
       50
176
     1
 90
        3
176
     1
 62
     5
420
      255
176
     1
290
     0
176
     1
 90
       50
176
     1
 90
       50
176
     1
 90
       50
176
     1
290
     0
176
     1
 90
       50
176
     1
 62
   256
176
     0
 40
1.0
176
     0
 90
        2
176
     1
  1
strokes_ogs.tif
176
     1
290
     0
176
     1
 40
1.0
176
     1
 40
1.0
176
     1
  0
VISUALSTYLE
  5
6FFCB
102
{ACAD_REACTORS
330
6FFAA
102
}
330
6FFAA
100
AcDbVisualStyle
  2
Wireframe
 70
     5
177
     3
291
     0
 70
    58
 90
        0
176
     1
 90
        2
176
     1
 90
        0
176
     1
 90
        0
176
     1
 40
0.6
176
     1
 40
30.0
176
     1
 62
     7
420
 16777215
176
     1
 90
        1
176
     1
 90
        4
176
     1
 62
     7
176
     1
 62
   257
176
     1
 90
        1
176
     1
 90
        1
176
     1
 40
1.0
176
     1
 90
        0
176
     1
 62
   257
176
     1
 40
1.0
176
     1
 90
        1
176
     1
 90
        6
176
     1
 90
        2
176
     1
 62
     7
176
     1
 90
        3
176
     1
 90
        0
176
     1
 90
        0
176
     1
290
     0
176
     1
 90
        1
176
     1
 40
0.0
176
     1
 90
        0
176
     1
290
     0
176
     1
290
     1
176
     1
290
     1
176
     1
290
     0
176
     1
290
     0
176
     1
290
     0
176
     1
290
     0
176
     1
290
     0
176
     1
290
     0
176
     1
 90
       50
176
     1
 40
0.0
176
     1
 40
1.0
176
     1
 90
        0
176
     1
 62
    18
420
        0
176
     1
 90
       50
176
     1
 90
        3
176
     1
 62
     5
420
      255
176
     1
290
     0
176
     1
 90
       50
176
     1
 90
       50
176
     1
 90
       50
176
     1
290
     0
176
     1
 90
       50
176
     1
 62
   256
176
     0
 40
1.0
176
     0
 90
        2
176
     1
  1
strokes_ogs.tif
176
     1
290
     0
176
     1
 40
1.0
176
     1
 40
1.0
176
     1
  0
DICTIONARYVAR
  5
700AA
102
{ACAD_REACTORS
330
700A4
102
}
330
700A4
100
DictionaryVariables
280
     0
  1
1:1
  0
DICTIONARYVAR
  5
700A6
102
{ACAD_REACTORS
330
700A4
102
}
330
700A4
100
DictionaryVariables
280
     0
  1
STANDARD
  0
DICTIONARYVAR
  5
700A5
102
{ACAD_REACTORS
330
700A4
102
}
330
700A4
100
DictionaryVariables
280
     0
  1
STANDARD
  0
DICTIONARYVAR
  5
700A7
102
{ACAD_REACTORS
330
700A4
102
}
330
700A4
100
DictionaryVariables
280
     0
  1

  0
DICTIONARYVAR
  5
700A8
102
{ACAD_REACTORS
330
700A4
102
}
330
700A4
100
DictionaryVariables
280
     0
  1

  0
DICTIONARYVAR
  5
700AB
102
{ACAD_REACTORS
330
700A4
102
}
330
700A4
100
DictionaryVariables
280
     0
  1
1
  0
DICTIONARYVAR
  5
700AC
102
{ACAD_REACTORS
330
700A4
102
}
330
700A4
100
DictionaryVariables
280
     0
  1
15
  0
DICTIONARYVAR
  5
700A9
102
{ACAD_REACTORS
330
700A4
102
}
330
700A4
100
DictionaryVariables
280
     0
  1
0
  0
DICTIONARY
  5
6FF99
330
6FF98
100
AcDbDictionary
280
     1
281
     1
  0
DICTIONARY
  5
6FF93
330
6FF91
100
AcDbDictionary
280
     1
281
     1
  0
DICTIONARY
  5
6FFBC
330
6FFBB
100
AcDbDictionary
280
     1
281
     1
  3
BUMPTILE
360
6FFBD
  3
DIFFUSETILE
360
6FFBE
  3
OPACITYTILE
360
6FFBF
  3
REFLECTIONTILE
360
6FFC0
  3
REFRACTIONTILE
360
6FFC1
  3
SPECULARTILE
360
6FFC2
  0
DICTIONARY
  5
6FFB4
330
6FFB3
100
AcDbDictionary
280
     1
281
     1
  3
BUMPTILE
360
6FFB5
  3
DIFFUSETILE
360
6FFB6
  3
OPACITYTILE
360
6FFB7
  3
REFLECTIONTILE
360
6FFB8
  3
REFRACTIONTILE
360
6FFB9
  3
SPECULARTILE
360
6FFBA
  0
DICTIONARY
  5
6FF88
330
6FF86
100
AcDbDictionary
280
     1
281
     1
  3
BUMPTILE
360
6FF89
  3
DIFFUSETILE
360
6FF8A
  3
OPACITYTILE
360
6FF8B
  3
REFLECTIONTILE
360
6FF8C
  3
REFRACTIONTILE
360
6FF8D
  3
SPECULARTILE
360
6FF8E
  0
DICTIONARY
  5
6FFC9
330
6FFC8
100
AcDbDictionary
280
     1
281
     1
  3
ACAD_ROUNDTRIP_2008_TABLESTYLE_CELLSTYLEMAP
360
700AD
  0
XRECORD
  5
6FFBD
102
{ACAD_REACTORS
330
6FFBC
102
}
330
6FFBC
100
AcDbXrecord
280
     1
270
     1
271
     1
  0
XRECORD
  5
6FFBE
102
{ACAD_REACTORS
330
6FFBC
102
}
330
6FFBC
100
AcDbXrecord
280
     1
270
     1
271
     1
  0
XRECORD
  5
6FFBF
102
{ACAD_REACTORS
330
6FFBC
102
}
330
6FFBC
100
AcDbXrecord
280
     1
270
     1
271
     1
  0
XRECORD
  5
6FFC0
102
{ACAD_REACTORS
330
6FFBC
102
}
330
6FFBC
100
AcDbXrecord
280
     1
270
     1
271
     1
  0
XRECORD
  5
6FFC1
102
{ACAD_REACTORS
330
6FFBC
102
}
330
6FFBC
100
AcDbXrecord
280
     1
270
     1
271
     1
  0
XRECORD
  5
6FFC2
102
{ACAD_REACTORS
330
6FFBC
102
}
330
6FFBC
100
AcDbXrecord
280
     1
270
     1
271
     1
  0
XRECORD
  5
6FFB5
102
{ACAD_REACTORS
330
6FFB4
102
}
330
6FFB4
100
AcDbXrecord
280
     1
270
     1
271
     1
  0
XRECORD
  5
6FFB6
102
{ACAD_REACTORS
330
6FFB4
102
}
330
6FFB4
100
AcDbXrecord
280
     1
270
     1
271
     1
  0
XRECORD
  5
6FFB7
102
{ACAD_REACTORS
330
6FFB4
102
}
330
6FFB4
100
AcDbXrecord
280
     1
270
     1
271
     1
  0
XRECORD
  5
6FFB8
102
{ACAD_REACTORS
330
6FFB4
102
}
330
6FFB4
100
AcDbXrecord
280
     1
270
     1
271
     1
  0
XRECORD
  5
6FFB9
102
{ACAD_REACTORS
330
6FFB4
102
}
330
6FFB4
100
AcDbXrecord
280
     1
270
     1
271
     1
  0
XRECORD
  5
6FFBA
102
{ACAD_REACTORS
330
6FFB4
102
}
330
6FFB4
100
AcDbXrecord
280
     1
270
     1
271
     1
  0
XRECORD
  5
6FF89
102
{ACAD_REACTORS
330
6FF88
102
}
330
6FF88
100
AcDbXrecord
280
     1
270
     1
271
     1
  0
XRECORD
  5
6FF8A
102
{ACAD_REACTORS
330
6FF88
102
}
330
6FF88
100
AcDbXrecord
280
     1
270
     1
271
     1
  0
XRECORD
  5
6FF8B
102
{ACAD_REACTORS
330
6FF88
102
}
330
6FF88
100
AcDbXrecord
280
     1
270
     1
271
     1
  0
XRECORD
  5
6FF8C
102
{ACAD_REACTORS
330
6FF88
102
}
330
6FF88
100
AcDbXrecord
280
     1
270
     1
271
     1
  0
XRECORD
  5
6FF8D
102
{ACAD_REACTORS
330
6FF88
102
}
330
6FF88
100
AcDbXrecord
280
     1
270
     1
271
     1
  0
XRECORD
  5
6FF8E
102
{ACAD_REACTORS
330
6FF88
102
}
330
6FF88
100
AcDbXrecord
280
     1
270
     1
271
     1
  0
CELLSTYLEMAP
  5
700AD
102
{ACAD_REACTORS
330
6FFC9
102
}
330
6FFC9
100
AcDbCellStyleMap
 90
        3
300
CELLSTYLE
  1
TABLEFORMAT_BEGIN
 90
        5
170
     1
 91
        0
 92
    32768
 62
   257
 93
        1
300
CONTENTFORMAT
  1
CONTENTFORMAT_BEGIN
 90
        0
 91
        0
 92
        4
 93
        0
300

 40
0.0
140
1.0
 94
        5
 62
     0
340
6FFA0
144
0.25
309
CONTENTFORMAT_END
171
     0
 94
        6
 95
        1
302
GRIDFORMAT
  1
GRIDFORMAT_BEGIN
 90
        0
 91
        1
 62
     0
 92
       -2
340
0
 93
        0
 40
0.045
309
GRIDFORMAT_END
 95
        2
302
GRIDFORMAT
  1
GRIDFORMAT_BEGIN
 90
        0
 91
        1
 62
     0
 92
       -2
340
0
 93
        0
 40
0.045
309
GRIDFORMAT_END
 95
        4
302
GRIDFORMAT
  1
GRIDFORMAT_BEGIN
 90
        0
 91
        1
 62
     0
 92
       -2
340
0
 93
        0
 40
0.045
309
GRIDFORMAT_END
 95
        8
302
GRIDFORMAT
  1
GRIDFORMAT_BEGIN
 90
        0
 91
        1
 62
     0
 92
       -2
340
0
 93
        0
 40
0.045
309
GRIDFORMAT_END
 95
       16
302
GRIDFORMAT
  1
GRIDFORMAT_BEGIN
 90
        0
 91
        1
 62
     0
 92
       -2
340
0
 93
        0
 40
0.045
309
GRIDFORMAT_END
 95
       32
302
GRIDFORMAT
  1
GRIDFORMAT_BEGIN
 90
        0
 91
        1
 62
     0
 92
       -2
340
0
 93
        0
 40
0.045
309
GRIDFORMAT_END
309
TABLEFORMAT_END
  1
CELLSTYLE_BEGIN
 90
        1
 91
        1
300
_TITLE
309
CELLSTYLE_END
300
CELLSTYLE
  1
TABLEFORMAT_BEGIN
 90
        5
170
     1
 91
        0
 92
        0
 62
   257
 93
        1
300
CONTENTFORMAT
  1
CONTENTFORMAT_BEGIN
 90
        0
 91
        0
 92
        4
 93
        0
300

 40
0.0
140
1.0
 94
        5
 62
     0
340
6FFA0
144
0.18
309
CONTENTFORMAT_END
171
     0
 94
        6
 95
        1
302
GRIDFORMAT
  1
GRIDFORMAT_BEGIN
 90
        0
 91
        1
 62
     0
 92
       -2
340
0
 93
        0
 40
0.045
309
GRIDFORMAT_END
 95
        2
302
GRIDFORMAT
  1
GRIDFORMAT_BEGIN
 90
        0
 91
        1
 62
     0
 92
       -2
340
0
 93
        0
 40
0.045
309
GRIDFORMAT_END
 95
        4
302
GRIDFORMAT
  1
GRIDFORMAT_BEGIN
 90
        0
 91
        1
 62
     0
 92
       -2
340
0
 93
        0
 40
0.045
309
GRIDFORMAT_END
 95
        8
302
GRIDFORMAT
  1
GRIDFORMAT_BEGIN
 90
        0
 91
        1
 62
     0
 92
       -2
340
0
 93
        0
 40
0.045
309
GRIDFORMAT_END
 95
       16
302
GRIDFORMAT
  1
GRIDFORMAT_BEGIN
 90
        0
 91
        1
 62
     0
 92
       -2
340
0
 93
        0
 40
0.045
309
GRIDFORMAT_END
 95
       32
302
GRIDFORMAT
  1
GRIDFORMAT_BEGIN
 90
        0
 91
        1
 62
     0
 92
       -2
340
0
 93
        0
 40
0.045
309
GRIDFORMAT_END
309
TABLEFORMAT_END
  1
CELLSTYLE_BEGIN
 90
        2
 91
        1
300
_HEADER
309
CELLSTYLE_END
300
CELLSTYLE
  1
TABLEFORMAT_BEGIN
 90
        5
170
     1
 91
        0
 92
        0
 62
   257
 93
        1
300
CONTENTFORMAT
  1
CONTENTFORMAT_BEGIN
 90
        0
 91
        0
 92
        4
 93
        0
300

 40
0.0
140
1.0
 94
        2
 62
     0
340
6FFA0
144
0.18
309
CONTENTFORMAT_END
171
     0
 94
        6
 95
        1
302
GRIDFORMAT
  1
GRIDFORMAT_BEGIN
 90
        0
 91
        1
 62
     0
 92
       -2
340
0
 93
        0
 40
0.045
309
GRIDFORMAT_END
 95
        2
302
GRIDFORMAT
  1
GRIDFORMAT_BEGIN
 90
        0
 91
        1
 62
     0
 92
       -2
340
0
 93
        0
 40
0.045
309
GRIDFORMAT_END
 95
        4
302
GRIDFORMAT
  1
GRIDFORMAT_BEGIN
 90
        0
 91
        1
 62
     0
 92
       -2
340
0
 93
        0
 40
0.045
309
GRIDFORMAT_END
 95
        8
302
GRIDFORMAT
  1
GRIDFORMAT_BEGIN
 90
        0
 91
        1
 62
     0
 92
       -2
340
0
 93
        0
 40
0.045
309
GRIDFORMAT_END
 95
       16
302
GRIDFORMAT
  1
GRIDFORMAT_BEGIN
 90
        0
 91
        1
 62
     0
 92
       -2
340
0
 93
        0
 40
0.045
309
GRIDFORMAT_END
 95
       32
302
GRIDFORMAT
  1
GRIDFORMAT_BEGIN
 90
        0
 91
        1
 62
     0
 92
       -2
340
0
 93
        0
 40
0.045
309
GRIDFORMAT_END
309
TABLEFORMAT_END
  1
CELLSTYLE_BEGIN
 90
        3
 91
        2
300
_DATA
309
CELLSTYLE_END
  0
ENDSEC
  0
SECTION
  2
ACDSDATA
 70
     2
 71
     6
  0
ACDSSCHEMA
 90
        0
  1
AcDb_Thumbnail_Schema
  2
AcDbDs::ID
280
    10
 91
        8
  2
Thumbnail_Data
280
    15
 91
        0
101
ACDSRECORD
 95
        0
 90
        1
  2
AcDbDs::TreatedAsObjectData
280
     1
291
     1
101
ACDSRECORD
 95
        0
 90
        2
  2
AcDbDs::Legacy
280
     1
291
     1
101
ACDSRECORD
  1
AcDbDs::ID
 90
        3
  2
AcDs:Indexable
280
     1
291
     1
101
ACDSRECORD
  1
AcDbDs::ID
 90
        4
  2
AcDbDs::HandleAttribute
280
     7
282
     1
  0
ACDSSCHEMA
 90
        1
  1
AcDbDs::TreatedAsObjectDataSchema
  2
AcDbDs::TreatedAsObjectData
280
     1
 91
        0
  0
ACDSSCHEMA
 90
        2
  1
AcDbDs::LegacySchema
  2
AcDbDs::Legacy
280
     1
 91
        0
  0
ACDSSCHEMA
 90
        3
  1
AcDbDs::IndexedPropertySchema
  2
AcDs:Indexable
280
     1
 91
        0
  0
ACDSSCHEMA
 90
        4
  1
AcDbDs::HandleAttributeSchema
  2
AcDbDs::HandleAttribute
280
     7
 91
        1
284
     1
  0
ACDSRECORD
 90
        0
  2
AcDbDs::ID
280
    10
320
6FF98
  2
Thumbnail_Data
280
    15
 94
     1183
310
89504E470D0A1A0A0000000D4948445200000100000000C508030000008CFEDCE700000300504C5445FFFFFF000000FFFFFF0000000000000000000000000000000000000000000000000000330000660000990000CC0000FF0033000033330033660033990033CC0033FF0066000066330066660066990066CC0066FF0099
310
000099330099660099990099CC0099FF00CC0000CC3300CC6600CC9900CCCC00CCFF00FF0000FF3300FF6600FF9900FFCC00FFFF3300003300333300663300993300CC3300FF3333003333333333663333993333CC3333FF3366003366333366663366993366CC3366FF3399003399333399663399993399CC3399FF33CC00
310
33CC3333CC6633CC9933CCCC33CCFF33FF0033FF3333FF6633FF9933FFCC33FFFF6600006600336600666600996600CC6600FF6633006633336633666633996633CC6633FF6666006666336666666666996666CC6666FF6699006699336699666699996699CC6699FF66CC0066CC3366CC6666CC9966CCCC66CCFF66FF0066
310
FF3366FF6666FF9966FFCC66FFFF9900009900339900669900999900CC9900FF9933009933339933669933999933CC9933FF9966009966339966669966999966CC9966FF9999009999339999669999999999CC9999FF99CC0099CC3399CC6699CC9999CCCC99CCFF99FF0099FF3399FF6699FF9999FFCC99FFFFCC0000CC00
310
33CC0066CC0099CC00CCCC00FFCC3300CC3333CC3366CC3399CC33CCCC33FFCC6600CC6633CC6666CC6699CC66CCCC66FFCC9900CC9933CC9966CC9999CC99CCCC99FFCCCC00CCCC33CCCC66CCCC99CCCCCCCCCCFFCCFF00CCFF33CCFF66CCFF99CCFFCCCCFFFFFF0000FF0033FF0066FF0099FF00CCFF00FFFF3300FF3333
310
FF3366FF3399FF33CCFF33FFFF6600FF6633FF6666FF6699FF66CCFF66FFFF9900FF9933FF9966FF9999FF99CCFF99FFFFCC00FFCC33FFCC66FFCC99FFCCCCFFCCFFFFFF00FFFF33FFFF66FFFF99FFFFCCFFFFFF0000000D0D0D1A1A1A2828283535354343435050505D5D5D6B6B6B787878868686939393A1A1A1AEAEAEBB
310
BBBBC9C9C9D6D6D6E4E4E4F1F1F1FFFFFF000000000000000000000000000000000000000000000000000000000000790CAC0F0000015A4944415478DAEDD8410A8340100440FFFFCCF9C09EE61E104224896014844D579F64F420A587DE592A3A632CD5C101100F500500C0F36ACDF6D636BFCEEBAEF9E9177D0788FBF600
310
000000000000004D1000000000000000100F50FB4F4C9E8B5578FAFF0300000000000000000000000000000000B00BD069000D0000000000000000A009020000000000000000000000000000000052013A0DA001000000000000000000A8C2000000000000000000000000000000402A40FC420400000000000000002016C0
310
5900000000000000000000000000000000C803885F88000000000000000000C402380B0000000000000000000000000000000000E2003A0DA0010000000000000000344100000000000000000000000000000000C0E7C660F21C04080D0000000000000000C01F54DE73151900000000000000D0AFCDCFB6227CDDAB1C9CD7
310
5DF3D32FAA0902000000C00A109E658C110DF0000E6CC6FBCCF8EC2E0000000049454E44AE426082
  0
ACDSRECORD
 90
        0
  2
AcDbDs::ID
280
    10
320
6FF91
  2
Thumbnail_Data
280
    15
 94
     1017
310
89504E470D0A1A0A0000000D4948445200000100000000890803000000F46416F000000300504C5445FEFCF0000000FFFFFF0000000000000000000000000000000000000000000000000000330000660000990000CC0000FF0033000033330033660033990033CC0033FF0066000066330066660066990066CC0066FF0099
310
000099330099660099990099CC0099FF00CC0000CC3300CC6600CC9900CCCC00CCFF00FF0000FF3300FF6600FF9900FFCC00FFFF3300003300333300663300993300CC3300FF3333003333333333663333993333CC3333FF3366003366333366663366993366CC3366FF3399003399333399663399993399CC3399FF33CC00
310
33CC3333CC6633CC9933CCCC33CCFF33FF0033FF3333FF6633FF9933FFCC33FFFF6600006600336600666600996600CC6600FF6633006633336633666633996633CC6633FF6666006666336666666666996666CC6666FF6699006699336699666699996699CC6699FF66CC0066CC3366CC6666CC9966CCCC66CCFF66FF0066
310
FF3366FF6666FF9966FFCC66FFFF9900009900339900669900999900CC9900FF9933009933339933669933999933CC9933FF9966009966339966669966999966CC9966FF9999009999339999669999999999CC9999FF99CC0099CC3399CC6699CC9999CCCC99CCFF99FF0099FF3399FF6699FF9999FFCC99FFFFCC0000CC00
310
33CC0066CC0099CC00CCCC00FFCC3300CC3333CC3366CC3399CC33CCCC33FFCC6600CC6633CC6666CC6699CC66CCCC66FFCC9900CC9933CC9966CC9999CC99CCCC99FFCCCC00CCCC33CCCC66CCCC99CCCCCCCCCCFFCCFF00CCFF33CCFF66CCFF99CCFFCCCCFFFFFF0000FF0033FF0066FF0099FF00CCFF00FFFF3300FF3333
310
FF3366FF3399FF33CCFF33FFFF6600FF6633FF6666FF6699FF66CCFF66FFFF9900FF9933FF9966FF9999FF99CCFF99FFFFCC00FFCC33FFCC66FFCC99FFCCCCFFCCFFFFFF00FFFF33FFFF66FFFF99FFFFCCFFFFFF0000000D0D0D1A1A1A2828283535354343435050505D5D5D6B6B6B787878868686939393A1A1A1AEAEAEBB
310
BBBBC9C9C9D6D6D6E4E4E4F1F1F1FFFFFF0000000000000000000000000000000000000000000000000000000000007C77BAA7000000B44944415478DAEDD0310100000C0220FBB7B48931760C22903E1701020408102040800001020408102040800001020408102040800001020408102040800001020408102040800001
310
020408102040800001020408102040800001020408102040800001020408102040800001020408102040800001020408102040800001020408102040800001020408102040800001020408102040800001020408102040800001020408102040800001020408102040C099016B33700943E05F3C0000000049454E44AE4260
310
82
  0
ENDSEC
  0
EOF
