  0
SECTION
  2
HEADER
  9
$ACADVER
  1
AC1027
  9
$ACADMAINTVER
 70
    55
  9
$DWGCODEPAGE
  3
ANSI_1252
  9
$AUTHOR
  1
WAEngineering1
  9
$LASTSAVEDBY
  1
WAMarketing2
  9
$REQUIREDVERSIONS
160
                 0
  9
$INSBASE
 10
0.0
 20
0.0
 30
0.0
  9
$EXTMIN
 10
1196.31
 20
-2089.609
 30
0.0
  9
$EXTMAX
 10
4906.111
 20
1620.192
 30
0.0
  9
$LIMMIN
 10
-7441.691276
 20
-10727.610276
  9
$LIMMAX
 10
13544.112276
 20
10258.193276
  9
$ORTHOMODE
 70
     0
  9
$REGENMODE
 70
     1
  9
$FILLMODE
 70
     1
  9
$QTEXTMODE
 70
     0
  9
$MIRRTEXT
 70
     0
  9
$LTSCALE
 40
1.0
  9
$ATTMODE
 70
     1
  9
$TEXTSIZE
 40
100.0
  9
$TRACEWID
 40
0.05
  9
$TEXTSTYLE
  7
Standard
  9
$CLAYER
  8
Level 8
  9
$CELTYPE
  6
Continuous
  9
$CECOLOR
 62
    98
  9
$CELTSCALE
 40
1.0
  9
$DISPSILH
 70
     0
  9
$DIMSCALE
 40
1.0
  9
$DIMASZ
 40
0.18
  9
$DIMEXO
 40
0.0625
  9
$DIMDLI
 40
0.38
  9
$DIMRND
 40
0.0
  9
$DIMDLE
 40
0.0
  9
$DIMEXE
 40
0.18
  9
$DIMTP
 40
0.0
  9
$DIMTM
 40
0.0
  9
$DIMTXT
 40
0.18
  9
$DIMCEN
 40
0.09
  9
$DIMTSZ
 40
0.0
  9
$DIMTOL
 70
     0
  9
$DIMLIM
 70
     0
  9
$DIMTIH
 70
     1
  9
$DIMTOH
 70
     1
  9
$DIMSE1
 70
     0
  9
$DIMSE2
 70
     0
  9
$DIMTAD
 70
     0
  9
$DIMZIN
 70
     0
  9
$DIMBLK
  1

  9
$DIMASO
 70
     1
  9
$DIMSHO
 70
     1
  9
$DIMPOST
  1

  9
$DIMAPOST
  1

  9
$DIMALT
 70
     0
  9
$DIMALTD
 70
     2
  9
$DIMALTF
 40
25.4
  9
$DIMLFAC
 40
1.0
  9
$DIMTOFL
 70
     0
  9
$DIMTVP
 40
0.0
  9
$DIMTIX
 70
     0
  9
$DIMSOXD
 70
     0
  9
$DIMSAH
 70
     0
  9
$DIMBLK1
  1

  9
$DIMBLK2
  1

  9
$DIMSTYLE
  2
Standard
  9
$DIMCLRD
 70
     0
  9
$DIMCLRE
 70
     0
  9
$DIMCLRT
 70
     0
  9
$DIMTFAC
 40
1.0
  9
$DIMGAP
 40
0.09
  9
$DIMJUST
 70
     0
  9
$DIMSD1
 70
     0
  9
$DIMSD2
 70
     0
  9
$DIMTOLJ
 70
     1
  9
$DIMTZIN
 70
     0
  9
$DIMALTZ
 70
     0
  9
$DIMALTTZ
 70
     0
  9
$DIMUPT
 70
     0
  9
$DIMDEC
 70
     4
  9
$DIMTDEC
 70
     4
  9
$DIMALTU
 70
     2
  9
$DIMALTTD
 70
     2
  9
$DIMTXSTY
  7
Standard
  9
$DIMAUNIT
 70
     0
  9
$DIMADEC
 70
     0
  9
$DIMALTRND
 40
0.0
  9
$DIMAZIN
 70
     0
  9
$DIMDSEP
 70
    46
  9
$DIMATFIT
 70
     3
  9
$DIMFRAC
 70
     0
  9
$DIMLDRBLK
  1

  9
$DIMLUNIT
 70
     2
  9
$DIMLWD
 70
    -2
  9
$DIMLWE
 70
    -2
  9
$DIMTMOVE
 70
     0
  9
$DIMFXL
 40
1.0
  9
$DIMFXLON
 70
     0
  9
$DIMJOGANG
 40
0.785398
  9
$DIMTFILL
 70
     0
  9
$DIMTFILLCLR
 70
     0
  9
$DIMARCSYM
 70
     0
  9
$DIMLTYPE
  6

  9
$DIMLTEX1
  6

  9
$DIMLTEX2
  6

  9
$DIMTXTDIRECTION
 70
     0
  9
$LUNITS
 70
     2
  9
$LUPREC
 70
     0
  9
$SKETCHINC
 40
0.1
  9
$FILLETRAD
 40
0.0
  9
$AUNITS
 70
     0
  9
$AUPREC
 70
     0
  9
$MENU
  1
.
  9
$ELEVATION
 40
0.0
  9
$PELEVATION
 40
0.0
  9
$THICKNESS
 40
0.0
  9
$LIMCHECK
 70
     0
  9
$CHAMFERA
 40
0.0
  9
$CHAMFERB
 40
0.0
  9
$CHAMFERC
 40
0.0
  9
$CHAMFERD
 40
0.0
  9
$SKPOLY
 70
     0
  9
$TDCREATE
 40
2454145.111357350
  9
$TDUCREATE
 40
2454144.778024017
  9
$TDUPDATE
 40
2455657.145108565
  9
$TDUUPDATE
 40
2455656.811775231
  9
$TDINDWG
 40
0.0262176852
  9
$TDUSRTIMER
 40
0.0262175000
  9
$USRTIMER
 70
     1
  9
$ANGBASE
 50
0.0
  9
$ANGDIR
 70
     0
  9
$PDMODE
 70
     0
  9
$PDSIZE
 40
0.0
  9
$PLINEWID
 40
0.0
  9
$SPLFRAME
 70
     0
  9
$SPLINETYPE
 70
     6
  9
$SPLINESEGS
 70
     8
  9
$HANDSEED
  5
703EE
  9
$SURFTAB1
 70
     6
  9
$SURFTAB2
 70
     6
  9
$SURFTYPE
 70
     6
  9
$SURFU
 70
     6
  9
$SURFV
 70
     6
  9
$UCSBASE
  2

  9
$UCSNAME
  2

  9
$UCSORG
 10
0.0
 20
0.0
 30
0.0
  9
$UCSXDIR
 10
1.0
 20
0.0
 30
0.0
  9
$UCSYDIR
 10
0.0
 20
1.0
 30
0.0
  9
$UCSORTHOREF
  2

  9
$UCSORTHOVIEW
 70
     0
  9
$UCSORGTOP
 10
0.0
 20
0.0
 30
0.0
  9
$UCSORGBOTTOM
 10
0.0
 20
0.0
 30
0.0
  9
$UCSORGLEFT
 10
0.0
 20
0.0
 30
0.0
  9
$UCSORGRIGHT
 10
0.0
 20
0.0
 30
0.0
  9
$UCSORGFRONT
 10
0.0
 20
0.0
 30
0.0
  9
$UCSORGBACK
 10
0.0
 20
0.0
 30
0.0
  9
$PUCSBASE
  2

  9
$PUCSNAME
  2

  9
$PUCSORG
 10
0.0
 20
0.0
 30
0.0
  9
$PUCSXDIR
 10
1.0
 20
0.0
 30
0.0
  9
$PUCSYDIR
 10
0.0
 20
1.0
 30
0.0
  9
$PUCSORTHOREF
  2

  9
$PUCSORTHOVIEW
 70
     0
  9
$PUCSORGTOP
 10
0.0
 20
0.0
 30
0.0
  9
$PUCSORGBOTTOM
 10
0.0
 20
0.0
 30
0.0
  9
$PUCSORGLEFT
 10
0.0
 20
0.0
 30
0.0
  9
$PUCSORGRIGHT
 10
0.0
 20
0.0
 30
0.0
  9
$PUCSORGFRONT
 10
0.0
 20
0.0
 30
0.0
  9
$PUCSORGBACK
 10
0.0
 20
0.0
 30
0.0
  9
$USERI1
 70
     0
  9
$USERI2
 70
     0
  9
$USERI3
 70
     0
  9
$USERI4
 70
     0
  9
$USERI5
 70
     0
  9
$USERR1
 40
0.0
  9
$USERR2
 40
0.0
  9
$USERR3
 40
0.0
  9
$USERR4
 40
0.0
  9
$USERR5
 40
0.0
  9
$WORLDVIEW
 70
     1
  9
$SHADEDGE
 70
     3
  9
$SHADEDIF
 70
    70
  9
$TILEMODE
 70
     1
  9
$MAXACTVP
 70
    64
  9
$PINSBASE
 10
0.0
 20
0.0
 30
0.0
  9
$PLIMCHECK
 70
     0
  9
$PEXTMIN
 10
1.05
 20
0.8
 30
0.0
  9
$PEXTMAX
 10
9.45
 20
7.2
 30
0.0
  9
$PLIMMIN
 10
-0.25
 20
-0.25
  9
$PLIMMAX
 10
10.75
 20
8.25
  9
$UNITMODE
 70
     0
  9
$VISRETAIN
 70
     1
  9
$PLINEGEN
 70
     0
  9
$PSLTSCALE
 70
     0
  9
$TREEDEPTH
 70
  3020
  9
$CMLSTYLE
  2
Standard
  9
$CMLJUST
 70
     0
  9
$CMLSCALE
 40
1.0
  9
$PROXYGRAPHICS
 70
     1
  9
$MEASUREMENT
 70
     0
  9
$CELWEIGHT
370
     0
  9
$ENDCAPS
280
     0
  9
$JOINSTYLE
280
     0
  9
$LWDISPLAY
290
     1
  9
$INSUNITS
 70
     4
  9
$HYPERLINKBASE
  1

  9
$STYLESHEET
  1

  9
$XEDIT
290
     1
  9
$CEPSNTYPE
380
     0
  9
$PSTYLEMODE
290
     1
  9
$FINGERPRINTGUID
  2
{AA3D0CAF-D170-49A0-AC57-73F68A61417F}
  9
$VERSIONGUID
  2
{5066CCA6-5121-4C7B-A04C-375F92FA871B}
  9
$EXTNAMES
290
     1
  9
$PSVPSCALE
 40
0.0
  9
$OLESTARTUP
290
     0
  9
$SORTENTS
280
   127
  9
$INDEXCTL
280
     0
  9
$HIDETEXT
280
     1
  9
$XCLIPFRAME
280
     0
  9
$HALOGAP
280
     0
  9
$OBSCOLOR
 70
   257
  9
$OBSLTYPE
280
     0
  9
$INTERSECTIONDISPLAY
280
     0
  9
$INTERSECTIONCOLOR
 70
   257
  9
$DIMASSOC
280
     1
  9
$PROJECTNAME
  1

  9
$CAMERADISPLAY
290
     0
  9
$LENSLENGTH
 40
50.0
  9
$CAMERAHEIGHT
 40
0.0
  9
$STEPSPERSEC
 40
2.0
  9
$STEPSIZE
 40
6.0
  9
$3DDWFPREC
 40
2.0
  9
$PSOLWIDTH
 40
0.25
  9
$PSOLHEIGHT
 40
4.0
  9
$LOFTANG1
 40
1.570796
  9
$LOFTANG2
 40
1.570796
  9
$LOFTMAG1
 40
0.0
  9
$LOFTMAG2
 40
0.0
  9
$LOFTPARAM
 70
     7
  9
$LOFTNORMALS
280
     1
  9
$LATITUDE
 40
37.795
  9
$LONGITUDE
 40
-122.394
  9
$NORTHDIRECTION
 40
0.0
  9
$TIMEZONE
 70
 -8000
  9
$LIGHTGLYPHDISPLAY
280
     1
  9
$TILEMODELIGHTSYNCH
280
     1
  9
$CMATERIAL
347
702B1
  9
$SOLIDHIST
280
     1
  9
$SHOWHIST
280
     1
  9
$DWFFRAME
280
     2
  9
$DGNFRAME
280
     0
  9
$REALWORLDSCALE
290
     1
  9
$INTERFERECOLOR
 62
     1
  9
$INTERFEREOBJVS
345
702C8
  9
$INTERFEREVPVS
346
702C9
  9
$CSHADOW
280
     0
  9
$SHADOWPLANELOCATION
 40
0.0
  0
ENDSEC
  0
SECTION
  2
CLASSES
  0
CLASS
  1
ACDBDICTIONARYWDFLT
  2
AcDbDictionaryWithDefault
  3
ObjectDBX Classes
 90
        0
 91
        1
280
     0
281
     0
  0
CLASS
  1
DICTIONARYVAR
  2
AcDbDictionaryVar
  3
ObjectDBX Classes
 90
        0
 91
        8
280
     0
281
     0
  0
CLASS
  1
TABLESTYLE
  2
AcDbTableStyle
  3
ObjectDBX Classes
 90
     4095
 91
        1
280
     0
281
     0
  0
CLASS
  1
MATERIAL
  2
AcDbMaterial
  3
ObjectDBX Classes
 90
     1153
 91
        3
280
     0
281
     0
  0
CLASS
  1
VISUALSTYLE
  2
AcDbVisualStyle
  3
ObjectDBX Classes
 90
     4095
 91
        3
280
     0
281
     0
  0
CLASS
  1
SCALE
  2
AcDbScale
  3
ObjectDBX Classes
 90
     1153
 91
       33
280
     0
281
     0
  0
CLASS
  1
MLEADERSTYLE
  2
AcDbMLeaderStyle
  3
ACDB_MLEADERSTYLE_CLASS
 90
     4095
 91
        0
280
     0
281
     0
  0
CLASS
  1
EXACXREFPANELOBJECT
  2
ExAcXREFPanelObject
  3
EXAC_ESW
 90
     1025
 91
        0
280
     1
281
     0
  0
CLASS
  1
NPOCOLLECTION
  2
AcDbImpNonPersistentObjectsCollection
  3
ObjectDBX Classes
 90
     1153
 91
        0
280
     0
281
     0
  0
CLASS
  1
CELLSTYLEMAP
  2
AcDbCellStyleMap
  3
ObjectDBX Classes
 90
     1152
 91
        1
280
     0
281
     0
  0
CLASS
  1
ACDBSECTIONVIEWSTYLE
  2
AcDbSectionViewStyle
  3
ObjectDBX Classes
 90
     1025
 91
        0
280
     0
281
     0
  0
CLASS
  1
ACDBDETAILVIEWSTYLE
  2
AcDbDetailViewStyle
  3
ObjectDBX Classes
 90
     1025
 91
        0
280
     0
281
     0
  0
CLASS
  1
SORTENTSTABLE
  2
AcDbSortentsTable
  3
ObjectDBX Classes
 90
        0
 91
        1
280
     0
281
     0
  0
ENDSEC
  0
SECTION
  2
TABLES
  0
TABLE
  2
VPORT
  5
702A5
330
0
100
AcDbSymbolTable
 70
     2
  0
VPORT
  5
4B
330
702A5
100
AcDbSymbolTableRecord
100
AcDbViewportTableRecord
  2
*ACTIVE
 70
     0
 10
0.0
 20
0.0
 11
1.0
 21
1.0
 12
3051.2105
 22
-234.7085
 13
0.0
 23
0.0
 14
1.0
 24
1.0
 15
1.0
 25
1.0
 16
0.0
 26
0.0
 36
1.0
 17
0.0
 27
0.0
 37
0.0
 40
3858.19304
 41
2.090493
 42
50.0
 43
0.0
 44
0.0
 50
0.0
 51
0.0
 71
     0
 72
   100
 73
     1
 74
     0
 75
     0
 76
     0
 77
     0
 78
     1
281
     0
 65
     1
110
0.0
120
0.0
130
0.0
111
1.0
121
0.0
131
0.0
112
0.0
122
1.0
132
0.0
 79
     0
146
0.0
 60
     3
 61
    10
292
     0
282
     1
141
0.0
142
0.0
 63
     7
421
 16777215
  0
ENDTAB
  0
TABLE
  2
LTYPE
  5
702A0
330
0
100
AcDbSymbolTable
 70
     2
  0
LTYPE
  5
702A1
330
702A0
100
AcDbSymbolTableRecord
100
AcDbLinetypeTableRecord
  2
ByBlock
 70
     0
  3

 72
    65
 73
     0
 40
0.0
  0
LTYPE
  5
702A2
330
702A0
100
AcDbSymbolTableRecord
100
AcDbLinetypeTableRecord
  2
ByLayer
 70
     0
  3

 72
    65
 73
     0
 40
0.0
  0
LTYPE
  5
7028D
330
702A0
100
AcDbSymbolTableRecord
100
AcDbLinetypeTableRecord
  2
Continuous
 70
     0
  3
Solid line
 72
    65
 73
     0
 40
0.0
  0
LTYPE
  5
703E1
330
702A0
100
AcDbSymbolTableRecord
100
AcDbLinetypeTableRecord
  2
DGN Style 2
 70
     0
  3
Dgn Style 2
 72
    65
 73
     2
 40
80.655238
 49
48.393143
 74
     0
 49
-32.262095
 74
     0
  0
ENDTAB
  0
TABLE
  2
LAYER
  5
7029A
102
{ACAD_XDICTIONARY
360
7029B
102
}
330
0
100
AcDbSymbolTable
 70
    65
  0
LAYER
  5
7027E
102
{ACAD_XDICTIONARY
360
7027F
102
}
330
7029A
100
AcDbSymbolTableRecord
100
AcDbLayerTableRecord
  2
0
 70
     0
 62
     7
  6
Continuous
370
    -3
390
70281
347
70284
348
0
1001
AcCmTransparency
1071
 33554687
  0
LAYER
  5
7
330
7029A
100
AcDbSymbolTableRecord
100
AcDbLayerTableRecord
  2
Level 1
 70
     0
 62
     7
  6
Continuous
370
     0
390
70281
347
70284
348
0
1001
AcCmTransparency
1071
 33554687
  0
LAYER
  5
8
330
7029A
100
AcDbSymbolTableRecord
100
AcDbLayerTableRecord
  2
Level 2
 70
     0
 62
     7
  6
Continuous
370
     0
390
70281
347
70284
348
0
1001
AcCmTransparency
1071
 33554687
  0
LAYER
  5
9
330
7029A
100
AcDbSymbolTableRecord
100
AcDbLayerTableRecord
  2
Level 3
 70
     0
 62
     7
  6
Continuous
370
     0
390
70281
347
70284
348
0
1001
AcCmTransparency
1071
 33554687
  0
LAYER
  5
A
330
7029A
100
AcDbSymbolTableRecord
100
AcDbLayerTableRecord
  2
Level 4
 70
     0
 62
     7
  6
Continuous
370
     0
390
70281
347
70284
348
0
1001
AcCmTransparency
1071
 33554687
  0
LAYER
  5
B
330
7029A
100
AcDbSymbolTableRecord
100
AcDbLayerTableRecord
  2
Level 5
 70
     0
 62
     7
  6
Continuous
370
     0
390
70281
347
70284
348
0
1001
AcCmTransparency
1071
 33554687
  0
LAYER
  5
C
330
7029A
100
AcDbSymbolTableRecord
100
AcDbLayerTableRecord
  2
Level 6
 70
     0
 62
     7
  6
Continuous
370
     0
390
70281
347
70284
348
0
1001
AcCmTransparency
1071
 33554687
  0
LAYER
  5
D
330
7029A
100
AcDbSymbolTableRecord
100
AcDbLayerTableRecord
  2
Level 7
 70
     0
 62
     7
  6
Continuous
370
     0
390
70281
347
70284
348
0
1001
AcCmTransparency
1071
 33554687
  0
LAYER
  5
E
330
7029A
100
AcDbSymbolTableRecord
100
AcDbLayerTableRecord
  2
Level 8
 70
     0
 62
     7
  6
Continuous
370
     0
390
70281
347
70284
348
0
1001
AcCmTransparency
1071
 33554687
  0
LAYER
  5
F
330
7029A
100
AcDbSymbolTableRecord
100
AcDbLayerTableRecord
  2
Level 9
 70
     0
 62
     7
  6
Continuous
370
     0
390
70281
347
70284
348
0
1001
AcCmTransparency
1071
 33554687
  0
LAYER
  5
10
330
7029A
100
AcDbSymbolTableRecord
100
AcDbLayerTableRecord
  2
Level 10
 70
     0
 62
     7
  6
Continuous
370
     0
390
70281
347
70284
348
0
1001
AcCmTransparency
1071
 33554687
  0
LAYER
  5
11
330
7029A
100
AcDbSymbolTableRecord
100
AcDbLayerTableRecord
  2
Level 11
 70
     0
 62
     7
  6
Continuous
370
     0
390
70281
347
70284
348
0
1001
AcCmTransparency
1071
 33554687
  0
LAYER
  5
12
330
7029A
100
AcDbSymbolTableRecord
100
AcDbLayerTableRecord
  2
Level 12
 70
     0
 62
     7
  6
Continuous
370
     0
390
70281
347
70284
348
0
1001
AcCmTransparency
1071
 33554687
  0
LAYER
  5
13
330
7029A
100
AcDbSymbolTableRecord
100
AcDbLayerTableRecord
  2
Level 13
 70
     0
 62
     7
  6
Continuous
370
     0
390
70281
347
70284
348
0
1001
AcCmTransparency
1071
 33554687
  0
LAYER
  5
14
330
7029A
100
AcDbSymbolTableRecord
100
AcDbLayerTableRecord
  2
Level 14
 70
     0
 62
     7
  6
Continuous
370
     0
390
70281
347
70284
348
0
1001
AcCmTransparency
1071
 33554687
  0
LAYER
  5
15
330
7029A
100
AcDbSymbolTableRecord
100
AcDbLayerTableRecord
  2
Level 15
 70
     0
 62
     7
  6
Continuous
370
     0
390
70281
347
70284
348
0
1001
AcCmTransparency
1071
 33554687
  0
LAYER
  5
16
330
7029A
100
AcDbSymbolTableRecord
100
AcDbLayerTableRecord
  2
Level 16
 70
     0
 62
     7
  6
Continuous
370
     0
390
70281
347
70284
348
0
1001
AcCmTransparency
1071
 33554687
  0
LAYER
  5
17
330
7029A
100
AcDbSymbolTableRecord
100
AcDbLayerTableRecord
  2
Level 17
 70
     0
 62
     7
  6
Continuous
370
     0
390
70281
347
70284
348
0
1001
AcCmTransparency
1071
 33554687
  0
LAYER
  5
18
330
7029A
100
AcDbSymbolTableRecord
100
AcDbLayerTableRecord
  2
Level 18
 70
     0
 62
     7
  6
Continuous
370
     0
390
70281
347
70284
348
0
1001
AcCmTransparency
1071
 33554687
  0
LAYER
  5
19
330
7029A
100
AcDbSymbolTableRecord
100
AcDbLayerTableRecord
  2
Level 19
 70
     0
 62
     7
  6
Continuous
370
     0
390
70281
347
70284
348
0
1001
AcCmTransparency
1071
 33554687
  0
LAYER
  5
1A
330
7029A
100
AcDbSymbolTableRecord
100
AcDbLayerTableRecord
  2
Level 20
 70
     0
 62
     7
  6
Continuous
370
     0
390
70281
347
70284
348
0
1001
AcCmTransparency
1071
 33554687
  0
LAYER
  5
1B
330
7029A
100
AcDbSymbolTableRecord
100
AcDbLayerTableRecord
  2
Level 21
 70
     0
 62
     7
  6
Continuous
370
     0
390
70281
347
70284
348
0
1001
AcCmTransparency
1071
 33554687
  0
LAYER
  5
1C
330
7029A
100
AcDbSymbolTableRecord
100
AcDbLayerTableRecord
  2
Level 22
 70
     0
 62
     7
  6
Continuous
370
     0
390
70281
347
70284
348
0
1001
AcCmTransparency
1071
 33554687
  0
LAYER
  5
1D
330
7029A
100
AcDbSymbolTableRecord
100
AcDbLayerTableRecord
  2
Level 23
 70
     0
 62
     7
  6
Continuous
370
     0
390
70281
347
70284
348
0
1001
AcCmTransparency
1071
 33554687
  0
LAYER
  5
1E
330
7029A
100
AcDbSymbolTableRecord
100
AcDbLayerTableRecord
  2
Level 24
 70
     0
 62
     7
  6
Continuous
370
     0
390
70281
347
70284
348
0
1001
AcCmTransparency
1071
 33554687
  0
LAYER
  5
1F
330
7029A
100
AcDbSymbolTableRecord
100
AcDbLayerTableRecord
  2
Level 25
 70
     0
 62
     7
  6
Continuous
370
     0
390
70281
347
70284
348
0
1001
AcCmTransparency
1071
 33554687
  0
LAYER
  5
20
330
7029A
100
AcDbSymbolTableRecord
100
AcDbLayerTableRecord
  2
Level 26
 70
     0
 62
     7
  6
Continuous
370
     0
390
70281
347
70284
348
0
1001
AcCmTransparency
1071
 33554687
  0
LAYER
  5
21
330
7029A
100
AcDbSymbolTableRecord
100
AcDbLayerTableRecord
  2
Level 27
 70
     0
 62
     7
  6
Continuous
370
     0
390
70281
347
70284
348
0
1001
AcCmTransparency
1071
 33554687
  0
LAYER
  5
22
330
7029A
100
AcDbSymbolTableRecord
100
AcDbLayerTableRecord
  2
Level 28
 70
     0
 62
     7
  6
Continuous
370
     0
390
70281
347
70284
348
0
1001
AcCmTransparency
1071
 33554687
  0
LAYER
  5
23
330
7029A
100
AcDbSymbolTableRecord
100
AcDbLayerTableRecord
  2
Level 29
 70
     0
 62
     7
  6
Continuous
370
     0
390
70281
347
70284
348
0
1001
AcCmTransparency
1071
 33554687
  0
LAYER
  5
24
330
7029A
100
AcDbSymbolTableRecord
100
AcDbLayerTableRecord
  2
Level 30
 70
     0
 62
     7
  6
Continuous
370
     0
390
70281
347
70284
348
0
1001
AcCmTransparency
1071
 33554687
  0
LAYER
  5
25
330
7029A
100
AcDbSymbolTableRecord
100
AcDbLayerTableRecord
  2
Level 31
 70
     0
 62
     7
  6
Continuous
370
     0
390
70281
347
70284
348
0
1001
AcCmTransparency
1071
 33554687
  0
LAYER
  5
26
330
7029A
100
AcDbSymbolTableRecord
100
AcDbLayerTableRecord
  2
Level 32
 70
     0
 62
     7
  6
Continuous
370
     0
390
70281
347
70284
348
0
1001
AcCmTransparency
1071
 33554687
  0
LAYER
  5
27
330
7029A
100
AcDbSymbolTableRecord
100
AcDbLayerTableRecord
  2
Level 33
 70
     0
 62
     7
  6
Continuous
370
     0
390
70281
347
70284
348
0
1001
AcCmTransparency
1071
 33554687
  0
LAYER
  5
28
330
7029A
100
AcDbSymbolTableRecord
100
AcDbLayerTableRecord
  2
Level 34
 70
     0
 62
     7
  6
Continuous
370
     0
390
70281
347
70284
348
0
1001
AcCmTransparency
1071
 33554687
  0
LAYER
  5
29
330
7029A
100
AcDbSymbolTableRecord
100
AcDbLayerTableRecord
  2
Level 35
 70
     0
 62
     7
  6
Continuous
370
     0
390
70281
347
70284
348
0
1001
AcCmTransparency
1071
 33554687
  0
LAYER
  5
2A
330
7029A
100
AcDbSymbolTableRecord
100
AcDbLayerTableRecord
  2
Level 36
 70
     0
 62
     7
  6
Continuous
370
     0
390
70281
347
70284
348
0
1001
AcCmTransparency
1071
 33554687
  0
LAYER
  5
2B
330
7029A
100
AcDbSymbolTableRecord
100
AcDbLayerTableRecord
  2
Level 37
 70
     0
 62
     7
  6
Continuous
370
     0
390
70281
347
70284
348
0
1001
AcCmTransparency
1071
 33554687
  0
LAYER
  5
2C
330
7029A
100
AcDbSymbolTableRecord
100
AcDbLayerTableRecord
  2
Level 38
 70
     0
 62
     7
  6
Continuous
370
     0
390
70281
347
70284
348
0
1001
AcCmTransparency
1071
 33554687
  0
LAYER
  5
2D
330
7029A
100
AcDbSymbolTableRecord
100
AcDbLayerTableRecord
  2
Level 39
 70
     0
 62
     7
  6
Continuous
370
     0
390
70281
347
70284
348
0
1001
AcCmTransparency
1071
 33554687
  0
LAYER
  5
2E
330
7029A
100
AcDbSymbolTableRecord
100
AcDbLayerTableRecord
  2
Level 40
 70
     0
 62
     7
  6
Continuous
370
     0
390
70281
347
70284
348
0
1001
AcCmTransparency
1071
 33554687
  0
LAYER
  5
2F
330
7029A
100
AcDbSymbolTableRecord
100
AcDbLayerTableRecord
  2
Level 41
 70
     0
 62
     7
  6
Continuous
370
     0
390
70281
347
70284
348
0
1001
AcCmTransparency
1071
 33554687
  0
LAYER
  5
30
330
7029A
100
AcDbSymbolTableRecord
100
AcDbLayerTableRecord
  2
Level 42
 70
     0
 62
     7
  6
Continuous
370
     0
390
70281
347
70284
348
0
1001
AcCmTransparency
1071
 33554687
  0
LAYER
  5
31
330
7029A
100
AcDbSymbolTableRecord
100
AcDbLayerTableRecord
  2
Level 43
 70
     0
 62
     7
  6
Continuous
370
     0
390
70281
347
70284
348
0
1001
AcCmTransparency
1071
 33554687
  0
LAYER
  5
32
330
7029A
100
AcDbSymbolTableRecord
100
AcDbLayerTableRecord
  2
Level 44
 70
     0
 62
     7
  6
Continuous
370
     0
390
70281
347
70284
348
0
1001
AcCmTransparency
1071
 33554687
  0
LAYER
  5
33
330
7029A
100
AcDbSymbolTableRecord
100
AcDbLayerTableRecord
  2
Level 45
 70
     0
 62
     7
  6
Continuous
370
     0
390
70281
347
70284
348
0
1001
AcCmTransparency
1071
 33554687
  0
LAYER
  5
34
330
7029A
100
AcDbSymbolTableRecord
100
AcDbLayerTableRecord
  2
Level 46
 70
     0
 62
     7
  6
Continuous
370
     0
390
70281
347
70284
348
0
1001
AcCmTransparency
1071
 33554687
  0
LAYER
  5
35
330
7029A
100
AcDbSymbolTableRecord
100
AcDbLayerTableRecord
  2
Level 47
 70
     0
 62
     7
  6
Continuous
370
     0
390
70281
347
70284
348
0
1001
AcCmTransparency
1071
 33554687
  0
LAYER
  5
36
330
7029A
100
AcDbSymbolTableRecord
100
AcDbLayerTableRecord
  2
Level 48
 70
     0
 62
     7
  6
Continuous
370
     0
390
70281
347
70284
348
0
1001
AcCmTransparency
1071
 33554687
  0
LAYER
  5
37
330
7029A
100
AcDbSymbolTableRecord
100
AcDbLayerTableRecord
  2
Level 49
 70
     0
 62
     7
  6
Continuous
370
     0
390
70281
347
70284
348
0
1001
AcCmTransparency
1071
 33554687
  0
LAYER
  5
38
330
7029A
100
AcDbSymbolTableRecord
100
AcDbLayerTableRecord
  2
Level 50
 70
     0
 62
     7
  6
Continuous
370
     0
390
70281
347
70284
348
0
1001
AcCmTransparency
1071
 33554687
  0
LAYER
  5
39
330
7029A
100
AcDbSymbolTableRecord
100
AcDbLayerTableRecord
  2
Level 51
 70
     0
 62
     7
  6
Continuous
370
     0
390
70281
347
70284
348
0
1001
AcCmTransparency
1071
 33554687
  0
LAYER
  5
3A
330
7029A
100
AcDbSymbolTableRecord
100
AcDbLayerTableRecord
  2
Level 52
 70
     0
 62
     7
  6
Continuous
370
     0
390
70281
347
70284
348
0
1001
AcCmTransparency
1071
 33554687
  0
LAYER
  5
3B
330
7029A
100
AcDbSymbolTableRecord
100
AcDbLayerTableRecord
  2
Level 53
 70
     0
 62
     7
  6
Continuous
370
     0
390
70281
347
70284
348
0
1001
AcCmTransparency
1071
 33554687
  0
LAYER
  5
3C
330
7029A
100
AcDbSymbolTableRecord
100
AcDbLayerTableRecord
  2
Level 54
 70
     0
 62
     7
  6
Continuous
370
     0
390
70281
347
70284
348
0
1001
AcCmTransparency
1071
 33554687
  0
LAYER
  5
3D
330
7029A
100
AcDbSymbolTableRecord
100
AcDbLayerTableRecord
  2
Level 55
 70
     0
 62
     7
  6
Continuous
370
     0
390
70281
347
70284
348
0
1001
AcCmTransparency
1071
 33554687
  0
LAYER
  5
3E
330
7029A
100
AcDbSymbolTableRecord
100
AcDbLayerTableRecord
  2
Level 56
 70
     0
 62
     7
  6
Continuous
370
     0
390
70281
347
70284
348
0
1001
AcCmTransparency
1071
 33554687
  0
LAYER
  5
3F
330
7029A
100
AcDbSymbolTableRecord
100
AcDbLayerTableRecord
  2
Level 57
 70
     0
 62
     7
  6
Continuous
370
     0
390
70281
347
70284
348
0
1001
AcCmTransparency
1071
 33554687
  0
LAYER
  5
40
330
7029A
100
AcDbSymbolTableRecord
100
AcDbLayerTableRecord
  2
Level 58
 70
     0
 62
     7
  6
Continuous
370
     0
390
70281
347
70284
348
0
1001
AcCmTransparency
1071
 33554687
  0
LAYER
  5
41
330
7029A
100
AcDbSymbolTableRecord
100
AcDbLayerTableRecord
  2
Level 59
 70
     0
 62
     7
  6
Continuous
370
     0
390
70281
347
70284
348
0
1001
AcCmTransparency
1071
 33554687
  0
LAYER
  5
42
330
7029A
100
AcDbSymbolTableRecord
100
AcDbLayerTableRecord
  2
Level 60
 70
     0
 62
     7
  6
Continuous
370
     0
390
70281
347
70284
348
0
1001
AcCmTransparency
1071
 33554687
  0
LAYER
  5
43
330
7029A
100
AcDbSymbolTableRecord
100
AcDbLayerTableRecord
  2
Level 61
 70
     0
 62
     7
  6
Continuous
370
     0
390
70281
347
70284
348
0
1001
AcCmTransparency
1071
 33554687
  0
LAYER
  5
44
330
7029A
100
AcDbSymbolTableRecord
100
AcDbLayerTableRecord
  2
Level 62
 70
     0
 62
     7
  6
Continuous
370
     0
390
70281
347
70284
348
0
1001
AcCmTransparency
1071
 33554687
  0
LAYER
  5
45
330
7029A
100
AcDbSymbolTableRecord
100
AcDbLayerTableRecord
  2
Level 63
 70
     0
 62
     7
  6
Continuous
370
     0
390
70281
347
70284
348
0
1001
AcCmTransparency
1071
 33554687
  0
LAYER
  5
50CA0
330
7029A
100
AcDbSymbolTableRecord
100
AcDbLayerTableRecord
  2
25
 70
     0
 62
     7
  6
Continuous
370
     0
390
70281
347
70284
348
0
1001
AcCmTransparency
1071
 33554687
  0
ENDTAB
  0
TABLE
  2
STYLE
  5
7029D
330
0
100
AcDbSymbolTable
 70
     1
  0
STYLE
  5
7029E
330
7029D
100
AcDbSymbolTableRecord
100
AcDbTextStyleTableRecord
  2
Standard
 70
     0
 40
0.0
 41
1.0
 50
0.0
 71
     0
 42
100.0
  3
txt
  4

  0
ENDTAB
  0
TABLE
  2
VIEW
  5
702A3
330
0
100
AcDbSymbolTable
 70
     0
  0
ENDTAB
  0
TABLE
  2
UCS
  5
702A4
330
0
100
AcDbSymbolTable
 70
     0
  0
ENDTAB
  0
TABLE
  2
APPID
  5
702A9
330
0
100
AcDbSymbolTable
 70
     3
  0
APPID
  5
702AA
330
702A9
100
AcDbSymbolTableRecord
100
AcDbRegAppTableRecord
  2
ACAD
 70
     0
  0
APPID
  5
70299
330
702A9
100
AcDbSymbolTableRecord
100
AcDbRegAppTableRecord
  2
ACAD_PSEXT
 70
     0
  0
APPID
  5
702ED
330
702A9
100
AcDbSymbolTableRecord
100
AcDbRegAppTableRecord
  2
AcCmTransparency
 70
     0
  0
ENDTAB
  0
TABLE
  2
DIMSTYLE
  5
702AB
330
0
100
AcDbSymbolTable
 70
     1
100
AcDbDimStyleTable
 71
     1
340
702AC
  0
DIMSTYLE
105
702AC
330
702AB
100
AcDbSymbolTableRecord
100
AcDbDimStyleTableRecord
  2
Standard
 70
     0
340
7029E
  0
ENDTAB
  0
TABLE
  2
BLOCK_RECORD
  5
7027B
330
0
100
AcDbSymbolTable
 70
    77
  0
BLOCK_RECORD
  5
7027C
330
7027B
100
AcDbSymbolTableRecord
100
AcDbBlockTableRecord
  2
*Model_Space
340
7028F
 70
     0
280
     1
281
     0
  0
BLOCK_RECORD
  5
70293
330
7027B
100
AcDbSymbolTableRecord
100
AcDbBlockTableRecord
  2
*Paper_Space
340
70296
 70
     0
280
     1
281
     0
  0
BLOCK_RECORD
  5
702F0
102
{ACAD_XDICTIONARY
360
703DF
102
}
330
7027B
100
AcDbSymbolTableRecord
100
AcDbBlockTableRecord
  2
SE16
340
0
102
{BLKREFS
331
6FD64
102
}
 70
     0
280
     1
281
     0
  0
BLOCK_RECORD
  5
702F3
330
7027B
100
AcDbSymbolTableRecord
100
AcDbBlockTableRecord
  2
From Solid
340
0
102
{BLKREFS
331
700A6
102
}
 70
     0
280
     1
281
     0
  0
BLOCK_RECORD
  5
702F6
330
7027B
100
AcDbSymbolTableRecord
100
AcDbBlockTableRecord
  2
From Solid_1
340
0
102
{BLKREFS
331
700A7
102
}
 70
     0
280
     1
281
     0
  0
BLOCK_RECORD
  5
702F9
330
7027B
100
AcDbSymbolTableRecord
100
AcDbBlockTableRecord
  2
From Solid_2
340
0
102
{BLKREFS
331
700A8
102
}
 70
     0
280
     1
281
     0
  0
BLOCK_RECORD
  5
702FC
330
7027B
100
AcDbSymbolTableRecord
100
AcDbBlockTableRecord
  2
From Solid_3
340
0
102
{BLKREFS
331
700A9
102
}
 70
     0
280
     1
281
     0
  0
BLOCK_RECORD
  5
702FF
330
7027B
100
AcDbSymbolTableRecord
100
AcDbBlockTableRecord
  2
From Solid_4
340
0
102
{BLKREFS
331
700AA
102
}
 70
     0
280
     1
281
     0
  0
BLOCK_RECORD
  5
70302
330
7027B
100
AcDbSymbolTableRecord
100
AcDbBlockTableRecord
  2
From Solid_5
340
0
102
{BLKREFS
331
700AB
102
}
 70
     0
280
     1
281
     0
  0
BLOCK_RECORD
  5
70305
330
7027B
100
AcDbSymbolTableRecord
100
AcDbBlockTableRecord
  2
From Solid_6
340
0
102
{BLKREFS
331
700AC
102
}
 70
     0
280
     1
281
     0
  0
BLOCK_RECORD
  5
70308
330
7027B
100
AcDbSymbolTableRecord
100
AcDbBlockTableRecord
  2
From Solid_7
340
0
102
{BLKREFS
331
700AD
102
}
 70
     0
280
     1
281
     0
  0
BLOCK_RECORD
  5
7030C
330
7027B
100
AcDbSymbolTableRecord
100
AcDbBlockTableRecord
  2
From Solid_8
340
0
102
{BLKREFS
331
700AE
102
}
 70
     0
280
     1
281
     0
  0
BLOCK_RECORD
  5
70310
330
7027B
100
AcDbSymbolTableRecord
100
AcDbBlockTableRecord
  2
From Surface
340
0
102
{BLKREFS
331
700AF
102
}
 70
     0
280
     1
281
     0
  0
BLOCK_RECORD
  5
70313
330
7027B
100
AcDbSymbolTableRecord
100
AcDbBlockTableRecord
  2
From Surface_1
340
0
102
{BLKREFS
331
700B0
102
}
 70
     0
280
     1
281
     0
  0
BLOCK_RECORD
  5
70316
330
7027B
100
AcDbSymbolTableRecord
100
AcDbBlockTableRecord
  2
From Surface_2
340
0
102
{BLKREFS
331
700B1
102
}
 70
     0
280
     1
281
     0
  0
BLOCK_RECORD
  5
70319
330
7027B
100
AcDbSymbolTableRecord
100
AcDbBlockTableRecord
  2
From Surface_3
340
0
102
{BLKREFS
331
700B2
102
}
 70
     0
280
     1
281
     0
  0
BLOCK_RECORD
  5
7031C
330
7027B
100
AcDbSymbolTableRecord
100
AcDbBlockTableRecord
  2
From Solid_9
340
0
102
{BLKREFS
331
700B3
102
}
 70
     0
280
     1
281
     0
  0
BLOCK_RECORD
  5
7031F
330
7027B
100
AcDbSymbolTableRecord
100
AcDbBlockTableRecord
  2
From Solid_10
340
0
102
{BLKREFS
331
700B4
102
}
 70
     0
280
     1
281
     0
  0
BLOCK_RECORD
  5
70322
330
7027B
100
AcDbSymbolTableRecord
100
AcDbBlockTableRecord
  2
From Solid_11
340
0
102
{BLKREFS
331
700B5
102
}
 70
     0
280
     1
281
     0
  0
BLOCK_RECORD
  5
70325
330
7027B
100
AcDbSymbolTableRecord
100
AcDbBlockTableRecord
  2
From Solid_12
340
0
102
{BLKREFS
331
700B6
102
}
 70
     0
280
     1
281
     0
  0
BLOCK_RECORD
  5
70328
330
7027B
100
AcDbSymbolTableRecord
100
AcDbBlockTableRecord
  2
From Solid_13
340
0
102
{BLKREFS
331
700B7
102
}
 70
     0
280
     1
281
     0
  0
BLOCK_RECORD
  5
7032B
330
7027B
100
AcDbSymbolTableRecord
100
AcDbBlockTableRecord
  2
From Solid_14
340
0
102
{BLKREFS
331
700B8
102
}
 70
     0
280
     1
281
     0
  0
BLOCK_RECORD
  5
7032E
330
7027B
100
AcDbSymbolTableRecord
100
AcDbBlockTableRecord
  2
From Solid_15
340
0
102
{BLKREFS
331
700B9
102
}
 70
     0
280
     1
281
     0
  0
BLOCK_RECORD
  5
70331
330
7027B
100
AcDbSymbolTableRecord
100
AcDbBlockTableRecord
  2
From Solid_16
340
0
102
{BLKREFS
331
700BA
102
}
 70
     0
280
     1
281
     0
  0
BLOCK_RECORD
  5
70335
330
7027B
100
AcDbSymbolTableRecord
100
AcDbBlockTableRecord
  2
From Solid_17
340
0
102
{BLKREFS
331
700BB
102
}
 70
     0
280
     1
281
     0
  0
BLOCK_RECORD
  5
70339
330
7027B
100
AcDbSymbolTableRecord
100
AcDbBlockTableRecord
  2
From Surface_4
340
0
102
{BLKREFS
331
700BC
102
}
 70
     0
280
     1
281
     0
  0
BLOCK_RECORD
  5
7033C
330
7027B
100
AcDbSymbolTableRecord
100
AcDbBlockTableRecord
  2
From Surface_5
340
0
102
{BLKREFS
331
700BD
102
}
 70
     0
280
     1
281
     0
  0
BLOCK_RECORD
  5
7033F
330
7027B
100
AcDbSymbolTableRecord
100
AcDbBlockTableRecord
  2
From Surface_6
340
0
102
{BLKREFS
331
700BE
102
}
 70
     0
280
     1
281
     0
  0
BLOCK_RECORD
  5
70342
330
7027B
100
AcDbSymbolTableRecord
100
AcDbBlockTableRecord
  2
From Surface_7
340
0
102
{BLKREFS
331
700BF
102
}
 70
     0
280
     1
281
     0
  0
BLOCK_RECORD
  5
70345
330
7027B
100
AcDbSymbolTableRecord
100
AcDbBlockTableRecord
  2
From Solid_18
340
0
102
{BLKREFS
331
700C0
102
}
 70
     0
280
     1
281
     0
  0
BLOCK_RECORD
  5
70348
330
7027B
100
AcDbSymbolTableRecord
100
AcDbBlockTableRecord
  2
From Solid_19
340
0
102
{BLKREFS
331
700C1
102
}
 70
     0
280
     1
281
     0
  0
BLOCK_RECORD
  5
7034B
330
7027B
100
AcDbSymbolTableRecord
100
AcDbBlockTableRecord
  2
From Solid_20
340
0
102
{BLKREFS
331
700C2
102
}
 70
     0
280
     1
281
     0
  0
BLOCK_RECORD
  5
7034E
330
7027B
100
AcDbSymbolTableRecord
100
AcDbBlockTableRecord
  2
From Solid_21
340
0
102
{BLKREFS
331
700C3
102
}
 70
     0
280
     1
281
     0
  0
BLOCK_RECORD
  5
70351
330
7027B
100
AcDbSymbolTableRecord
100
AcDbBlockTableRecord
  2
From Solid_22
340
0
102
{BLKREFS
331
700C4
102
}
 70
     0
280
     1
281
     0
  0
BLOCK_RECORD
  5
70354
330
7027B
100
AcDbSymbolTableRecord
100
AcDbBlockTableRecord
  2
From Solid_23
340
0
102
{BLKREFS
331
700C5
102
}
 70
     0
280
     1
281
     0
  0
BLOCK_RECORD
  5
70357
330
7027B
100
AcDbSymbolTableRecord
100
AcDbBlockTableRecord
  2
From Solid_24
340
0
102
{BLKREFS
331
700C6
102
}
 70
     0
280
     1
281
     0
  0
BLOCK_RECORD
  5
7035A
330
7027B
100
AcDbSymbolTableRecord
100
AcDbBlockTableRecord
  2
From Solid_25
340
0
102
{BLKREFS
331
700C7
102
}
 70
     0
280
     1
281
     0
  0
BLOCK_RECORD
  5
7035E
330
7027B
100
AcDbSymbolTableRecord
100
AcDbBlockTableRecord
  2
From Solid_26
340
0
102
{BLKREFS
331
700C8
102
}
 70
     0
280
     1
281
     0
  0
BLOCK_RECORD
  5
70362
330
7027B
100
AcDbSymbolTableRecord
100
AcDbBlockTableRecord
  2
From Surface_8
340
0
102
{BLKREFS
331
700C9
102
}
 70
     0
280
     1
281
     0
  0
BLOCK_RECORD
  5
70365
330
7027B
100
AcDbSymbolTableRecord
100
AcDbBlockTableRecord
  2
From Surface_9
340
0
102
{BLKREFS
331
700CA
102
}
 70
     0
280
     1
281
     0
  0
BLOCK_RECORD
  5
70368
330
7027B
100
AcDbSymbolTableRecord
100
AcDbBlockTableRecord
  2
From Surface_10
340
0
102
{BLKREFS
331
700CB
102
}
 70
     0
280
     1
281
     0
  0
BLOCK_RECORD
  5
7036B
330
7027B
100
AcDbSymbolTableRecord
100
AcDbBlockTableRecord
  2
From Surface_11
340
0
102
{BLKREFS
331
700CC
102
}
 70
     0
280
     1
281
     0
  0
BLOCK_RECORD
  5
7036E
330
7027B
100
AcDbSymbolTableRecord
100
AcDbBlockTableRecord
  2
From Solid_27
340
0
102
{BLKREFS
331
700CD
102
}
 70
     0
280
     1
281
     0
  0
BLOCK_RECORD
  5
70371
330
7027B
100
AcDbSymbolTableRecord
100
AcDbBlockTableRecord
  2
From Solid_28
340
0
102
{BLKREFS
331
700CE
102
}
 70
     0
280
     1
281
     0
  0
BLOCK_RECORD
  5
70374
330
7027B
100
AcDbSymbolTableRecord
100
AcDbBlockTableRecord
  2
From Solid_29
340
0
102
{BLKREFS
331
700CF
102
}
 70
     0
280
     1
281
     0
  0
BLOCK_RECORD
  5
70377
330
7027B
100
AcDbSymbolTableRecord
100
AcDbBlockTableRecord
  2
From Solid_30
340
0
102
{BLKREFS
331
700D0
102
}
 70
     0
280
     1
281
     0
  0
BLOCK_RECORD
  5
7037A
330
7027B
100
AcDbSymbolTableRecord
100
AcDbBlockTableRecord
  2
From Solid_31
340
0
102
{BLKREFS
331
700D1
102
}
 70
     0
280
     1
281
     0
  0
BLOCK_RECORD
  5
7037D
330
7027B
100
AcDbSymbolTableRecord
100
AcDbBlockTableRecord
  2
From Solid_32
340
0
102
{BLKREFS
331
700D2
102
}
 70
     0
280
     1
281
     0
  0
BLOCK_RECORD
  5
70380
330
7027B
100
AcDbSymbolTableRecord
100
AcDbBlockTableRecord
  2
From Solid_33
340
0
102
{BLKREFS
331
700D3
102
}
 70
     0
280
     1
281
     0
  0
BLOCK_RECORD
  5
70383
330
7027B
100
AcDbSymbolTableRecord
100
AcDbBlockTableRecord
  2
From Solid_34
340
0
102
{BLKREFS
331
700D4
102
}
 70
     0
280
     1
281
     0
  0
BLOCK_RECORD
  5
70386
330
7027B
100
AcDbSymbolTableRecord
100
AcDbBlockTableRecord
  2
From Solid_35
340
0
102
{BLKREFS
331
700D5
102
}
 70
     0
280
     1
281
     0
  0
BLOCK_RECORD
  5
70389
330
7027B
100
AcDbSymbolTableRecord
100
AcDbBlockTableRecord
  2
From Solid_36
340
0
102
{BLKREFS
331
700D6
102
}
 70
     0
280
     1
281
     0
  0
BLOCK_RECORD
  5
7038D
330
7027B
100
AcDbSymbolTableRecord
100
AcDbBlockTableRecord
  2
From Solid_37
340
0
102
{BLKREFS
331
700D7
102
}
 70
     0
280
     1
281
     0
  0
BLOCK_RECORD
  5
70391
330
7027B
100
AcDbSymbolTableRecord
100
AcDbBlockTableRecord
  2
From Solid_38
340
0
102
{BLKREFS
331
700D8
102
}
 70
     0
280
     1
281
     0
  0
BLOCK_RECORD
  5
70394
330
7027B
100
AcDbSymbolTableRecord
100
AcDbBlockTableRecord
  2
From Solid_39
340
0
102
{BLKREFS
331
700D9
102
}
 70
     0
280
     1
281
     0
  0
BLOCK_RECORD
  5
70397
330
7027B
100
AcDbSymbolTableRecord
100
AcDbBlockTableRecord
  2
From Surface_12
340
0
102
{BLKREFS
331
700DA
102
}
 70
     0
280
     1
281
     0
  0
BLOCK_RECORD
  5
7039A
330
7027B
100
AcDbSymbolTableRecord
100
AcDbBlockTableRecord
  2
From Surface_13
340
0
102
{BLKREFS
331
700DB
102
}
 70
     0
280
     1
281
     0
  0
BLOCK_RECORD
  5
7039D
330
7027B
100
AcDbSymbolTableRecord
100
AcDbBlockTableRecord
  2
From Surface_14
340
0
102
{BLKREFS
331
700DC
102
}
 70
     0
280
     1
281
     0
  0
BLOCK_RECORD
  5
703A0
330
7027B
100
AcDbSymbolTableRecord
100
AcDbBlockTableRecord
  2
From Surface_15
340
0
102
{BLKREFS
331
700DD
102
}
 70
     0
280
     1
281
     0
  0
BLOCK_RECORD
  5
703A3
330
7027B
100
AcDbSymbolTableRecord
100
AcDbBlockTableRecord
  2
From Bspline Surface
340
0
102
{BLKREFS
331
700DE
102
}
 70
     0
280
     1
281
     0
  0
BLOCK_RECORD
  5
703A6
330
7027B
100
AcDbSymbolTableRecord
100
AcDbBlockTableRecord
  2
From Bspline Surface_1
340
0
102
{BLKREFS
331
700FD
102
}
 70
     0
280
     1
281
     0
  0
BLOCK_RECORD
  5
703A9
330
7027B
100
AcDbSymbolTableRecord
100
AcDbBlockTableRecord
  2
From Bspline Surface_2
340
0
102
{BLKREFS
331
7011C
102
}
 70
     0
280
     1
281
     0
  0
BLOCK_RECORD
  5
703AC
330
7027B
100
AcDbSymbolTableRecord
100
AcDbBlockTableRecord
  2
From Bspline Surface_3
340
0
102
{BLKREFS
331
7013B
102
}
 70
     0
280
     1
281
     0
  0
BLOCK_RECORD
  5
703AF
330
7027B
100
AcDbSymbolTableRecord
100
AcDbBlockTableRecord
  2
From Bspline Surface_4
340
0
102
{BLKREFS
331
7015A
102
}
 70
     0
280
     1
281
     0
  0
BLOCK_RECORD
  5
703B2
330
7027B
100
AcDbSymbolTableRecord
100
AcDbBlockTableRecord
  2
From Bspline Surface_5
340
0
102
{BLKREFS
331
70179
102
}
 70
     0
280
     1
281
     0
  0
BLOCK_RECORD
  5
703B5
330
7027B
100
AcDbSymbolTableRecord
100
AcDbBlockTableRecord
  2
From Bspline Surface_6
340
0
102
{BLKREFS
331
70198
102
}
 70
     0
280
     1
281
     0
  0
BLOCK_RECORD
  5
703B8
330
7027B
100
AcDbSymbolTableRecord
100
AcDbBlockTableRecord
  2
From Bspline Surface_7
340
0
102
{BLKREFS
331
701B7
102
}
 70
     0
280
     1
281
     0
  0
BLOCK_RECORD
  5
703BB
330
7027B
100
AcDbSymbolTableRecord
100
AcDbBlockTableRecord
  2
From Solid_40
340
0
102
{BLKREFS
331
701D6
102
}
 70
     0
280
     1
281
     0
  0
BLOCK_RECORD
  5
703BE
330
7027B
100
AcDbSymbolTableRecord
100
AcDbBlockTableRecord
  2
From Solid_41
340
0
102
{BLKREFS
331
701D7
102
}
 70
     0
280
     1
281
     0
  0
BLOCK_RECORD
  5
703C1
330
7027B
100
AcDbSymbolTableRecord
100
AcDbBlockTableRecord
  2
From Solid_42
340
0
102
{BLKREFS
331
701D8
102
}
 70
     0
280
     1
281
     0
  0
BLOCK_RECORD
  5
703C4
330
7027B
100
AcDbSymbolTableRecord
100
AcDbBlockTableRecord
  2
From Solid_43
340
0
102
{BLKREFS
331
701D9
102
}
 70
     0
280
     1
281
     0
  0
BLOCK_RECORD
  5
703C7
330
7027B
100
AcDbSymbolTableRecord
100
AcDbBlockTableRecord
  2
From Solid_44
340
0
102
{BLKREFS
331
701DA
102
}
 70
     0
280
     1
281
     0
  0
BLOCK_RECORD
  5
703CA
330
7027B
100
AcDbSymbolTableRecord
100
AcDbBlockTableRecord
  2
From Solid_45
340
0
102
{BLKREFS
331
701DB
102
}
 70
     0
280
     1
281
     0
  0
BLOCK_RECORD
  5
703CD
330
7027B
100
AcDbSymbolTableRecord
100
AcDbBlockTableRecord
  2
From Solid_46
340
0
102
{BLKREFS
331
701DC
102
}
 70
     0
280
     1
281
     0
  0
BLOCK_RECORD
  5
703D0
330
7027B
100
AcDbSymbolTableRecord
100
AcDbBlockTableRecord
  2
From Solid_47
340
0
102
{BLKREFS
331
701DD
102
}
 70
     0
280
     1
281
     0
  0
BLOCK_RECORD
  5
703D3
330
7027B
100
AcDbSymbolTableRecord
100
AcDbBlockTableRecord
  2
From Solid_48
340
0
102
{BLKREFS
331
701DE
102
}
 70
     0
280
     1
281
     0
  0
BLOCK_RECORD
  5
703D6
330
7027B
100
AcDbSymbolTableRecord
100
AcDbBlockTableRecord
  2
From Solid_49
340
0
102
{BLKREFS
331
701DF
102
}
 70
     0
280
     1
281
     0
  0
BLOCK_RECORD
  5
703D9
330
7027B
100
AcDbSymbolTableRecord
100
AcDbBlockTableRecord
  2
From Solid_50
340
0
102
{BLKREFS
331
701E0
102
}
 70
     0
280
     1
281
     0
  0
BLOCK_RECORD
  5
703DC
330
7027B
100
AcDbSymbolTableRecord
100
AcDbBlockTableRecord
  2
From Solid_51
340
0
102
{BLKREFS
331
701E1
102
}
 70
     0
280
     1
281
     0
  0
ENDTAB
  0
ENDSEC
  0
SECTION
  2
BLOCKS
  0
BLOCK
  5
7027D
330
7027C
100
AcDbEntity
  8
0
100
AcDbBlockBegin
  2
*Model_Space
 70
     0
 10
0.0
 20
0.0
 30
0.0
  3
*Model_Space
  1

  0
ENDBLK
  5
7028E
330
7027C
100
AcDbEntity
  8
0
100
AcDbBlockEnd
  0
BLOCK
  5
70294
330
70293
100
AcDbEntity
 67
     1
  8
0
100
AcDbBlockBegin
  2
*Paper_Space
 70
     0
 10
0.0
 20
0.0
 30
0.0
  3
*Paper_Space
  1

  0
ENDBLK
  5
70295
330
70293
100
AcDbEntity
 67
     1
  8
0
100
AcDbBlockEnd
  0
BLOCK
  5
702F1
330
702F0
100
AcDbEntity
  8
0
 62
    98
370
     0
100
AcDbBlockBegin
  2
SE16
 70
     0
 10
0.0
 20
0.0
 30
0.0
  3
SE16
  1

  0
LWPOLYLINE
  5
6FD65
330
702F0
100
AcDbEntity
  8
Level 26
  6
Continuous
 62
   133
370
     0
100
AcDbPolyline
 90
        5
 70
   129
 43
0.0
 10
37.5
 20
-585.0
 10
37.5
 20
-585.0
 10
37.5
 20
585.0
 10
37.5
 20
585.0
 10
37.5
 20
-585.0
  0
LWPOLYLINE
  5
6FD66
330
702F0
100
AcDbEntity
  8
Level 26
  6
Continuous
 62
   133
370
     0
100
AcDbPolyline
 90
        5
 70
   129
 43
0.0
 10
37.5
 20
-585.0
 10
-37.5
 20
-585.0
 10
-37.5
 20
585.0
 10
37.5
 20
585.0
 10
37.5
 20
-585.0
  0
LWPOLYLINE
  5
6FD67
330
702F0
100
AcDbEntity
  8
Level 26
  6
Continuous
 62
   133
370
     0
100
AcDbPolyline
 90
        5
 70
   129
 43
0.0
 10
-37.5
 20
-585.0
 10
-37.5
 20
-585.0
 10
-37.5
 20
585.0
 10
-37.5
 20
585.0
 10
-37.5
 20
-585.0
  0
LWPOLYLINE
  5
6FD68
330
702F0
100
AcDbEntity
  8
Level 26
  6
Continuous
 62
   133
370
     0
100
AcDbPolyline
 90
        5
 70
   129
 43
0.0
 10
-37.5
 20
-585.0
 10
37.5
 20
-585.0
 10
37.5
 20
585.0
 10
-37.5
 20
585.0
 10
-37.5
 20
-585.0
  0
LWPOLYLINE
  5
6FD69
330
702F0
100
AcDbEntity
  8
Level 26
  6
Continuous
 62
    40
370
     0
100
AcDbPolyline
 90
        5
 70
   129
 43
0.0
 10
641.9
 20
57.5
 10
641.9
 20
32.5
 10
260.0
 20
32.5
 10
260.0
 20
57.5
 10
641.9
 20
57.5
  0
LWPOLYLINE
  5
6FD6A
330
702F0
100
AcDbEntity
  8
Level 26
  6
Continuous
 62
    40
370
     0
100
AcDbPolyline
 90
        5
 70
   129
 43
0.0
 10
641.9
 20
32.5
 10
641.9
 20
32.5
 10
260.0
 20
32.5
 10
260.0
 20
32.5
 10
641.9
 20
32.5
  0
LWPOLYLINE
  5
6FD6B
330
702F0
100
AcDbEntity
  8
Level 26
  6
Continuous
 62
    40
370
     0
100
AcDbPolyline
 90
        5
 70
   129
 43
0.0
 10
641.9
 20
32.5
 10
641.9
 20
57.5
 10
260.0
 20
57.5
 10
260.0
 20
32.5
 10
641.9
 20
32.5
  0
LWPOLYLINE
  5
6FD6C
330
702F0
100
AcDbEntity
  8
Level 26
  6
Continuous
 62
    40
370
     0
100
AcDbPolyline
 90
        5
 70
   129
 43
0.0
 10
641.9
 20
57.5
 10
641.9
 20
57.5
 10
260.0
 20
57.5
 10
260.0
 20
57.5
 10
641.9
 20
57.5
  0
LWPOLYLINE
  5
6FD6D
330
702F0
100
AcDbEntity
  8
Level 26
  6
Continuous
 62
    40
370
     0
100
AcDbPolyline
 90
        5
 70
   129
 43
0.0
 10
641.9
 20
-57.5
 10
641.9
 20
-57.5
 10
260.0
 20
-57.5
 10
260.0
 20
-57.5
 10
641.9
 20
-57.5
  0
LWPOLYLINE
  5
6FD6E
330
702F0
100
AcDbEntity
  8
Level 26
  6
Continuous
 62
    40
370
     0
100
AcDbPolyline
 90
        5
 70
   129
 43
0.0
 10
641.9
 20
-32.5
 10
641.9
 20
-57.5
 10
260.0
 20
-57.5
 10
260.0
 20
-32.5
 10
641.9
 20
-32.5
  0
LWPOLYLINE
  5
6FD6F
330
702F0
100
AcDbEntity
  8
Level 26
  6
Continuous
 62
    40
370
     0
100
AcDbPolyline
 90
        5
 70
   129
 43
0.0
 10
641.9
 20
-32.5
 10
641.9
 20
-32.5
 10
260.0
 20
-32.5
 10
260.0
 20
-32.5
 10
641.9
 20
-32.5
  0
LWPOLYLINE
  5
6FD70
330
702F0
100
AcDbEntity
  8
Level 26
  6
Continuous
 62
    40
370
     0
100
AcDbPolyline
 90
        5
 70
   129
 43
0.0
 10
641.9
 20
-57.5
 10
641.9
 20
-32.5
 10
260.0
 20
-32.5
 10
260.0
 20
-57.5
 10
641.9
 20
-57.5
  0
LWPOLYLINE
  5
6FD71
330
702F0
100
AcDbEntity
  8
Level 26
  6
Continuous
 62
    20
370
     0
100
AcDbPolyline
 90
        5
 70
   129
 43
0.0
 10
310.0
 20
80.0
 10
310.0
 20
-80.0
 10
310.0
 20
-80.0
 10
310.0
 20
80.0
 10
310.0
 20
80.0
  0
LWPOLYLINE
  5
6FD72
330
702F0
100
AcDbEntity
  8
Level 26
  6
Continuous
 62
    20
370
     0
100
AcDbPolyline
 90
        5
 70
   129
 43
0.0
 10
330.0
 20
-100.0
 10
580.0
 20
-100.0
 10
580.0
 20
-100.0
 10
330.0
 20
-100.0
 10
330.0
 20
-100.0
  0
LWPOLYLINE
  5
6FD73
330
702F0
100
AcDbEntity
  8
Level 26
  6
Continuous
 62
    20
370
     0
100
AcDbPolyline
 90
        5
 70
   129
 43
0.0
 10
600.0
 20
-80.0
 10
600.0
 20
80.0
 10
600.0
 20
80.0
 10
600.0
 20
-80.0
 10
600.0
 20
-80.0
  0
LWPOLYLINE
  5
6FD74
330
702F0
100
AcDbEntity
  8
Level 26
  6
Continuous
 62
    20
370
     0
100
AcDbPolyline
 90
        5
 70
   129
 43
0.0
 10
580.0
 20
100.0
 10
330.0
 20
100.0
 10
330.0
 20
100.0
 10
580.0
 20
100.0
 10
580.0
 20
100.0
  0
LWPOLYLINE
  5
6FD75
330
702F0
100
AcDbEntity
  8
Level 26
  6
Continuous
 62
    40
370
     0
100
AcDbPolyline
 90
        5
 70
   129
 43
0.0
 10
-57.5
 20
641.9
 10
-32.5
 20
641.9
 10
-32.5
 20
260.0
 10
-57.5
 20
260.0
 10
-57.5
 20
641.9
  0
LWPOLYLINE
  5
6FD76
330
702F0
100
AcDbEntity
  8
Level 26
  6
Continuous
 62
    40
370
     0
100
AcDbPolyline
 90
        5
 70
   129
 43
0.0
 10
-32.5
 20
641.9
 10
-32.5
 20
641.9
 10
-32.5
 20
260.0
 10
-32.5
 20
260.0
 10
-32.5
 20
641.9
  0
LWPOLYLINE
  5
6FD77
330
702F0
100
AcDbEntity
  8
Level 26
  6
Continuous
 62
    40
370
     0
100
AcDbPolyline
 90
        5
 70
   129
 43
0.0
 10
-32.5
 20
641.9
 10
-57.5
 20
641.9
 10
-57.5
 20
260.0
 10
-32.5
 20
260.0
 10
-32.5
 20
641.9
  0
LWPOLYLINE
  5
6FD78
330
702F0
100
AcDbEntity
  8
Level 26
  6
Continuous
 62
    40
370
     0
100
AcDbPolyline
 90
        5
 70
   129
 43
0.0
 10
-57.5
 20
641.9
 10
-57.5
 20
641.9
 10
-57.5
 20
260.0
 10
-57.5
 20
260.0
 10
-57.5
 20
641.9
  0
LWPOLYLINE
  5
6FD79
330
702F0
100
AcDbEntity
  8
Level 26
  6
Continuous
 62
    40
370
     0
100
AcDbPolyline
 90
        5
 70
   129
 43
0.0
 10
57.5
 20
641.9
 10
57.5
 20
641.9
 10
57.5
 20
260.0
 10
57.5
 20
260.0
 10
57.5
 20
641.9
  0
LWPOLYLINE
  5
6FD7A
330
702F0
100
AcDbEntity
  8
Level 26
  6
Continuous
 62
    40
370
     0
100
AcDbPolyline
 90
        5
 70
   129
 43
0.0
 10
32.5
 20
641.9
 10
57.5
 20
641.9
 10
57.5
 20
260.0
 10
32.5
 20
260.0
 10
32.5
 20
641.9
  0
LWPOLYLINE
  5
6FD7B
330
702F0
100
AcDbEntity
  8
Level 26
  6
Continuous
 62
    40
370
     0
100
AcDbPolyline
 90
        5
 70
   129
 43
0.0
 10
32.5
 20
641.9
 10
32.5
 20
641.9
 10
32.5
 20
260.0
 10
32.5
 20
260.0
 10
32.5
 20
641.9
  0
LWPOLYLINE
  5
6FD7C
330
702F0
100
AcDbEntity
  8
Level 26
  6
Continuous
 62
    40
370
     0
100
AcDbPolyline
 90
        5
 70
   129
 43
0.0
 10
57.5
 20
641.9
 10
32.5
 20
641.9
 10
32.5
 20
260.0
 10
57.5
 20
260.0
 10
57.5
 20
641.9
  0
LWPOLYLINE
  5
6FD7D
330
702F0
100
AcDbEntity
  8
Level 26
  6
Continuous
 62
    20
370
     0
100
AcDbPolyline
 90
        5
 70
   129
 43
0.0
 10
-80.0
 20
310.0
 10
80.0
 20
310.0
 10
80.0
 20
310.0
 10
-80.0
 20
310.0
 10
-80.0
 20
310.0
  0
LWPOLYLINE
  5
6FD7E
330
702F0
100
AcDbEntity
  8
Level 26
  6
Continuous
 62
    20
370
     0
100
AcDbPolyline
 90
        5
 70
   129
 43
0.0
 10
100.0
 20
330.0
 10
100.0
 20
580.0
 10
100.0
 20
580.0
 10
100.0
 20
330.0
 10
100.0
 20
330.0
  0
LWPOLYLINE
  5
6FD7F
330
702F0
100
AcDbEntity
  8
Level 26
  6
Continuous
 62
    20
370
     0
100
AcDbPolyline
 90
        5
 70
   129
 43
0.0
 10
80.0
 20
600.0
 10
-80.0
 20
600.0
 10
-80.0
 20
600.0
 10
80.0
 20
600.0
 10
80.0
 20
600.0
  0
LWPOLYLINE
  5
6FD80
330
702F0
100
AcDbEntity
  8
Level 26
  6
Continuous
 62
    20
370
     0
100
AcDbPolyline
 90
        5
 70
   129
 43
0.0
 10
-100.0
 20
580.0
 10
-100.0
 20
330.0
 10
-100.0
 20
330.0
 10
-100.0
 20
580.0
 10
-100.0
 20
580.0
  0
LWPOLYLINE
  5
6FD81
330
702F0
100
AcDbEntity
  8
Level 26
  6
Continuous
 62
    40
370
     0
100
AcDbPolyline
 90
        5
 70
   129
 43
0.0
 10
57.5
 20
-641.9
 10
32.5
 20
-641.9
 10
32.5
 20
-260.0
 10
57.5
 20
-260.0
 10
57.5
 20
-641.9
  0
LWPOLYLINE
  5
6FD82
330
702F0
100
AcDbEntity
  8
Level 26
  6
Continuous
 62
    40
370
     0
100
AcDbPolyline
 90
        5
 70
   129
 43
0.0
 10
32.5
 20
-641.9
 10
32.5
 20
-641.9
 10
32.5
 20
-260.0
 10
32.5
 20
-260.0
 10
32.5
 20
-641.9
  0
LWPOLYLINE
  5
6FD83
330
702F0
100
AcDbEntity
  8
Level 26
  6
Continuous
 62
    40
370
     0
100
AcDbPolyline
 90
        5
 70
   129
 43
0.0
 10
32.5
 20
-641.9
 10
57.5
 20
-641.9
 10
57.5
 20
-260.0
 10
32.5
 20
-260.0
 10
32.5
 20
-641.9
  0
LWPOLYLINE
  5
6FD84
330
702F0
100
AcDbEntity
  8
Level 26
  6
Continuous
 62
    40
370
     0
100
AcDbPolyline
 90
        5
 70
   129
 43
0.0
 10
57.5
 20
-641.9
 10
57.5
 20
-641.9
 10
57.5
 20
-260.0
 10
57.5
 20
-260.0
 10
57.5
 20
-641.9
  0
LWPOLYLINE
  5
6FD85
330
702F0
100
AcDbEntity
  8
Level 26
  6
Continuous
 62
    40
370
     0
100
AcDbPolyline
 90
        5
 70
   129
 43
0.0
 10
-57.5
 20
-641.9
 10
-57.5
 20
-641.9
 10
-57.5
 20
-260.0
 10
-57.5
 20
-260.0
 10
-57.5
 20
-641.9
  0
LWPOLYLINE
  5
6FD86
330
702F0
100
AcDbEntity
  8
Level 26
  6
Continuous
 62
    40
370
     0
100
AcDbPolyline
 90
        5
 70
   129
 43
0.0
 10
-32.5
 20
-641.9
 10
-57.5
 20
-641.9
 10
-57.5
 20
-260.0
 10
-32.5
 20
-260.0
 10
-32.5
 20
-641.9
  0
LWPOLYLINE
  5
6FD87
330
702F0
100
AcDbEntity
  8
Level 26
  6
Continuous
 62
    40
370
     0
100
AcDbPolyline
 90
        5
 70
   129
 43
0.0
 10
-32.5
 20
-641.9
 10
-32.5
 20
-641.9
 10
-32.5
 20
-260.0
 10
-32.5
 20
-260.0
 10
-32.5
 20
-641.9
  0
LWPOLYLINE
  5
6FD88
330
702F0
100
AcDbEntity
  8
Level 26
  6
Continuous
 62
    40
370
     0
100
AcDbPolyline
 90
        5
 70
   129
 43
0.0
 10
-57.5
 20
-641.9
 10
-32.5
 20
-641.9
 10
-32.5
 20
-260.0
 10
-57.5
 20
-260.0
 10
-57.5
 20
-641.9
  0
LWPOLYLINE
  5
6FD89
330
702F0
100
AcDbEntity
  8
Level 26
  6
Continuous
 62
    20
370
     0
100
AcDbPolyline
 90
        5
 70
   129
 43
0.0
 10
80.0
 20
-310.0
 10
-80.0
 20
-310.0
 10
-80.0
 20
-310.0
 10
80.0
 20
-310.0
 10
80.0
 20
-310.0
  0
LWPOLYLINE
  5
6FD8A
330
702F0
100
AcDbEntity
  8
Level 26
  6
Continuous
 62
    20
370
     0
100
AcDbPolyline
 90
        5
 70
   129
 43
0.0
 10
-100.0
 20
-330.0
 10
-100.0
 20
-580.0
 10
-100.0
 20
-580.0
 10
-100.0
 20
-330.0
 10
-100.0
 20
-330.0
  0
LWPOLYLINE
  5
6FD8B
330
702F0
100
AcDbEntity
  8
Level 26
  6
Continuous
 62
    20
370
     0
100
AcDbPolyline
 90
        5
 70
   129
 43
0.0
 10
-80.0
 20
-600.0
 10
80.0
 20
-600.0
 10
80.0
 20
-600.0
 10
-80.0
 20
-600.0
 10
-80.0
 20
-600.0
  0
LWPOLYLINE
  5
6FD8C
330
702F0
100
AcDbEntity
  8
Level 26
  6
Continuous
 62
    20
370
     0
100
AcDbPolyline
 90
        5
 70
   129
 43
0.0
 10
100.0
 20
-580.0
 10
100.0
 20
-330.0
 10
100.0
 20
-330.0
 10
100.0
 20
-580.0
 10
100.0
 20
-580.0
  0
LWPOLYLINE
  5
6FD8D
330
702F0
100
AcDbEntity
  8
Level 26
  6
Continuous
 62
    40
370
     0
100
AcDbPolyline
 90
        5
 70
   129
 43
0.0
 10
-641.9
 20
-57.5
 10
-641.9
 20
-32.5
 10
-260.0
 20
-32.5
 10
-260.0
 20
-57.5
 10
-641.9
 20
-57.5
  0
LWPOLYLINE
  5
6FD8E
330
702F0
100
AcDbEntity
  8
Level 26
  6
Continuous
 62
    40
370
     0
100
AcDbPolyline
 90
        5
 70
   129
 43
0.0
 10
-641.9
 20
-32.5
 10
-641.9
 20
-32.5
 10
-260.0
 20
-32.5
 10
-260.0
 20
-32.5
 10
-641.9
 20
-32.5
  0
LWPOLYLINE
  5
6FD8F
330
702F0
100
AcDbEntity
  8
Level 26
  6
Continuous
 62
    40
370
     0
100
AcDbPolyline
 90
        5
 70
   129
 43
0.0
 10
-641.9
 20
-32.5
 10
-641.9
 20
-57.5
 10
-260.0
 20
-57.5
 10
-260.0
 20
-32.5
 10
-641.9
 20
-32.5
  0
LWPOLYLINE
  5
6FD90
330
702F0
100
AcDbEntity
  8
Level 26
  6
Continuous
 62
    40
370
     0
100
AcDbPolyline
 90
        5
 70
   129
 43
0.0
 10
-641.9
 20
-57.5
 10
-641.9
 20
-57.5
 10
-260.0
 20
-57.5
 10
-260.0
 20
-57.5
 10
-641.9
 20
-57.5
  0
LWPOLYLINE
  5
6FD91
330
702F0
100
AcDbEntity
  8
Level 26
  6
Continuous
 62
    40
370
     0
100
AcDbPolyline
 90
        5
 70
   129
 43
0.0
 10
-641.9
 20
57.5
 10
-641.9
 20
57.5
 10
-260.0
 20
57.5
 10
-260.0
 20
57.5
 10
-641.9
 20
57.5
  0
LWPOLYLINE
  5
6FD92
330
702F0
100
AcDbEntity
  8
Level 26
  6
Continuous
 62
    40
370
     0
100
AcDbPolyline
 90
        5
 70
   129
 43
0.0
 10
-641.9
 20
32.5
 10
-641.9
 20
57.5
 10
-260.0
 20
57.5
 10
-260.0
 20
32.5
 10
-641.9
 20
32.5
  0
LWPOLYLINE
  5
6FD93
330
702F0
100
AcDbEntity
  8
Level 26
  6
Continuous
 62
    40
370
     0
100
AcDbPolyline
 90
        5
 70
   129
 43
0.0
 10
-641.9
 20
32.5
 10
-641.9
 20
32.5
 10
-260.0
 20
32.5
 10
-260.0
 20
32.5
 10
-641.9
 20
32.5
  0
LWPOLYLINE
  5
6FD94
330
702F0
100
AcDbEntity
  8
Level 26
  6
Continuous
 62
    40
370
     0
100
AcDbPolyline
 90
        5
 70
   129
 43
0.0
 10
-641.9
 20
57.5
 10
-641.9
 20
32.5
 10
-260.0
 20
32.5
 10
-260.0
 20
57.5
 10
-641.9
 20
57.5
  0
LWPOLYLINE
  5
6FD95
330
702F0
100
AcDbEntity
  8
Level 26
  6
Continuous
 62
    20
370
     0
100
AcDbPolyline
 90
        5
 70
   129
 43
0.0
 10
-310.0
 20
-80.0
 10
-310.0
 20
80.0
 10
-310.0
 20
80.0
 10
-310.0
 20
-80.0
 10
-310.0
 20
-80.0
  0
LWPOLYLINE
  5
6FD96
330
702F0
100
AcDbEntity
  8
Level 26
  6
Continuous
 62
    20
370
     0
100
AcDbPolyline
 90
        5
 70
   129
 43
0.0
 10
-330.0
 20
100.0
 10
-580.0
 20
100.0
 10
-580.0
 20
100.0
 10
-330.0
 20
100.0
 10
-330.0
 20
100.0
  0
LWPOLYLINE
  5
6FD97
330
702F0
100
AcDbEntity
  8
Level 26
  6
Continuous
 62
    20
370
     0
100
AcDbPolyline
 90
        5
 70
   129
 43
0.0
 10
-600.0
 20
80.0
 10
-600.0
 20
-80.0
 10
-600.0
 20
-80.0
 10
-600.0
 20
80.0
 10
-600.0
 20
80.0
  0
LWPOLYLINE
  5
6FD98
330
702F0
100
AcDbEntity
  8
Level 26
  6
Continuous
 62
    20
370
     0
100
AcDbPolyline
 90
        5
 70
   129
 43
0.0
 10
-580.0
 20
-100.0
 10
-330.0
 20
-100.0
 10
-330.0
 20
-100.0
 10
-580.0
 20
-100.0
 10
-580.0
 20
-100.0
  0
LWPOLYLINE
  5
6FD99
330
702F0
100
AcDbEntity
  8
Level 26
  6
Continuous
 62
   133
370
     0
100
AcDbPolyline
 90
        5
 70
   129
 43
0.0
 10
585.0
 20
37.5
 10
585.0
 20
37.5
 10
-585.0
 20
37.5
 10
-585.0
 20
37.5
 10
585.0
 20
37.5
  0
LWPOLYLINE
  5
6FD9A
330
702F0
100
AcDbEntity
  8
Level 26
  6
Continuous
 62
   133
370
     0
100
AcDbPolyline
 90
        5
 70
   129
 43
0.0
 10
585.0
 20
37.5
 10
585.0
 20
-37.5
 10
-585.0
 20
-37.5
 10
-585.0
 20
37.5
 10
585.0
 20
37.5
  0
LWPOLYLINE
  5
6FD9B
330
702F0
100
AcDbEntity
  8
Level 26
  6
Continuous
 62
   133
370
     0
100
AcDbPolyline
 90
        5
 70
   129
 43
0.0
 10
585.0
 20
-37.5
 10
585.0
 20
-37.5
 10
-585.0
 20
-37.5
 10
-585.0
 20
-37.5
 10
585.0
 20
-37.5
  0
LWPOLYLINE
  5
6FD9C
330
702F0
100
AcDbEntity
  8
Level 26
  6
Continuous
 62
   133
370
     0
100
AcDbPolyline
 90
        5
 70
   129
 43
0.0
 10
585.0
 20
-37.5
 10
585.0
 20
37.5
 10
-585.0
 20
37.5
 10
-585.0
 20
-37.5
 10
585.0
 20
-37.5
  0
LWPOLYLINE
  5
6FD9D
330
702F0
100
AcDbEntity
  8
Level 26
  6
Continuous
 62
    40
370
     0
100
AcDbPolyline
 90
        5
 70
   129
 43
0.0
 10
37.5
 20
585.0
 10
-37.5
 20
585.0
 10
-37.5
 20
595.0
 10
37.5
 20
595.0
 10
37.5
 20
585.0
  0
LWPOLYLINE
  5
6FD9E
330
702F0
100
AcDbEntity
  8
Level 26
  6
Continuous
 62
    40
370
     0
100
AcDbPolyline
 90
        5
 70
   129
 43
0.0
 10
37.5
 20
585.0
 10
37.5
 20
585.0
 10
37.5
 20
595.0
 10
37.5
 20
595.0
 10
37.5
 20
585.0
  0
LWPOLYLINE
  5
6FD9F
330
702F0
100
AcDbEntity
  8
Level 26
  6
Continuous
 62
    40
370
     0
100
AcDbPolyline
 90
        5
 70
   129
 43
0.0
 10
-37.5
 20
585.0
 10
37.5
 20
585.0
 10
37.5
 20
595.0
 10
-37.5
 20
595.0
 10
-37.5
 20
585.0
  0
LWPOLYLINE
  5
6FDA0
330
702F0
100
AcDbEntity
  8
Level 26
  6
Continuous
 62
    40
370
     0
100
AcDbPolyline
 90
        5
 70
   129
 43
0.0
 10
-37.5
 20
585.0
 10
-37.5
 20
585.0
 10
-37.5
 20
595.0
 10
-37.5
 20
595.0
 10
-37.5
 20
585.0
  0
LWPOLYLINE
  5
6FDA1
330
702F0
100
AcDbEntity
  8
Level 26
  6
Continuous
 62
    40
370
     0
100
AcDbPolyline
 90
        5
 70
   129
 43
0.0
 10
37.5
 20
-585.0
 10
-37.5
 20
-585.0
 10
-37.5
 20
-595.0
 10
37.5
 20
-595.0
 10
37.5
 20
-585.0
  0
LWPOLYLINE
  5
6FDA2
330
702F0
100
AcDbEntity
  8
Level 26
  6
Continuous
 62
    40
370
     0
100
AcDbPolyline
 90
        5
 70
   129
 43
0.0
 10
37.5
 20
-585.0
 10
37.5
 20
-585.0
 10
37.5
 20
-595.0
 10
37.5
 20
-595.0
 10
37.5
 20
-585.0
  0
LWPOLYLINE
  5
6FDA3
330
702F0
100
AcDbEntity
  8
Level 26
  6
Continuous
 62
    40
370
     0
100
AcDbPolyline
 90
        5
 70
   129
 43
0.0
 10
-37.5
 20
-585.0
 10
37.5
 20
-585.0
 10
37.5
 20
-595.0
 10
-37.5
 20
-595.0
 10
-37.5
 20
-585.0
  0
LWPOLYLINE
  5
6FDA4
330
702F0
100
AcDbEntity
  8
Level 26
  6
Continuous
 62
    40
370
     0
100
AcDbPolyline
 90
        5
 70
   129
 43
0.0
 10
-37.5
 20
-585.0
 10
-37.5
 20
-585.0
 10
-37.5
 20
-595.0
 10
-37.5
 20
-595.0
 10
-37.5
 20
-585.0
  0
LWPOLYLINE
  5
6FDA5
330
702F0
100
AcDbEntity
  8
Level 26
  6
Continuous
 62
    40
370
     0
100
AcDbPolyline
 90
        5
 70
   129
 43
0.0
 10
-585.0
 20
37.5
 10
-585.0
 20
-37.5
 10
-595.0
 20
-37.5
 10
-595.0
 20
37.5
 10
-585.0
 20
37.5
  0
LWPOLYLINE
  5
6FDA6
330
702F0
100
AcDbEntity
  8
Level 26
  6
Continuous
 62
    40
370
     0
100
AcDbPolyline
 90
        5
 70
   129
 43
0.0
 10
-585.0
 20
37.5
 10
-585.0
 20
37.5
 10
-595.0
 20
37.5
 10
-595.0
 20
37.5
 10
-585.0
 20
37.5
  0
LWPOLYLINE
  5
6FDA7
330
702F0
100
AcDbEntity
  8
Level 26
  6
Continuous
 62
    40
370
     0
100
AcDbPolyline
 90
        5
 70
   129
 43
0.0
 10
-585.0
 20
-37.5
 10
-585.0
 20
37.5
 10
-595.0
 20
37.5
 10
-595.0
 20
-37.5
 10
-585.0
 20
-37.5
  0
LWPOLYLINE
  5
6FDA8
330
702F0
100
AcDbEntity
  8
Level 26
  6
Continuous
 62
    40
370
     0
100
AcDbPolyline
 90
        5
 70
   129
 43
0.0
 10
-585.0
 20
-37.5
 10
-585.0
 20
-37.5
 10
-595.0
 20
-37.5
 10
-595.0
 20
-37.5
 10
-585.0
 20
-37.5
  0
LWPOLYLINE
  5
6FDA9
330
702F0
100
AcDbEntity
  8
Level 26
  6
Continuous
 62
    40
370
     0
100
AcDbPolyline
 90
        5
 70
   129
 43
0.0
 10
585.0
 20
37.5
 10
585.0
 20
-37.5
 10
595.0
 20
-37.5
 10
595.0
 20
37.5
 10
585.0
 20
37.5
  0
LWPOLYLINE
  5
6FDAA
330
702F0
100
AcDbEntity
  8
Level 26
  6
Continuous
 62
    40
370
     0
100
AcDbPolyline
 90
        5
 70
   129
 43
0.0
 10
585.0
 20
37.5
 10
585.0
 20
37.5
 10
595.0
 20
37.5
 10
595.0
 20
37.5
 10
585.0
 20
37.5
  0
LWPOLYLINE
  5
6FDAB
330
702F0
100
AcDbEntity
  8
Level 26
  6
Continuous
 62
    40
370
     0
100
AcDbPolyline
 90
        5
 70
   129
 43
0.0
 10
585.0
 20
-37.5
 10
585.0
 20
37.5
 10
595.0
 20
37.5
 10
595.0
 20
-37.5
 10
585.0
 20
-37.5
  0
LWPOLYLINE
  5
6FDAC
330
702F0
100
AcDbEntity
  8
Level 26
  6
Continuous
 62
    40
370
     0
100
AcDbPolyline
 90
        5
 70
   129
 43
0.0
 10
585.0
 20
-37.5
 10
585.0
 20
-37.5
 10
595.0
 20
-37.5
 10
595.0
 20
-37.5
 10
585.0
 20
-37.5
  0
INSERT
  5
700A6
330
702F0
100
AcDbEntity
  8
Level 26
  6
Continuous
 62
    40
370
     0
100
AcDbBlockReference
  2
From Solid
 10
-3051.210539
 20
234.708537
 30
0.0
  0
INSERT
  5
700A7
330
702F0
100
AcDbEntity
  8
Level 26
  6
Continuous
 62
    40
370
     0
100
AcDbBlockReference
  2
From Solid_1
 10
-3051.210539
 20
234.708537
 30
0.0
  0
INSERT
  5
700A8
330
702F0
100
AcDbEntity
  8
Level 26
  6
Continuous
 62
    40
370
     0
100
AcDbBlockReference
  2
From Solid_2
 10
-3051.210539
 20
234.708537
 30
0.0
  0
INSERT
  5
700A9
330
702F0
100
AcDbEntity
  8
Level 26
  6
Continuous
 62
    40
370
     0
100
AcDbBlockReference
  2
From Solid_3
 10
-3051.210539
 20
234.708537
 30
0.0
  0
INSERT
  5
700AA
330
702F0
100
AcDbEntity
  8
Level 26
  6
Continuous
 62
    40
370
     0
100
AcDbBlockReference
  2
From Solid_4
 10
-3051.210539
 20
234.708537
 30
0.0
  0
INSERT
  5
700AB
330
702F0
100
AcDbEntity
  8
Level 26
  6
Continuous
 62
    40
370
     0
100
AcDbBlockReference
  2
From Solid_5
 10
-3051.210539
 20
234.708537
 30
0.0
  0
INSERT
  5
700AC
330
702F0
100
AcDbEntity
  8
Level 26
  6
Continuous
 62
    40
370
     0
100
AcDbBlockReference
  2
From Solid_6
 10
-3051.210539
 20
234.708537
 30
0.0
  0
INSERT
  5
700AD
330
702F0
100
AcDbEntity
  8
Level 26
  6
Continuous
 62
    40
370
     0
100
AcDbBlockReference
  2
From Solid_7
 10
-3051.210539
 20
234.708537
 30
0.0
  0
INSERT
  5
700AE
330
702F0
100
AcDbEntity
  8
Level 26
  6
Continuous
 62
    40
370
     0
100
AcDbBlockReference
  2
From Solid_8
 10
-3051.210539
 20
234.708537
 30
0.0
  0
INSERT
  5
700AF
330
702F0
100
AcDbEntity
  8
Level 26
  6
Continuous
 62
    20
370
     0
100
AcDbBlockReference
  2
From Surface
 10
-3051.210539
 20
234.708537
 30
0.0
  0
INSERT
  5
700B0
330
702F0
100
AcDbEntity
  8
Level 26
  6
Continuous
 62
    20
370
     0
100
AcDbBlockReference
  2
From Surface_1
 10
-3051.210539
 20
234.708537
 30
0.0
  0
INSERT
  5
700B1
330
702F0
100
AcDbEntity
  8
Level 26
  6
Continuous
 62
    20
370
     0
100
AcDbBlockReference
  2
From Surface_2
 10
-3051.210539
 20
234.708537
 30
0.0
  0
INSERT
  5
700B2
330
702F0
100
AcDbEntity
  8
Level 26
  6
Continuous
 62
    20
370
     0
100
AcDbBlockReference
  2
From Surface_3
 10
-3051.210539
 20
234.708537
 30
0.0
  0
LWPOLYLINE
  5
6FE00
330
702F0
100
AcDbEntity
  8
Level 26
  6
Continuous
 62
    20
370
     0
100
AcDbPolyline
 90
        9
 70
   129
 43
0.0
 10
600.0
 20
-80.0
 10
600.0
 20
80.0
 42
0.414214
 10
580.0
 20
100.0
 10
330.0
 20
100.0
 42
0.414214
 10
310.0
 20
80.0
 10
310.0
 20
-80.0
 42
0.414214
 10
330.0
 20
-100.0
 10
580.0
 20
-100.0
 42
0.414214
 10
600.0
 20
-80.0
  0
INSERT
  5
700B3
330
702F0
100
AcDbEntity
  8
Level 26
  6
Continuous
 62
    40
370
     0
100
AcDbBlockReference
  2
From Solid_9
 10
-3051.210539
 20
234.708537
 30
0.0
  0
INSERT
  5
700B4
330
702F0
100
AcDbEntity
  8
Level 26
  6
Continuous
 62
    40
370
     0
100
AcDbBlockReference
  2
From Solid_10
 10
-3051.210539
 20
234.708537
 30
0.0
  0
INSERT
  5
700B5
330
702F0
100
AcDbEntity
  8
Level 26
  6
Continuous
 62
    40
370
     0
100
AcDbBlockReference
  2
From Solid_11
 10
-3051.210539
 20
234.708537
 30
0.0
  0
INSERT
  5
700B6
330
702F0
100
AcDbEntity
  8
Level 26
  6
Continuous
 62
    40
370
     0
100
AcDbBlockReference
  2
From Solid_12
 10
-3051.210539
 20
234.708537
 30
0.0
  0
INSERT
  5
700B7
330
702F0
100
AcDbEntity
  8
Level 26
  6
Continuous
 62
    40
370
     0
100
AcDbBlockReference
  2
From Solid_13
 10
-3051.210539
 20
234.708537
 30
0.0
  0
INSERT
  5
700B8
330
702F0
100
AcDbEntity
  8
Level 26
  6
Continuous
 62
    40
370
     0
100
AcDbBlockReference
  2
From Solid_14
 10
-3051.210539
 20
234.708537
 30
0.0
  0
INSERT
  5
700B9
330
702F0
100
AcDbEntity
  8
Level 26
  6
Continuous
 62
    40
370
     0
100
AcDbBlockReference
  2
From Solid_15
 10
-3051.210539
 20
234.708537
 30
0.0
  0
INSERT
  5
700BA
330
702F0
100
AcDbEntity
  8
Level 26
  6
Continuous
 62
    40
370
     0
100
AcDbBlockReference
  2
From Solid_16
 10
-3051.210539
 20
234.708537
 30
0.0
  0
INSERT
  5
700BB
330
702F0
100
AcDbEntity
  8
Level 26
  6
Continuous
 62
    40
370
     0
100
AcDbBlockReference
  2
From Solid_17
 10
-3051.210539
 20
234.708537
 30
0.0
  0
INSERT
  5
700BC
330
702F0
100
AcDbEntity
  8
Level 26
  6
Continuous
 62
    20
370
     0
100
AcDbBlockReference
  2
From Surface_4
 10
-3051.210539
 20
234.708537
 30
0.0
  0
INSERT
  5
700BD
330
702F0
100
AcDbEntity
  8
Level 26
  6
Continuous
 62
    20
370
     0
100
AcDbBlockReference
  2
From Surface_5
 10
-3051.210539
 20
234.708537
 30
0.0
  0
INSERT
  5
700BE
330
702F0
100
AcDbEntity
  8
Level 26
  6
Continuous
 62
    20
370
     0
100
AcDbBlockReference
  2
From Surface_6
 10
-3051.210539
 20
234.708537
 30
0.0
  0
INSERT
  5
700BF
330
702F0
100
AcDbEntity
  8
Level 26
  6
Continuous
 62
    20
370
     0
100
AcDbBlockReference
  2
From Surface_7
 10
-3051.210539
 20
234.708537
 30
0.0
  0
LWPOLYLINE
  5
6FE5C
330
702F0
100
AcDbEntity
  8
Level 26
  6
Continuous
 62
    20
370
     0
100
AcDbPolyline
 90
        9
 70
   129
 43
0.0
 10
80.0
 20
600.0
 10
-80.0
 20
600.0
 42
0.414214
 10
-100.0
 20
580.0
 10
-100.0
 20
330.0
 42
0.414214
 10
-80.0
 20
310.0
 10
80.0
 20
310.0
 42
0.414214
 10
100.0
 20
330.0
 10
100.0
 20
580.0
 42
0.414214
 10
80.0
 20
600.0
  0
INSERT
  5
700C0
330
702F0
100
AcDbEntity
  8
Level 26
  6
Continuous
 62
    40
370
     0
100
AcDbBlockReference
  2
From Solid_18
 10
-3051.210539
 20
234.708537
 30
0.0
  0
INSERT
  5
700C1
330
702F0
100
AcDbEntity
  8
Level 26
  6
Continuous
 62
    40
370
     0
100
AcDbBlockReference
  2
From Solid_19
 10
-3051.210539
 20
234.708537
 30
0.0
  0
INSERT
  5
700C2
330
702F0
100
AcDbEntity
  8
Level 26
  6
Continuous
 62
    40
370
     0
100
AcDbBlockReference
  2
From Solid_20
 10
-3051.210539
 20
234.708537
 30
0.0
  0
INSERT
  5
700C3
330
702F0
100
AcDbEntity
  8
Level 26
  6
Continuous
 62
    40
370
     0
100
AcDbBlockReference
  2
From Solid_21
 10
-3051.210539
 20
234.708537
 30
0.0
  0
INSERT
  5
700C4
330
702F0
100
AcDbEntity
  8
Level 26
  6
Continuous
 62
    40
370
     0
100
AcDbBlockReference
  2
From Solid_22
 10
-3051.210539
 20
234.708537
 30
0.0
  0
INSERT
  5
700C5
330
702F0
100
AcDbEntity
  8
Level 26
  6
Continuous
 62
    40
370
     0
100
AcDbBlockReference
  2
From Solid_23
 10
-3051.210539
 20
234.708537
 30
0.0
  0
INSERT
  5
700C6
330
702F0
100
AcDbEntity
  8
Level 26
  6
Continuous
 62
    40
370
     0
100
AcDbBlockReference
  2
From Solid_24
 10
-3051.210539
 20
234.708537
 30
0.0
  0
INSERT
  5
700C7
330
702F0
100
AcDbEntity
  8
Level 26
  6
Continuous
 62
    40
370
     0
100
AcDbBlockReference
  2
From Solid_25
 10
-3051.210539
 20
234.708537
 30
0.0
  0
INSERT
  5
700C8
330
702F0
100
AcDbEntity
  8
Level 26
  6
Continuous
 62
    40
370
     0
100
AcDbBlockReference
  2
From Solid_26
 10
-3051.210539
 20
234.708537
 30
0.0
  0
INSERT
  5
700C9
330
702F0
100
AcDbEntity
  8
Level 26
  6
Continuous
 62
    20
370
     0
100
AcDbBlockReference
  2
From Surface_8
 10
-3051.210539
 20
234.708537
 30
0.0
  0
INSERT
  5
700CA
330
702F0
100
AcDbEntity
  8
Level 26
  6
Continuous
 62
    20
370
     0
100
AcDbBlockReference
  2
From Surface_9
 10
-3051.210539
 20
234.708537
 30
0.0
  0
INSERT
  5
700CB
330
702F0
100
AcDbEntity
  8
Level 26
  6
Continuous
 62
    20
370
     0
100
AcDbBlockReference
  2
From Surface_10
 10
-3051.210539
 20
234.708537
 30
0.0
  0
INSERT
  5
700CC
330
702F0
100
AcDbEntity
  8
Level 26
  6
Continuous
 62
    20
370
     0
100
AcDbBlockReference
  2
From Surface_11
 10
-3051.210539
 20
234.708537
 30
0.0
  0
LWPOLYLINE
  5
6FEB8
330
702F0
100
AcDbEntity
  8
Level 26
  6
Continuous
 62
    20
370
     0
100
AcDbPolyline
 90
        9
 70
   129
 43
0.0
 10
-80.0
 20
-600.0
 10
80.0
 20
-600.0
 42
0.414214
 10
100.0
 20
-580.0
 10
100.0
 20
-330.0
 42
0.414214
 10
80.0
 20
-310.0
 10
-80.0
 20
-310.0
 42
0.414214
 10
-100.0
 20
-330.0
 10
-100.0
 20
-580.0
 42
0.414214
 10
-80.0
 20
-600.0
  0
INSERT
  5
700CD
330
702F0
100
AcDbEntity
  8
Level 26
  6
Continuous
 62
    40
370
     0
100
AcDbBlockReference
  2
From Solid_27
 10
-3051.210539
 20
234.708537
 30
0.0
  0
INSERT
  5
700CE
330
702F0
100
AcDbEntity
  8
Level 26
  6
Continuous
 62
    40
370
     0
100
AcDbBlockReference
  2
From Solid_28
 10
-3051.210539
 20
234.708537
 30
0.0
  0
INSERT
  5
700CF
330
702F0
100
AcDbEntity
  8
Level 26
  6
Continuous
 62
    40
370
     0
100
AcDbBlockReference
  2
From Solid_29
 10
-3051.210539
 20
234.708537
 30
0.0
  0
INSERT
  5
700D0
330
702F0
100
AcDbEntity
  8
Level 26
  6
Continuous
 62
    40
370
     0
100
AcDbBlockReference
  2
From Solid_30
 10
-3051.210539
 20
234.708537
 30
0.0
  0
INSERT
  5
700D1
330
702F0
100
AcDbEntity
  8
Level 26
  6
Continuous
 62
    40
370
     0
100
AcDbBlockReference
  2
From Solid_31
 10
-3051.210539
 20
234.708537
 30
0.0
  0
INSERT
  5
700D2
330
702F0
100
AcDbEntity
  8
Level 26
  6
Continuous
 62
    40
370
     0
100
AcDbBlockReference
  2
From Solid_32
 10
-3051.210539
 20
234.708537
 30
0.0
  0
INSERT
  5
700D3
330
702F0
100
AcDbEntity
  8
Level 26
  6
Continuous
 62
    40
370
     0
100
AcDbBlockReference
  2
From Solid_33
 10
-3051.210539
 20
234.708537
 30
0.0
  0
INSERT
  5
700D4
330
702F0
100
AcDbEntity
  8
Level 26
  6
Continuous
 62
    40
370
     0
100
AcDbBlockReference
  2
From Solid_34
 10
-3051.210539
 20
234.708537
 30
0.0
  0
INSERT
  5
700D5
330
702F0
100
AcDbEntity
  8
Level 26
  6
Continuous
 62
    40
370
     0
100
AcDbBlockReference
  2
From Solid_35
 10
-3051.210539
 20
234.708537
 30
0.0
  0
INSERT
  5
700D6
330
702F0
100
AcDbEntity
  8
Level 26
  6
Continuous
 62
    40
370
     0
100
AcDbBlockReference
  2
From Solid_36
 10
-3051.210539
 20
234.708537
 30
0.0
  0
INSERT
  5
700D7
330
702F0
100
AcDbEntity
  8
Level 26
  6
Continuous
 62
    40
370
     0
100
AcDbBlockReference
  2
From Solid_37
 10
-3051.210539
 20
234.708537
 30
0.0
  0
INSERT
  5
700D8
330
702F0
100
AcDbEntity
  8
Level 26
  6
Continuous
 62
    40
370
     0
100
AcDbBlockReference
  2
From Solid_38
 10
-3051.210539
 20
234.708537
 30
0.0
  0
INSERT
  5
700D9
330
702F0
100
AcDbEntity
  8
Level 26
  6
Continuous
 62
    40
370
     0
100
AcDbBlockReference
  2
From Solid_39
 10
-3051.210539
 20
234.708537
 30
0.0
  0
INSERT
  5
700DA
330
702F0
100
AcDbEntity
  8
Level 26
  6
Continuous
 62
    20
370
     0
100
AcDbBlockReference
  2
From Surface_12
 10
-3051.210539
 20
234.708537
 30
0.0
  0
INSERT
  5
700DB
330
702F0
100
AcDbEntity
  8
Level 26
  6
Continuous
 62
    20
370
     0
100
AcDbBlockReference
  2
From Surface_13
 10
-3051.210539
 20
234.708537
 30
0.0
  0
INSERT
  5
700DC
330
702F0
100
AcDbEntity
  8
Level 26
  6
Continuous
 62
    20
370
     0
100
AcDbBlockReference
  2
From Surface_14
 10
-3051.210539
 20
234.708537
 30
0.0
  0
INSERT
  5
700DD
330
702F0
100
AcDbEntity
  8
Level 26
  6
Continuous
 62
    20
370
     0
100
AcDbBlockReference
  2
From Surface_15
 10
-3051.210539
 20
234.708537
 30
0.0
  0
LWPOLYLINE
  5
6FF30
330
702F0
100
AcDbEntity
  8
Level 26
  6
Continuous
 62
    20
370
     0
100
AcDbPolyline
 90
        9
 70
   129
 43
0.0
 10
-600.0
 20
80.0
 10
-600.0
 20
-80.0
 42
0.414214
 10
-580.0
 20
-100.0
 10
-330.0
 20
-100.0
 42
0.414214
 10
-310.0
 20
-80.0
 10
-310.0
 20
80.0
 42
0.414214
 10
-330.0
 20
100.0
 10
-580.0
 20
100.0
 42
0.414214
 10
-600.0
 20
80.0
  0
LWPOLYLINE
  5
6FF39
330
702F0
100
AcDbEntity
  8
Level 26
  6
Continuous
 62
    40
370
     0
100
AcDbPolyline
 90
        5
 70
   129
 43
0.0
 10
37.5
 20
595.0
 10
-37.5
 20
595.0
 10
-37.5
 20
595.0
 10
37.5
 20
595.0
 10
37.5
 20
595.0
  0
LWPOLYLINE
  5
6FF3E
330
702F0
100
AcDbEntity
  8
Level 26
  6
Continuous
 62
    40
370
     0
100
AcDbPolyline
 90
        5
 70
   129
 43
0.0
 10
37.5
 20
-595.0
 10
-37.5
 20
-595.0
 10
-37.5
 20
-595.0
 10
37.5
 20
-595.0
 10
37.5
 20
-595.0
  0
LWPOLYLINE
  5
6FF43
330
702F0
100
AcDbEntity
  8
Level 26
  6
Continuous
 62
    40
370
     0
100
AcDbPolyline
 90
        5
 70
   129
 43
0.0
 10
-595.0
 20
37.5
 10
-595.0
 20
-37.5
 10
-595.0
 20
-37.5
 10
-595.0
 20
37.5
 10
-595.0
 20
37.5
  0
LWPOLYLINE
  5
6FF48
330
702F0
100
AcDbEntity
  8
Level 26
  6
Continuous
 62
    40
370
     0
100
AcDbPolyline
 90
        5
 70
   129
 43
0.0
 10
595.0
 20
37.5
 10
595.0
 20
-37.5
 10
595.0
 20
-37.5
 10
595.0
 20
37.5
 10
595.0
 20
37.5
  0
INSERT
  5
700DE
330
702F0
100
AcDbEntity
  8
Level 26
  6
Continuous
 62
     7
370
     0
100
AcDbBlockReference
  2
From Bspline Surface
 10
-3051.210539
 20
234.708537
 30
0.0
  0
INSERT
  5
700FD
330
702F0
100
AcDbEntity
  8
Level 26
  6
Continuous
 62
     7
370
     0
100
AcDbBlockReference
  2
From Bspline Surface_1
 10
-3051.210539
 20
234.708537
 30
0.0
  0
INSERT
  5
7011C
330
702F0
100
AcDbEntity
  8
Level 26
  6
Continuous
 62
     7
370
     0
100
AcDbBlockReference
  2
From Bspline Surface_2
 10
-3051.210539
 20
234.708537
 30
0.0
  0
INSERT
  5
7013B
330
702F0
100
AcDbEntity
  8
Level 26
  6
Continuous
 62
     7
370
     0
100
AcDbBlockReference
  2
From Bspline Surface_3
 10
-3051.210539
 20
234.708537
 30
0.0
  0
INSERT
  5
7015A
330
702F0
100
AcDbEntity
  8
Level 26
  6
Continuous
 62
     7
370
     0
100
AcDbBlockReference
  2
From Bspline Surface_4
 10
-3051.210539
 20
234.708537
 30
0.0
  0
INSERT
  5
70179
330
702F0
100
AcDbEntity
  8
Level 26
  6
Continuous
 62
     7
370
     0
100
AcDbBlockReference
  2
From Bspline Surface_5
 10
-3051.210539
 20
234.708537
 30
0.0
  0
INSERT
  5
70198
330
702F0
100
AcDbEntity
  8
Level 26
  6
Continuous
 62
     7
370
     0
100
AcDbBlockReference
  2
From Bspline Surface_6
 10
-3051.210539
 20
234.708537
 30
0.0
  0
INSERT
  5
701B7
330
702F0
100
AcDbEntity
  8
Level 26
  6
Continuous
 62
     7
370
     0
100
AcDbBlockReference
  2
From Bspline Surface_7
 10
-3051.210539
 20
234.708537
 30
0.0
  0
INSERT
  5
701D6
330
702F0
100
AcDbEntity
  8
Level 26
  6
Continuous
 62
    40
370
     0
100
AcDbBlockReference
  2
From Solid_40
 10
-3051.210539
 20
234.708537
 30
0.0
  0
INSERT
  5
701D7
330
702F0
100
AcDbEntity
  8
Level 26
  6
Continuous
 62
    40
370
     0
100
AcDbBlockReference
  2
From Solid_41
 10
-3051.210539
 20
234.708537
 30
0.0
  0
INSERT
  5
701D8
330
702F0
100
AcDbEntity
  8
Level 26
  6
Continuous
 62
    40
370
     0
100
AcDbBlockReference
  2
From Solid_42
 10
-3051.210539
 20
234.708537
 30
0.0
  0
INSERT
  5
701D9
330
702F0
100
AcDbEntity
  8
Level 26
  6
Continuous
 62
    40
370
     0
100
AcDbBlockReference
  2
From Solid_43
 10
-3051.210539
 20
234.708537
 30
0.0
  0
INSERT
  5
701DA
330
702F0
100
AcDbEntity
  8
Level 26
  6
Continuous
 62
    40
370
     0
100
AcDbBlockReference
  2
From Solid_44
 10
-3051.210539
 20
234.708537
 30
0.0
  0
INSERT
  5
701DB
330
702F0
100
AcDbEntity
  8
Level 26
  6
Continuous
 62
    40
370
     0
100
AcDbBlockReference
  2
From Solid_45
 10
-3051.210539
 20
234.708537
 30
0.0
  0
INSERT
  5
701DC
330
702F0
100
AcDbEntity
  8
Level 26
  6
Continuous
 62
    40
370
     0
100
AcDbBlockReference
  2
From Solid_46
 10
-3051.210539
 20
234.708537
 30
0.0
  0
INSERT
  5
701DD
330
702F0
100
AcDbEntity
  8
Level 26
  6
Continuous
 62
    40
370
     0
100
AcDbBlockReference
  2
From Solid_47
 10
-3051.210539
 20
234.708537
 30
0.0
  0
INSERT
  5
701DE
330
702F0
100
AcDbEntity
  8
Level 26
  6
Continuous
 62
    40
370
     0
100
AcDbBlockReference
  2
From Solid_48
 10
-3051.210539
 20
234.708537
 30
0.0
  0
INSERT
  5
701DF
330
702F0
100
AcDbEntity
  8
Level 26
  6
Continuous
 62
    40
370
     0
100
AcDbBlockReference
  2
From Solid_49
 10
-3051.210539
 20
234.708537
 30
0.0
  0
INSERT
  5
701E0
330
702F0
100
AcDbEntity
  8
Level 26
  6
Continuous
 62
    40
370
     0
100
AcDbBlockReference
  2
From Solid_50
 10
-3051.210539
 20
234.708537
 30
0.0
  0
INSERT
  5
701E1
330
702F0
100
AcDbEntity
  8
Level 26
  6
Continuous
 62
    40
370
     0
100
AcDbBlockReference
  2
From Solid_51
 10
-3051.210539
 20
234.708537
 30
0.0
  0
ENDBLK
  5
702F2
330
702F0
100
AcDbEntity
  8
0
 62
    98
370
     0
100
AcDbBlockEnd
  0
BLOCK
  5
702F4
330
702F3
100
AcDbEntity
  8
0
 62
    98
370
     0
100
AcDbBlockBegin
  2
From Solid
 70
     0
 10
0.0
 20
0.0
 30
0.0
  3
From Solid
  1

  0
LINE
  5
6FDAE
330
702F3
100
AcDbEntity
  8
Level 26
  6
Continuous
 62
    40
370
     0
100
AcDbLine
 10
3324.660539
 20
-374.709514
 30
0.0
 11
3297.760539
 21
-374.709514
 31
0.0
  0
LINE
  5
6FDAF
330
702F3
100
AcDbEntity
  8
Level 26
  6
Continuous
 62
    40
370
     0
100
AcDbLine
 10
3324.660539
 20
-94.70756
 30
0.0
 11
3297.760539
 21
-94.70756
 31
0.0
  0
LINE
  5
6FDB0
330
702F3
100
AcDbEntity
  8
Level 26
  6
Continuous
 62
    40
370
     0
100
AcDbLine
 10
3311.210539
 20
-374.709514
 30
0.0
 11
3311.210539
 21
-94.70756
 31
0.0
  0
LINE
  5
6FDB1
330
702F3
100
AcDbEntity
  8
Level 26
  6
Continuous
 62
    40
370
     0
100
AcDbLine
 10
3324.660539
 20
-374.709514
 30
0.0
 11
3324.660539
 21
-94.70756
 31
0.0
  0
LINE
  5
6FDB2
330
702F3
100
AcDbEntity
  8
Level 26
  6
Continuous
 62
    40
370
     0
100
AcDbLine
 10
3311.210539
 20
-374.709514
 30
0.0
 11
3311.210539
 21
-94.70756
 31
0.0
  0
LINE
  5
6FDB3
330
702F3
100
AcDbEntity
  8
Level 26
  6
Continuous
 62
    40
370
     0
100
AcDbLine
 10
3297.760539
 20
-374.709514
 30
0.0
 11
3297.760539
 21
-94.70756
 31
0.0
  0
ENDBLK
  5
702F5
330
702F3
100
AcDbEntity
  8
0
 62
    98
370
     0
100
AcDbBlockEnd
  0
BLOCK
  5
702F7
330
702F6
100
AcDbEntity
  8
0
 62
    98
370
     0
100
AcDbBlockBegin
  2
From Solid_1
 70
     0
 10
0.0
 20
0.0
 30
0.0
  3
From Solid_1
  1

  0
LINE
  5
6FDB5
330
702F6
100
AcDbEntity
  8
Level 26
  6
Continuous
 62
    40
370
     0
100
AcDbLine
 10
3324.660539
 20
-374.709514
 30
0.0
 11
3297.760539
 21
-374.709514
 31
0.0
  0
LINE
  5
6FDB6
330
702F6
100
AcDbEntity
  8
Level 26
  6
Continuous
 62
    40
370
     0
100
AcDbLine
 10
3324.660539
 20
-94.70756
 30
0.0
 11
3297.760539
 21
-94.70756
 31
0.0
  0
LINE
  5
6FDB7
330
702F6
100
AcDbEntity
  8
Level 26
  6
Continuous
 62
    40
370
     0
100
AcDbLine
 10
3311.210539
 20
-374.709514
 30
0.0
 11
3311.210539
 21
-94.70756
 31
0.0
  0
LINE
  5
6FDB8
330
702F6
100
AcDbEntity
  8
Level 26
  6
Continuous
 62
    40
370
     0
100
AcDbLine
 10
3324.660539
 20
-374.709514
 30
0.0
 11
3324.660539
 21
-94.70756
 31
0.0
  0
LINE
  5
6FDB9
330
702F6
100
AcDbEntity
  8
Level 26
  6
Continuous
 62
    40
370
     0
100
AcDbLine
 10
3311.210539
 20
-374.709514
 30
0.0
 11
3311.210539
 21
-94.70756
 31
0.0
  0
LINE
  5
6FDBA
330
702F6
100
AcDbEntity
  8
Level 26
  6
Continuous
 62
    40
370
     0
100
AcDbLine
 10
3297.760539
 20
-374.709514
 30
0.0
 11
3297.760539
 21
-94.70756
 31
0.0
  0
ENDBLK
  5
702F8
330
702F6
100
AcDbEntity
  8
0
 62
    98
370
     0
100
AcDbBlockEnd
  0
BLOCK
  5
702FA
330
702F9
100
AcDbEntity
  8
0
 62
    98
370
     0
100
AcDbBlockBegin
  2
From Solid_2
 70
     0
 10
0.0
 20
0.0
 30
0.0
  3
From Solid_2
  1

  0
CIRCLE
  5
6FDBC
330
702F9
100
AcDbEntity
  8
Level 26
  6
Continuous
 62
    40
370
     0
100
AcDbCircle
 10
3311.210539
 20
-376.258587
 30
0.0
 40
13.45
  0
CIRCLE
  5
6FDBD
330
702F9
100
AcDbEntity
  8
Level 26
  6
Continuous
 62
    40
370
     0
100
AcDbCircle
 10
3311.210539
 20
-376.258587
 30
0.0
 40
13.45
  0
POINT
  5
6FDBE
330
702F9
100
AcDbEntity
  8
Level 26
  6
Continuous
 62
    40
370
     0
100
AcDbPoint
 10
3297.760539
 20
-376.258587
 30
0.0
  0
POINT
  5
6FDBF
330
702F9
100
AcDbEntity
  8
Level 26
  6
Continuous
 62
    40
370
     0
100
AcDbPoint
 10
3311.210539
 20
-389.708587
 30
0.0
  0
POINT
  5
6FDC0
330
702F9
100
AcDbEntity
  8
Level 26
  6
Continuous
 62
    40
370
     0
100
AcDbPoint
 10
3324.660539
 20
-376.258587
 30
0.0
  0
POINT
  5
6FDC1
330
702F9
100
AcDbEntity
  8
Level 26
  6
Continuous
 62
    40
370
     0
100
AcDbPoint
 10
3311.210539
 20
-362.808587
 30
0.0
  0
ENDBLK
  5
702FB
330
702F9
100
AcDbEntity
  8
0
 62
    98
370
     0
100
AcDbBlockEnd
  0
BLOCK
  5
702FD
330
702FC
100
AcDbEntity
  8
0
 62
    98
370
     0
100
AcDbBlockBegin
  2
From Solid_3
 70
     0
 10
0.0
 20
0.0
 30
0.0
  3
From Solid_3
  1

  0
CIRCLE
  5
6FDC3
330
702FC
100
AcDbEntity
  8
Level 26
  6
Continuous
 62
    40
370
     0
100
AcDbCircle
 10
3311.210539
 20
-93.158489
 30
0.0
 40
13.45
  0
CIRCLE
  5
6FDC4
330
702FC
100
AcDbEntity
  8
Level 26
  6
Continuous
 62
    40
370
     0
100
AcDbCircle
 10
3311.210539
 20
-93.158489
 30
0.0
 40
13.45
  0
POINT
  5
6FDC5
330
702FC
100
AcDbEntity
  8
Level 26
  6
Continuous
 62
    40
370
     0
100
AcDbPoint
 10
3324.660539
 20
-93.158489
 30
0.0
  0
POINT
  5
6FDC6
330
702FC
100
AcDbEntity
  8
Level 26
  6
Continuous
 62
    40
370
     0
100
AcDbPoint
 10
3311.210539
 20
-106.608489
 30
0.0
  0
POINT
  5
6FDC7
330
702FC
100
AcDbEntity
  8
Level 26
  6
Continuous
 62
    40
370
     0
100
AcDbPoint
 10
3297.760539
 20
-93.158489
 30
0.0
  0
POINT
  5
6FDC8
330
702FC
100
AcDbEntity
  8
Level 26
  6
Continuous
 62
    40
370
     0
100
AcDbPoint
 10
3311.210539
 20
-79.708489
 30
0.0
  0
ENDBLK
  5
702FE
330
702FC
100
AcDbEntity
  8
0
 62
    98
370
     0
100
AcDbBlockEnd
  0
BLOCK
  5
70300
330
702FF
100
AcDbEntity
  8
0
 62
    98
370
     0
100
AcDbBlockBegin
  2
From Solid_4
 70
     0
 10
0.0
 20
0.0
 30
0.0
  3
From Solid_4
  1

  0
LINE
  5
6FDCA
330
702FF
100
AcDbEntity
  8
Level 26
  6
Continuous
 62
    40
370
     0
100
AcDbLine
 10
3324.660539
 20
-163.158489
 30
0.0
 11
3297.760539
 21
-163.158489
 31
0.0
  0
LINE
  5
6FDCB
330
702FF
100
AcDbEntity
  8
Level 26
  6
Continuous
 62
    40
370
     0
100
AcDbLine
 10
3324.660539
 20
-306.258587
 30
0.0
 11
3297.760539
 21
-306.258587
 31
0.0
  0
LINE
  5
6FDCC
330
702FF
100
AcDbEntity
  8
Level 26
  6
Continuous
 62
    40
370
     0
100
AcDbLine
 10
3311.210539
 20
-163.158489
 30
0.0
 11
3311.210539
 21
-306.258587
 31
0.0
  0
LINE
  5
6FDCD
330
702FF
100
AcDbEntity
  8
Level 26
  6
Continuous
 62
    40
370
     0
100
AcDbLine
 10
3324.660539
 20
-163.158489
 30
0.0
 11
3324.660539
 21
-306.258587
 31
0.0
  0
LINE
  5
6FDCE
330
702FF
100
AcDbEntity
  8
Level 26
  6
Continuous
 62
    40
370
     0
100
AcDbLine
 10
3311.210539
 20
-163.158489
 30
0.0
 11
3311.210539
 21
-306.258587
 31
0.0
  0
LINE
  5
6FDCF
330
702FF
100
AcDbEntity
  8
Level 26
  6
Continuous
 62
    40
370
     0
100
AcDbLine
 10
3297.760539
 20
-163.158489
 30
0.0
 11
3297.760539
 21
-306.258587
 31
0.0
  0
ENDBLK
  5
70301
330
702FF
100
AcDbEntity
  8
0
 62
    98
370
     0
100
AcDbBlockEnd
  0
BLOCK
  5
70303
330
70302
100
AcDbEntity
  8
0
 62
    98
370
     0
100
AcDbBlockBegin
  2
From Solid_5
 70
     0
 10
0.0
 20
0.0
 30
0.0
  3
From Solid_5
  1

  0
LINE
  5
6FDD1
330
70302
100
AcDbEntity
  8
Level 26
  6
Continuous
 62
    40
370
     0
100
AcDbLine
 10
3706.560539
 20
-144.684001
 30
0.0
 11
3679.660539
 21
-144.684001
 31
0.0
  0
LINE
  5
6FDD2
330
70302
100
AcDbEntity
  8
Level 26
  6
Continuous
 62
    40
370
     0
100
AcDbLine
 10
3706.560539
 20
-324.733073
 30
0.0
 11
3679.660539
 21
-324.733073
 31
0.0
  0
LINE
  5
6FDD3
330
70302
100
AcDbEntity
  8
Level 26
  6
Continuous
 62
    40
370
     0
100
AcDbLine
 10
3693.110539
 20
-144.684001
 30
0.0
 11
3693.110539
 21
-324.733073
 31
0.0
  0
LINE
  5
6FDD4
330
70302
100
AcDbEntity
  8
Level 26
  6
Continuous
 62
    40
370
     0
100
AcDbLine
 10
3706.560539
 20
-144.684001
 30
0.0
 11
3706.560539
 21
-324.733073
 31
0.0
  0
LINE
  5
6FDD5
330
70302
100
AcDbEntity
  8
Level 26
  6
Continuous
 62
    40
370
     0
100
AcDbLine
 10
3693.110539
 20
-144.684001
 30
0.0
 11
3693.110539
 21
-324.733073
 31
0.0
  0
LINE
  5
6FDD6
330
70302
100
AcDbEntity
  8
Level 26
  6
Continuous
 62
    40
370
     0
100
AcDbLine
 10
3679.660539
 20
-144.684001
 30
0.0
 11
3679.660539
 21
-324.733073
 31
0.0
  0
ENDBLK
  5
70304
330
70302
100
AcDbEntity
  8
0
 62
    98
370
     0
100
AcDbBlockEnd
  0
BLOCK
  5
70306
330
70305
100
AcDbEntity
  8
0
 62
    98
370
     0
100
AcDbBlockBegin
  2
From Solid_6
 70
     0
 10
0.0
 20
0.0
 30
0.0
  3
From Solid_6
  1

  0
LINE
  5
6FDD8
330
70305
100
AcDbEntity
  8
Level 26
  6
Continuous
 62
    40
370
     0
100
AcDbLine
 10
3706.560539
 20
-144.684001
 30
0.0
 11
3679.660539
 21
-144.684001
 31
0.0
  0
LINE
  5
6FDD9
330
70305
100
AcDbEntity
  8
Level 26
  6
Continuous
 62
    40
370
     0
100
AcDbLine
 10
3706.560539
 20
-324.733073
 30
0.0
 11
3679.660539
 21
-324.733073
 31
0.0
  0
LINE
  5
6FDDA
330
70305
100
AcDbEntity
  8
Level 26
  6
Continuous
 62
    40
370
     0
100
AcDbLine
 10
3693.110539
 20
-144.684001
 30
0.0
 11
3693.110539
 21
-324.733073
 31
0.0
  0
LINE
  5
6FDDB
330
70305
100
AcDbEntity
  8
Level 26
  6
Continuous
 62
    40
370
     0
100
AcDbLine
 10
3706.560539
 20
-144.684001
 30
0.0
 11
3706.560539
 21
-324.733073
 31
0.0
  0
LINE
  5
6FDDC
330
70305
100
AcDbEntity
  8
Level 26
  6
Continuous
 62
    40
370
     0
100
AcDbLine
 10
3693.110539
 20
-144.684001
 30
0.0
 11
3693.110539
 21
-324.733073
 31
0.0
  0
LINE
  5
6FDDD
330
70305
100
AcDbEntity
  8
Level 26
  6
Continuous
 62
    40
370
     0
100
AcDbLine
 10
3679.660539
 20
-144.684001
 30
0.0
 11
3679.660539
 21
-324.733073
 31
0.0
  0
ENDBLK
  5
70307
330
70305
100
AcDbEntity
  8
0
 62
    98
370
     0
100
AcDbBlockEnd
  0
BLOCK
  5
70309
330
70308
100
AcDbEntity
  8
0
 62
    98
370
     0
100
AcDbBlockBegin
  2
From Solid_7
 70
     0
 10
0.0
 20
0.0
 30
0.0
  3
From Solid_7
  1

  0
LWPOLYLINE
  5
7030B
330
70308
100
AcDbEntity
  8
Level 26
  6
Continuous
 62
    40
370
     0
100
AcDbPolyline
 90
        2
 70
   128
 43
0.0
 10
3324.660539
 20
-163.158487
 10
3297.760539
 20
-163.158487
  0
CIRCLE
  5
6FDE0
330
70308
100
AcDbEntity
  8
Level 26
  6
Continuous
 62
    40
370
     0
100
AcDbCircle
 10
3311.210539
 20
-93.158489
 30
0.0
 40
13.45000000000001
  0
LINE
  5
6FDE1
330
70308
100
AcDbEntity
  8
Level 26
  6
Continuous
 62
    40
370
     0
100
AcDbLine
 10
3297.760539
 20
-93.158489
 30
0.0
 11
3297.760539
 21
-163.158487
 31
0.0
  0
LINE
  5
6FDE2
330
70308
100
AcDbEntity
  8
Level 26
  6
Continuous
 62
    40
370
     0
100
AcDbLine
 10
3311.210539
 20
-79.708489
 30
0.0
 11
3311.210539
 21
-163.158542
 31
0.0
  0
LINE
  5
6FDE3
330
70308
100
AcDbEntity
  8
Level 26
  6
Continuous
 62
    40
370
     0
100
AcDbLine
 10
3324.660539
 20
-93.158489
 30
0.0
 11
3324.660539
 21
-163.158487
 31
0.0
  0
LINE
  5
6FDE4
330
70308
100
AcDbEntity
  8
Level 26
  6
Continuous
 62
    40
370
     0
100
AcDbLine
 10
3311.210539
 20
-106.608489
 30
0.0
 11
3311.210539
 21
-163.158432
 31
0.0
  0
ENDBLK
  5
7030A
330
70308
100
AcDbEntity
  8
0
 62
    98
370
     0
100
AcDbBlockEnd
  0
BLOCK
  5
7030D
330
7030C
100
AcDbEntity
  8
0
 62
    98
370
     0
100
AcDbBlockBegin
  2
From Solid_8
 70
     0
 10
0.0
 20
0.0
 30
0.0
  3
From Solid_8
  1

  0
CIRCLE
  5
6FDE6
330
7030C
100
AcDbEntity
  8
Level 26
  6
Continuous
 62
    40
370
     0
100
AcDbCircle
 10
3311.210539
 20
-376.258586
 30
0.0
 40
13.45
  0
LWPOLYLINE
  5
7030F
330
7030C
100
AcDbEntity
  8
Level 26
  6
Continuous
 62
    40
370
     0
100
AcDbPolyline
 90
        2
 70
   128
 43
0.0
 10
3324.660539
 20
-306.258587
 10
3297.760539
 20
-306.258587
  0
LINE
  5
6FDE8
330
7030C
100
AcDbEntity
  8
Level 26
  6
Continuous
 62
    40
370
     0
100
AcDbLine
 10
3297.760539
 20
-306.258587
 30
0.0
 11
3297.760539
 21
-376.258586
 31
0.0
  0
LINE
  5
6FDE9
330
7030C
100
AcDbEntity
  8
Level 26
  6
Continuous
 62
    40
370
     0
100
AcDbLine
 10
3311.210539
 20
-306.258532
 30
0.0
 11
3311.210539
 21
-389.708586
 31
0.0
  0
LINE
  5
6FDEA
330
7030C
100
AcDbEntity
  8
Level 26
  6
Continuous
 62
    40
370
     0
100
AcDbLine
 10
3324.660539
 20
-306.258587
 30
0.0
 11
3324.660539
 21
-376.258586
 31
0.0
  0
LINE
  5
6FDEB
330
7030C
100
AcDbEntity
  8
Level 26
  6
Continuous
 62
    40
370
     0
100
AcDbLine
 10
3311.210539
 20
-306.258642
 30
0.0
 11
3311.210539
 21
-362.808586
 31
0.0
  0
ENDBLK
  5
7030E
330
7030C
100
AcDbEntity
  8
0
 62
    98
370
     0
100
AcDbBlockEnd
  0
BLOCK
  5
70311
330
70310
100
AcDbEntity
  8
0
 62
    98
370
     0
100
AcDbBlockBegin
  2
From Surface
 70
     0
 10
0.0
 20
0.0
 30
0.0
  3
From Surface
  1

  0
ARC
  5
6FDED
330
70310
100
AcDbEntity
  8
Level 26
  6
Continuous
 62
    20
370
     0
100
AcDbCircle
 10
-3381.210537
 20
-154.708536
 30
0.0
 40
19.99999871533719
210
0.0
220
0.0
230
-1.0
100
AcDbArc
 50
359.999996
 51
90.000004
  0
ARC
  5
6FDEE
330
70310
100
AcDbEntity
  8
Level 26
  6
Continuous
 62
    20
370
     0
100
AcDbCircle
 10
-3381.210537
 20
-154.708536
 30
0.0
 40
19.99999871533719
210
0.0
220
0.0
230
-1.0
100
AcDbArc
 50
359.999996
 51
90.000004
  0
POINT
  5
6FDEF
330
70310
100
AcDbEntity
  8
Level 26
  6
Continuous
 62
    20
370
     0
100
AcDbPoint
 10
3361.210539
 20
-154.708537
 30
0.0
  0
POINT
  5
6FDF0
330
70310
100
AcDbEntity
  8
Level 26
  6
Continuous
 62
    20
370
     0
100
AcDbPoint
 10
3381.210539
 20
-134.708537
 30
0.0
  0
ENDBLK
  5
70312
330
70310
100
AcDbEntity
  8
0
 62
    98
370
     0
100
AcDbBlockEnd
  0
BLOCK
  5
70314
330
70313
100
AcDbEntity
  8
0
 62
    98
370
     0
100
AcDbBlockBegin
  2
From Surface_1
 70
     0
 10
0.0
 20
0.0
 30
0.0
  3
From Surface_1
  1

  0
ARC
  5
6FDF2
330
70313
100
AcDbEntity
  8
Level 26
  6
Continuous
 62
    20
370
     0
100
AcDbCircle
 10
-3381.210537
 20
-314.708538
 30
0.0
 40
19.99999871533725
210
0.0
220
0.0
230
-1.0
100
AcDbArc
 50
269.999996
 51
0.000004
  0
ARC
  5
6FDF3
330
70313
100
AcDbEntity
  8
Level 26
  6
Continuous
 62
    20
370
     0
100
AcDbCircle
 10
-3381.210537
 20
-314.708538
 30
0.0
 40
19.99999871533726
210
0.0
220
0.0
230
-1.0
100
AcDbArc
 50
269.999996
 51
0.000004
  0
POINT
  5
6FDF4
330
70313
100
AcDbEntity
  8
Level 26
  6
Continuous
 62
    20
370
     0
100
AcDbPoint
 10
3381.210539
 20
-334.708537
 30
0.0
  0
POINT
  5
6FDF5
330
70313
100
AcDbEntity
  8
Level 26
  6
Continuous
 62
    20
370
     0
100
AcDbPoint
 10
3361.210539
 20
-314.708537
 30
0.0
  0
ENDBLK
  5
70315
330
70313
100
AcDbEntity
  8
0
 62
    98
370
     0
100
AcDbBlockEnd
  0
BLOCK
  5
70317
330
70316
100
AcDbEntity
  8
0
 62
    98
370
     0
100
AcDbBlockBegin
  2
From Surface_2
 70
     0
 10
0.0
 20
0.0
 30
0.0
  3
From Surface_2
  1

  0
ARC
  5
6FDF7
330
70316
100
AcDbEntity
  8
Level 26
  6
Continuous
 62
    20
370
     0
100
AcDbCircle
 10
-3631.21054
 20
-314.708538
 30
0.0
 40
19.99999871533696
210
0.0
220
0.0
230
-1.0
100
AcDbArc
 50
179.999996
 51
270.000004
  0
ARC
  5
6FDF8
330
70316
100
AcDbEntity
  8
Level 26
  6
Continuous
 62
    20
370
     0
100
AcDbCircle
 10
-3631.21054
 20
-314.708538
 30
0.0
 40
19.99999871533696
210
0.0
220
0.0
230
-1.0
100
AcDbArc
 50
179.999996
 51
270.000004
  0
POINT
  5
6FDF9
330
70316
100
AcDbEntity
  8
Level 26
  6
Continuous
 62
    20
370
     0
100
AcDbPoint
 10
3651.210539
 20
-314.708537
 30
0.0
  0
POINT
  5
6FDFA
330
70316
100
AcDbEntity
  8
Level 26
  6
Continuous
 62
    20
370
     0
100
AcDbPoint
 10
3631.210539
 20
-334.708537
 30
0.0
  0
ENDBLK
  5
70318
330
70316
100
AcDbEntity
  8
0
 62
    98
370
     0
100
AcDbBlockEnd
  0
BLOCK
  5
7031A
330
70319
100
AcDbEntity
  8
0
 62
    98
370
     0
100
AcDbBlockBegin
  2
From Surface_3
 70
     0
 10
0.0
 20
0.0
 30
0.0
  3
From Surface_3
  1

  0
ARC
  5
6FDFC
330
70319
100
AcDbEntity
  8
Level 26
  6
Continuous
 62
    20
370
     0
100
AcDbCircle
 10
-3631.21054
 20
-154.708536
 30
0.0
 40
19.99999871533713
210
0.0
220
0.0
230
-1.0
100
AcDbArc
 50
89.999996
 51
180.000004
  0
ARC
  5
6FDFD
330
70319
100
AcDbEntity
  8
Level 26
  6
Continuous
 62
    20
370
     0
100
AcDbCircle
 10
-3631.21054
 20
-154.708536
 30
0.0
 40
19.99999871533713
210
0.0
220
0.0
230
-1.0
100
AcDbArc
 50
89.999996
 51
180.000004
  0
POINT
  5
6FDFE
330
70319
100
AcDbEntity
  8
Level 26
  6
Continuous
 62
    20
370
     0
100
AcDbPoint
 10
3631.210539
 20
-134.708537
 30
0.0
  0
POINT
  5
6FDFF
330
70319
100
AcDbEntity
  8
Level 26
  6
Continuous
 62
    20
370
     0
100
AcDbPoint
 10
3651.210539
 20
-154.708537
 30
0.0
  0
ENDBLK
  5
7031B
330
70319
100
AcDbEntity
  8
0
 62
    98
370
     0
100
AcDbBlockEnd
  0
BLOCK
  5
7031D
330
7031C
100
AcDbEntity
  8
0
 62
    98
370
     0
100
AcDbBlockBegin
  2
From Solid_9
 70
     0
 10
0.0
 20
0.0
 30
0.0
  3
From Solid_9
  1

  0
LINE
  5
6FE0A
330
7031C
100
AcDbEntity
  8
Level 26
  6
Continuous
 62
    40
370
     0
100
AcDbLine
 10
3191.211516
 20
38.741463
 30
0.0
 11
3191.211516
 21
11.841463
 31
0.0
  0
LINE
  5
6FE0B
330
7031C
100
AcDbEntity
  8
Level 26
  6
Continuous
 62
    40
370
     0
100
AcDbLine
 10
2911.209562
 20
38.741463
 30
0.0
 11
2911.209562
 21
11.841463
 31
0.0
  0
LINE
  5
6FE0C
330
7031C
100
AcDbEntity
  8
Level 26
  6
Continuous
 62
    40
370
     0
100
AcDbLine
 10
3191.211516
 20
25.291463
 30
0.0
 11
2911.209562
 21
25.291463
 31
0.0
  0
LINE
  5
6FE0D
330
7031C
100
AcDbEntity
  8
Level 26
  6
Continuous
 62
    40
370
     0
100
AcDbLine
 10
3191.211516
 20
38.741463
 30
0.0
 11
2911.209562
 21
38.741463
 31
0.0
  0
LINE
  5
6FE0E
330
7031C
100
AcDbEntity
  8
Level 26
  6
Continuous
 62
    40
370
     0
100
AcDbLine
 10
3191.211516
 20
25.291463
 30
0.0
 11
2911.209562
 21
25.291463
 31
0.0
  0
LINE
  5
6FE0F
330
7031C
100
AcDbEntity
  8
Level 26
  6
Continuous
 62
    40
370
     0
100
AcDbLine
 10
3191.211516
 20
11.841463
 30
0.0
 11
2911.209562
 21
11.841463
 31
0.0
  0
ENDBLK
  5
7031E
330
7031C
100
AcDbEntity
  8
0
 62
    98
370
     0
100
AcDbBlockEnd
  0
BLOCK
  5
70320
330
7031F
100
AcDbEntity
  8
0
 62
    98
370
     0
100
AcDbBlockBegin
  2
From Solid_10
 70
     0
 10
0.0
 20
0.0
 30
0.0
  3
From Solid_10
  1

  0
LINE
  5
6FE11
330
7031F
100
AcDbEntity
  8
Level 26
  6
Continuous
 62
    40
370
     0
100
AcDbLine
 10
3191.211516
 20
38.741463
 30
0.0
 11
3191.211516
 21
11.841463
 31
0.0
  0
LINE
  5
6FE12
330
7031F
100
AcDbEntity
  8
Level 26
  6
Continuous
 62
    40
370
     0
100
AcDbLine
 10
2911.209562
 20
38.741463
 30
0.0
 11
2911.209562
 21
11.841463
 31
0.0
  0
LINE
  5
6FE13
330
7031F
100
AcDbEntity
  8
Level 26
  6
Continuous
 62
    40
370
     0
100
AcDbLine
 10
3191.211516
 20
25.291463
 30
0.0
 11
2911.209562
 21
25.291463
 31
0.0
  0
LINE
  5
6FE14
330
7031F
100
AcDbEntity
  8
Level 26
  6
Continuous
 62
    40
370
     0
100
AcDbLine
 10
3191.211516
 20
38.741463
 30
0.0
 11
2911.209562
 21
38.741463
 31
0.0
  0
LINE
  5
6FE15
330
7031F
100
AcDbEntity
  8
Level 26
  6
Continuous
 62
    40
370
     0
100
AcDbLine
 10
3191.211516
 20
25.291463
 30
0.0
 11
2911.209562
 21
25.291463
 31
0.0
  0
LINE
  5
6FE16
330
7031F
100
AcDbEntity
  8
Level 26
  6
Continuous
 62
    40
370
     0
100
AcDbLine
 10
3191.211516
 20
11.841463
 30
0.0
 11
2911.209562
 21
11.841463
 31
0.0
  0
ENDBLK
  5
70321
330
7031F
100
AcDbEntity
  8
0
 62
    98
370
     0
100
AcDbBlockEnd
  0
BLOCK
  5
70323
330
70322
100
AcDbEntity
  8
0
 62
    98
370
     0
100
AcDbBlockBegin
  2
From Solid_11
 70
     0
 10
0.0
 20
0.0
 30
0.0
  3
From Solid_11
  1

  0
CIRCLE
  5
6FE18
330
70322
100
AcDbEntity
  8
Level 26
  6
Continuous
 62
    40
370
     0
100
AcDbCircle
 10
3192.760588
 20
25.291463
 30
0.0
 40
13.45000000000001
  0
CIRCLE
  5
6FE19
330
70322
100
AcDbEntity
  8
Level 26
  6
Continuous
 62
    40
370
     0
100
AcDbCircle
 10
3192.760588
 20
25.291463
 30
0.0
 40
13.45000000000001
  0
POINT
  5
6FE1A
330
70322
100
AcDbEntity
  8
Level 26
  6
Continuous
 62
    40
370
     0
100
AcDbPoint
 10
3192.760588
 20
11.841463
 30
0.0
  0
POINT
  5
6FE1B
330
70322
100
AcDbEntity
  8
Level 26
  6
Continuous
 62
    40
370
     0
100
AcDbPoint
 10
3206.210588
 20
25.291463
 30
0.0
  0
POINT
  5
6FE1C
330
70322
100
AcDbEntity
  8
Level 26
  6
Continuous
 62
    40
370
     0
100
AcDbPoint
 10
3192.760588
 20
38.741463
 30
0.0
  0
POINT
  5
6FE1D
330
70322
100
AcDbEntity
  8
Level 26
  6
Continuous
 62
    40
370
     0
100
AcDbPoint
 10
3179.310588
 20
25.291463
 30
0.0
  0
ENDBLK
  5
70324
330
70322
100
AcDbEntity
  8
0
 62
    98
370
     0
100
AcDbBlockEnd
  0
BLOCK
  5
70326
330
70325
100
AcDbEntity
  8
0
 62
    98
370
     0
100
AcDbBlockBegin
  2
From Solid_12
 70
     0
 10
0.0
 20
0.0
 30
0.0
  3
From Solid_12
  1

  0
CIRCLE
  5
6FE1F
330
70325
100
AcDbEntity
  8
Level 26
  6
Continuous
 62
    40
370
     0
100
AcDbCircle
 10
2909.660491
 20
25.291463
 30
0.0
 40
13.45000000000001
  0
CIRCLE
  5
6FE20
330
70325
100
AcDbEntity
  8
Level 26
  6
Continuous
 62
    40
370
     0
100
AcDbCircle
 10
2909.660491
 20
25.291463
 30
0.0
 40
13.45000000000001
  0
POINT
  5
6FE21
330
70325
100
AcDbEntity
  8
Level 26
  6
Continuous
 62
    40
370
     0
100
AcDbPoint
 10
2909.660491
 20
38.741463
 30
0.0
  0
POINT
  5
6FE22
330
70325
100
AcDbEntity
  8
Level 26
  6
Continuous
 62
    40
370
     0
100
AcDbPoint
 10
2923.110491
 20
25.291463
 30
0.0
  0
POINT
  5
6FE23
330
70325
100
AcDbEntity
  8
Level 26
  6
Continuous
 62
    40
370
     0
100
AcDbPoint
 10
2909.660491
 20
11.841463
 30
0.0
  0
POINT
  5
6FE24
330
70325
100
AcDbEntity
  8
Level 26
  6
Continuous
 62
    40
370
     0
100
AcDbPoint
 10
2896.210491
 20
25.291463
 30
0.0
  0
ENDBLK
  5
70327
330
70325
100
AcDbEntity
  8
0
 62
    98
370
     0
100
AcDbBlockEnd
  0
BLOCK
  5
70329
330
70328
100
AcDbEntity
  8
0
 62
    98
370
     0
100
AcDbBlockBegin
  2
From Solid_13
 70
     0
 10
0.0
 20
0.0
 30
0.0
  3
From Solid_13
  1

  0
LINE
  5
6FE26
330
70328
100
AcDbEntity
  8
Level 26
  6
Continuous
 62
    40
370
     0
100
AcDbLine
 10
2979.660491
 20
38.741463
 30
0.0
 11
2979.660491
 21
11.841463
 31
0.0
  0
LINE
  5
6FE27
330
70328
100
AcDbEntity
  8
Level 26
  6
Continuous
 62
    40
370
     0
100
AcDbLine
 10
3122.760588
 20
38.741463
 30
0.0
 11
3122.760588
 21
11.841463
 31
0.0
  0
LINE
  5
6FE28
330
70328
100
AcDbEntity
  8
Level 26
  6
Continuous
 62
    40
370
     0
100
AcDbLine
 10
2979.660491
 20
25.291463
 30
0.0
 11
3122.760588
 21
25.291463
 31
0.0
  0
LINE
  5
6FE29
330
70328
100
AcDbEntity
  8
Level 26
  6
Continuous
 62
    40
370
     0
100
AcDbLine
 10
2979.660491
 20
38.741463
 30
0.0
 11
3122.760588
 21
38.741463
 31
0.0
  0
LINE
  5
6FE2A
330
70328
100
AcDbEntity
  8
Level 26
  6
Continuous
 62
    40
370
     0
100
AcDbLine
 10
2979.660491
 20
25.291463
 30
0.0
 11
3122.760588
 21
25.291463
 31
0.0
  0
LINE
  5
6FE2B
330
70328
100
AcDbEntity
  8
Level 26
  6
Continuous
 62
    40
370
     0
100
AcDbLine
 10
2979.660491
 20
11.841463
 30
0.0
 11
3122.760588
 21
11.841463
 31
0.0
  0
ENDBLK
  5
7032A
330
70328
100
AcDbEntity
  8
0
 62
    98
370
     0
100
AcDbBlockEnd
  0
BLOCK
  5
7032C
330
7032B
100
AcDbEntity
  8
0
 62
    98
370
     0
100
AcDbBlockBegin
  2
From Solid_14
 70
     0
 10
0.0
 20
0.0
 30
0.0
  3
From Solid_14
  1

  0
LINE
  5
6FE2D
330
7032B
100
AcDbEntity
  8
Level 26
  6
Continuous
 62
    40
370
     0
100
AcDbLine
 10
2961.186003
 20
420.641463
 30
0.0
 11
2961.186003
 21
393.741463
 31
0.0
  0
LINE
  5
6FE2E
330
7032B
100
AcDbEntity
  8
Level 26
  6
Continuous
 62
    40
370
     0
100
AcDbLine
 10
3141.235075
 20
420.641463
 30
0.0
 11
3141.235075
 21
393.741463
 31
0.0
  0
LINE
  5
6FE2F
330
7032B
100
AcDbEntity
  8
Level 26
  6
Continuous
 62
    40
370
     0
100
AcDbLine
 10
2961.186003
 20
407.191463
 30
0.0
 11
3141.235075
 21
407.191463
 31
0.0
  0
LINE
  5
6FE30
330
7032B
100
AcDbEntity
  8
Level 26
  6
Continuous
 62
    40
370
     0
100
AcDbLine
 10
2961.186003
 20
420.641463
 30
0.0
 11
3141.235075
 21
420.641463
 31
0.0
  0
LINE
  5
6FE31
330
7032B
100
AcDbEntity
  8
Level 26
  6
Continuous
 62
    40
370
     0
100
AcDbLine
 10
2961.186003
 20
407.191463
 30
0.0
 11
3141.235075
 21
407.191463
 31
0.0
  0
LINE
  5
6FE32
330
7032B
100
AcDbEntity
  8
Level 26
  6
Continuous
 62
    40
370
     0
100
AcDbLine
 10
2961.186003
 20
393.741463
 30
0.0
 11
3141.235075
 21
393.741463
 31
0.0
  0
ENDBLK
  5
7032D
330
7032B
100
AcDbEntity
  8
0
 62
    98
370
     0
100
AcDbBlockEnd
  0
BLOCK
  5
7032F
330
7032E
100
AcDbEntity
  8
0
 62
    98
370
     0
100
AcDbBlockBegin
  2
From Solid_15
 70
     0
 10
0.0
 20
0.0
 30
0.0
  3
From Solid_15
  1

  0
LINE
  5
6FE34
330
7032E
100
AcDbEntity
  8
Level 26
  6
Continuous
 62
    40
370
     0
100
AcDbLine
 10
2961.186003
 20
420.641463
 30
0.0
 11
2961.186003
 21
393.741463
 31
0.0
  0
LINE
  5
6FE35
330
7032E
100
AcDbEntity
  8
Level 26
  6
Continuous
 62
    40
370
     0
100
AcDbLine
 10
3141.235075
 20
420.641463
 30
0.0
 11
3141.235075
 21
393.741463
 31
0.0
  0
LINE
  5
6FE36
330
7032E
100
AcDbEntity
  8
Level 26
  6
Continuous
 62
    40
370
     0
100
AcDbLine
 10
2961.186003
 20
407.191463
 30
0.0
 11
3141.235075
 21
407.191463
 31
0.0
  0
LINE
  5
6FE37
330
7032E
100
AcDbEntity
  8
Level 26
  6
Continuous
 62
    40
370
     0
100
AcDbLine
 10
2961.186003
 20
420.641463
 30
0.0
 11
3141.235075
 21
420.641463
 31
0.0
  0
LINE
  5
6FE38
330
7032E
100
AcDbEntity
  8
Level 26
  6
Continuous
 62
    40
370
     0
100
AcDbLine
 10
2961.186003
 20
407.191463
 30
0.0
 11
3141.235075
 21
407.191463
 31
0.0
  0
LINE
  5
6FE39
330
7032E
100
AcDbEntity
  8
Level 26
  6
Continuous
 62
    40
370
     0
100
AcDbLine
 10
2961.186003
 20
393.741463
 30
0.0
 11
3141.235075
 21
393.741463
 31
0.0
  0
ENDBLK
  5
70330
330
7032E
100
AcDbEntity
  8
0
 62
    98
370
     0
100
AcDbBlockEnd
  0
BLOCK
  5
70332
330
70331
100
AcDbEntity
  8
0
 62
    98
370
     0
100
AcDbBlockBegin
  2
From Solid_16
 70
     0
 10
0.0
 20
0.0
 30
0.0
  3
From Solid_16
  1

  0
LWPOLYLINE
  5
70334
330
70331
100
AcDbEntity
  8
Level 26
  6
Continuous
 62
    40
370
     0
100
AcDbPolyline
 90
        2
 70
   128
 43
0.0
 10
2979.660489
 20
38.741463
 10
2979.660489
 20
11.841463
  0
CIRCLE
  5
6FE3C
330
70331
100
AcDbEntity
  8
Level 26
  6
Continuous
 62
    40
370
     0
100
AcDbCircle
 10
2909.66049
 20
25.291463
 30
0.0
 40
13.45
  0
LINE
  5
6FE3D
330
70331
100
AcDbEntity
  8
Level 26
  6
Continuous
 62
    40
370
     0
100
AcDbLine
 10
2909.66049
 20
11.841463
 30
0.0
 11
2979.660489
 21
11.841463
 31
0.0
  0
LINE
  5
6FE3E
330
70331
100
AcDbEntity
  8
Level 26
  6
Continuous
 62
    40
370
     0
100
AcDbLine
 10
2896.21049
 20
25.291463
 30
0.0
 11
2979.660544
 21
25.291463
 31
0.0
  0
LINE
  5
6FE3F
330
70331
100
AcDbEntity
  8
Level 26
  6
Continuous
 62
    40
370
     0
100
AcDbLine
 10
2909.66049
 20
38.741463
 30
0.0
 11
2979.660489
 21
38.741463
 31
0.0
  0
LINE
  5
6FE40
330
70331
100
AcDbEntity
  8
Level 26
  6
Continuous
 62
    40
370
     0
100
AcDbLine
 10
2923.11049
 20
25.291463
 30
0.0
 11
2979.660434
 21
25.291463
 31
0.0
  0
ENDBLK
  5
70333
330
70331
100
AcDbEntity
  8
0
 62
    98
370
     0
100
AcDbBlockEnd
  0
BLOCK
  5
70336
330
70335
100
AcDbEntity
  8
0
 62
    98
370
     0
100
AcDbBlockBegin
  2
From Solid_17
 70
     0
 10
0.0
 20
0.0
 30
0.0
  3
From Solid_17
  1

  0
CIRCLE
  5
6FE42
330
70335
100
AcDbEntity
  8
Level 26
  6
Continuous
 62
    40
370
     0
100
AcDbCircle
 10
3192.760588
 20
25.291463
 30
0.0
 40
13.45
  0
LWPOLYLINE
  5
70338
330
70335
100
AcDbEntity
  8
Level 26
  6
Continuous
 62
    40
370
     0
100
AcDbPolyline
 90
        2
 70
   128
 43
0.0
 10
3122.760589
 20
38.741463
 10
3122.760589
 20
11.841463
  0
LINE
  5
6FE44
330
70335
100
AcDbEntity
  8
Level 26
  6
Continuous
 62
    40
370
     0
100
AcDbLine
 10
3122.760589
 20
11.841463
 30
0.0
 11
3192.760588
 21
11.841463
 31
0.0
  0
LINE
  5
6FE45
330
70335
100
AcDbEntity
  8
Level 26
  6
Continuous
 62
    40
370
     0
100
AcDbLine
 10
3122.760534
 20
25.291463
 30
0.0
 11
3206.210588
 21
25.291463
 31
0.0
  0
LINE
  5
6FE46
330
70335
100
AcDbEntity
  8
Level 26
  6
Continuous
 62
    40
370
     0
100
AcDbLine
 10
3122.760589
 20
38.741463
 30
0.0
 11
3192.760588
 21
38.741463
 31
0.0
  0
LINE
  5
6FE47
330
70335
100
AcDbEntity
  8
Level 26
  6
Continuous
 62
    40
370
     0
100
AcDbLine
 10
3122.760643
 20
25.291463
 30
0.0
 11
3179.310588
 21
25.291463
 31
0.0
  0
ENDBLK
  5
70337
330
70335
100
AcDbEntity
  8
0
 62
    98
370
     0
100
AcDbBlockEnd
  0
BLOCK
  5
7033A
330
70339
100
AcDbEntity
  8
0
 62
    98
370
     0
100
AcDbBlockBegin
  2
From Surface_4
 70
     0
 10
0.0
 20
0.0
 30
0.0
  3
From Surface_4
  1

  0
ARC
  5
6FE49
330
70339
100
AcDbEntity
  8
Level 26
  6
Continuous
 62
    20
370
     0
100
AcDbCircle
 10
-2971.210537
 20
95.291462
 30
0.0
 40
19.99999871533718
210
0.0
220
0.0
230
-1.0
100
AcDbArc
 50
269.999996
 51
0.000004
  0
ARC
  5
6FE4A
330
70339
100
AcDbEntity
  8
Level 26
  6
Continuous
 62
    20
370
     0
100
AcDbCircle
 10
-2971.210537
 20
95.291462
 30
0.0
 40
19.99999871533719
210
0.0
220
0.0
230
-1.0
100
AcDbArc
 50
269.999996
 51
0.000004
  0
POINT
  5
6FE4B
330
70339
100
AcDbEntity
  8
Level 26
  6
Continuous
 62
    20
370
     0
100
AcDbPoint
 10
2971.210539
 20
75.291463
 30
0.0
  0
POINT
  5
6FE4C
330
70339
100
AcDbEntity
  8
Level 26
  6
Continuous
 62
    20
370
     0
100
AcDbPoint
 10
2951.210539
 20
95.291463
 30
0.0
  0
ENDBLK
  5
7033B
330
70339
100
AcDbEntity
  8
0
 62
    98
370
     0
100
AcDbBlockEnd
  0
BLOCK
  5
7033D
330
7033C
100
AcDbEntity
  8
0
 62
    98
370
     0
100
AcDbBlockBegin
  2
From Surface_5
 70
     0
 10
0.0
 20
0.0
 30
0.0
  3
From Surface_5
  1

  0
ARC
  5
6FE4E
330
7033C
100
AcDbEntity
  8
Level 26
  6
Continuous
 62
    20
370
     0
100
AcDbCircle
 10
-3131.21054
 20
95.291462
 30
0.0
 40
19.99999871533726
210
0.0
220
0.0
230
-1.0
100
AcDbArc
 50
179.999996
 51
270.000004
  0
ARC
  5
6FE4F
330
7033C
100
AcDbEntity
  8
Level 26
  6
Continuous
 62
    20
370
     0
100
AcDbCircle
 10
-3131.21054
 20
95.291462
 30
0.0
 40
19.99999871533727
210
0.0
220
0.0
230
-1.0
100
AcDbArc
 50
179.999996
 51
270.000004
  0
POINT
  5
6FE50
330
7033C
100
AcDbEntity
  8
Level 26
  6
Continuous
 62
    20
370
     0
100
AcDbPoint
 10
3151.210539
 20
95.291463
 30
0.0
  0
POINT
  5
6FE51
330
7033C
100
AcDbEntity
  8
Level 26
  6
Continuous
 62
    20
370
     0
100
AcDbPoint
 10
3131.210539
 20
75.291463
 30
0.0
  0
ENDBLK
  5
7033E
330
7033C
100
AcDbEntity
  8
0
 62
    98
370
     0
100
AcDbBlockEnd
  0
BLOCK
  5
70340
330
7033F
100
AcDbEntity
  8
0
 62
    98
370
     0
100
AcDbBlockBegin
  2
From Surface_6
 70
     0
 10
0.0
 20
0.0
 30
0.0
  3
From Surface_6
  1

  0
ARC
  5
6FE53
330
7033F
100
AcDbEntity
  8
Level 26
  6
Continuous
 62
    20
370
     0
100
AcDbCircle
 10
-3131.21054
 20
345.291464
 30
0.0
 40
19.99999871533695
210
0.0
220
0.0
230
-1.0
100
AcDbArc
 50
89.999996
 51
180.000004
  0
ARC
  5
6FE54
330
7033F
100
AcDbEntity
  8
Level 26
  6
Continuous
 62
    20
370
     0
100
AcDbCircle
 10
-3131.21054
 20
345.291464
 30
0.0
 40
19.99999871533695
210
0.0
220
0.0
230
-1.0
100
AcDbArc
 50
89.999996
 51
180.000004
  0
POINT
  5
6FE55
330
7033F
100
AcDbEntity
  8
Level 26
  6
Continuous
 62
    20
370
     0
100
AcDbPoint
 10
3131.210539
 20
365.291463
 30
0.0
  0
POINT
  5
6FE56
330
7033F
100
AcDbEntity
  8
Level 26
  6
Continuous
 62
    20
370
     0
100
AcDbPoint
 10
3151.210539
 20
345.291463
 30
0.0
  0
ENDBLK
  5
70341
330
7033F
100
AcDbEntity
  8
0
 62
    98
370
     0
100
AcDbBlockEnd
  0
BLOCK
  5
70343
330
70342
100
AcDbEntity
  8
0
 62
    98
370
     0
100
AcDbBlockBegin
  2
From Surface_7
 70
     0
 10
0.0
 20
0.0
 30
0.0
  3
From Surface_7
  1

  0
ARC
  5
6FE58
330
70342
100
AcDbEntity
  8
Level 26
  6
Continuous
 62
    20
370
     0
100
AcDbCircle
 10
-2971.210537
 20
345.291464
 30
0.0
 40
19.99999871533714
210
0.0
220
0.0
230
-1.0
100
AcDbArc
 50
359.999996
 51
90.000004
  0
ARC
  5
6FE59
330
70342
100
AcDbEntity
  8
Level 26
  6
Continuous
 62
    20
370
     0
100
AcDbCircle
 10
-2971.210537
 20
345.291464
 30
0.0
 40
19.99999871533714
210
0.0
220
0.0
230
-1.0
100
AcDbArc
 50
359.999996
 51
90.000004
  0
POINT
  5
6FE5A
330
70342
100
AcDbEntity
  8
Level 26
  6
Continuous
 62
    20
370
     0
100
AcDbPoint
 10
2951.210539
 20
345.291463
 30
0.0
  0
POINT
  5
6FE5B
330
70342
100
AcDbEntity
  8
Level 26
  6
Continuous
 62
    20
370
     0
100
AcDbPoint
 10
2971.210539
 20
365.291463
 30
0.0
  0
ENDBLK
  5
70344
330
70342
100
AcDbEntity
  8
0
 62
    98
370
     0
100
AcDbBlockEnd
  0
BLOCK
  5
70346
330
70345
100
AcDbEntity
  8
0
 62
    98
370
     0
100
AcDbBlockBegin
  2
From Solid_18
 70
     0
 10
0.0
 20
0.0
 30
0.0
  3
From Solid_18
  1

  0
LINE
  5
6FE66
330
70345
100
AcDbEntity
  8
Level 26
  6
Continuous
 62
    40
370
     0
100
AcDbLine
 10
2911.209562
 20
-508.158537
 30
0.0
 11
2911.209562
 21
-481.258537
 31
0.0
  0
LINE
  5
6FE67
330
70345
100
AcDbEntity
  8
Level 26
  6
Continuous
 62
    40
370
     0
100
AcDbLine
 10
3191.211516
 20
-508.158537
 30
0.0
 11
3191.211516
 21
-481.258537
 31
0.0
  0
LINE
  5
6FE68
330
70345
100
AcDbEntity
  8
Level 26
  6
Continuous
 62
    40
370
     0
100
AcDbLine
 10
2911.209562
 20
-494.708537
 30
0.0
 11
3191.211516
 21
-494.708537
 31
0.0
  0
LINE
  5
6FE69
330
70345
100
AcDbEntity
  8
Level 26
  6
Continuous
 62
    40
370
     0
100
AcDbLine
 10
2911.209562
 20
-508.158537
 30
0.0
 11
3191.211516
 21
-508.158537
 31
0.0
  0
LINE
  5
6FE6A
330
70345
100
AcDbEntity
  8
Level 26
  6
Continuous
 62
    40
370
     0
100
AcDbLine
 10
2911.209562
 20
-494.708537
 30
0.0
 11
3191.211516
 21
-494.708537
 31
0.0
  0
LINE
  5
6FE6B
330
70345
100
AcDbEntity
  8
Level 26
  6
Continuous
 62
    40
370
     0
100
AcDbLine
 10
2911.209562
 20
-481.258537
 30
0.0
 11
3191.211516
 21
-481.258537
 31
0.0
  0
ENDBLK
  5
70347
330
70345
100
AcDbEntity
  8
0
 62
    98
370
     0
100
AcDbBlockEnd
  0
BLOCK
  5
70349
330
70348
100
AcDbEntity
  8
0
 62
    98
370
     0
100
AcDbBlockBegin
  2
From Solid_19
 70
     0
 10
0.0
 20
0.0
 30
0.0
  3
From Solid_19
  1

  0
LINE
  5
6FE6D
330
70348
100
AcDbEntity
  8
Level 26
  6
Continuous
 62
    40
370
     0
100
AcDbLine
 10
2911.209562
 20
-508.158537
 30
0.0
 11
2911.209562
 21
-481.258537
 31
0.0
  0
LINE
  5
6FE6E
330
70348
100
AcDbEntity
  8
Level 26
  6
Continuous
 62
    40
370
     0
100
AcDbLine
 10
3191.211516
 20
-508.158537
 30
0.0
 11
3191.211516
 21
-481.258537
 31
0.0
  0
LINE
  5
6FE6F
330
70348
100
AcDbEntity
  8
Level 26
  6
Continuous
 62
    40
370
     0
100
AcDbLine
 10
2911.209562
 20
-494.708537
 30
0.0
 11
3191.211516
 21
-494.708537
 31
0.0
  0
LINE
  5
6FE70
330
70348
100
AcDbEntity
  8
Level 26
  6
Continuous
 62
    40
370
     0
100
AcDbLine
 10
2911.209562
 20
-508.158537
 30
0.0
 11
3191.211516
 21
-508.158537
 31
0.0
  0
LINE
  5
6FE71
330
70348
100
AcDbEntity
  8
Level 26
  6
Continuous
 62
    40
370
     0
100
AcDbLine
 10
2911.209562
 20
-494.708537
 30
0.0
 11
3191.211516
 21
-494.708537
 31
0.0
  0
LINE
  5
6FE72
330
70348
100
AcDbEntity
  8
Level 26
  6
Continuous
 62
    40
370
     0
100
AcDbLine
 10
2911.209562
 20
-481.258537
 30
0.0
 11
3191.211516
 21
-481.258537
 31
0.0
  0
ENDBLK
  5
7034A
330
70348
100
AcDbEntity
  8
0
 62
    98
370
     0
100
AcDbBlockEnd
  0
BLOCK
  5
7034C
330
7034B
100
AcDbEntity
  8
0
 62
    98
370
     0
100
AcDbBlockBegin
  2
From Solid_20
 70
     0
 10
0.0
 20
0.0
 30
0.0
  3
From Solid_20
  1

  0
CIRCLE
  5
6FE74
330
7034B
100
AcDbEntity
  8
Level 26
  6
Continuous
 62
    40
370
     0
100
AcDbCircle
 10
2909.660489
 20
-494.708537
 30
0.0
 40
13.45000000000001
  0
CIRCLE
  5
6FE75
330
7034B
100
AcDbEntity
  8
Level 26
  6
Continuous
 62
    40
370
     0
100
AcDbCircle
 10
2909.660489
 20
-494.708537
 30
0.0
 40
13.45000000000001
  0
POINT
  5
6FE76
330
7034B
100
AcDbEntity
  8
Level 26
  6
Continuous
 62
    40
370
     0
100
AcDbPoint
 10
2909.660489
 20
-481.258537
 30
0.0
  0
POINT
  5
6FE77
330
7034B
100
AcDbEntity
  8
Level 26
  6
Continuous
 62
    40
370
     0
100
AcDbPoint
 10
2896.210489
 20
-494.708537
 30
0.0
  0
POINT
  5
6FE78
330
7034B
100
AcDbEntity
  8
Level 26
  6
Continuous
 62
    40
370
     0
100
AcDbPoint
 10
2909.660489
 20
-508.158537
 30
0.0
  0
POINT
  5
6FE79
330
7034B
100
AcDbEntity
  8
Level 26
  6
Continuous
 62
    40
370
     0
100
AcDbPoint
 10
2923.110489
 20
-494.708537
 30
0.0
  0
ENDBLK
  5
7034D
330
7034B
100
AcDbEntity
  8
0
 62
    98
370
     0
100
AcDbBlockEnd
  0
BLOCK
  5
7034F
330
7034E
100
AcDbEntity
  8
0
 62
    98
370
     0
100
AcDbBlockBegin
  2
From Solid_21
 70
     0
 10
0.0
 20
0.0
 30
0.0
  3
From Solid_21
  1

  0
CIRCLE
  5
6FE7B
330
7034E
100
AcDbEntity
  8
Level 26
  6
Continuous
 62
    40
370
     0
100
AcDbCircle
 10
3192.760587
 20
-494.708537
 30
0.0
 40
13.45000000000001
  0
CIRCLE
  5
6FE7C
330
7034E
100
AcDbEntity
  8
Level 26
  6
Continuous
 62
    40
370
     0
100
AcDbCircle
 10
3192.760587
 20
-494.708537
 30
0.0
 40
13.45000000000001
  0
POINT
  5
6FE7D
330
7034E
100
AcDbEntity
  8
Level 26
  6
Continuous
 62
    40
370
     0
100
AcDbPoint
 10
3192.760587
 20
-508.158537
 30
0.0
  0
POINT
  5
6FE7E
330
7034E
100
AcDbEntity
  8
Level 26
  6
Continuous
 62
    40
370
     0
100
AcDbPoint
 10
3179.310587
 20
-494.708537
 30
0.0
  0
POINT
  5
6FE7F
330
7034E
100
AcDbEntity
  8
Level 26
  6
Continuous
 62
    40
370
     0
100
AcDbPoint
 10
3192.760587
 20
-481.258537
 30
0.0
  0
POINT
  5
6FE80
330
7034E
100
AcDbEntity
  8
Level 26
  6
Continuous
 62
    40
370
     0
100
AcDbPoint
 10
3206.210587
 20
-494.708537
 30
0.0
  0
ENDBLK
  5
70350
330
7034E
100
AcDbEntity
  8
0
 62
    98
370
     0
100
AcDbBlockEnd
  0
BLOCK
  5
70352
330
70351
100
AcDbEntity
  8
0
 62
    98
370
     0
100
AcDbBlockBegin
  2
From Solid_22
 70
     0
 10
0.0
 20
0.0
 30
0.0
  3
From Solid_22
  1

  0
LINE
  5
6FE82
330
70351
100
AcDbEntity
  8
Level 26
  6
Continuous
 62
    40
370
     0
100
AcDbLine
 10
3122.760587
 20
-508.158537
 30
0.0
 11
3122.760587
 21
-481.258537
 31
0.0
  0
LINE
  5
6FE83
330
70351
100
AcDbEntity
  8
Level 26
  6
Continuous
 62
    40
370
     0
100
AcDbLine
 10
2979.660489
 20
-508.158537
 30
0.0
 11
2979.660489
 21
-481.258537
 31
0.0
  0
LINE
  5
6FE84
330
70351
100
AcDbEntity
  8
Level 26
  6
Continuous
 62
    40
370
     0
100
AcDbLine
 10
3122.760587
 20
-494.708537
 30
0.0
 11
2979.660489
 21
-494.708537
 31
0.0
  0
LINE
  5
6FE85
330
70351
100
AcDbEntity
  8
Level 26
  6
Continuous
 62
    40
370
     0
100
AcDbLine
 10
3122.760587
 20
-508.158537
 30
0.0
 11
2979.660489
 21
-508.158537
 31
0.0
  0
LINE
  5
6FE86
330
70351
100
AcDbEntity
  8
Level 26
  6
Continuous
 62
    40
370
     0
100
AcDbLine
 10
3122.760587
 20
-494.708537
 30
0.0
 11
2979.660489
 21
-494.708537
 31
0.0
  0
LINE
  5
6FE87
330
70351
100
AcDbEntity
  8
Level 26
  6
Continuous
 62
    40
370
     0
100
AcDbLine
 10
3122.760587
 20
-481.258537
 30
0.0
 11
2979.660489
 21
-481.258537
 31
0.0
  0
ENDBLK
  5
70353
330
70351
100
AcDbEntity
  8
0
 62
    98
370
     0
100
AcDbBlockEnd
  0
BLOCK
  5
70355
330
70354
100
AcDbEntity
  8
0
 62
    98
370
     0
100
AcDbBlockBegin
  2
From Solid_23
 70
     0
 10
0.0
 20
0.0
 30
0.0
  3
From Solid_23
  1

  0
LINE
  5
6FE89
330
70354
100
AcDbEntity
  8
Level 26
  6
Continuous
 62
    40
370
     0
100
AcDbLine
 10
3141.235075
 20
-890.058537
 30
0.0
 11
3141.235075
 21
-863.158537
 31
0.0
  0
LINE
  5
6FE8A
330
70354
100
AcDbEntity
  8
Level 26
  6
Continuous
 62
    40
370
     0
100
AcDbLine
 10
2961.186003
 20
-890.058537
 30
0.0
 11
2961.186003
 21
-863.158537
 31
0.0
  0
LINE
  5
6FE8B
330
70354
100
AcDbEntity
  8
Level 26
  6
Continuous
 62
    40
370
     0
100
AcDbLine
 10
3141.235075
 20
-876.608537
 30
0.0
 11
2961.186003
 21
-876.608537
 31
0.0
  0
LINE
  5
6FE8C
330
70354
100
AcDbEntity
  8
Level 26
  6
Continuous
 62
    40
370
     0
100
AcDbLine
 10
3141.235075
 20
-890.058537
 30
0.0
 11
2961.186003
 21
-890.058537
 31
0.0
  0
LINE
  5
6FE8D
330
70354
100
AcDbEntity
  8
Level 26
  6
Continuous
 62
    40
370
     0
100
AcDbLine
 10
3141.235075
 20
-876.608537
 30
0.0
 11
2961.186003
 21
-876.608537
 31
0.0
  0
LINE
  5
6FE8E
330
70354
100
AcDbEntity
  8
Level 26
  6
Continuous
 62
    40
370
     0
100
AcDbLine
 10
3141.235075
 20
-863.158537
 30
0.0
 11
2961.186003
 21
-863.158537
 31
0.0
  0
ENDBLK
  5
70356
330
70354
100
AcDbEntity
  8
0
 62
    98
370
     0
100
AcDbBlockEnd
  0
BLOCK
  5
70358
330
70357
100
AcDbEntity
  8
0
 62
    98
370
     0
100
AcDbBlockBegin
  2
From Solid_24
 70
     0
 10
0.0
 20
0.0
 30
0.0
  3
From Solid_24
  1

  0
LINE
  5
6FE90
330
70357
100
AcDbEntity
  8
Level 26
  6
Continuous
 62
    40
370
     0
100
AcDbLine
 10
3141.235075
 20
-890.058537
 30
0.0
 11
3141.235075
 21
-863.158537
 31
0.0
  0
LINE
  5
6FE91
330
70357
100
AcDbEntity
  8
Level 26
  6
Continuous
 62
    40
370
     0
100
AcDbLine
 10
2961.186003
 20
-890.058537
 30
0.0
 11
2961.186003
 21
-863.158537
 31
0.0
  0
LINE
  5
6FE92
330
70357
100
AcDbEntity
  8
Level 26
  6
Continuous
 62
    40
370
     0
100
AcDbLine
 10
3141.235075
 20
-876.608537
 30
0.0
 11
2961.186003
 21
-876.608537
 31
0.0
  0
LINE
  5
6FE93
330
70357
100
AcDbEntity
  8
Level 26
  6
Continuous
 62
    40
370
     0
100
AcDbLine
 10
3141.235075
 20
-890.058537
 30
0.0
 11
2961.186003
 21
-890.058537
 31
0.0
  0
LINE
  5
6FE94
330
70357
100
AcDbEntity
  8
Level 26
  6
Continuous
 62
    40
370
     0
100
AcDbLine
 10
3141.235075
 20
-876.608537
 30
0.0
 11
2961.186003
 21
-876.608537
 31
0.0
  0
LINE
  5
6FE95
330
70357
100
AcDbEntity
  8
Level 26
  6
Continuous
 62
    40
370
     0
100
AcDbLine
 10
3141.235075
 20
-863.158537
 30
0.0
 11
2961.186003
 21
-863.158537
 31
0.0
  0
ENDBLK
  5
70359
330
70357
100
AcDbEntity
  8
0
 62
    98
370
     0
100
AcDbBlockEnd
  0
BLOCK
  5
7035B
330
7035A
100
AcDbEntity
  8
0
 62
    98
370
     0
100
AcDbBlockBegin
  2
From Solid_25
 70
     0
 10
0.0
 20
0.0
 30
0.0
  3
From Solid_25
  1

  0
LWPOLYLINE
  5
7035D
330
7035A
100
AcDbEntity
  8
Level 26
  6
Continuous
 62
    40
370
     0
100
AcDbPolyline
 90
        2
 70
   128
 43
0.0
 10
3122.760589
 20
-508.158537
 10
3122.760589
 20
-481.258537
  0
CIRCLE
  5
6FE98
330
7035A
100
AcDbEntity
  8
Level 26
  6
Continuous
 62
    40
370
     0
100
AcDbCircle
 10
3192.760587
 20
-494.708537
 30
0.0
 40
13.45
  0
LINE
  5
6FE99
330
7035A
100
AcDbEntity
  8
Level 26
  6
Continuous
 62
    40
370
     0
100
AcDbLine
 10
3192.760587
 20
-481.258537
 30
0.0
 11
3122.760589
 21
-481.258537
 31
0.0
  0
LINE
  5
6FE9A
330
7035A
100
AcDbEntity
  8
Level 26
  6
Continuous
 62
    40
370
     0
100
AcDbLine
 10
3206.210587
 20
-494.708537
 30
0.0
 11
3122.760534
 21
-494.708537
 31
0.0
  0
LINE
  5
6FE9B
330
7035A
100
AcDbEntity
  8
Level 26
  6
Continuous
 62
    40
370
     0
100
AcDbLine
 10
3192.760587
 20
-508.158537
 30
0.0
 11
3122.760589
 21
-508.158537
 31
0.0
  0
LINE
  5
6FE9C
330
7035A
100
AcDbEntity
  8
Level 26
  6
Continuous
 62
    40
370
     0
100
AcDbLine
 10
3179.310587
 20
-494.708537
 30
0.0
 11
3122.760644
 21
-494.708537
 31
0.0
  0
ENDBLK
  5
7035C
330
7035A
100
AcDbEntity
  8
0
 62
    98
370
     0
100
AcDbBlockEnd
  0
BLOCK
  5
7035F
330
7035E
100
AcDbEntity
  8
0
 62
    98
370
     0
100
AcDbBlockBegin
  2
From Solid_26
 70
     0
 10
0.0
 20
0.0
 30
0.0
  3
From Solid_26
  1

  0
CIRCLE
  5
6FE9E
330
7035E
100
AcDbEntity
  8
Level 26
  6
Continuous
 62
    40
370
     0
100
AcDbCircle
 10
2909.66049
 20
-494.708537
 30
0.0
 40
13.45
  0
LWPOLYLINE
  5
70361
330
7035E
100
AcDbEntity
  8
Level 26
  6
Continuous
 62
    40
370
     0
100
AcDbPolyline
 90
        2
 70
   128
 43
0.0
 10
2979.660489
 20
-508.158537
 10
2979.660489
 20
-481.258537
  0
LINE
  5
6FEA0
330
7035E
100
AcDbEntity
  8
Level 26
  6
Continuous
 62
    40
370
     0
100
AcDbLine
 10
2979.660489
 20
-481.258537
 30
0.0
 11
2909.66049
 21
-481.258537
 31
0.0
  0
LINE
  5
6FEA1
330
7035E
100
AcDbEntity
  8
Level 26
  6
Continuous
 62
    40
370
     0
100
AcDbLine
 10
2979.660544
 20
-494.708537
 30
0.0
 11
2896.21049
 21
-494.708537
 31
0.0
  0
LINE
  5
6FEA2
330
7035E
100
AcDbEntity
  8
Level 26
  6
Continuous
 62
    40
370
     0
100
AcDbLine
 10
2979.660489
 20
-508.158537
 30
0.0
 11
2909.66049
 21
-508.158537
 31
0.0
  0
LINE
  5
6FEA3
330
7035E
100
AcDbEntity
  8
Level 26
  6
Continuous
 62
    40
370
     0
100
AcDbLine
 10
2979.660434
 20
-494.708537
 30
0.0
 11
2923.11049
 21
-494.708537
 31
0.0
  0
ENDBLK
  5
70360
330
7035E
100
AcDbEntity
  8
0
 62
    98
370
     0
100
AcDbBlockEnd
  0
BLOCK
  5
70363
330
70362
100
AcDbEntity
  8
0
 62
    98
370
     0
100
AcDbBlockBegin
  2
From Surface_8
 70
     0
 10
0.0
 20
0.0
 30
0.0
  3
From Surface_8
  1

  0
ARC
  5
6FEA5
330
70362
100
AcDbEntity
  8
Level 26
  6
Continuous
 62
    20
370
     0
100
AcDbCircle
 10
-3131.21054
 20
-564.708536
 30
0.0
 40
19.99999871533718
210
0.0
220
0.0
230
-1.0
100
AcDbArc
 50
89.999996
 51
180.000004
  0
ARC
  5
6FEA6
330
70362
100
AcDbEntity
  8
Level 26
  6
Continuous
 62
    20
370
     0
100
AcDbCircle
 10
-3131.21054
 20
-564.708536
 30
0.0
 40
19.99999871533719
210
0.0
220
0.0
230
-1.0
100
AcDbArc
 50
89.999996
 51
180.000004
  0
POINT
  5
6FEA7
330
70362
100
AcDbEntity
  8
Level 26
  6
Continuous
 62
    20
370
     0
100
AcDbPoint
 10
3131.210539
 20
-544.708537
 30
0.0
  0
POINT
  5
6FEA8
330
70362
100
AcDbEntity
  8
Level 26
  6
Continuous
 62
    20
370
     0
100
AcDbPoint
 10
3151.210539
 20
-564.708537
 30
0.0
  0
ENDBLK
  5
70364
330
70362
100
AcDbEntity
  8
0
 62
    98
370
     0
100
AcDbBlockEnd
  0
BLOCK
  5
70366
330
70365
100
AcDbEntity
  8
0
 62
    98
370
     0
100
AcDbBlockBegin
  2
From Surface_9
 70
     0
 10
0.0
 20
0.0
 30
0.0
  3
From Surface_9
  1

  0
ARC
  5
6FEAA
330
70365
100
AcDbEntity
  8
Level 26
  6
Continuous
 62
    20
370
     0
100
AcDbCircle
 10
-2971.210537
 20
-564.708536
 30
0.0
 40
19.99999871533726
210
0.0
220
0.0
230
-1.0
100
AcDbArc
 50
359.999996
 51
90.000004
  0
ARC
  5
6FEAB
330
70365
100
AcDbEntity
  8
Level 26
  6
Continuous
 62
    20
370
     0
100
AcDbCircle
 10
-2971.210537
 20
-564.708536
 30
0.0
 40
19.99999871533727
210
0.0
220
0.0
230
-1.0
100
AcDbArc
 50
359.999996
 51
90.000004
  0
POINT
  5
6FEAC
330
70365
100
AcDbEntity
  8
Level 26
  6
Continuous
 62
    20
370
     0
100
AcDbPoint
 10
2951.210539
 20
-564.708537
 30
0.0
  0
POINT
  5
6FEAD
330
70365
100
AcDbEntity
  8
Level 26
  6
Continuous
 62
    20
370
     0
100
AcDbPoint
 10
2971.210539
 20
-544.708537
 30
0.0
  0
ENDBLK
  5
70367
330
70365
100
AcDbEntity
  8
0
 62
    98
370
     0
100
AcDbBlockEnd
  0
BLOCK
  5
70369
330
70368
100
AcDbEntity
  8
0
 62
    98
370
     0
100
AcDbBlockBegin
  2
From Surface_10
 70
     0
 10
0.0
 20
0.0
 30
0.0
  3
From Surface_10
  1

  0
ARC
  5
6FEAF
330
70368
100
AcDbEntity
  8
Level 26
  6
Continuous
 62
    20
370
     0
100
AcDbCircle
 10
-2971.210537
 20
-814.708538
 30
0.0
 40
19.99999871533695
210
0.0
220
0.0
230
-1.0
100
AcDbArc
 50
269.999996
 51
0.000004
  0
ARC
  5
6FEB0
330
70368
100
AcDbEntity
  8
Level 26
  6
Continuous
 62
    20
370
     0
100
AcDbCircle
 10
-2971.210537
 20
-814.708538
 30
0.0
 40
19.99999871533695
210
0.0
220
0.0
230
-1.0
100
AcDbArc
 50
269.999996
 51
0.000004
  0
POINT
  5
6FEB1
330
70368
100
AcDbEntity
  8
Level 26
  6
Continuous
 62
    20
370
     0
100
AcDbPoint
 10
2971.210539
 20
-834.708537
 30
0.0
  0
POINT
  5
6FEB2
330
70368
100
AcDbEntity
  8
Level 26
  6
Continuous
 62
    20
370
     0
100
AcDbPoint
 10
2951.210539
 20
-814.708537
 30
0.0
  0
ENDBLK
  5
7036A
330
70368
100
AcDbEntity
  8
0
 62
    98
370
     0
100
AcDbBlockEnd
  0
BLOCK
  5
7036C
330
7036B
100
AcDbEntity
  8
0
 62
    98
370
     0
100
AcDbBlockBegin
  2
From Surface_11
 70
     0
 10
0.0
 20
0.0
 30
0.0
  3
From Surface_11
  1

  0
ARC
  5
6FEB4
330
7036B
100
AcDbEntity
  8
Level 26
  6
Continuous
 62
    20
370
     0
100
AcDbCircle
 10
-3131.21054
 20
-814.708538
 30
0.0
 40
19.99999871533714
210
0.0
220
0.0
230
-1.0
100
AcDbArc
 50
179.999996
 51
270.000004
  0
ARC
  5
6FEB5
330
7036B
100
AcDbEntity
  8
Level 26
  6
Continuous
 62
    20
370
     0
100
AcDbCircle
 10
-3131.21054
 20
-814.708538
 30
0.0
 40
19.99999871533714
210
0.0
220
0.0
230
-1.0
100
AcDbArc
 50
179.999996
 51
270.000004
  0
POINT
  5
6FEB6
330
7036B
100
AcDbEntity
  8
Level 26
  6
Continuous
 62
    20
370
     0
100
AcDbPoint
 10
3151.210539
 20
-814.708537
 30
0.0
  0
POINT
  5
6FEB7
330
7036B
100
AcDbEntity
  8
Level 26
  6
Continuous
 62
    20
370
     0
100
AcDbPoint
 10
3131.210539
 20
-834.708537
 30
0.0
  0
ENDBLK
  5
7036D
330
7036B
100
AcDbEntity
  8
0
 62
    98
370
     0
100
AcDbBlockEnd
  0
BLOCK
  5
7036F
330
7036E
100
AcDbEntity
  8
0
 62
    98
370
     0
100
AcDbBlockBegin
  2
From Solid_27
 70
     0
 10
0.0
 20
0.0
 30
0.0
  3
From Solid_27
  1

  0
LINE
  5
6FEC2
330
7036E
100
AcDbEntity
  8
Level 26
  6
Continuous
 62
    40
370
     0
100
AcDbLine
 10
2777.760539
 20
-94.70756
 30
0.0
 11
2804.660539
 21
-94.70756
 31
0.0
  0
LINE
  5
6FEC3
330
7036E
100
AcDbEntity
  8
Level 26
  6
Continuous
 62
    40
370
     0
100
AcDbLine
 10
2777.760539
 20
-374.709514
 30
0.0
 11
2804.660539
 21
-374.709514
 31
0.0
  0
LINE
  5
6FEC4
330
7036E
100
AcDbEntity
  8
Level 26
  6
Continuous
 62
    40
370
     0
100
AcDbLine
 10
2791.210539
 20
-94.70756
 30
0.0
 11
2791.210539
 21
-374.709514
 31
0.0
  0
LINE
  5
6FEC5
330
7036E
100
AcDbEntity
  8
Level 26
  6
Continuous
 62
    40
370
     0
100
AcDbLine
 10
2777.760539
 20
-94.70756
 30
0.0
 11
2777.760539
 21
-374.709514
 31
0.0
  0
LINE
  5
6FEC6
330
7036E
100
AcDbEntity
  8
Level 26
  6
Continuous
 62
    40
370
     0
100
AcDbLine
 10
2791.210539
 20
-94.70756
 30
0.0
 11
2791.210539
 21
-374.709514
 31
0.0
  0
LINE
  5
6FEC7
330
7036E
100
AcDbEntity
  8
Level 26
  6
Continuous
 62
    40
370
     0
100
AcDbLine
 10
2804.660539
 20
-94.70756
 30
0.0
 11
2804.660539
 21
-374.709514
 31
0.0
  0
ENDBLK
  5
70370
330
7036E
100
AcDbEntity
  8
0
 62
    98
370
     0
100
AcDbBlockEnd
  0
BLOCK
  5
70372
330
70371
100
AcDbEntity
  8
0
 62
    98
370
     0
100
AcDbBlockBegin
  2
From Solid_28
 70
     0
 10
0.0
 20
0.0
 30
0.0
  3
From Solid_28
  1

  0
LINE
  5
6FEC9
330
70371
100
AcDbEntity
  8
Level 26
  6
Continuous
 62
    40
370
     0
100
AcDbLine
 10
2777.760539
 20
-94.70756
 30
0.0
 11
2804.660539
 21
-94.70756
 31
0.0
  0
LINE
  5
6FECA
330
70371
100
AcDbEntity
  8
Level 26
  6
Continuous
 62
    40
370
     0
100
AcDbLine
 10
2777.760539
 20
-374.709514
 30
0.0
 11
2804.660539
 21
-374.709514
 31
0.0
  0
LINE
  5
6FECB
330
70371
100
AcDbEntity
  8
Level 26
  6
Continuous
 62
    40
370
     0
100
AcDbLine
 10
2791.210539
 20
-94.70756
 30
0.0
 11
2791.210539
 21
-374.709514
 31
0.0
  0
LINE
  5
6FECC
330
70371
100
AcDbEntity
  8
Level 26
  6
Continuous
 62
    40
370
     0
100
AcDbLine
 10
2777.760539
 20
-94.70756
 30
0.0
 11
2777.760539
 21
-374.709514
 31
0.0
  0
LINE
  5
6FECD
330
70371
100
AcDbEntity
  8
Level 26
  6
Continuous
 62
    40
370
     0
100
AcDbLine
 10
2791.210539
 20
-94.70756
 30
0.0
 11
2791.210539
 21
-374.709514
 31
0.0
  0
LINE
  5
6FECE
330
70371
100
AcDbEntity
  8
Level 26
  6
Continuous
 62
    40
370
     0
100
AcDbLine
 10
2804.660539
 20
-94.70756
 30
0.0
 11
2804.660539
 21
-374.709514
 31
0.0
  0
ENDBLK
  5
70373
330
70371
100
AcDbEntity
  8
0
 62
    98
370
     0
100
AcDbBlockEnd
  0
BLOCK
  5
70375
330
70374
100
AcDbEntity
  8
0
 62
    98
370
     0
100
AcDbBlockBegin
  2
From Solid_29
 70
     0
 10
0.0
 20
0.0
 30
0.0
  3
From Solid_29
  1

  0
CIRCLE
  5
6FED0
330
70374
100
AcDbEntity
  8
Level 26
  6
Continuous
 62
    40
370
     0
100
AcDbCircle
 10
2791.210539
 20
-93.158488
 30
0.0
 40
13.45
  0
CIRCLE
  5
6FED1
330
70374
100
AcDbEntity
  8
Level 26
  6
Continuous
 62
    40
370
     0
100
AcDbCircle
 10
2791.210539
 20
-93.158488
 30
0.0
 40
13.45
  0
POINT
  5
6FED2
330
70374
100
AcDbEntity
  8
Level 26
  6
Continuous
 62
    40
370
     0
100
AcDbPoint
 10
2804.660539
 20
-93.158488
 30
0.0
  0
POINT
  5
6FED3
330
70374
100
AcDbEntity
  8
Level 26
  6
Continuous
 62
    40
370
     0
100
AcDbPoint
 10
2791.210539
 20
-79.708488
 30
0.0
  0
POINT
  5
6FED4
330
70374
100
AcDbEntity
  8
Level 26
  6
Continuous
 62
    40
370
     0
100
AcDbPoint
 10
2777.760539
 20
-93.158488
 30
0.0
  0
POINT
  5
6FED5
330
70374
100
AcDbEntity
  8
Level 26
  6
Continuous
 62
    40
370
     0
100
AcDbPoint
 10
2791.210539
 20
-106.608488
 30
0.0
  0
ENDBLK
  5
70376
330
70374
100
AcDbEntity
  8
0
 62
    98
370
     0
100
AcDbBlockEnd
  0
BLOCK
  5
70378
330
70377
100
AcDbEntity
  8
0
 62
    98
370
     0
100
AcDbBlockBegin
  2
From Solid_30
 70
     0
 10
0.0
 20
0.0
 30
0.0
  3
From Solid_30
  1

  0
CIRCLE
  5
6FED7
330
70377
100
AcDbEntity
  8
Level 26
  6
Continuous
 62
    40
370
     0
100
AcDbCircle
 10
2791.210539
 20
-376.258585
 30
0.0
 40
13.45
  0
CIRCLE
  5
6FED8
330
70377
100
AcDbEntity
  8
Level 26
  6
Continuous
 62
    40
370
     0
100
AcDbCircle
 10
2791.210539
 20
-376.258585
 30
0.0
 40
13.45
  0
POINT
  5
6FED9
330
70377
100
AcDbEntity
  8
Level 26
  6
Continuous
 62
    40
370
     0
100
AcDbPoint
 10
2777.760539
 20
-376.258585
 30
0.0
  0
POINT
  5
6FEDA
330
70377
100
AcDbEntity
  8
Level 26
  6
Continuous
 62
    40
370
     0
100
AcDbPoint
 10
2791.210539
 20
-362.808585
 30
0.0
  0
POINT
  5
6FEDB
330
70377
100
AcDbEntity
  8
Level 26
  6
Continuous
 62
    40
370
     0
100
AcDbPoint
 10
2804.660539
 20
-376.258585
 30
0.0
  0
POINT
  5
6FEDC
330
70377
100
AcDbEntity
  8
Level 26
  6
Continuous
 62
    40
370
     0
100
AcDbPoint
 10
2791.210539
 20
-389.708585
 30
0.0
  0
ENDBLK
  5
70379
330
70377
100
AcDbEntity
  8
0
 62
    98
370
     0
100
AcDbBlockEnd
  0
BLOCK
  5
7037B
330
7037A
100
AcDbEntity
  8
0
 62
    98
370
     0
100
AcDbBlockBegin
  2
From Solid_31
 70
     0
 10
0.0
 20
0.0
 30
0.0
  3
From Solid_31
  1

  0
LINE
  5
6FEDE
330
7037A
100
AcDbEntity
  8
Level 26
  6
Continuous
 62
    40
370
     0
100
AcDbLine
 10
2777.760539
 20
-306.258585
 30
0.0
 11
2804.660539
 21
-306.258585
 31
0.0
  0
LINE
  5
6FEDF
330
7037A
100
AcDbEntity
  8
Level 26
  6
Continuous
 62
    40
370
     0
100
AcDbLine
 10
2777.760539
 20
-163.158488
 30
0.0
 11
2804.660539
 21
-163.158488
 31
0.0
  0
LINE
  5
6FEE0
330
7037A
100
AcDbEntity
  8
Level 26
  6
Continuous
 62
    40
370
     0
100
AcDbLine
 10
2791.210539
 20
-306.258585
 30
0.0
 11
2791.210539
 21
-163.158488
 31
0.0
  0
LINE
  5
6FEE1
330
7037A
100
AcDbEntity
  8
Level 26
  6
Continuous
 62
    40
370
     0
100
AcDbLine
 10
2777.760539
 20
-306.258585
 30
0.0
 11
2777.760539
 21
-163.158488
 31
0.0
  0
LINE
  5
6FEE2
330
7037A
100
AcDbEntity
  8
Level 26
  6
Continuous
 62
    40
370
     0
100
AcDbLine
 10
2791.210539
 20
-306.258585
 30
0.0
 11
2791.210539
 21
-163.158488
 31
0.0
  0
LINE
  5
6FEE3
330
7037A
100
AcDbEntity
  8
Level 26
  6
Continuous
 62
    40
370
     0
100
AcDbLine
 10
2804.660539
 20
-306.258585
 30
0.0
 11
2804.660539
 21
-163.158488
 31
0.0
  0
ENDBLK
  5
7037C
330
7037A
100
AcDbEntity
  8
0
 62
    98
370
     0
100
AcDbBlockEnd
  0
BLOCK
  5
7037E
330
7037D
100
AcDbEntity
  8
0
 62
    98
370
     0
100
AcDbBlockBegin
  2
From Solid_32
 70
     0
 10
0.0
 20
0.0
 30
0.0
  3
From Solid_32
  1

  0
LINE
  5
6FEE5
330
7037D
100
AcDbEntity
  8
Level 26
  6
Continuous
 62
    40
370
     0
100
AcDbLine
 10
2395.860539
 20
-324.733073
 30
0.0
 11
2422.760539
 21
-324.733073
 31
0.0
  0
LINE
  5
6FEE6
330
7037D
100
AcDbEntity
  8
Level 26
  6
Continuous
 62
    40
370
     0
100
AcDbLine
 10
2395.860539
 20
-144.684001
 30
0.0
 11
2422.760539
 21
-144.684001
 31
0.0
  0
LINE
  5
6FEE7
330
7037D
100
AcDbEntity
  8
Level 26
  6
Continuous
 62
    40
370
     0
100
AcDbLine
 10
2409.310539
 20
-324.733073
 30
0.0
 11
2409.310539
 21
-144.684001
 31
0.0
  0
LINE
  5
6FEE8
330
7037D
100
AcDbEntity
  8
Level 26
  6
Continuous
 62
    40
370
     0
100
AcDbLine
 10
2395.860539
 20
-324.733073
 30
0.0
 11
2395.860539
 21
-144.684001
 31
0.0
  0
LINE
  5
6FEE9
330
7037D
100
AcDbEntity
  8
Level 26
  6
Continuous
 62
    40
370
     0
100
AcDbLine
 10
2409.310539
 20
-324.733073
 30
0.0
 11
2409.310539
 21
-144.684001
 31
0.0
  0
LINE
  5
6FEEA
330
7037D
100
AcDbEntity
  8
Level 26
  6
Continuous
 62
    40
370
     0
100
AcDbLine
 10
2422.760539
 20
-324.733073
 30
0.0
 11
2422.760539
 21
-144.684001
 31
0.0
  0
ENDBLK
  5
7037F
330
7037D
100
AcDbEntity
  8
0
 62
    98
370
     0
100
AcDbBlockEnd
  0
BLOCK
  5
70381
330
70380
100
AcDbEntity
  8
0
 62
    98
370
     0
100
AcDbBlockBegin
  2
From Solid_33
 70
     0
 10
0.0
 20
0.0
 30
0.0
  3
From Solid_33
  1

  0
LINE
  5
6FEEC
330
70380
100
AcDbEntity
  8
Level 26
  6
Continuous
 62
    40
370
     0
100
AcDbLine
 10
2395.860539
 20
-324.733073
 30
0.0
 11
2422.760539
 21
-324.733073
 31
0.0
  0
LINE
  5
6FEED
330
70380
100
AcDbEntity
  8
Level 26
  6
Continuous
 62
    40
370
     0
100
AcDbLine
 10
2395.860539
 20
-144.684001
 30
0.0
 11
2422.760539
 21
-144.684001
 31
0.0
  0
LINE
  5
6FEEE
330
70380
100
AcDbEntity
  8
Level 26
  6
Continuous
 62
    40
370
     0
100
AcDbLine
 10
2409.310539
 20
-324.733073
 30
0.0
 11
2409.310539
 21
-144.684001
 31
0.0
  0
LINE
  5
6FEEF
330
70380
100
AcDbEntity
  8
Level 26
  6
Continuous
 62
    40
370
     0
100
AcDbLine
 10
2395.860539
 20
-324.733073
 30
0.0
 11
2395.860539
 21
-144.684001
 31
0.0
  0
LINE
  5
6FEF0
330
70380
100
AcDbEntity
  8
Level 26
  6
Continuous
 62
    40
370
     0
100
AcDbLine
 10
2409.310539
 20
-324.733073
 30
0.0
 11
2409.310539
 21
-144.684001
 31
0.0
  0
LINE
  5
6FEF1
330
70380
100
AcDbEntity
  8
Level 26
  6
Continuous
 62
    40
370
     0
100
AcDbLine
 10
2422.760539
 20
-324.733073
 30
0.0
 11
2422.760539
 21
-144.684001
 31
0.0
  0
ENDBLK
  5
70382
330
70380
100
AcDbEntity
  8
0
 62
    98
370
     0
100
AcDbBlockEnd
  0
BLOCK
  5
70384
330
70383
100
AcDbEntity
  8
0
 62
    98
370
     0
100
AcDbBlockBegin
  2
From Solid_34
 70
     0
 10
0.0
 20
0.0
 30
0.0
  3
From Solid_34
  1

  0
LINE
  5
6FEF3
330
70383
100
AcDbEntity
  8
Level 26
  6
Continuous
 62
    40
370
     0
100
AcDbLine
 10
2804.660539
 20
-94.70756
 30
0.0
 11
2777.760539
 21
-94.70756
 31
0.0
  0
LINE
  5
6FEF4
330
70383
100
AcDbEntity
  8
Level 26
  6
Continuous
 62
    40
370
     0
100
AcDbLine
 10
2804.660539
 20
-94.70756
 30
0.0
 11
2777.760539
 21
-94.70756
 31
0.0
  0
LINE
  5
6FEF5
330
70383
100
AcDbEntity
  8
Level 26
  6
Continuous
 62
    40
370
     0
100
AcDbLine
 10
2804.660539
 20
-94.70756
 30
0.0
 11
2804.660539
 21
-25.657755
 31
0.0
  0
LINE
  5
6FEF6
330
70383
100
AcDbEntity
  8
Level 26
  6
Continuous
 62
    40
370
     0
100
AcDbLine
 10
2791.210539
 20
-94.70756
 30
0.0
 11
2791.210539
 21
-12.207755
 31
0.0
  0
LINE
  5
6FEF7
330
70383
100
AcDbEntity
  8
Level 26
  6
Continuous
 62
    40
370
     0
100
AcDbLine
 10
2777.760539
 20
-94.70756
 30
0.0
 11
2777.760539
 21
-25.657755
 31
0.0
  0
LINE
  5
6FEF8
330
70383
100
AcDbEntity
  8
Level 26
  6
Continuous
 62
    40
370
     0
100
AcDbLine
 10
2791.210539
 20
-94.70756
 30
0.0
 11
2791.210539
 21
-39.107755
 31
0.0
  0
ENDBLK
  5
70385
330
70383
100
AcDbEntity
  8
0
 62
    98
370
     0
100
AcDbBlockEnd
  0
BLOCK
  5
70387
330
70386
100
AcDbEntity
  8
0
 62
    98
370
     0
100
AcDbBlockBegin
  2
From Solid_35
 70
     0
 10
0.0
 20
0.0
 30
0.0
  3
From Solid_35
  1

  0
LINE
  5
6FEFA
330
70386
100
AcDbEntity
  8
Level 26
  6
Continuous
 62
    40
370
     0
100
AcDbLine
 10
2804.660539
 20
-374.709514
 30
0.0
 11
2777.760539
 21
-374.709514
 31
0.0
  0
LINE
  5
6FEFB
330
70386
100
AcDbEntity
  8
Level 26
  6
Continuous
 62
    40
370
     0
100
AcDbLine
 10
2804.660539
 20
-374.709514
 30
0.0
 11
2777.760539
 21
-374.709514
 31
0.0
  0
LINE
  5
6FEFC
330
70386
100
AcDbEntity
  8
Level 26
  6
Continuous
 62
    40
370
     0
100
AcDbLine
 10
2804.660539
 20
-374.709514
 30
0.0
 11
2804.660539
 21
-443.75883
 31
0.0
  0
LINE
  5
6FEFD
330
70386
100
AcDbEntity
  8
Level 26
  6
Continuous
 62
    40
370
     0
100
AcDbLine
 10
2791.210539
 20
-374.709514
 30
0.0
 11
2791.210539
 21
-457.20883
 31
0.0
  0
LINE
  5
6FEFE
330
70386
100
AcDbEntity
  8
Level 26
  6
Continuous
 62
    40
370
     0
100
AcDbLine
 10
2777.760539
 20
-374.709514
 30
0.0
 11
2777.760539
 21
-443.75883
 31
0.0
  0
LINE
  5
6FEFF
330
70386
100
AcDbEntity
  8
Level 26
  6
Continuous
 62
    40
370
     0
100
AcDbLine
 10
2791.210539
 20
-374.709514
 30
0.0
 11
2791.210539
 21
-430.30883
 31
0.0
  0
ENDBLK
  5
70388
330
70386
100
AcDbEntity
  8
0
 62
    98
370
     0
100
AcDbBlockEnd
  0
BLOCK
  5
7038A
330
70389
100
AcDbEntity
  8
0
 62
    98
370
     0
100
AcDbBlockBegin
  2
From Solid_36
 70
     0
 10
0.0
 20
0.0
 30
0.0
  3
From Solid_36
  1

  0
LWPOLYLINE
  5
7038C
330
70389
100
AcDbEntity
  8
Level 26
  6
Continuous
 62
    40
370
     0
100
AcDbPolyline
 90
        2
 70
   128
 43
0.0
 10
2777.760539
 20
-306.258587
 10
2804.660539
 20
-306.258587
  0
CIRCLE
  5
6FF02
330
70389
100
AcDbEntity
  8
Level 26
  6
Continuous
 62
    40
370
     0
100
AcDbCircle
 10
2791.210539
 20
-376.258586
 30
0.0
 40
13.45
  0
LINE
  5
6FF03
330
70389
100
AcDbEntity
  8
Level 26
  6
Continuous
 62
    40
370
     0
100
AcDbLine
 10
2804.660539
 20
-376.258586
 30
0.0
 11
2804.660539
 21
-306.258587
 31
0.0
  0
LINE
  5
6FF04
330
70389
100
AcDbEntity
  8
Level 26
  6
Continuous
 62
    40
370
     0
100
AcDbLine
 10
2791.210539
 20
-389.708586
 30
0.0
 11
2791.210539
 21
-306.258532
 31
0.0
  0
LINE
  5
6FF05
330
70389
100
AcDbEntity
  8
Level 26
  6
Continuous
 62
    40
370
     0
100
AcDbLine
 10
2777.760539
 20
-376.258586
 30
0.0
 11
2777.760539
 21
-306.258587
 31
0.0
  0
LINE
  5
6FF06
330
70389
100
AcDbEntity
  8
Level 26
  6
Continuous
 62
    40
370
     0
100
AcDbLine
 10
2791.210539
 20
-362.808586
 30
0.0
 11
2791.210539
 21
-306.258642
 31
0.0
  0
ENDBLK
  5
7038B
330
70389
100
AcDbEntity
  8
0
 62
    98
370
     0
100
AcDbBlockEnd
  0
BLOCK
  5
7038E
330
7038D
100
AcDbEntity
  8
0
 62
    98
370
     0
100
AcDbBlockBegin
  2
From Solid_37
 70
     0
 10
0.0
 20
0.0
 30
0.0
  3
From Solid_37
  1

  0
CIRCLE
  5
6FF08
330
7038D
100
AcDbEntity
  8
Level 26
  6
Continuous
 62
    40
370
     0
100
AcDbCircle
 10
2791.210539
 20
-93.158488
 30
0.0
 40
13.45
  0
LWPOLYLINE
  5
70390
330
7038D
100
AcDbEntity
  8
Level 26
  6
Continuous
 62
    40
370
     0
100
AcDbPolyline
 90
        2
 70
   128
 43
0.0
 10
2777.760539
 20
-163.158487
 10
2804.660539
 20
-163.158487
  0
LINE
  5
6FF0A
330
7038D
100
AcDbEntity
  8
Level 26
  6
Continuous
 62
    40
370
     0
100
AcDbLine
 10
2804.660539
 20
-163.158487
 30
0.0
 11
2804.660539
 21
-93.158488
 31
0.0
  0
LINE
  5
6FF0B
330
7038D
100
AcDbEntity
  8
Level 26
  6
Continuous
 62
    40
370
     0
100
AcDbLine
 10
2791.210539
 20
-163.158542
 30
0.0
 11
2791.210539
 21
-79.708488
 31
0.0
  0
LINE
  5
6FF0C
330
7038D
100
AcDbEntity
  8
Level 26
  6
Continuous
 62
    40
370
     0
100
AcDbLine
 10
2777.760539
 20
-163.158487
 30
0.0
 11
2777.760539
 21
-93.158488
 31
0.0
  0
LINE
  5
6FF0D
330
7038D
100
AcDbEntity
  8
Level 26
  6
Continuous
 62
    40
370
     0
100
AcDbLine
 10
2791.210539
 20
-163.158432
 30
0.0
 11
2791.210539
 21
-106.608488
 31
0.0
  0
ENDBLK
  5
7038F
330
7038D
100
AcDbEntity
  8
0
 62
    98
370
     0
100
AcDbBlockEnd
  0
BLOCK
  5
70392
330
70391
100
AcDbEntity
  8
0
 62
    98
370
     0
100
AcDbBlockBegin
  2
From Solid_38
 70
     0
 10
0.0
 20
0.0
 30
0.0
  3
From Solid_38
  1

  0
LINE
  5
6FF0F
330
70391
100
AcDbEntity
  8
Level 26
  6
Continuous
 62
    40
370
     0
100
AcDbLine
 10
2422.760539
 20
-144.684001
 30
0.0
 11
2395.860539
 21
-144.684001
 31
0.0
  0
LINE
  5
6FF10
330
70391
100
AcDbEntity
  8
Level 26
  6
Continuous
 62
    40
370
     0
100
AcDbLine
 10
2422.760539
 20
-144.684001
 30
0.0
 11
2395.860539
 21
-144.684001
 31
0.0
  0
LINE
  5
6FF11
330
70391
100
AcDbEntity
  8
Level 26
  6
Continuous
 62
    40
370
     0
100
AcDbLine
 10
2422.760539
 20
-144.684001
 30
0.0
 11
2422.760539
 21
-75.634196
 31
0.0
  0
LINE
  5
6FF12
330
70391
100
AcDbEntity
  8
Level 26
  6
Continuous
 62
    40
370
     0
100
AcDbLine
 10
2409.310539
 20
-144.684001
 30
0.0
 11
2409.310539
 21
-62.184196
 31
0.0
  0
LINE
  5
6FF13
330
70391
100
AcDbEntity
  8
Level 26
  6
Continuous
 62
    40
370
     0
100
AcDbLine
 10
2395.860539
 20
-144.684001
 30
0.0
 11
2395.860539
 21
-75.634196
 31
0.0
  0
LINE
  5
6FF14
330
70391
100
AcDbEntity
  8
Level 26
  6
Continuous
 62
    40
370
     0
100
AcDbLine
 10
2409.310539
 20
-144.684001
 30
0.0
 11
2409.310539
 21
-89.084196
 31
0.0
  0
ENDBLK
  5
70393
330
70391
100
AcDbEntity
  8
0
 62
    98
370
     0
100
AcDbBlockEnd
  0
BLOCK
  5
70395
330
70394
100
AcDbEntity
  8
0
 62
    98
370
     0
100
AcDbBlockBegin
  2
From Solid_39
 70
     0
 10
0.0
 20
0.0
 30
0.0
  3
From Solid_39
  1

  0
LINE
  5
6FF16
330
70394
100
AcDbEntity
  8
Level 26
  6
Continuous
 62
    40
370
     0
100
AcDbLine
 10
2422.760539
 20
-324.733073
 30
0.0
 11
2395.860539
 21
-324.733073
 31
0.0
  0
LINE
  5
6FF17
330
70394
100
AcDbEntity
  8
Level 26
  6
Continuous
 62
    40
370
     0
100
AcDbLine
 10
2422.760539
 20
-324.733073
 30
0.0
 11
2395.860539
 21
-324.733073
 31
0.0
  0
LINE
  5
6FF18
330
70394
100
AcDbEntity
  8
Level 26
  6
Continuous
 62
    40
370
     0
100
AcDbLine
 10
2422.760539
 20
-324.733073
 30
0.0
 11
2422.760539
 21
-393.782878
 31
0.0
  0
LINE
  5
6FF19
330
70394
100
AcDbEntity
  8
Level 26
  6
Continuous
 62
    40
370
     0
100
AcDbLine
 10
2409.310539
 20
-324.733073
 30
0.0
 11
2409.310539
 21
-407.232878
 31
0.0
  0
LINE
  5
6FF1A
330
70394
100
AcDbEntity
  8
Level 26
  6
Continuous
 62
    40
370
     0
100
AcDbLine
 10
2395.860539
 20
-324.733073
 30
0.0
 11
2395.860539
 21
-393.782878
 31
0.0
  0
LINE
  5
6FF1B
330
70394
100
AcDbEntity
  8
Level 26
  6
Continuous
 62
    40
370
     0
100
AcDbLine
 10
2409.310539
 20
-324.733073
 30
0.0
 11
2409.310539
 21
-380.332878
 31
0.0
  0
ENDBLK
  5
70396
330
70394
100
AcDbEntity
  8
0
 62
    98
370
     0
100
AcDbBlockEnd
  0
BLOCK
  5
70398
330
70397
100
AcDbEntity
  8
0
 62
    98
370
     0
100
AcDbBlockBegin
  2
From Surface_12
 70
     0
 10
0.0
 20
0.0
 30
0.0
  3
From Surface_12
  1

  0
ARC
  5
6FF1D
330
70397
100
AcDbEntity
  8
Level 26
  6
Continuous
 62
    20
370
     0
100
AcDbCircle
 10
-2721.21054
 20
-314.708538
 30
0.0
 40
19.99999871533719
210
0.0
220
0.0
230
-1.0
100
AcDbArc
 50
179.999996
 51
270.000004
  0
ARC
  5
6FF1E
330
70397
100
AcDbEntity
  8
Level 26
  6
Continuous
 62
    20
370
     0
100
AcDbCircle
 10
-2721.21054
 20
-314.708538
 30
0.0
 40
19.99999871533719
210
0.0
220
0.0
230
-1.0
100
AcDbArc
 50
179.999996
 51
270.000004
  0
POINT
  5
6FF1F
330
70397
100
AcDbEntity
  8
Level 26
  6
Continuous
 62
    20
370
     0
100
AcDbPoint
 10
2741.210539
 20
-314.708537
 30
0.0
  0
POINT
  5
6FF20
330
70397
100
AcDbEntity
  8
Level 26
  6
Continuous
 62
    20
370
     0
100
AcDbPoint
 10
2721.210539
 20
-334.708537
 30
0.0
  0
ENDBLK
  5
70399
330
70397
100
AcDbEntity
  8
0
 62
    98
370
     0
100
AcDbBlockEnd
  0
BLOCK
  5
7039B
330
7039A
100
AcDbEntity
  8
0
 62
    98
370
     0
100
AcDbBlockBegin
  2
From Surface_13
 70
     0
 10
0.0
 20
0.0
 30
0.0
  3
From Surface_13
  1

  0
ARC
  5
6FF22
330
7039A
100
AcDbEntity
  8
Level 26
  6
Continuous
 62
    20
370
     0
100
AcDbCircle
 10
-2721.21054
 20
-154.708536
 30
0.0
 40
19.99999871533725
210
0.0
220
0.0
230
-1.0
100
AcDbArc
 50
89.999996
 51
180.000004
  0
ARC
  5
6FF23
330
7039A
100
AcDbEntity
  8
Level 26
  6
Continuous
 62
    20
370
     0
100
AcDbCircle
 10
-2721.21054
 20
-154.708536
 30
0.0
 40
19.99999871533726
210
0.0
220
0.0
230
-1.0
100
AcDbArc
 50
89.999996
 51
180.000004
  0
POINT
  5
6FF24
330
7039A
100
AcDbEntity
  8
Level 26
  6
Continuous
 62
    20
370
     0
100
AcDbPoint
 10
2721.210539
 20
-134.708537
 30
0.0
  0
POINT
  5
6FF25
330
7039A
100
AcDbEntity
  8
Level 26
  6
Continuous
 62
    20
370
     0
100
AcDbPoint
 10
2741.210539
 20
-154.708537
 30
0.0
  0
ENDBLK
  5
7039C
330
7039A
100
AcDbEntity
  8
0
 62
    98
370
     0
100
AcDbBlockEnd
  0
BLOCK
  5
7039E
330
7039D
100
AcDbEntity
  8
0
 62
    98
370
     0
100
AcDbBlockBegin
  2
From Surface_14
 70
     0
 10
0.0
 20
0.0
 30
0.0
  3
From Surface_14
  1

  0
ARC
  5
6FF27
330
7039D
100
AcDbEntity
  8
Level 26
  6
Continuous
 62
    20
370
     0
100
AcDbCircle
 10
-2471.210537
 20
-154.708536
 30
0.0
 40
19.99999871533696
210
0.0
220
0.0
230
-1.0
100
AcDbArc
 50
359.999996
 51
90.000004
  0
ARC
  5
6FF28
330
7039D
100
AcDbEntity
  8
Level 26
  6
Continuous
 62
    20
370
     0
100
AcDbCircle
 10
-2471.210537
 20
-154.708536
 30
0.0
 40
19.99999871533696
210
0.0
220
0.0
230
-1.0
100
AcDbArc
 50
359.999996
 51
90.000004
  0
POINT
  5
6FF29
330
7039D
100
AcDbEntity
  8
Level 26
  6
Continuous
 62
    20
370
     0
100
AcDbPoint
 10
2451.210539
 20
-154.708537
 30
0.0
  0
POINT
  5
6FF2A
330
7039D
100
AcDbEntity
  8
Level 26
  6
Continuous
 62
    20
370
     0
100
AcDbPoint
 10
2471.210539
 20
-134.708537
 30
0.0
  0
ENDBLK
  5
7039F
330
7039D
100
AcDbEntity
  8
0
 62
    98
370
     0
100
AcDbBlockEnd
  0
BLOCK
  5
703A1
330
703A0
100
AcDbEntity
  8
0
 62
    98
370
     0
100
AcDbBlockBegin
  2
From Surface_15
 70
     0
 10
0.0
 20
0.0
 30
0.0
  3
From Surface_15
  1

  0
ARC
  5
6FF2C
330
703A0
100
AcDbEntity
  8
Level 26
  6
Continuous
 62
    20
370
     0
100
AcDbCircle
 10
-2471.210537
 20
-314.708538
 30
0.0
 40
19.99999871533713
210
0.0
220
0.0
230
-1.0
100
AcDbArc
 50
269.999996
 51
0.000004
  0
ARC
  5
6FF2D
330
703A0
100
AcDbEntity
  8
Level 26
  6
Continuous
 62
    20
370
     0
100
AcDbCircle
 10
-2471.210537
 20
-314.708538
 30
0.0
 40
19.99999871533713
210
0.0
220
0.0
230
-1.0
100
AcDbArc
 50
269.999996
 51
0.000004
  0
POINT
  5
6FF2E
330
703A0
100
AcDbEntity
  8
Level 26
  6
Continuous
 62
    20
370
     0
100
AcDbPoint
 10
2471.210539
 20
-334.708537
 30
0.0
  0
POINT
  5
6FF2F
330
703A0
100
AcDbEntity
  8
Level 26
  6
Continuous
 62
    20
370
     0
100
AcDbPoint
 10
2451.210539
 20
-314.708537
 30
0.0
  0
ENDBLK
  5
703A2
330
703A0
100
AcDbEntity
  8
0
 62
    98
370
     0
100
AcDbBlockEnd
  0
BLOCK
  5
703A4
330
703A3
100
AcDbEntity
  8
0
 62
    98
370
     0
100
AcDbBlockBegin
  2
From Bspline Surface
 70
     0
 10
0.0
 20
0.0
 30
0.0
  3
From Bspline Surface
  1

  0
SPLINE
  5
6FF4D
330
703A3
100
AcDbEntity
  8
Level 26
  6
Continuous
 62
     7
370
     0
100
AcDbSpline
210
0.0
220
0.0
230
1.0
 70
     9
 71
     3
 72
    19
 73
    15
 74
     0
 42
0.000000001
 43
0.0000000001
 40
0.0
 40
0.0
 40
0.0
 40
0.0
 40
0.0833333335273589
 40
0.1666666665890565
 40
0.2500000001164153
 40
0.3333333331781129
 40
0.4166666667054718
 40
0.4999999997671694
 40
0.5833333332945282
 40
0.6666666668218872
 40
0.7499999998835847
 40
0.8333333334109434
 40
0.9166666664726411
 40
1.0
 40
1.0
 40
1.0
 40
1.0
 10
3129.21053859493
 20
-234.70853700114
 30
0.0
 10
3128.707594108099
 20
-249.1135066657415
 30
0.0
 10
3122.179202952363
 20
-275.1728147195761
 30
0.0
 10
3091.833270764491
 20
-305.7233870026659
 30
0.0
 10
3051.227542684411
 20
-316.1197343643407
 30
0.0
 10
3010.517521535084
 20
-305.5937383622655
 30
0.0
 10
2980.496710475176
 20
-275.7139049322902
 30
0.0
 10
2969.73889773675
 20
-234.8415809477936
 30
0.0
 10
2980.345086035954
 20
-193.9524456287226
 30
0.0
 10
3010.41858959136
 20
-163.8543398820872
 30
0.0
 10
3051.224698145698
 20
-153.291595108382
 30
0.0
 10
3091.943808042851
 20
-163.7231550314753
 30
0.0
 10
3122.291031621451
 20
-194.5060085731483
 30
0.0
 10
3128.78379598804
 20
-220.3496646905836
 30
0.0
 10
3129.21053859493
 20
-234.70853700114
 30
0.0
  0
SPLINE
  5
701E2
330
703A3
100
AcDbEntity
  8
Level 26
  6
Continuous
 62
     7
370
     0
100
AcDbSpline
210
0.0
220
0.0
230
1.0
 70
     9
 71
     3
 72
    19
 73
    15
 74
     0
 42
0.000000001
 43
0.0000000001
 40
0.0
 40
0.0
 40
0.0
 40
0.0
 40
0.0833333335273589
 40
0.1666666665890565
 40
0.2500000001164153
 40
0.3333333331781129
 40
0.4166666667054718
 40
0.4999999997671694
 40
0.5833333332945282
 40
0.6666666668218872
 40
0.7499999998835847
 40
0.8333333334109434
 40
0.9166666664726411
 40
1.0
 40
1.0
 40
1.0
 40
1.0
 10
3129.21053859493
 20
-234.7085370011399
 30
0.0
 10
3128.707594108099
 20
-249.1135066657415
 30
0.0
 10
3122.179202952363
 20
-275.1728147195761
 30
0.0
 10
3091.833270764491
 20
-305.7233870026658
 30
0.0
 10
3051.227542684411
 20
-316.1197343643407
 30
0.0
 10
3010.517521535084
 20
-305.5937383622655
 30
0.0
 10
2980.496710475176
 20
-275.7139049322902
 30
0.0
 10
2969.73889773675
 20
-234.8415809477935
 30
0.0
 10
2980.345086035954
 20
-193.9524456287226
 30
0.0
 10
3010.41858959136
 20
-163.8543398820872
 30
0.0
 10
3051.224698145698
 20
-153.291595108382
 30
0.0
 10
3091.943808042851
 20
-163.7231550314753
 30
0.0
 10
3122.291031621451
 20
-194.5060085731483
 30
0.0
 10
3128.783795988038
 20
-220.3496646905836
 30
0.0
 10
3129.21053859493
 20
-234.7085370011399
 30
0.0
  0
SPLINE
  5
701E3
330
703A3
100
AcDbEntity
  8
Level 26
  6
Continuous
 62
     7
370
     0
100
AcDbSpline
210
0.0
220
0.0
230
1.0
 70
     9
 71
     3
 72
    19
 73
    15
 74
     0
 42
0.000000001
 43
0.0000000001
 40
0.0
 40
0.0
 40
0.0
 40
0.0
 40
0.0833333335273589
 40
0.1666666665890565
 40
0.2500000001164153
 40
0.3333333331781129
 40
0.4166666667054718
 40
0.4999999997671694
 40
0.5833333332945282
 40
0.6666666668218872
 40
0.7499999998835847
 40
0.8333333334109434
 40
0.9166666664726411
 40
1.0
 40
1.0
 40
1.0
 40
1.0
 10
3129.21053859493
 20
-234.70853700114
 30
0.0
 10
3128.707594108099
 20
-249.1135066657415
 30
0.0
 10
3122.179202952363
 20
-275.1728147195761
 30
0.0
 10
3091.833270764491
 20
-305.7233870026659
 30
0.0
 10
3051.227542684411
 20
-316.1197343643407
 30
0.0
 10
3010.517521535084
 20
-305.5937383622655
 30
0.0
 10
2980.496710475176
 20
-275.7139049322902
 30
0.0
 10
2969.73889773675
 20
-234.8415809477935
 30
0.0
 10
2980.345086035954
 20
-193.9524456287226
 30
0.0
 10
3010.41858959136
 20
-163.8543398820872
 30
0.0
 10
3051.224698145698
 20
-153.291595108382
 30
0.0
 10
3091.943808042851
 20
-163.7231550314753
 30
0.0
 10
3122.291031621451
 20
-194.5060085731483
 30
0.0
 10
3128.78379598804
 20
-220.3496646905836
 30
0.0
 10
3129.21053859493
 20
-234.70853700114
 30
0.0
  0
SPLINE
  5
701E4
330
703A3
100
AcDbEntity
  8
Level 26
  6
Continuous
 62
     7
370
     0
100
AcDbSpline
210
0.0
220
0.0
230
1.0
 70
     9
 71
     3
 72
    19
 73
    15
 74
     0
 42
0.000000001
 43
0.0000000001
 40
0.0
 40
0.0
 40
0.0
 40
0.0
 40
0.0833333335273589
 40
0.1666666665890565
 40
0.2500000001164153
 40
0.3333333331781129
 40
0.4166666667054718
 40
0.4999999997671694
 40
0.5833333332945282
 40
0.6666666668218872
 40
0.7499999998835847
 40
0.8333333334109434
 40
0.9166666664726411
 40
1.0
 40
1.0
 40
1.0
 40
1.0
 10
3129.21053859493
 20
-234.70853700114
 30
0.0
 10
3128.707594108099
 20
-249.1135066657416
 30
0.0
 10
3122.179202952364
 20
-275.1728147195761
 30
0.0
 10
3091.833270764491
 20
-305.7233870026659
 30
0.0
 10
3051.227542684411
 20
-316.1197343643408
 30
0.0
 10
3010.517521535084
 20
-305.5937383622655
 30
0.0
 10
2980.496710475176
 20
-275.7139049322902
 30
0.0
 10
2969.73889773675
 20
-234.8415809477936
 30
0.0
 10
2980.345086035954
 20
-193.9524456287226
 30
0.0
 10
3010.41858959136
 20
-163.8543398820872
 30
0.0
 10
3051.224698145698
 20
-153.291595108382
 30
0.0
 10
3091.943808042851
 20
-163.7231550314753
 30
0.0
 10
3122.291031621452
 20
-194.5060085731484
 30
0.0
 10
3128.78379598804
 20
-220.3496646905836
 30
0.0
 10
3129.21053859493
 20
-234.70853700114
 30
0.0
  0
SPLINE
  5
701E5
330
703A3
100
AcDbEntity
  8
Level 26
  6
Continuous
 62
     7
370
     0
100
AcDbSpline
210
0.0
220
0.0
230
1.0
 70
     9
 71
     3
 72
    19
 73
    15
 74
     0
 42
0.000000001
 43
0.0000000001
 40
0.0
 40
0.0
 40
0.0
 40
0.0
 40
0.0833333335273589
 40
0.1666666665890565
 40
0.2500000001164153
 40
0.3333333331781129
 40
0.4166666667054718
 40
0.4999999997671694
 40
0.5833333332945282
 40
0.6666666668218872
 40
0.7499999998835847
 40
0.8333333334109434
 40
0.9166666664726411
 40
1.0
 40
1.0
 40
1.0
 40
1.0
 10
3129.21053859493
 20
-234.70853700114
 30
0.0
 10
3128.707594108099
 20
-249.1135066657415
 30
0.0
 10
3122.179202952363
 20
-275.1728147195761
 30
0.0
 10
3091.833270764491
 20
-305.7233870026659
 30
0.0
 10
3051.227542684411
 20
-316.1197343643407
 30
0.0
 10
3010.517521535084
 20
-305.5937383622655
 30
0.0
 10
2980.496710475176
 20
-275.7139049322902
 30
0.0
 10
2969.73889773675
 20
-234.8415809477936
 30
0.0
 10
2980.345086035954
 20
-193.9524456287226
 30
0.0
 10
3010.41858959136
 20
-163.8543398820872
 30
0.0
 10
3051.224698145698
 20
-153.291595108382
 30
0.0
 10
3091.943808042851
 20
-163.7231550314753
 30
0.0
 10
3122.291031621451
 20
-194.5060085731483
 30
0.0
 10
3128.78379598804
 20
-220.3496646905836
 30
0.0
 10
3129.21053859493
 20
-234.70853700114
 30
0.0
  0
SPLINE
  5
701E6
330
703A3
100
AcDbEntity
  8
Level 26
  6
Continuous
 62
     7
370
     0
100
AcDbSpline
210
0.0
220
0.0
230
1.0
 70
     9
 71
     3
 72
    19
 73
    15
 74
     0
 42
0.000000001
 43
0.0000000001
 40
0.0
 40
0.0
 40
0.0
 40
0.0
 40
0.0833333335273589
 40
0.1666666665890565
 40
0.2500000001164153
 40
0.3333333331781129
 40
0.4166666667054718
 40
0.4999999997671694
 40
0.5833333332945282
 40
0.6666666668218872
 40
0.7499999998835847
 40
0.8333333334109434
 40
0.9166666664726411
 40
1.0
 40
1.0
 40
1.0
 40
1.0
 10
3129.21053859493
 20
-234.70853700114
 30
0.0
 10
3128.707594108099
 20
-249.1135066657415
 30
0.0
 10
3122.179202952363
 20
-275.1728147195761
 30
0.0
 10
3091.833270764491
 20
-305.7233870026659
 30
0.0
 10
3051.227542684411
 20
-316.1197343643407
 30
0.0
 10
3010.517521535084
 20
-305.5937383622655
 30
0.0
 10
2980.496710475176
 20
-275.7139049322902
 30
0.0
 10
2969.73889773675
 20
-234.8415809477936
 30
0.0
 10
2980.345086035954
 20
-193.9524456287226
 30
0.0
 10
3010.41858959136
 20
-163.8543398820872
 30
0.0
 10
3051.224698145698
 20
-153.291595108382
 30
0.0
 10
3091.943808042851
 20
-163.7231550314753
 30
0.0
 10
3122.291031621451
 20
-194.5060085731483
 30
0.0
 10
3128.78379598804
 20
-220.3496646905836
 30
0.0
 10
3129.21053859493
 20
-234.70853700114
 30
0.0
  0
SPLINE
  5
701E7
330
703A3
100
AcDbEntity
  8
Level 26
  6
Continuous
 62
     7
370
     0
100
AcDbSpline
210
0.0
220
0.0
230
1.0
 70
     9
 71
     3
 72
    19
 73
    15
 74
     0
 42
0.000000001
 43
0.0000000001
 40
0.0
 40
0.0
 40
0.0
 40
0.0
 40
0.0833333335273589
 40
0.1666666665890565
 40
0.2500000001164153
 40
0.3333333331781129
 40
0.4166666667054718
 40
0.4999999997671694
 40
0.5833333332945282
 40
0.6666666668218872
 40
0.7499999998835847
 40
0.8333333334109434
 40
0.9166666664726411
 40
1.0
 40
1.0
 40
1.0
 40
1.0
 10
3129.21053859493
 20
-234.70853700114
 30
0.0
 10
3128.707594108099
 20
-249.1135066657416
 30
0.0
 10
3122.179202952363
 20
-275.1728147195761
 30
0.0
 10
3091.833270764491
 20
-305.7233870026659
 30
0.0
 10
3051.227542684411
 20
-316.1197343643407
 30
0.0
 10
3010.517521535084
 20
-305.5937383622655
 30
0.0
 10
2980.496710475176
 20
-275.7139049322902
 30
0.0
 10
2969.73889773675
 20
-234.8415809477936
 30
0.0
 10
2980.345086035954
 20
-193.9524456287226
 30
0.0
 10
3010.41858959136
 20
-163.8543398820872
 30
0.0
 10
3051.224698145698
 20
-153.291595108382
 30
0.0
 10
3091.943808042851
 20
-163.7231550314753
 30
0.0
 10
3122.291031621451
 20
-194.5060085731483
 30
0.0
 10
3128.78379598804
 20
-220.3496646905836
 30
0.0
 10
3129.21053859493
 20
-234.70853700114
 30
0.0
  0
SPLINE
  5
701E8
330
703A3
100
AcDbEntity
  8
Level 26
  6
Continuous
 62
     7
370
     0
100
AcDbSpline
210
0.0
220
0.0
230
1.0
 70
     9
 71
     3
 72
    19
 73
    15
 74
     0
 42
0.000000001
 43
0.0000000001
 40
0.0
 40
0.0
 40
0.0
 40
0.0
 40
0.0833333335273589
 40
0.1666666665890565
 40
0.2500000001164153
 40
0.3333333331781129
 40
0.4166666667054718
 40
0.4999999997671694
 40
0.5833333332945282
 40
0.6666666668218872
 40
0.7499999998835847
 40
0.8333333334109434
 40
0.9166666664726411
 40
1.0
 40
1.0
 40
1.0
 40
1.0
 10
3129.21053859493
 20
-234.70853700114
 30
0.0
 10
3128.707594108099
 20
-249.1135066657415
 30
0.0
 10
3122.179202952363
 20
-275.1728147195761
 30
0.0
 10
3091.833270764492
 20
-305.7233870026659
 30
0.0
 10
3051.227542684411
 20
-316.1197343643407
 30
0.0
 10
3010.517521535084
 20
-305.5937383622655
 30
0.0
 10
2980.496710475176
 20
-275.7139049322902
 30
0.0
 10
2969.738897736751
 20
-234.8415809477936
 30
0.0
 10
2980.345086035954
 20
-193.9524456287226
 30
0.0
 10
3010.41858959136
 20
-163.8543398820872
 30
0.0
 10
3051.224698145698
 20
-153.291595108382
 30
0.0
 10
3091.943808042851
 20
-163.7231550314753
 30
0.0
 10
3122.291031621451
 20
-194.5060085731483
 30
0.0
 10
3128.78379598804
 20
-220.3496646905836
 30
0.0
 10
3129.21053859493
 20
-234.70853700114
 30
0.0
  0
SPLINE
  5
701E9
330
703A3
100
AcDbEntity
  8
Level 26
  6
Continuous
 62
     7
370
     0
100
AcDbSpline
210
0.0
220
0.0
230
1.0
 70
     9
 71
     3
 72
    19
 73
    15
 74
     0
 42
0.000000001
 43
0.0000000001
 40
0.0
 40
0.0
 40
0.0
 40
0.0
 40
0.0833333335273589
 40
0.1666666665890565
 40
0.2500000001164153
 40
0.3333333331781129
 40
0.4166666667054718
 40
0.4999999997671694
 40
0.5833333332945282
 40
0.6666666668218872
 40
0.7499999998835847
 40
0.8333333334109434
 40
0.9166666664726411
 40
1.0
 40
1.0
 40
1.0
 40
1.0
 10
3129.21053859493
 20
-234.70853700114
 30
0.0
 10
3128.707594108099
 20
-249.1135066657415
 30
0.0
 10
3122.179202952363
 20
-275.1728147195761
 30
0.0
 10
3091.833270764491
 20
-305.7233870026659
 30
0.0
 10
3051.227542684411
 20
-316.1197343643407
 30
0.0
 10
3010.517521535084
 20
-305.5937383622655
 30
0.0
 10
2980.496710475176
 20
-275.7139049322902
 30
0.0
 10
2969.73889773675
 20
-234.8415809477936
 30
0.0
 10
2980.345086035954
 20
-193.9524456287226
 30
0.0
 10
3010.41858959136
 20
-163.8543398820872
 30
0.0
 10
3051.224698145698
 20
-153.291595108382
 30
0.0
 10
3091.943808042851
 20
-163.7231550314753
 30
0.0
 10
3122.291031621451
 20
-194.5060085731483
 30
0.0
 10
3128.78379598804
 20
-220.3496646905836
 30
0.0
 10
3129.21053859493
 20
-234.70853700114
 30
0.0
  0
SPLINE
  5
701EA
330
703A3
100
AcDbEntity
  8
Level 26
  6
Continuous
 62
     7
370
     0
100
AcDbSpline
210
0.0
220
0.0
230
1.0
 70
     9
 71
     3
 72
    19
 73
    15
 74
     0
 42
0.000000001
 43
0.0000000001
 40
0.0
 40
0.0
 40
0.0
 40
0.0
 40
0.0833333335273589
 40
0.1666666665890565
 40
0.2500000001164153
 40
0.3333333331781129
 40
0.4166666667054718
 40
0.4999999997671694
 40
0.5833333332945282
 40
0.6666666668218872
 40
0.7499999998835847
 40
0.8333333334109434
 40
0.9166666664726411
 40
1.0
 40
1.0
 40
1.0
 40
1.0
 10
3129.21053859493
 20
-234.70853700114
 30
0.0
 10
3128.707594108099
 20
-249.1135066657415
 30
0.0
 10
3122.179202952363
 20
-275.1728147195761
 30
0.0
 10
3091.833270764491
 20
-305.7233870026659
 30
0.0
 10
3051.227542684411
 20
-316.1197343643407
 30
0.0
 10
3010.517521535084
 20
-305.5937383622655
 30
0.0
 10
2980.496710475176
 20
-275.7139049322902
 30
0.0
 10
2969.73889773675
 20
-234.8415809477936
 30
0.0
 10
2980.345086035954
 20
-193.9524456287226
 30
0.0
 10
3010.41858959136
 20
-163.8543398820872
 30
0.0
 10
3051.224698145698
 20
-153.291595108382
 30
0.0
 10
3091.943808042851
 20
-163.7231550314753
 30
0.0
 10
3122.291031621451
 20
-194.5060085731483
 30
0.0
 10
3128.78379598804
 20
-220.3496646905836
 30
0.0
 10
3129.21053859493
 20
-234.70853700114
 30
0.0
  0
ENDBLK
  5
703A5
330
703A3
100
AcDbEntity
  8
0
 62
    98
370
     0
100
AcDbBlockEnd
  0
BLOCK
  5
703A7
330
703A6
100
AcDbEntity
  8
0
 62
    98
370
     0
100
AcDbBlockBegin
  2
From Bspline Surface_1
 70
     0
 10
0.0
 20
0.0
 30
0.0
  3
From Bspline Surface_1
  1

  0
SPLINE
  5
6FF5E
330
703A6
100
AcDbEntity
  8
Level 26
  6
Continuous
 62
     7
370
     0
100
AcDbSpline
210
0.0
220
0.0
230
1.0
 70
     9
 71
     3
 72
    19
 73
    15
 74
     0
 42
0.000000001
 43
0.0000000001
 40
0.0
 40
0.0
 40
0.0
 40
0.0
 40
0.0833333335273589
 40
0.1666666665890565
 40
0.2500000001164153
 40
0.3333333331781129
 40
0.4166666667054718
 40
0.4999999997671694
 40
0.5833333332945282
 40
0.6666666668218872
 40
0.7499999998835847
 40
0.8333333334109434
 40
0.9166666664726411
 40
1.0
 40
1.0
 40
1.0
 40
1.0
 10
3129.21053859493
 20
-234.70853700114
 30
0.0
 10
3128.707594108099
 20
-249.1135066657415
 30
0.0
 10
3122.179202952363
 20
-275.1728147195761
 30
0.0
 10
3091.833270764491
 20
-305.7233870026659
 30
0.0
 10
3051.227542684411
 20
-316.1197343643407
 30
0.0
 10
3010.517521535084
 20
-305.5937383622655
 30
0.0
 10
2980.496710475176
 20
-275.7139049322902
 30
0.0
 10
2969.73889773675
 20
-234.8415809477936
 30
0.0
 10
2980.345086035954
 20
-193.9524456287226
 30
0.0
 10
3010.41858959136
 20
-163.8543398820872
 30
0.0
 10
3051.224698145698
 20
-153.291595108382
 30
0.0
 10
3091.943808042851
 20
-163.7231550314753
 30
0.0
 10
3122.291031621451
 20
-194.5060085731483
 30
0.0
 10
3128.78379598804
 20
-220.3496646905836
 30
0.0
 10
3129.21053859493
 20
-234.70853700114
 30
0.0
  0
SPLINE
  5
701F5
330
703A6
100
AcDbEntity
  8
Level 26
  6
Continuous
 62
     7
370
     0
100
AcDbSpline
210
0.0
220
0.0
230
1.0
 70
     9
 71
     3
 72
    19
 73
    15
 74
     0
 42
0.000000001
 43
0.0000000001
 40
0.0
 40
0.0
 40
0.0
 40
0.0
 40
0.0833333335273589
 40
0.1666666665890565
 40
0.2500000001164153
 40
0.3333333331781129
 40
0.4166666667054718
 40
0.4999999997671694
 40
0.5833333332945282
 40
0.6666666668218872
 40
0.7499999998835847
 40
0.8333333334109434
 40
0.9166666664726411
 40
1.0
 40
1.0
 40
1.0
 40
1.0
 10
3129.21053859493
 20
-234.7085370011399
 30
0.0
 10
3128.707594108099
 20
-249.1135066657415
 30
0.0
 10
3122.179202952363
 20
-275.1728147195761
 30
0.0
 10
3091.833270764491
 20
-305.7233870026658
 30
0.0
 10
3051.227542684411
 20
-316.1197343643407
 30
0.0
 10
3010.517521535084
 20
-305.5937383622655
 30
0.0
 10
2980.496710475176
 20
-275.7139049322902
 30
0.0
 10
2969.73889773675
 20
-234.8415809477935
 30
0.0
 10
2980.345086035954
 20
-193.9524456287226
 30
0.0
 10
3010.41858959136
 20
-163.8543398820872
 30
0.0
 10
3051.224698145698
 20
-153.291595108382
 30
0.0
 10
3091.943808042851
 20
-163.7231550314753
 30
0.0
 10
3122.291031621451
 20
-194.5060085731483
 30
0.0
 10
3128.783795988038
 20
-220.3496646905836
 30
0.0
 10
3129.21053859493
 20
-234.7085370011399
 30
0.0
  0
SPLINE
  5
701F6
330
703A6
100
AcDbEntity
  8
Level 26
  6
Continuous
 62
     7
370
     0
100
AcDbSpline
210
0.0
220
0.0
230
1.0
 70
     9
 71
     3
 72
    19
 73
    15
 74
     0
 42
0.000000001
 43
0.0000000001
 40
0.0
 40
0.0
 40
0.0
 40
0.0
 40
0.0833333335273589
 40
0.1666666665890565
 40
0.2500000001164153
 40
0.3333333331781129
 40
0.4166666667054718
 40
0.4999999997671694
 40
0.5833333332945282
 40
0.6666666668218872
 40
0.7499999998835847
 40
0.8333333334109434
 40
0.9166666664726411
 40
1.0
 40
1.0
 40
1.0
 40
1.0
 10
3129.21053859493
 20
-234.70853700114
 30
0.0
 10
3128.707594108099
 20
-249.1135066657415
 30
0.0
 10
3122.179202952363
 20
-275.1728147195761
 30
0.0
 10
3091.833270764491
 20
-305.7233870026659
 30
0.0
 10
3051.227542684411
 20
-316.1197343643407
 30
0.0
 10
3010.517521535084
 20
-305.5937383622655
 30
0.0
 10
2980.496710475176
 20
-275.7139049322902
 30
0.0
 10
2969.73889773675
 20
-234.8415809477935
 30
0.0
 10
2980.345086035954
 20
-193.9524456287226
 30
0.0
 10
3010.41858959136
 20
-163.8543398820872
 30
0.0
 10
3051.224698145698
 20
-153.291595108382
 30
0.0
 10
3091.943808042851
 20
-163.7231550314753
 30
0.0
 10
3122.291031621451
 20
-194.5060085731483
 30
0.0
 10
3128.78379598804
 20
-220.3496646905836
 30
0.0
 10
3129.21053859493
 20
-234.70853700114
 30
0.0
  0
SPLINE
  5
701F7
330
703A6
100
AcDbEntity
  8
Level 26
  6
Continuous
 62
     7
370
     0
100
AcDbSpline
210
0.0
220
0.0
230
1.0
 70
     9
 71
     3
 72
    19
 73
    15
 74
     0
 42
0.000000001
 43
0.0000000001
 40
0.0
 40
0.0
 40
0.0
 40
0.0
 40
0.0833333335273589
 40
0.1666666665890565
 40
0.2500000001164153
 40
0.3333333331781129
 40
0.4166666667054718
 40
0.4999999997671694
 40
0.5833333332945282
 40
0.6666666668218872
 40
0.7499999998835847
 40
0.8333333334109434
 40
0.9166666664726411
 40
1.0
 40
1.0
 40
1.0
 40
1.0
 10
3129.21053859493
 20
-234.70853700114
 30
0.0
 10
3128.707594108099
 20
-249.1135066657416
 30
0.0
 10
3122.179202952364
 20
-275.1728147195761
 30
0.0
 10
3091.833270764491
 20
-305.7233870026659
 30
0.0
 10
3051.227542684411
 20
-316.1197343643408
 30
0.0
 10
3010.517521535084
 20
-305.5937383622655
 30
0.0
 10
2980.496710475176
 20
-275.7139049322902
 30
0.0
 10
2969.73889773675
 20
-234.8415809477936
 30
0.0
 10
2980.345086035954
 20
-193.9524456287226
 30
0.0
 10
3010.41858959136
 20
-163.8543398820872
 30
0.0
 10
3051.224698145698
 20
-153.291595108382
 30
0.0
 10
3091.943808042851
 20
-163.7231550314753
 30
0.0
 10
3122.291031621452
 20
-194.5060085731484
 30
0.0
 10
3128.78379598804
 20
-220.3496646905836
 30
0.0
 10
3129.21053859493
 20
-234.70853700114
 30
0.0
  0
SPLINE
  5
701F8
330
703A6
100
AcDbEntity
  8
Level 26
  6
Continuous
 62
     7
370
     0
100
AcDbSpline
210
0.0
220
0.0
230
1.0
 70
     9
 71
     3
 72
    19
 73
    15
 74
     0
 42
0.000000001
 43
0.0000000001
 40
0.0
 40
0.0
 40
0.0
 40
0.0
 40
0.0833333335273589
 40
0.1666666665890565
 40
0.2500000001164153
 40
0.3333333331781129
 40
0.4166666667054718
 40
0.4999999997671694
 40
0.5833333332945282
 40
0.6666666668218872
 40
0.7499999998835847
 40
0.8333333334109434
 40
0.9166666664726411
 40
1.0
 40
1.0
 40
1.0
 40
1.0
 10
3129.21053859493
 20
-234.70853700114
 30
0.0
 10
3128.707594108099
 20
-249.1135066657415
 30
0.0
 10
3122.179202952363
 20
-275.1728147195761
 30
0.0
 10
3091.833270764491
 20
-305.7233870026659
 30
0.0
 10
3051.227542684411
 20
-316.1197343643407
 30
0.0
 10
3010.517521535084
 20
-305.5937383622655
 30
0.0
 10
2980.496710475176
 20
-275.7139049322902
 30
0.0
 10
2969.73889773675
 20
-234.8415809477936
 30
0.0
 10
2980.345086035954
 20
-193.9524456287226
 30
0.0
 10
3010.41858959136
 20
-163.8543398820872
 30
0.0
 10
3051.224698145698
 20
-153.291595108382
 30
0.0
 10
3091.943808042851
 20
-163.7231550314753
 30
0.0
 10
3122.291031621451
 20
-194.5060085731483
 30
0.0
 10
3128.78379598804
 20
-220.3496646905836
 30
0.0
 10
3129.21053859493
 20
-234.70853700114
 30
0.0
  0
SPLINE
  5
701F9
330
703A6
100
AcDbEntity
  8
Level 26
  6
Continuous
 62
     7
370
     0
100
AcDbSpline
210
0.0
220
0.0
230
1.0
 70
     9
 71
     3
 72
    19
 73
    15
 74
     0
 42
0.000000001
 43
0.0000000001
 40
0.0
 40
0.0
 40
0.0
 40
0.0
 40
0.0833333335273589
 40
0.1666666665890565
 40
0.2500000001164153
 40
0.3333333331781129
 40
0.4166666667054718
 40
0.4999999997671694
 40
0.5833333332945282
 40
0.6666666668218872
 40
0.7499999998835847
 40
0.8333333334109434
 40
0.9166666664726411
 40
1.0
 40
1.0
 40
1.0
 40
1.0
 10
3129.21053859493
 20
-234.70853700114
 30
0.0
 10
3128.707594108099
 20
-249.1135066657415
 30
0.0
 10
3122.179202952363
 20
-275.1728147195761
 30
0.0
 10
3091.833270764491
 20
-305.7233870026659
 30
0.0
 10
3051.227542684411
 20
-316.1197343643407
 30
0.0
 10
3010.517521535084
 20
-305.5937383622655
 30
0.0
 10
2980.496710475176
 20
-275.7139049322902
 30
0.0
 10
2969.73889773675
 20
-234.8415809477936
 30
0.0
 10
2980.345086035954
 20
-193.9524456287226
 30
0.0
 10
3010.41858959136
 20
-163.8543398820872
 30
0.0
 10
3051.224698145698
 20
-153.291595108382
 30
0.0
 10
3091.943808042851
 20
-163.7231550314753
 30
0.0
 10
3122.291031621451
 20
-194.5060085731483
 30
0.0
 10
3128.78379598804
 20
-220.3496646905836
 30
0.0
 10
3129.21053859493
 20
-234.70853700114
 30
0.0
  0
SPLINE
  5
701FA
330
703A6
100
AcDbEntity
  8
Level 26
  6
Continuous
 62
     7
370
     0
100
AcDbSpline
210
0.0
220
0.0
230
1.0
 70
     9
 71
     3
 72
    19
 73
    15
 74
     0
 42
0.000000001
 43
0.0000000001
 40
0.0
 40
0.0
 40
0.0
 40
0.0
 40
0.0833333335273589
 40
0.1666666665890565
 40
0.2500000001164153
 40
0.3333333331781129
 40
0.4166666667054718
 40
0.4999999997671694
 40
0.5833333332945282
 40
0.6666666668218872
 40
0.7499999998835847
 40
0.8333333334109434
 40
0.9166666664726411
 40
1.0
 40
1.0
 40
1.0
 40
1.0
 10
3129.21053859493
 20
-234.70853700114
 30
0.0
 10
3128.707594108099
 20
-249.1135066657416
 30
0.0
 10
3122.179202952363
 20
-275.1728147195761
 30
0.0
 10
3091.833270764491
 20
-305.7233870026659
 30
0.0
 10
3051.227542684411
 20
-316.1197343643407
 30
0.0
 10
3010.517521535084
 20
-305.5937383622655
 30
0.0
 10
2980.496710475176
 20
-275.7139049322902
 30
0.0
 10
2969.73889773675
 20
-234.8415809477936
 30
0.0
 10
2980.345086035954
 20
-193.9524456287226
 30
0.0
 10
3010.41858959136
 20
-163.8543398820872
 30
0.0
 10
3051.224698145698
 20
-153.291595108382
 30
0.0
 10
3091.943808042851
 20
-163.7231550314753
 30
0.0
 10
3122.291031621451
 20
-194.5060085731483
 30
0.0
 10
3128.78379598804
 20
-220.3496646905836
 30
0.0
 10
3129.21053859493
 20
-234.70853700114
 30
0.0
  0
SPLINE
  5
701FB
330
703A6
100
AcDbEntity
  8
Level 26
  6
Continuous
 62
     7
370
     0
100
AcDbSpline
210
0.0
220
0.0
230
1.0
 70
     9
 71
     3
 72
    19
 73
    15
 74
     0
 42
0.000000001
 43
0.0000000001
 40
0.0
 40
0.0
 40
0.0
 40
0.0
 40
0.0833333335273589
 40
0.1666666665890565
 40
0.2500000001164153
 40
0.3333333331781129
 40
0.4166666667054718
 40
0.4999999997671694
 40
0.5833333332945282
 40
0.6666666668218872
 40
0.7499999998835847
 40
0.8333333334109434
 40
0.9166666664726411
 40
1.0
 40
1.0
 40
1.0
 40
1.0
 10
3129.21053859493
 20
-234.70853700114
 30
0.0
 10
3128.707594108099
 20
-249.1135066657415
 30
0.0
 10
3122.179202952363
 20
-275.1728147195761
 30
0.0
 10
3091.833270764492
 20
-305.7233870026659
 30
0.0
 10
3051.227542684411
 20
-316.1197343643407
 30
0.0
 10
3010.517521535084
 20
-305.5937383622655
 30
0.0
 10
2980.496710475176
 20
-275.7139049322902
 30
0.0
 10
2969.738897736751
 20
-234.8415809477936
 30
0.0
 10
2980.345086035954
 20
-193.9524456287226
 30
0.0
 10
3010.41858959136
 20
-163.8543398820872
 30
0.0
 10
3051.224698145698
 20
-153.291595108382
 30
0.0
 10
3091.943808042851
 20
-163.7231550314753
 30
0.0
 10
3122.291031621451
 20
-194.5060085731483
 30
0.0
 10
3128.78379598804
 20
-220.3496646905836
 30
0.0
 10
3129.21053859493
 20
-234.70853700114
 30
0.0
  0
SPLINE
  5
701FC
330
703A6
100
AcDbEntity
  8
Level 26
  6
Continuous
 62
     7
370
     0
100
AcDbSpline
210
0.0
220
0.0
230
1.0
 70
     9
 71
     3
 72
    19
 73
    15
 74
     0
 42
0.000000001
 43
0.0000000001
 40
0.0
 40
0.0
 40
0.0
 40
0.0
 40
0.0833333335273589
 40
0.1666666665890565
 40
0.2500000001164153
 40
0.3333333331781129
 40
0.4166666667054718
 40
0.4999999997671694
 40
0.5833333332945282
 40
0.6666666668218872
 40
0.7499999998835847
 40
0.8333333334109434
 40
0.9166666664726411
 40
1.0
 40
1.0
 40
1.0
 40
1.0
 10
3129.21053859493
 20
-234.70853700114
 30
0.0
 10
3128.707594108099
 20
-249.1135066657415
 30
0.0
 10
3122.179202952363
 20
-275.1728147195761
 30
0.0
 10
3091.833270764491
 20
-305.7233870026659
 30
0.0
 10
3051.227542684411
 20
-316.1197343643407
 30
0.0
 10
3010.517521535084
 20
-305.5937383622655
 30
0.0
 10
2980.496710475176
 20
-275.7139049322902
 30
0.0
 10
2969.73889773675
 20
-234.8415809477936
 30
0.0
 10
2980.345086035954
 20
-193.9524456287226
 30
0.0
 10
3010.41858959136
 20
-163.8543398820872
 30
0.0
 10
3051.224698145698
 20
-153.291595108382
 30
0.0
 10
3091.943808042851
 20
-163.7231550314753
 30
0.0
 10
3122.291031621451
 20
-194.5060085731483
 30
0.0
 10
3128.78379598804
 20
-220.3496646905836
 30
0.0
 10
3129.21053859493
 20
-234.70853700114
 30
0.0
  0
SPLINE
  5
701FD
330
703A6
100
AcDbEntity
  8
Level 26
  6
Continuous
 62
     7
370
     0
100
AcDbSpline
210
0.0
220
0.0
230
1.0
 70
     9
 71
     3
 72
    19
 73
    15
 74
     0
 42
0.000000001
 43
0.0000000001
 40
0.0
 40
0.0
 40
0.0
 40
0.0
 40
0.0833333335273589
 40
0.1666666665890565
 40
0.2500000001164153
 40
0.3333333331781129
 40
0.4166666667054718
 40
0.4999999997671694
 40
0.5833333332945282
 40
0.6666666668218872
 40
0.7499999998835847
 40
0.8333333334109434
 40
0.9166666664726411
 40
1.0
 40
1.0
 40
1.0
 40
1.0
 10
3129.21053859493
 20
-234.70853700114
 30
0.0
 10
3128.707594108099
 20
-249.1135066657415
 30
0.0
 10
3122.179202952363
 20
-275.1728147195761
 30
0.0
 10
3091.833270764491
 20
-305.7233870026659
 30
0.0
 10
3051.227542684411
 20
-316.1197343643407
 30
0.0
 10
3010.517521535084
 20
-305.5937383622655
 30
0.0
 10
2980.496710475176
 20
-275.7139049322902
 30
0.0
 10
2969.73889773675
 20
-234.8415809477936
 30
0.0
 10
2980.345086035954
 20
-193.9524456287226
 30
0.0
 10
3010.41858959136
 20
-163.8543398820872
 30
0.0
 10
3051.224698145698
 20
-153.291595108382
 30
0.0
 10
3091.943808042851
 20
-163.7231550314753
 30
0.0
 10
3122.291031621451
 20
-194.5060085731483
 30
0.0
 10
3128.78379598804
 20
-220.3496646905836
 30
0.0
 10
3129.21053859493
 20
-234.70853700114
 30
0.0
  0
ENDBLK
  5
703A8
330
703A6
100
AcDbEntity
  8
0
 62
    98
370
     0
100
AcDbBlockEnd
  0
BLOCK
  5
703AA
330
703A9
100
AcDbEntity
  8
0
 62
    98
370
     0
100
AcDbBlockBegin
  2
From Bspline Surface_2
 70
     0
 10
0.0
 20
0.0
 30
0.0
  3
From Bspline Surface_2
  1

  0
SPLINE
  5
6FF6F
330
703A9
100
AcDbEntity
  8
Level 26
  6
Continuous
 62
     7
370
     0
100
AcDbSpline
210
0.0
220
0.0
230
1.0
 70
     9
 71
     3
 72
    19
 73
    15
 74
     0
 42
0.000000001
 43
0.0000000001
 40
0.0
 40
0.0
 40
0.0
 40
0.0
 40
0.0833333335273589
 40
0.1666666665890565
 40
0.2500000001164153
 40
0.3333333331781129
 40
0.4166666667054718
 40
0.4999999997671694
 40
0.5833333332945282
 40
0.6666666668218872
 40
0.7499999998835847
 40
0.8333333334109434
 40
0.9166666664726411
 40
1.0
 40
1.0
 40
1.0
 40
1.0
 10
3129.21053859493
 20
-234.70853700114
 30
0.0
 10
3128.707594108099
 20
-249.1135066657415
 30
0.0
 10
3122.179202952363
 20
-275.1728147195761
 30
0.0
 10
3091.833270764491
 20
-305.7233870026659
 30
0.0
 10
3051.227542684411
 20
-316.1197343643407
 30
0.0
 10
3010.517521535084
 20
-305.5937383622655
 30
0.0
 10
2980.496710475176
 20
-275.7139049322902
 30
0.0
 10
2969.73889773675
 20
-234.8415809477936
 30
0.0
 10
2980.345086035954
 20
-193.9524456287226
 30
0.0
 10
3010.41858959136
 20
-163.8543398820872
 30
0.0
 10
3051.224698145698
 20
-153.291595108382
 30
0.0
 10
3091.943808042851
 20
-163.7231550314753
 30
0.0
 10
3122.291031621451
 20
-194.5060085731483
 30
0.0
 10
3128.78379598804
 20
-220.3496646905836
 30
0.0
 10
3129.21053859493
 20
-234.70853700114
 30
0.0
  0
SPLINE
  5
70208
330
703A9
100
AcDbEntity
  8
Level 26
  6
Continuous
 62
     7
370
     0
100
AcDbSpline
210
0.0
220
0.0
230
1.0
 70
     9
 71
     3
 72
    19
 73
    15
 74
     0
 42
0.000000001
 43
0.0000000001
 40
0.0
 40
0.0
 40
0.0
 40
0.0
 40
0.0833333335273589
 40
0.1666666665890565
 40
0.2500000001164153
 40
0.3333333331781129
 40
0.4166666667054718
 40
0.4999999997671694
 40
0.5833333332945282
 40
0.6666666668218872
 40
0.7499999998835847
 40
0.8333333334109434
 40
0.9166666664726411
 40
1.0
 40
1.0
 40
1.0
 40
1.0
 10
3129.21053859493
 20
-234.7085370011399
 30
0.0
 10
3128.707594108099
 20
-249.1135066657415
 30
0.0
 10
3122.179202952363
 20
-275.1728147195761
 30
0.0
 10
3091.833270764491
 20
-305.7233870026658
 30
0.0
 10
3051.227542684411
 20
-316.1197343643407
 30
0.0
 10
3010.517521535084
 20
-305.5937383622655
 30
0.0
 10
2980.496710475176
 20
-275.7139049322902
 30
0.0
 10
2969.73889773675
 20
-234.8415809477935
 30
0.0
 10
2980.345086035954
 20
-193.9524456287226
 30
0.0
 10
3010.41858959136
 20
-163.8543398820872
 30
0.0
 10
3051.224698145698
 20
-153.291595108382
 30
0.0
 10
3091.943808042851
 20
-163.7231550314753
 30
0.0
 10
3122.291031621451
 20
-194.5060085731483
 30
0.0
 10
3128.783795988038
 20
-220.3496646905836
 30
0.0
 10
3129.21053859493
 20
-234.7085370011399
 30
0.0
  0
SPLINE
  5
70209
330
703A9
100
AcDbEntity
  8
Level 26
  6
Continuous
 62
     7
370
     0
100
AcDbSpline
210
0.0
220
0.0
230
1.0
 70
     9
 71
     3
 72
    19
 73
    15
 74
     0
 42
0.000000001
 43
0.0000000001
 40
0.0
 40
0.0
 40
0.0
 40
0.0
 40
0.0833333335273589
 40
0.1666666665890565
 40
0.2500000001164153
 40
0.3333333331781129
 40
0.4166666667054718
 40
0.4999999997671694
 40
0.5833333332945282
 40
0.6666666668218872
 40
0.7499999998835847
 40
0.8333333334109434
 40
0.9166666664726411
 40
1.0
 40
1.0
 40
1.0
 40
1.0
 10
3129.21053859493
 20
-234.70853700114
 30
0.0
 10
3128.707594108099
 20
-249.1135066657415
 30
0.0
 10
3122.179202952363
 20
-275.1728147195761
 30
0.0
 10
3091.833270764491
 20
-305.7233870026659
 30
0.0
 10
3051.227542684411
 20
-316.1197343643407
 30
0.0
 10
3010.517521535084
 20
-305.5937383622655
 30
0.0
 10
2980.496710475176
 20
-275.7139049322902
 30
0.0
 10
2969.73889773675
 20
-234.8415809477935
 30
0.0
 10
2980.345086035954
 20
-193.9524456287226
 30
0.0
 10
3010.41858959136
 20
-163.8543398820872
 30
0.0
 10
3051.224698145698
 20
-153.291595108382
 30
0.0
 10
3091.943808042851
 20
-163.7231550314753
 30
0.0
 10
3122.291031621451
 20
-194.5060085731483
 30
0.0
 10
3128.78379598804
 20
-220.3496646905836
 30
0.0
 10
3129.21053859493
 20
-234.70853700114
 30
0.0
  0
SPLINE
  5
7020A
330
703A9
100
AcDbEntity
  8
Level 26
  6
Continuous
 62
     7
370
     0
100
AcDbSpline
210
0.0
220
0.0
230
1.0
 70
     9
 71
     3
 72
    19
 73
    15
 74
     0
 42
0.000000001
 43
0.0000000001
 40
0.0
 40
0.0
 40
0.0
 40
0.0
 40
0.0833333335273589
 40
0.1666666665890565
 40
0.2500000001164153
 40
0.3333333331781129
 40
0.4166666667054718
 40
0.4999999997671694
 40
0.5833333332945282
 40
0.6666666668218872
 40
0.7499999998835847
 40
0.8333333334109434
 40
0.9166666664726411
 40
1.0
 40
1.0
 40
1.0
 40
1.0
 10
3129.21053859493
 20
-234.70853700114
 30
0.0
 10
3128.707594108099
 20
-249.1135066657416
 30
0.0
 10
3122.179202952364
 20
-275.1728147195761
 30
0.0
 10
3091.833270764491
 20
-305.7233870026659
 30
0.0
 10
3051.227542684411
 20
-316.1197343643408
 30
0.0
 10
3010.517521535084
 20
-305.5937383622655
 30
0.0
 10
2980.496710475176
 20
-275.7139049322902
 30
0.0
 10
2969.73889773675
 20
-234.8415809477936
 30
0.0
 10
2980.345086035954
 20
-193.9524456287226
 30
0.0
 10
3010.41858959136
 20
-163.8543398820872
 30
0.0
 10
3051.224698145698
 20
-153.291595108382
 30
0.0
 10
3091.943808042851
 20
-163.7231550314753
 30
0.0
 10
3122.291031621452
 20
-194.5060085731484
 30
0.0
 10
3128.78379598804
 20
-220.3496646905836
 30
0.0
 10
3129.21053859493
 20
-234.70853700114
 30
0.0
  0
SPLINE
  5
7020B
330
703A9
100
AcDbEntity
  8
Level 26
  6
Continuous
 62
     7
370
     0
100
AcDbSpline
210
0.0
220
0.0
230
1.0
 70
     9
 71
     3
 72
    19
 73
    15
 74
     0
 42
0.000000001
 43
0.0000000001
 40
0.0
 40
0.0
 40
0.0
 40
0.0
 40
0.0833333335273589
 40
0.1666666665890565
 40
0.2500000001164153
 40
0.3333333331781129
 40
0.4166666667054718
 40
0.4999999997671694
 40
0.5833333332945282
 40
0.6666666668218872
 40
0.7499999998835847
 40
0.8333333334109434
 40
0.9166666664726411
 40
1.0
 40
1.0
 40
1.0
 40
1.0
 10
3129.21053859493
 20
-234.70853700114
 30
0.0
 10
3128.707594108099
 20
-249.1135066657415
 30
0.0
 10
3122.179202952363
 20
-275.1728147195761
 30
0.0
 10
3091.833270764491
 20
-305.7233870026659
 30
0.0
 10
3051.227542684411
 20
-316.1197343643407
 30
0.0
 10
3010.517521535084
 20
-305.5937383622655
 30
0.0
 10
2980.496710475176
 20
-275.7139049322902
 30
0.0
 10
2969.73889773675
 20
-234.8415809477936
 30
0.0
 10
2980.345086035954
 20
-193.9524456287226
 30
0.0
 10
3010.41858959136
 20
-163.8543398820872
 30
0.0
 10
3051.224698145698
 20
-153.291595108382
 30
0.0
 10
3091.943808042851
 20
-163.7231550314753
 30
0.0
 10
3122.291031621451
 20
-194.5060085731483
 30
0.0
 10
3128.78379598804
 20
-220.3496646905836
 30
0.0
 10
3129.21053859493
 20
-234.70853700114
 30
0.0
  0
SPLINE
  5
7020C
330
703A9
100
AcDbEntity
  8
Level 26
  6
Continuous
 62
     7
370
     0
100
AcDbSpline
210
0.0
220
0.0
230
1.0
 70
     9
 71
     3
 72
    19
 73
    15
 74
     0
 42
0.000000001
 43
0.0000000001
 40
0.0
 40
0.0
 40
0.0
 40
0.0
 40
0.0833333335273589
 40
0.1666666665890565
 40
0.2500000001164153
 40
0.3333333331781129
 40
0.4166666667054718
 40
0.4999999997671694
 40
0.5833333332945282
 40
0.6666666668218872
 40
0.7499999998835847
 40
0.8333333334109434
 40
0.9166666664726411
 40
1.0
 40
1.0
 40
1.0
 40
1.0
 10
3129.21053859493
 20
-234.70853700114
 30
0.0
 10
3128.707594108099
 20
-249.1135066657415
 30
0.0
 10
3122.179202952363
 20
-275.1728147195761
 30
0.0
 10
3091.833270764491
 20
-305.7233870026659
 30
0.0
 10
3051.227542684411
 20
-316.1197343643407
 30
0.0
 10
3010.517521535084
 20
-305.5937383622655
 30
0.0
 10
2980.496710475176
 20
-275.7139049322902
 30
0.0
 10
2969.73889773675
 20
-234.8415809477936
 30
0.0
 10
2980.345086035954
 20
-193.9524456287226
 30
0.0
 10
3010.41858959136
 20
-163.8543398820872
 30
0.0
 10
3051.224698145698
 20
-153.291595108382
 30
0.0
 10
3091.943808042851
 20
-163.7231550314753
 30
0.0
 10
3122.291031621451
 20
-194.5060085731483
 30
0.0
 10
3128.78379598804
 20
-220.3496646905836
 30
0.0
 10
3129.21053859493
 20
-234.70853700114
 30
0.0
  0
SPLINE
  5
7020D
330
703A9
100
AcDbEntity
  8
Level 26
  6
Continuous
 62
     7
370
     0
100
AcDbSpline
210
0.0
220
0.0
230
1.0
 70
     9
 71
     3
 72
    19
 73
    15
 74
     0
 42
0.000000001
 43
0.0000000001
 40
0.0
 40
0.0
 40
0.0
 40
0.0
 40
0.0833333335273589
 40
0.1666666665890565
 40
0.2500000001164153
 40
0.3333333331781129
 40
0.4166666667054718
 40
0.4999999997671694
 40
0.5833333332945282
 40
0.6666666668218872
 40
0.7499999998835847
 40
0.8333333334109434
 40
0.9166666664726411
 40
1.0
 40
1.0
 40
1.0
 40
1.0
 10
3129.21053859493
 20
-234.70853700114
 30
0.0
 10
3128.707594108099
 20
-249.1135066657416
 30
0.0
 10
3122.179202952363
 20
-275.1728147195761
 30
0.0
 10
3091.833270764491
 20
-305.7233870026659
 30
0.0
 10
3051.227542684411
 20
-316.1197343643407
 30
0.0
 10
3010.517521535084
 20
-305.5937383622655
 30
0.0
 10
2980.496710475176
 20
-275.7139049322902
 30
0.0
 10
2969.73889773675
 20
-234.8415809477936
 30
0.0
 10
2980.345086035954
 20
-193.9524456287226
 30
0.0
 10
3010.41858959136
 20
-163.8543398820872
 30
0.0
 10
3051.224698145698
 20
-153.291595108382
 30
0.0
 10
3091.943808042851
 20
-163.7231550314753
 30
0.0
 10
3122.291031621451
 20
-194.5060085731483
 30
0.0
 10
3128.78379598804
 20
-220.3496646905836
 30
0.0
 10
3129.21053859493
 20
-234.70853700114
 30
0.0
  0
SPLINE
  5
7020E
330
703A9
100
AcDbEntity
  8
Level 26
  6
Continuous
 62
     7
370
     0
100
AcDbSpline
210
0.0
220
0.0
230
1.0
 70
     9
 71
     3
 72
    19
 73
    15
 74
     0
 42
0.000000001
 43
0.0000000001
 40
0.0
 40
0.0
 40
0.0
 40
0.0
 40
0.0833333335273589
 40
0.1666666665890565
 40
0.2500000001164153
 40
0.3333333331781129
 40
0.4166666667054718
 40
0.4999999997671694
 40
0.5833333332945282
 40
0.6666666668218872
 40
0.7499999998835847
 40
0.8333333334109434
 40
0.9166666664726411
 40
1.0
 40
1.0
 40
1.0
 40
1.0
 10
3129.21053859493
 20
-234.70853700114
 30
0.0
 10
3128.707594108099
 20
-249.1135066657415
 30
0.0
 10
3122.179202952363
 20
-275.1728147195761
 30
0.0
 10
3091.833270764492
 20
-305.7233870026659
 30
0.0
 10
3051.227542684411
 20
-316.1197343643407
 30
0.0
 10
3010.517521535084
 20
-305.5937383622655
 30
0.0
 10
2980.496710475176
 20
-275.7139049322902
 30
0.0
 10
2969.738897736751
 20
-234.8415809477936
 30
0.0
 10
2980.345086035954
 20
-193.9524456287226
 30
0.0
 10
3010.41858959136
 20
-163.8543398820872
 30
0.0
 10
3051.224698145698
 20
-153.291595108382
 30
0.0
 10
3091.943808042851
 20
-163.7231550314753
 30
0.0
 10
3122.291031621451
 20
-194.5060085731483
 30
0.0
 10
3128.78379598804
 20
-220.3496646905836
 30
0.0
 10
3129.21053859493
 20
-234.70853700114
 30
0.0
  0
SPLINE
  5
7020F
330
703A9
100
AcDbEntity
  8
Level 26
  6
Continuous
 62
     7
370
     0
100
AcDbSpline
210
0.0
220
0.0
230
1.0
 70
     9
 71
     3
 72
    19
 73
    15
 74
     0
 42
0.000000001
 43
0.0000000001
 40
0.0
 40
0.0
 40
0.0
 40
0.0
 40
0.0833333335273589
 40
0.1666666665890565
 40
0.2500000001164153
 40
0.3333333331781129
 40
0.4166666667054718
 40
0.4999999997671694
 40
0.5833333332945282
 40
0.6666666668218872
 40
0.7499999998835847
 40
0.8333333334109434
 40
0.9166666664726411
 40
1.0
 40
1.0
 40
1.0
 40
1.0
 10
3129.21053859493
 20
-234.70853700114
 30
0.0
 10
3128.707594108099
 20
-249.1135066657415
 30
0.0
 10
3122.179202952363
 20
-275.1728147195761
 30
0.0
 10
3091.833270764491
 20
-305.7233870026659
 30
0.0
 10
3051.227542684411
 20
-316.1197343643407
 30
0.0
 10
3010.517521535084
 20
-305.5937383622655
 30
0.0
 10
2980.496710475176
 20
-275.7139049322902
 30
0.0
 10
2969.73889773675
 20
-234.8415809477936
 30
0.0
 10
2980.345086035954
 20
-193.9524456287226
 30
0.0
 10
3010.41858959136
 20
-163.8543398820872
 30
0.0
 10
3051.224698145698
 20
-153.291595108382
 30
0.0
 10
3091.943808042851
 20
-163.7231550314753
 30
0.0
 10
3122.291031621451
 20
-194.5060085731483
 30
0.0
 10
3128.78379598804
 20
-220.3496646905836
 30
0.0
 10
3129.21053859493
 20
-234.70853700114
 30
0.0
  0
SPLINE
  5
70210
330
703A9
100
AcDbEntity
  8
Level 26
  6
Continuous
 62
     7
370
     0
100
AcDbSpline
210
0.0
220
0.0
230
1.0
 70
     9
 71
     3
 72
    19
 73
    15
 74
     0
 42
0.000000001
 43
0.0000000001
 40
0.0
 40
0.0
 40
0.0
 40
0.0
 40
0.0833333335273589
 40
0.1666666665890565
 40
0.2500000001164153
 40
0.3333333331781129
 40
0.4166666667054718
 40
0.4999999997671694
 40
0.5833333332945282
 40
0.6666666668218872
 40
0.7499999998835847
 40
0.8333333334109434
 40
0.9166666664726411
 40
1.0
 40
1.0
 40
1.0
 40
1.0
 10
3129.21053859493
 20
-234.70853700114
 30
0.0
 10
3128.707594108099
 20
-249.1135066657415
 30
0.0
 10
3122.179202952363
 20
-275.1728147195761
 30
0.0
 10
3091.833270764491
 20
-305.7233870026659
 30
0.0
 10
3051.227542684411
 20
-316.1197343643407
 30
0.0
 10
3010.517521535084
 20
-305.5937383622655
 30
0.0
 10
2980.496710475176
 20
-275.7139049322902
 30
0.0
 10
2969.73889773675
 20
-234.8415809477936
 30
0.0
 10
2980.345086035954
 20
-193.9524456287226
 30
0.0
 10
3010.41858959136
 20
-163.8543398820872
 30
0.0
 10
3051.224698145698
 20
-153.291595108382
 30
0.0
 10
3091.943808042851
 20
-163.7231550314753
 30
0.0
 10
3122.291031621451
 20
-194.5060085731483
 30
0.0
 10
3128.78379598804
 20
-220.3496646905836
 30
0.0
 10
3129.21053859493
 20
-234.70853700114
 30
0.0
  0
ENDBLK
  5
703AB
330
703A9
100
AcDbEntity
  8
0
 62
    98
370
     0
100
AcDbBlockEnd
  0
BLOCK
  5
703AD
330
703AC
100
AcDbEntity
  8
0
 62
    98
370
     0
100
AcDbBlockBegin
  2
From Bspline Surface_3
 70
     0
 10
0.0
 20
0.0
 30
0.0
  3
From Bspline Surface_3
  1

  0
SPLINE
  5
6FF80
330
703AC
100
AcDbEntity
  8
Level 26
  6
Continuous
 62
     7
370
     0
100
AcDbSpline
210
0.0
220
0.0
230
1.0
 70
     9
 71
     3
 72
    19
 73
    15
 74
     0
 42
0.000000001
 43
0.0000000001
 40
0.0
 40
0.0
 40
0.0
 40
0.0
 40
0.0833333335273589
 40
0.1666666665890565
 40
0.2500000001164153
 40
0.3333333331781129
 40
0.4166666667054718
 40
0.4999999997671694
 40
0.5833333332945282
 40
0.6666666668218872
 40
0.7499999998835847
 40
0.8333333334109434
 40
0.9166666664726411
 40
1.0
 40
1.0
 40
1.0
 40
1.0
 10
3129.21053859493
 20
-234.70853700114
 30
0.0
 10
3128.707594108099
 20
-249.1135066657415
 30
0.0
 10
3122.179202952363
 20
-275.1728147195761
 30
0.0
 10
3091.833270764491
 20
-305.7233870026659
 30
0.0
 10
3051.227542684411
 20
-316.1197343643407
 30
0.0
 10
3010.517521535084
 20
-305.5937383622655
 30
0.0
 10
2980.496710475176
 20
-275.7139049322902
 30
0.0
 10
2969.73889773675
 20
-234.8415809477936
 30
0.0
 10
2980.345086035954
 20
-193.9524456287226
 30
0.0
 10
3010.41858959136
 20
-163.8543398820872
 30
0.0
 10
3051.224698145698
 20
-153.291595108382
 30
0.0
 10
3091.943808042851
 20
-163.7231550314753
 30
0.0
 10
3122.291031621451
 20
-194.5060085731483
 30
0.0
 10
3128.78379598804
 20
-220.3496646905836
 30
0.0
 10
3129.21053859493
 20
-234.70853700114
 30
0.0
  0
SPLINE
  5
7021B
330
703AC
100
AcDbEntity
  8
Level 26
  6
Continuous
 62
     7
370
     0
100
AcDbSpline
210
0.0
220
0.0
230
1.0
 70
     9
 71
     3
 72
    19
 73
    15
 74
     0
 42
0.000000001
 43
0.0000000001
 40
0.0
 40
0.0
 40
0.0
 40
0.0
 40
0.0833333335273589
 40
0.1666666665890565
 40
0.2500000001164153
 40
0.3333333331781129
 40
0.4166666667054718
 40
0.4999999997671694
 40
0.5833333332945282
 40
0.6666666668218872
 40
0.7499999998835847
 40
0.8333333334109434
 40
0.9166666664726411
 40
1.0
 40
1.0
 40
1.0
 40
1.0
 10
3129.21053859493
 20
-234.7085370011399
 30
0.0
 10
3128.707594108099
 20
-249.1135066657415
 30
0.0
 10
3122.179202952363
 20
-275.1728147195761
 30
0.0
 10
3091.833270764491
 20
-305.7233870026658
 30
0.0
 10
3051.227542684411
 20
-316.1197343643407
 30
0.0
 10
3010.517521535084
 20
-305.5937383622655
 30
0.0
 10
2980.496710475176
 20
-275.7139049322902
 30
0.0
 10
2969.73889773675
 20
-234.8415809477935
 30
0.0
 10
2980.345086035954
 20
-193.9524456287226
 30
0.0
 10
3010.41858959136
 20
-163.8543398820872
 30
0.0
 10
3051.224698145698
 20
-153.291595108382
 30
0.0
 10
3091.943808042851
 20
-163.7231550314753
 30
0.0
 10
3122.291031621451
 20
-194.5060085731483
 30
0.0
 10
3128.783795988038
 20
-220.3496646905836
 30
0.0
 10
3129.21053859493
 20
-234.7085370011399
 30
0.0
  0
SPLINE
  5
7021C
330
703AC
100
AcDbEntity
  8
Level 26
  6
Continuous
 62
     7
370
     0
100
AcDbSpline
210
0.0
220
0.0
230
1.0
 70
     9
 71
     3
 72
    19
 73
    15
 74
     0
 42
0.000000001
 43
0.0000000001
 40
0.0
 40
0.0
 40
0.0
 40
0.0
 40
0.0833333335273589
 40
0.1666666665890565
 40
0.2500000001164153
 40
0.3333333331781129
 40
0.4166666667054718
 40
0.4999999997671694
 40
0.5833333332945282
 40
0.6666666668218872
 40
0.7499999998835847
 40
0.8333333334109434
 40
0.9166666664726411
 40
1.0
 40
1.0
 40
1.0
 40
1.0
 10
3129.21053859493
 20
-234.70853700114
 30
0.0
 10
3128.707594108099
 20
-249.1135066657415
 30
0.0
 10
3122.179202952363
 20
-275.1728147195761
 30
0.0
 10
3091.833270764491
 20
-305.7233870026659
 30
0.0
 10
3051.227542684411
 20
-316.1197343643407
 30
0.0
 10
3010.517521535084
 20
-305.5937383622655
 30
0.0
 10
2980.496710475176
 20
-275.7139049322902
 30
0.0
 10
2969.73889773675
 20
-234.8415809477935
 30
0.0
 10
2980.345086035954
 20
-193.9524456287226
 30
0.0
 10
3010.41858959136
 20
-163.8543398820872
 30
0.0
 10
3051.224698145698
 20
-153.291595108382
 30
0.0
 10
3091.943808042851
 20
-163.7231550314753
 30
0.0
 10
3122.291031621451
 20
-194.5060085731483
 30
0.0
 10
3128.78379598804
 20
-220.3496646905836
 30
0.0
 10
3129.21053859493
 20
-234.70853700114
 30
0.0
  0
SPLINE
  5
7021D
330
703AC
100
AcDbEntity
  8
Level 26
  6
Continuous
 62
     7
370
     0
100
AcDbSpline
210
0.0
220
0.0
230
1.0
 70
     9
 71
     3
 72
    19
 73
    15
 74
     0
 42
0.000000001
 43
0.0000000001
 40
0.0
 40
0.0
 40
0.0
 40
0.0
 40
0.0833333335273589
 40
0.1666666665890565
 40
0.2500000001164153
 40
0.3333333331781129
 40
0.4166666667054718
 40
0.4999999997671694
 40
0.5833333332945282
 40
0.6666666668218872
 40
0.7499999998835847
 40
0.8333333334109434
 40
0.9166666664726411
 40
1.0
 40
1.0
 40
1.0
 40
1.0
 10
3129.21053859493
 20
-234.70853700114
 30
0.0
 10
3128.707594108099
 20
-249.1135066657416
 30
0.0
 10
3122.179202952364
 20
-275.1728147195761
 30
0.0
 10
3091.833270764491
 20
-305.7233870026659
 30
0.0
 10
3051.227542684411
 20
-316.1197343643408
 30
0.0
 10
3010.517521535084
 20
-305.5937383622655
 30
0.0
 10
2980.496710475176
 20
-275.7139049322902
 30
0.0
 10
2969.73889773675
 20
-234.8415809477936
 30
0.0
 10
2980.345086035954
 20
-193.9524456287226
 30
0.0
 10
3010.41858959136
 20
-163.8543398820872
 30
0.0
 10
3051.224698145698
 20
-153.291595108382
 30
0.0
 10
3091.943808042851
 20
-163.7231550314753
 30
0.0
 10
3122.291031621452
 20
-194.5060085731484
 30
0.0
 10
3128.78379598804
 20
-220.3496646905836
 30
0.0
 10
3129.21053859493
 20
-234.70853700114
 30
0.0
  0
SPLINE
  5
7021E
330
703AC
100
AcDbEntity
  8
Level 26
  6
Continuous
 62
     7
370
     0
100
AcDbSpline
210
0.0
220
0.0
230
1.0
 70
     9
 71
     3
 72
    19
 73
    15
 74
     0
 42
0.000000001
 43
0.0000000001
 40
0.0
 40
0.0
 40
0.0
 40
0.0
 40
0.0833333335273589
 40
0.1666666665890565
 40
0.2500000001164153
 40
0.3333333331781129
 40
0.4166666667054718
 40
0.4999999997671694
 40
0.5833333332945282
 40
0.6666666668218872
 40
0.7499999998835847
 40
0.8333333334109434
 40
0.9166666664726411
 40
1.0
 40
1.0
 40
1.0
 40
1.0
 10
3129.21053859493
 20
-234.70853700114
 30
0.0
 10
3128.707594108099
 20
-249.1135066657415
 30
0.0
 10
3122.179202952363
 20
-275.1728147195761
 30
0.0
 10
3091.833270764491
 20
-305.7233870026659
 30
0.0
 10
3051.227542684411
 20
-316.1197343643407
 30
0.0
 10
3010.517521535084
 20
-305.5937383622655
 30
0.0
 10
2980.496710475176
 20
-275.7139049322902
 30
0.0
 10
2969.73889773675
 20
-234.8415809477936
 30
0.0
 10
2980.345086035954
 20
-193.9524456287226
 30
0.0
 10
3010.41858959136
 20
-163.8543398820872
 30
0.0
 10
3051.224698145698
 20
-153.291595108382
 30
0.0
 10
3091.943808042851
 20
-163.7231550314753
 30
0.0
 10
3122.291031621451
 20
-194.5060085731483
 30
0.0
 10
3128.78379598804
 20
-220.3496646905836
 30
0.0
 10
3129.21053859493
 20
-234.70853700114
 30
0.0
  0
SPLINE
  5
7021F
330
703AC
100
AcDbEntity
  8
Level 26
  6
Continuous
 62
     7
370
     0
100
AcDbSpline
210
0.0
220
0.0
230
1.0
 70
     9
 71
     3
 72
    19
 73
    15
 74
     0
 42
0.000000001
 43
0.0000000001
 40
0.0
 40
0.0
 40
0.0
 40
0.0
 40
0.0833333335273589
 40
0.1666666665890565
 40
0.2500000001164153
 40
0.3333333331781129
 40
0.4166666667054718
 40
0.4999999997671694
 40
0.5833333332945282
 40
0.6666666668218872
 40
0.7499999998835847
 40
0.8333333334109434
 40
0.9166666664726411
 40
1.0
 40
1.0
 40
1.0
 40
1.0
 10
3129.21053859493
 20
-234.70853700114
 30
0.0
 10
3128.707594108099
 20
-249.1135066657415
 30
0.0
 10
3122.179202952363
 20
-275.1728147195761
 30
0.0
 10
3091.833270764491
 20
-305.7233870026659
 30
0.0
 10
3051.227542684411
 20
-316.1197343643407
 30
0.0
 10
3010.517521535084
 20
-305.5937383622655
 30
0.0
 10
2980.496710475176
 20
-275.7139049322902
 30
0.0
 10
2969.73889773675
 20
-234.8415809477936
 30
0.0
 10
2980.345086035954
 20
-193.9524456287226
 30
0.0
 10
3010.41858959136
 20
-163.8543398820872
 30
0.0
 10
3051.224698145698
 20
-153.291595108382
 30
0.0
 10
3091.943808042851
 20
-163.7231550314753
 30
0.0
 10
3122.291031621451
 20
-194.5060085731483
 30
0.0
 10
3128.78379598804
 20
-220.3496646905836
 30
0.0
 10
3129.21053859493
 20
-234.70853700114
 30
0.0
  0
SPLINE
  5
70220
330
703AC
100
AcDbEntity
  8
Level 26
  6
Continuous
 62
     7
370
     0
100
AcDbSpline
210
0.0
220
0.0
230
1.0
 70
     9
 71
     3
 72
    19
 73
    15
 74
     0
 42
0.000000001
 43
0.0000000001
 40
0.0
 40
0.0
 40
0.0
 40
0.0
 40
0.0833333335273589
 40
0.1666666665890565
 40
0.2500000001164153
 40
0.3333333331781129
 40
0.4166666667054718
 40
0.4999999997671694
 40
0.5833333332945282
 40
0.6666666668218872
 40
0.7499999998835847
 40
0.8333333334109434
 40
0.9166666664726411
 40
1.0
 40
1.0
 40
1.0
 40
1.0
 10
3129.21053859493
 20
-234.70853700114
 30
0.0
 10
3128.707594108099
 20
-249.1135066657416
 30
0.0
 10
3122.179202952363
 20
-275.1728147195761
 30
0.0
 10
3091.833270764491
 20
-305.7233870026659
 30
0.0
 10
3051.227542684411
 20
-316.1197343643407
 30
0.0
 10
3010.517521535084
 20
-305.5937383622655
 30
0.0
 10
2980.496710475176
 20
-275.7139049322902
 30
0.0
 10
2969.73889773675
 20
-234.8415809477936
 30
0.0
 10
2980.345086035954
 20
-193.9524456287226
 30
0.0
 10
3010.41858959136
 20
-163.8543398820872
 30
0.0
 10
3051.224698145698
 20
-153.291595108382
 30
0.0
 10
3091.943808042851
 20
-163.7231550314753
 30
0.0
 10
3122.291031621451
 20
-194.5060085731483
 30
0.0
 10
3128.78379598804
 20
-220.3496646905836
 30
0.0
 10
3129.21053859493
 20
-234.70853700114
 30
0.0
  0
SPLINE
  5
70221
330
703AC
100
AcDbEntity
  8
Level 26
  6
Continuous
 62
     7
370
     0
100
AcDbSpline
210
0.0
220
0.0
230
1.0
 70
     9
 71
     3
 72
    19
 73
    15
 74
     0
 42
0.000000001
 43
0.0000000001
 40
0.0
 40
0.0
 40
0.0
 40
0.0
 40
0.0833333335273589
 40
0.1666666665890565
 40
0.2500000001164153
 40
0.3333333331781129
 40
0.4166666667054718
 40
0.4999999997671694
 40
0.5833333332945282
 40
0.6666666668218872
 40
0.7499999998835847
 40
0.8333333334109434
 40
0.9166666664726411
 40
1.0
 40
1.0
 40
1.0
 40
1.0
 10
3129.21053859493
 20
-234.70853700114
 30
0.0
 10
3128.707594108099
 20
-249.1135066657415
 30
0.0
 10
3122.179202952363
 20
-275.1728147195761
 30
0.0
 10
3091.833270764492
 20
-305.7233870026659
 30
0.0
 10
3051.227542684411
 20
-316.1197343643407
 30
0.0
 10
3010.517521535084
 20
-305.5937383622655
 30
0.0
 10
2980.496710475176
 20
-275.7139049322902
 30
0.0
 10
2969.738897736751
 20
-234.8415809477936
 30
0.0
 10
2980.345086035954
 20
-193.9524456287226
 30
0.0
 10
3010.41858959136
 20
-163.8543398820872
 30
0.0
 10
3051.224698145698
 20
-153.291595108382
 30
0.0
 10
3091.943808042851
 20
-163.7231550314753
 30
0.0
 10
3122.291031621451
 20
-194.5060085731483
 30
0.0
 10
3128.78379598804
 20
-220.3496646905836
 30
0.0
 10
3129.21053859493
 20
-234.70853700114
 30
0.0
  0
SPLINE
  5
70222
330
703AC
100
AcDbEntity
  8
Level 26
  6
Continuous
 62
     7
370
     0
100
AcDbSpline
210
0.0
220
0.0
230
1.0
 70
     9
 71
     3
 72
    19
 73
    15
 74
     0
 42
0.000000001
 43
0.0000000001
 40
0.0
 40
0.0
 40
0.0
 40
0.0
 40
0.0833333335273589
 40
0.1666666665890565
 40
0.2500000001164153
 40
0.3333333331781129
 40
0.4166666667054718
 40
0.4999999997671694
 40
0.5833333332945282
 40
0.6666666668218872
 40
0.7499999998835847
 40
0.8333333334109434
 40
0.9166666664726411
 40
1.0
 40
1.0
 40
1.0
 40
1.0
 10
3129.21053859493
 20
-234.70853700114
 30
0.0
 10
3128.707594108099
 20
-249.1135066657415
 30
0.0
 10
3122.179202952363
 20
-275.1728147195761
 30
0.0
 10
3091.833270764491
 20
-305.7233870026659
 30
0.0
 10
3051.227542684411
 20
-316.1197343643407
 30
0.0
 10
3010.517521535084
 20
-305.5937383622655
 30
0.0
 10
2980.496710475176
 20
-275.7139049322902
 30
0.0
 10
2969.73889773675
 20
-234.8415809477936
 30
0.0
 10
2980.345086035954
 20
-193.9524456287226
 30
0.0
 10
3010.41858959136
 20
-163.8543398820872
 30
0.0
 10
3051.224698145698
 20
-153.291595108382
 30
0.0
 10
3091.943808042851
 20
-163.7231550314753
 30
0.0
 10
3122.291031621451
 20
-194.5060085731483
 30
0.0
 10
3128.78379598804
 20
-220.3496646905836
 30
0.0
 10
3129.21053859493
 20
-234.70853700114
 30
0.0
  0
SPLINE
  5
70223
330
703AC
100
AcDbEntity
  8
Level 26
  6
Continuous
 62
     7
370
     0
100
AcDbSpline
210
0.0
220
0.0
230
1.0
 70
     9
 71
     3
 72
    19
 73
    15
 74
     0
 42
0.000000001
 43
0.0000000001
 40
0.0
 40
0.0
 40
0.0
 40
0.0
 40
0.0833333335273589
 40
0.1666666665890565
 40
0.2500000001164153
 40
0.3333333331781129
 40
0.4166666667054718
 40
0.4999999997671694
 40
0.5833333332945282
 40
0.6666666668218872
 40
0.7499999998835847
 40
0.8333333334109434
 40
0.9166666664726411
 40
1.0
 40
1.0
 40
1.0
 40
1.0
 10
3129.21053859493
 20
-234.70853700114
 30
0.0
 10
3128.707594108099
 20
-249.1135066657415
 30
0.0
 10
3122.179202952363
 20
-275.1728147195761
 30
0.0
 10
3091.833270764491
 20
-305.7233870026659
 30
0.0
 10
3051.227542684411
 20
-316.1197343643407
 30
0.0
 10
3010.517521535084
 20
-305.5937383622655
 30
0.0
 10
2980.496710475176
 20
-275.7139049322902
 30
0.0
 10
2969.73889773675
 20
-234.8415809477936
 30
0.0
 10
2980.345086035954
 20
-193.9524456287226
 30
0.0
 10
3010.41858959136
 20
-163.8543398820872
 30
0.0
 10
3051.224698145698
 20
-153.291595108382
 30
0.0
 10
3091.943808042851
 20
-163.7231550314753
 30
0.0
 10
3122.291031621451
 20
-194.5060085731483
 30
0.0
 10
3128.78379598804
 20
-220.3496646905836
 30
0.0
 10
3129.21053859493
 20
-234.70853700114
 30
0.0
  0
ENDBLK
  5
703AE
330
703AC
100
AcDbEntity
  8
0
 62
    98
370
     0
100
AcDbBlockEnd
  0
BLOCK
  5
703B0
330
703AF
100
AcDbEntity
  8
0
 62
    98
370
     0
100
AcDbBlockBegin
  2
From Bspline Surface_4
 70
     0
 10
0.0
 20
0.0
 30
0.0
  3
From Bspline Surface_4
  1

  0
SPLINE
  5
6FF91
330
703AF
100
AcDbEntity
  8
Level 26
  6
Continuous
 62
     7
370
     0
100
AcDbSpline
210
0.0
220
0.0
230
1.0
 70
     9
 71
     3
 72
    19
 73
    15
 74
     0
 42
0.000000001
 43
0.0000000001
 40
0.0
 40
0.0
 40
0.0
 40
0.0
 40
0.0833333335273589
 40
0.1666666665890565
 40
0.2500000001164153
 40
0.3333333331781129
 40
0.4166666667054718
 40
0.4999999997671694
 40
0.5833333332945282
 40
0.6666666668218872
 40
0.7499999998835847
 40
0.8333333334109434
 40
0.9166666664726411
 40
1.0
 40
1.0
 40
1.0
 40
1.0
 10
3129.21053859493
 20
-234.70853700114
 30
0.0
 10
3128.707594108099
 20
-249.1135066657415
 30
0.0
 10
3122.179202952363
 20
-275.1728147195761
 30
0.0
 10
3091.833270764491
 20
-305.7233870026659
 30
0.0
 10
3051.227542684411
 20
-316.1197343643407
 30
0.0
 10
3010.517521535084
 20
-305.5937383622655
 30
0.0
 10
2980.496710475176
 20
-275.7139049322902
 30
0.0
 10
2969.73889773675
 20
-234.8415809477936
 30
0.0
 10
2980.345086035954
 20
-193.9524456287226
 30
0.0
 10
3010.41858959136
 20
-163.8543398820872
 30
0.0
 10
3051.224698145698
 20
-153.291595108382
 30
0.0
 10
3091.943808042851
 20
-163.7231550314753
 30
0.0
 10
3122.291031621451
 20
-194.5060085731483
 30
0.0
 10
3128.78379598804
 20
-220.3496646905836
 30
0.0
 10
3129.21053859493
 20
-234.70853700114
 30
0.0
  0
SPLINE
  5
7022E
330
703AF
100
AcDbEntity
  8
Level 26
  6
Continuous
 62
     7
370
     0
100
AcDbSpline
210
0.0
220
0.0
230
1.0
 70
     9
 71
     3
 72
    19
 73
    15
 74
     0
 42
0.000000001
 43
0.0000000001
 40
0.0
 40
0.0
 40
0.0
 40
0.0
 40
0.0833333335273589
 40
0.1666666665890565
 40
0.2500000001164153
 40
0.3333333331781129
 40
0.4166666667054718
 40
0.4999999997671694
 40
0.5833333332945282
 40
0.6666666668218872
 40
0.7499999998835847
 40
0.8333333334109434
 40
0.9166666664726411
 40
1.0
 40
1.0
 40
1.0
 40
1.0
 10
3129.21053859493
 20
-234.7085370011399
 30
0.0
 10
3128.707594108099
 20
-249.1135066657415
 30
0.0
 10
3122.179202952363
 20
-275.1728147195761
 30
0.0
 10
3091.833270764491
 20
-305.7233870026658
 30
0.0
 10
3051.227542684411
 20
-316.1197343643407
 30
0.0
 10
3010.517521535084
 20
-305.5937383622655
 30
0.0
 10
2980.496710475176
 20
-275.7139049322902
 30
0.0
 10
2969.73889773675
 20
-234.8415809477935
 30
0.0
 10
2980.345086035954
 20
-193.9524456287226
 30
0.0
 10
3010.41858959136
 20
-163.8543398820872
 30
0.0
 10
3051.224698145698
 20
-153.291595108382
 30
0.0
 10
3091.943808042851
 20
-163.7231550314753
 30
0.0
 10
3122.291031621451
 20
-194.5060085731483
 30
0.0
 10
3128.783795988038
 20
-220.3496646905836
 30
0.0
 10
3129.21053859493
 20
-234.7085370011399
 30
0.0
  0
SPLINE
  5
7022F
330
703AF
100
AcDbEntity
  8
Level 26
  6
Continuous
 62
     7
370
     0
100
AcDbSpline
210
0.0
220
0.0
230
1.0
 70
     9
 71
     3
 72
    19
 73
    15
 74
     0
 42
0.000000001
 43
0.0000000001
 40
0.0
 40
0.0
 40
0.0
 40
0.0
 40
0.0833333335273589
 40
0.1666666665890565
 40
0.2500000001164153
 40
0.3333333331781129
 40
0.4166666667054718
 40
0.4999999997671694
 40
0.5833333332945282
 40
0.6666666668218872
 40
0.7499999998835847
 40
0.8333333334109434
 40
0.9166666664726411
 40
1.0
 40
1.0
 40
1.0
 40
1.0
 10
3129.21053859493
 20
-234.70853700114
 30
0.0
 10
3128.707594108099
 20
-249.1135066657415
 30
0.0
 10
3122.179202952363
 20
-275.1728147195761
 30
0.0
 10
3091.833270764491
 20
-305.7233870026659
 30
0.0
 10
3051.227542684411
 20
-316.1197343643407
 30
0.0
 10
3010.517521535084
 20
-305.5937383622655
 30
0.0
 10
2980.496710475176
 20
-275.7139049322902
 30
0.0
 10
2969.73889773675
 20
-234.8415809477935
 30
0.0
 10
2980.345086035954
 20
-193.9524456287226
 30
0.0
 10
3010.41858959136
 20
-163.8543398820872
 30
0.0
 10
3051.224698145698
 20
-153.291595108382
 30
0.0
 10
3091.943808042851
 20
-163.7231550314753
 30
0.0
 10
3122.291031621451
 20
-194.5060085731483
 30
0.0
 10
3128.78379598804
 20
-220.3496646905836
 30
0.0
 10
3129.21053859493
 20
-234.70853700114
 30
0.0
  0
SPLINE
  5
70230
330
703AF
100
AcDbEntity
  8
Level 26
  6
Continuous
 62
     7
370
     0
100
AcDbSpline
210
0.0
220
0.0
230
1.0
 70
     9
 71
     3
 72
    19
 73
    15
 74
     0
 42
0.000000001
 43
0.0000000001
 40
0.0
 40
0.0
 40
0.0
 40
0.0
 40
0.0833333335273589
 40
0.1666666665890565
 40
0.2500000001164153
 40
0.3333333331781129
 40
0.4166666667054718
 40
0.4999999997671694
 40
0.5833333332945282
 40
0.6666666668218872
 40
0.7499999998835847
 40
0.8333333334109434
 40
0.9166666664726411
 40
1.0
 40
1.0
 40
1.0
 40
1.0
 10
3129.21053859493
 20
-234.70853700114
 30
0.0
 10
3128.707594108099
 20
-249.1135066657416
 30
0.0
 10
3122.179202952364
 20
-275.1728147195761
 30
0.0
 10
3091.833270764491
 20
-305.7233870026659
 30
0.0
 10
3051.227542684411
 20
-316.1197343643408
 30
0.0
 10
3010.517521535084
 20
-305.5937383622655
 30
0.0
 10
2980.496710475176
 20
-275.7139049322902
 30
0.0
 10
2969.73889773675
 20
-234.8415809477936
 30
0.0
 10
2980.345086035954
 20
-193.9524456287226
 30
0.0
 10
3010.41858959136
 20
-163.8543398820872
 30
0.0
 10
3051.224698145698
 20
-153.291595108382
 30
0.0
 10
3091.943808042851
 20
-163.7231550314753
 30
0.0
 10
3122.291031621452
 20
-194.5060085731484
 30
0.0
 10
3128.78379598804
 20
-220.3496646905836
 30
0.0
 10
3129.21053859493
 20
-234.70853700114
 30
0.0
  0
SPLINE
  5
70231
330
703AF
100
AcDbEntity
  8
Level 26
  6
Continuous
 62
     7
370
     0
100
AcDbSpline
210
0.0
220
0.0
230
1.0
 70
     9
 71
     3
 72
    19
 73
    15
 74
     0
 42
0.000000001
 43
0.0000000001
 40
0.0
 40
0.0
 40
0.0
 40
0.0
 40
0.0833333335273589
 40
0.1666666665890565
 40
0.2500000001164153
 40
0.3333333331781129
 40
0.4166666667054718
 40
0.4999999997671694
 40
0.5833333332945282
 40
0.6666666668218872
 40
0.7499999998835847
 40
0.8333333334109434
 40
0.9166666664726411
 40
1.0
 40
1.0
 40
1.0
 40
1.0
 10
3129.21053859493
 20
-234.70853700114
 30
0.0
 10
3128.707594108099
 20
-249.1135066657415
 30
0.0
 10
3122.179202952363
 20
-275.1728147195761
 30
0.0
 10
3091.833270764491
 20
-305.7233870026659
 30
0.0
 10
3051.227542684411
 20
-316.1197343643407
 30
0.0
 10
3010.517521535084
 20
-305.5937383622655
 30
0.0
 10
2980.496710475176
 20
-275.7139049322902
 30
0.0
 10
2969.73889773675
 20
-234.8415809477936
 30
0.0
 10
2980.345086035954
 20
-193.9524456287226
 30
0.0
 10
3010.41858959136
 20
-163.8543398820872
 30
0.0
 10
3051.224698145698
 20
-153.291595108382
 30
0.0
 10
3091.943808042851
 20
-163.7231550314753
 30
0.0
 10
3122.291031621451
 20
-194.5060085731483
 30
0.0
 10
3128.78379598804
 20
-220.3496646905836
 30
0.0
 10
3129.21053859493
 20
-234.70853700114
 30
0.0
  0
SPLINE
  5
70232
330
703AF
100
AcDbEntity
  8
Level 26
  6
Continuous
 62
     7
370
     0
100
AcDbSpline
210
0.0
220
0.0
230
1.0
 70
     9
 71
     3
 72
    19
 73
    15
 74
     0
 42
0.000000001
 43
0.0000000001
 40
0.0
 40
0.0
 40
0.0
 40
0.0
 40
0.0833333335273589
 40
0.1666666665890565
 40
0.2500000001164153
 40
0.3333333331781129
 40
0.4166666667054718
 40
0.4999999997671694
 40
0.5833333332945282
 40
0.6666666668218872
 40
0.7499999998835847
 40
0.8333333334109434
 40
0.9166666664726411
 40
1.0
 40
1.0
 40
1.0
 40
1.0
 10
3129.21053859493
 20
-234.70853700114
 30
0.0
 10
3128.707594108099
 20
-249.1135066657415
 30
0.0
 10
3122.179202952363
 20
-275.1728147195761
 30
0.0
 10
3091.833270764491
 20
-305.7233870026659
 30
0.0
 10
3051.227542684411
 20
-316.1197343643407
 30
0.0
 10
3010.517521535084
 20
-305.5937383622655
 30
0.0
 10
2980.496710475176
 20
-275.7139049322902
 30
0.0
 10
2969.73889773675
 20
-234.8415809477936
 30
0.0
 10
2980.345086035954
 20
-193.9524456287226
 30
0.0
 10
3010.41858959136
 20
-163.8543398820872
 30
0.0
 10
3051.224698145698
 20
-153.291595108382
 30
0.0
 10
3091.943808042851
 20
-163.7231550314753
 30
0.0
 10
3122.291031621451
 20
-194.5060085731483
 30
0.0
 10
3128.78379598804
 20
-220.3496646905836
 30
0.0
 10
3129.21053859493
 20
-234.70853700114
 30
0.0
  0
SPLINE
  5
70233
330
703AF
100
AcDbEntity
  8
Level 26
  6
Continuous
 62
     7
370
     0
100
AcDbSpline
210
0.0
220
0.0
230
1.0
 70
     9
 71
     3
 72
    19
 73
    15
 74
     0
 42
0.000000001
 43
0.0000000001
 40
0.0
 40
0.0
 40
0.0
 40
0.0
 40
0.0833333335273589
 40
0.1666666665890565
 40
0.2500000001164153
 40
0.3333333331781129
 40
0.4166666667054718
 40
0.4999999997671694
 40
0.5833333332945282
 40
0.6666666668218872
 40
0.7499999998835847
 40
0.8333333334109434
 40
0.9166666664726411
 40
1.0
 40
1.0
 40
1.0
 40
1.0
 10
3129.21053859493
 20
-234.70853700114
 30
0.0
 10
3128.707594108099
 20
-249.1135066657416
 30
0.0
 10
3122.179202952363
 20
-275.1728147195761
 30
0.0
 10
3091.833270764491
 20
-305.7233870026659
 30
0.0
 10
3051.227542684411
 20
-316.1197343643407
 30
0.0
 10
3010.517521535084
 20
-305.5937383622655
 30
0.0
 10
2980.496710475176
 20
-275.7139049322902
 30
0.0
 10
2969.73889773675
 20
-234.8415809477936
 30
0.0
 10
2980.345086035954
 20
-193.9524456287226
 30
0.0
 10
3010.41858959136
 20
-163.8543398820872
 30
0.0
 10
3051.224698145698
 20
-153.291595108382
 30
0.0
 10
3091.943808042851
 20
-163.7231550314753
 30
0.0
 10
3122.291031621451
 20
-194.5060085731483
 30
0.0
 10
3128.78379598804
 20
-220.3496646905836
 30
0.0
 10
3129.21053859493
 20
-234.70853700114
 30
0.0
  0
SPLINE
  5
70234
330
703AF
100
AcDbEntity
  8
Level 26
  6
Continuous
 62
     7
370
     0
100
AcDbSpline
210
0.0
220
0.0
230
1.0
 70
     9
 71
     3
 72
    19
 73
    15
 74
     0
 42
0.000000001
 43
0.0000000001
 40
0.0
 40
0.0
 40
0.0
 40
0.0
 40
0.0833333335273589
 40
0.1666666665890565
 40
0.2500000001164153
 40
0.3333333331781129
 40
0.4166666667054718
 40
0.4999999997671694
 40
0.5833333332945282
 40
0.6666666668218872
 40
0.7499999998835847
 40
0.8333333334109434
 40
0.9166666664726411
 40
1.0
 40
1.0
 40
1.0
 40
1.0
 10
3129.21053859493
 20
-234.70853700114
 30
0.0
 10
3128.707594108099
 20
-249.1135066657415
 30
0.0
 10
3122.179202952363
 20
-275.1728147195761
 30
0.0
 10
3091.833270764492
 20
-305.7233870026659
 30
0.0
 10
3051.227542684411
 20
-316.1197343643407
 30
0.0
 10
3010.517521535084
 20
-305.5937383622655
 30
0.0
 10
2980.496710475176
 20
-275.7139049322902
 30
0.0
 10
2969.738897736751
 20
-234.8415809477936
 30
0.0
 10
2980.345086035954
 20
-193.9524456287226
 30
0.0
 10
3010.41858959136
 20
-163.8543398820872
 30
0.0
 10
3051.224698145698
 20
-153.291595108382
 30
0.0
 10
3091.943808042851
 20
-163.7231550314753
 30
0.0
 10
3122.291031621451
 20
-194.5060085731483
 30
0.0
 10
3128.78379598804
 20
-220.3496646905836
 30
0.0
 10
3129.21053859493
 20
-234.70853700114
 30
0.0
  0
SPLINE
  5
70235
330
703AF
100
AcDbEntity
  8
Level 26
  6
Continuous
 62
     7
370
     0
100
AcDbSpline
210
0.0
220
0.0
230
1.0
 70
     9
 71
     3
 72
    19
 73
    15
 74
     0
 42
0.000000001
 43
0.0000000001
 40
0.0
 40
0.0
 40
0.0
 40
0.0
 40
0.0833333335273589
 40
0.1666666665890565
 40
0.2500000001164153
 40
0.3333333331781129
 40
0.4166666667054718
 40
0.4999999997671694
 40
0.5833333332945282
 40
0.6666666668218872
 40
0.7499999998835847
 40
0.8333333334109434
 40
0.9166666664726411
 40
1.0
 40
1.0
 40
1.0
 40
1.0
 10
3129.21053859493
 20
-234.70853700114
 30
0.0
 10
3128.707594108099
 20
-249.1135066657415
 30
0.0
 10
3122.179202952363
 20
-275.1728147195761
 30
0.0
 10
3091.833270764491
 20
-305.7233870026659
 30
0.0
 10
3051.227542684411
 20
-316.1197343643407
 30
0.0
 10
3010.517521535084
 20
-305.5937383622655
 30
0.0
 10
2980.496710475176
 20
-275.7139049322902
 30
0.0
 10
2969.73889773675
 20
-234.8415809477936
 30
0.0
 10
2980.345086035954
 20
-193.9524456287226
 30
0.0
 10
3010.41858959136
 20
-163.8543398820872
 30
0.0
 10
3051.224698145698
 20
-153.291595108382
 30
0.0
 10
3091.943808042851
 20
-163.7231550314753
 30
0.0
 10
3122.291031621451
 20
-194.5060085731483
 30
0.0
 10
3128.78379598804
 20
-220.3496646905836
 30
0.0
 10
3129.21053859493
 20
-234.70853700114
 30
0.0
  0
SPLINE
  5
70236
330
703AF
100
AcDbEntity
  8
Level 26
  6
Continuous
 62
     7
370
     0
100
AcDbSpline
210
0.0
220
0.0
230
1.0
 70
     9
 71
     3
 72
    19
 73
    15
 74
     0
 42
0.000000001
 43
0.0000000001
 40
0.0
 40
0.0
 40
0.0
 40
0.0
 40
0.0833333335273589
 40
0.1666666665890565
 40
0.2500000001164153
 40
0.3333333331781129
 40
0.4166666667054718
 40
0.4999999997671694
 40
0.5833333332945282
 40
0.6666666668218872
 40
0.7499999998835847
 40
0.8333333334109434
 40
0.9166666664726411
 40
1.0
 40
1.0
 40
1.0
 40
1.0
 10
3129.21053859493
 20
-234.70853700114
 30
0.0
 10
3128.707594108099
 20
-249.1135066657415
 30
0.0
 10
3122.179202952363
 20
-275.1728147195761
 30
0.0
 10
3091.833270764491
 20
-305.7233870026659
 30
0.0
 10
3051.227542684411
 20
-316.1197343643407
 30
0.0
 10
3010.517521535084
 20
-305.5937383622655
 30
0.0
 10
2980.496710475176
 20
-275.7139049322902
 30
0.0
 10
2969.73889773675
 20
-234.8415809477936
 30
0.0
 10
2980.345086035954
 20
-193.9524456287226
 30
0.0
 10
3010.41858959136
 20
-163.8543398820872
 30
0.0
 10
3051.224698145698
 20
-153.291595108382
 30
0.0
 10
3091.943808042851
 20
-163.7231550314753
 30
0.0
 10
3122.291031621451
 20
-194.5060085731483
 30
0.0
 10
3128.78379598804
 20
-220.3496646905836
 30
0.0
 10
3129.21053859493
 20
-234.70853700114
 30
0.0
  0
ENDBLK
  5
703B1
330
703AF
100
AcDbEntity
  8
0
 62
    98
370
     0
100
AcDbBlockEnd
  0
BLOCK
  5
703B3
330
703B2
100
AcDbEntity
  8
0
 62
    98
370
     0
100
AcDbBlockBegin
  2
From Bspline Surface_5
 70
     0
 10
0.0
 20
0.0
 30
0.0
  3
From Bspline Surface_5
  1

  0
SPLINE
  5
6FFA2
330
703B2
100
AcDbEntity
  8
Level 26
  6
Continuous
 62
     7
370
     0
100
AcDbSpline
210
0.0
220
0.0
230
1.0
 70
     9
 71
     3
 72
    19
 73
    15
 74
     0
 42
0.000000001
 43
0.0000000001
 40
0.0
 40
0.0
 40
0.0
 40
0.0
 40
0.0833333335273589
 40
0.1666666665890565
 40
0.2500000001164153
 40
0.3333333331781129
 40
0.4166666667054718
 40
0.4999999997671694
 40
0.5833333332945282
 40
0.6666666668218872
 40
0.7499999998835847
 40
0.8333333334109434
 40
0.9166666664726411
 40
1.0
 40
1.0
 40
1.0
 40
1.0
 10
3129.21053859493
 20
-234.70853700114
 30
0.0
 10
3128.707594108099
 20
-249.1135066657415
 30
0.0
 10
3122.179202952363
 20
-275.1728147195761
 30
0.0
 10
3091.833270764491
 20
-305.7233870026659
 30
0.0
 10
3051.227542684411
 20
-316.1197343643407
 30
0.0
 10
3010.517521535084
 20
-305.5937383622655
 30
0.0
 10
2980.496710475176
 20
-275.7139049322902
 30
0.0
 10
2969.73889773675
 20
-234.8415809477936
 30
0.0
 10
2980.345086035954
 20
-193.9524456287226
 30
0.0
 10
3010.41858959136
 20
-163.8543398820872
 30
0.0
 10
3051.224698145698
 20
-153.291595108382
 30
0.0
 10
3091.943808042851
 20
-163.7231550314753
 30
0.0
 10
3122.291031621451
 20
-194.5060085731483
 30
0.0
 10
3128.78379598804
 20
-220.3496646905836
 30
0.0
 10
3129.21053859493
 20
-234.70853700114
 30
0.0
  0
SPLINE
  5
70241
330
703B2
100
AcDbEntity
  8
Level 26
  6
Continuous
 62
     7
370
     0
100
AcDbSpline
210
0.0
220
0.0
230
1.0
 70
     9
 71
     3
 72
    19
 73
    15
 74
     0
 42
0.000000001
 43
0.0000000001
 40
0.0
 40
0.0
 40
0.0
 40
0.0
 40
0.0833333335273589
 40
0.1666666665890565
 40
0.2500000001164153
 40
0.3333333331781129
 40
0.4166666667054718
 40
0.4999999997671694
 40
0.5833333332945282
 40
0.6666666668218872
 40
0.7499999998835847
 40
0.8333333334109434
 40
0.9166666664726411
 40
1.0
 40
1.0
 40
1.0
 40
1.0
 10
3129.21053859493
 20
-234.7085370011399
 30
0.0
 10
3128.707594108099
 20
-249.1135066657415
 30
0.0
 10
3122.179202952363
 20
-275.1728147195761
 30
0.0
 10
3091.833270764491
 20
-305.7233870026658
 30
0.0
 10
3051.227542684411
 20
-316.1197343643407
 30
0.0
 10
3010.517521535084
 20
-305.5937383622655
 30
0.0
 10
2980.496710475176
 20
-275.7139049322902
 30
0.0
 10
2969.73889773675
 20
-234.8415809477935
 30
0.0
 10
2980.345086035954
 20
-193.9524456287226
 30
0.0
 10
3010.41858959136
 20
-163.8543398820872
 30
0.0
 10
3051.224698145698
 20
-153.291595108382
 30
0.0
 10
3091.943808042851
 20
-163.7231550314753
 30
0.0
 10
3122.291031621451
 20
-194.5060085731483
 30
0.0
 10
3128.783795988038
 20
-220.3496646905836
 30
0.0
 10
3129.21053859493
 20
-234.7085370011399
 30
0.0
  0
SPLINE
  5
70242
330
703B2
100
AcDbEntity
  8
Level 26
  6
Continuous
 62
     7
370
     0
100
AcDbSpline
210
0.0
220
0.0
230
1.0
 70
     9
 71
     3
 72
    19
 73
    15
 74
     0
 42
0.000000001
 43
0.0000000001
 40
0.0
 40
0.0
 40
0.0
 40
0.0
 40
0.0833333335273589
 40
0.1666666665890565
 40
0.2500000001164153
 40
0.3333333331781129
 40
0.4166666667054718
 40
0.4999999997671694
 40
0.5833333332945282
 40
0.6666666668218872
 40
0.7499999998835847
 40
0.8333333334109434
 40
0.9166666664726411
 40
1.0
 40
1.0
 40
1.0
 40
1.0
 10
3129.21053859493
 20
-234.70853700114
 30
0.0
 10
3128.707594108099
 20
-249.1135066657415
 30
0.0
 10
3122.179202952363
 20
-275.1728147195761
 30
0.0
 10
3091.833270764491
 20
-305.7233870026659
 30
0.0
 10
3051.227542684411
 20
-316.1197343643407
 30
0.0
 10
3010.517521535084
 20
-305.5937383622655
 30
0.0
 10
2980.496710475176
 20
-275.7139049322902
 30
0.0
 10
2969.73889773675
 20
-234.8415809477935
 30
0.0
 10
2980.345086035954
 20
-193.9524456287226
 30
0.0
 10
3010.41858959136
 20
-163.8543398820872
 30
0.0
 10
3051.224698145698
 20
-153.291595108382
 30
0.0
 10
3091.943808042851
 20
-163.7231550314753
 30
0.0
 10
3122.291031621451
 20
-194.5060085731483
 30
0.0
 10
3128.78379598804
 20
-220.3496646905836
 30
0.0
 10
3129.21053859493
 20
-234.70853700114
 30
0.0
  0
SPLINE
  5
70243
330
703B2
100
AcDbEntity
  8
Level 26
  6
Continuous
 62
     7
370
     0
100
AcDbSpline
210
0.0
220
0.0
230
1.0
 70
     9
 71
     3
 72
    19
 73
    15
 74
     0
 42
0.000000001
 43
0.0000000001
 40
0.0
 40
0.0
 40
0.0
 40
0.0
 40
0.0833333335273589
 40
0.1666666665890565
 40
0.2500000001164153
 40
0.3333333331781129
 40
0.4166666667054718
 40
0.4999999997671694
 40
0.5833333332945282
 40
0.6666666668218872
 40
0.7499999998835847
 40
0.8333333334109434
 40
0.9166666664726411
 40
1.0
 40
1.0
 40
1.0
 40
1.0
 10
3129.21053859493
 20
-234.70853700114
 30
0.0
 10
3128.707594108099
 20
-249.1135066657416
 30
0.0
 10
3122.179202952364
 20
-275.1728147195761
 30
0.0
 10
3091.833270764491
 20
-305.7233870026659
 30
0.0
 10
3051.227542684411
 20
-316.1197343643408
 30
0.0
 10
3010.517521535084
 20
-305.5937383622655
 30
0.0
 10
2980.496710475176
 20
-275.7139049322902
 30
0.0
 10
2969.73889773675
 20
-234.8415809477936
 30
0.0
 10
2980.345086035954
 20
-193.9524456287226
 30
0.0
 10
3010.41858959136
 20
-163.8543398820872
 30
0.0
 10
3051.224698145698
 20
-153.291595108382
 30
0.0
 10
3091.943808042851
 20
-163.7231550314753
 30
0.0
 10
3122.291031621452
 20
-194.5060085731484
 30
0.0
 10
3128.78379598804
 20
-220.3496646905836
 30
0.0
 10
3129.21053859493
 20
-234.70853700114
 30
0.0
  0
SPLINE
  5
70244
330
703B2
100
AcDbEntity
  8
Level 26
  6
Continuous
 62
     7
370
     0
100
AcDbSpline
210
0.0
220
0.0
230
1.0
 70
     9
 71
     3
 72
    19
 73
    15
 74
     0
 42
0.000000001
 43
0.0000000001
 40
0.0
 40
0.0
 40
0.0
 40
0.0
 40
0.0833333335273589
 40
0.1666666665890565
 40
0.2500000001164153
 40
0.3333333331781129
 40
0.4166666667054718
 40
0.4999999997671694
 40
0.5833333332945282
 40
0.6666666668218872
 40
0.7499999998835847
 40
0.8333333334109434
 40
0.9166666664726411
 40
1.0
 40
1.0
 40
1.0
 40
1.0
 10
3129.21053859493
 20
-234.70853700114
 30
0.0
 10
3128.707594108099
 20
-249.1135066657415
 30
0.0
 10
3122.179202952363
 20
-275.1728147195761
 30
0.0
 10
3091.833270764491
 20
-305.7233870026659
 30
0.0
 10
3051.227542684411
 20
-316.1197343643407
 30
0.0
 10
3010.517521535084
 20
-305.5937383622655
 30
0.0
 10
2980.496710475176
 20
-275.7139049322902
 30
0.0
 10
2969.73889773675
 20
-234.8415809477936
 30
0.0
 10
2980.345086035954
 20
-193.9524456287226
 30
0.0
 10
3010.41858959136
 20
-163.8543398820872
 30
0.0
 10
3051.224698145698
 20
-153.291595108382
 30
0.0
 10
3091.943808042851
 20
-163.7231550314753
 30
0.0
 10
3122.291031621451
 20
-194.5060085731483
 30
0.0
 10
3128.78379598804
 20
-220.3496646905836
 30
0.0
 10
3129.21053859493
 20
-234.70853700114
 30
0.0
  0
SPLINE
  5
70245
330
703B2
100
AcDbEntity
  8
Level 26
  6
Continuous
 62
     7
370
     0
100
AcDbSpline
210
0.0
220
0.0
230
1.0
 70
     9
 71
     3
 72
    19
 73
    15
 74
     0
 42
0.000000001
 43
0.0000000001
 40
0.0
 40
0.0
 40
0.0
 40
0.0
 40
0.0833333335273589
 40
0.1666666665890565
 40
0.2500000001164153
 40
0.3333333331781129
 40
0.4166666667054718
 40
0.4999999997671694
 40
0.5833333332945282
 40
0.6666666668218872
 40
0.7499999998835847
 40
0.8333333334109434
 40
0.9166666664726411
 40
1.0
 40
1.0
 40
1.0
 40
1.0
 10
3129.21053859493
 20
-234.70853700114
 30
0.0
 10
3128.707594108099
 20
-249.1135066657415
 30
0.0
 10
3122.179202952363
 20
-275.1728147195761
 30
0.0
 10
3091.833270764491
 20
-305.7233870026659
 30
0.0
 10
3051.227542684411
 20
-316.1197343643407
 30
0.0
 10
3010.517521535084
 20
-305.5937383622655
 30
0.0
 10
2980.496710475176
 20
-275.7139049322902
 30
0.0
 10
2969.73889773675
 20
-234.8415809477936
 30
0.0
 10
2980.345086035954
 20
-193.9524456287226
 30
0.0
 10
3010.41858959136
 20
-163.8543398820872
 30
0.0
 10
3051.224698145698
 20
-153.291595108382
 30
0.0
 10
3091.943808042851
 20
-163.7231550314753
 30
0.0
 10
3122.291031621451
 20
-194.5060085731483
 30
0.0
 10
3128.78379598804
 20
-220.3496646905836
 30
0.0
 10
3129.21053859493
 20
-234.70853700114
 30
0.0
  0
SPLINE
  5
70246
330
703B2
100
AcDbEntity
  8
Level 26
  6
Continuous
 62
     7
370
     0
100
AcDbSpline
210
0.0
220
0.0
230
1.0
 70
     9
 71
     3
 72
    19
 73
    15
 74
     0
 42
0.000000001
 43
0.0000000001
 40
0.0
 40
0.0
 40
0.0
 40
0.0
 40
0.0833333335273589
 40
0.1666666665890565
 40
0.2500000001164153
 40
0.3333333331781129
 40
0.4166666667054718
 40
0.4999999997671694
 40
0.5833333332945282
 40
0.6666666668218872
 40
0.7499999998835847
 40
0.8333333334109434
 40
0.9166666664726411
 40
1.0
 40
1.0
 40
1.0
 40
1.0
 10
3129.21053859493
 20
-234.70853700114
 30
0.0
 10
3128.707594108099
 20
-249.1135066657416
 30
0.0
 10
3122.179202952363
 20
-275.1728147195761
 30
0.0
 10
3091.833270764491
 20
-305.7233870026659
 30
0.0
 10
3051.227542684411
 20
-316.1197343643407
 30
0.0
 10
3010.517521535084
 20
-305.5937383622655
 30
0.0
 10
2980.496710475176
 20
-275.7139049322902
 30
0.0
 10
2969.73889773675
 20
-234.8415809477936
 30
0.0
 10
2980.345086035954
 20
-193.9524456287226
 30
0.0
 10
3010.41858959136
 20
-163.8543398820872
 30
0.0
 10
3051.224698145698
 20
-153.291595108382
 30
0.0
 10
3091.943808042851
 20
-163.7231550314753
 30
0.0
 10
3122.291031621451
 20
-194.5060085731483
 30
0.0
 10
3128.78379598804
 20
-220.3496646905836
 30
0.0
 10
3129.21053859493
 20
-234.70853700114
 30
0.0
  0
SPLINE
  5
70247
330
703B2
100
AcDbEntity
  8
Level 26
  6
Continuous
 62
     7
370
     0
100
AcDbSpline
210
0.0
220
0.0
230
1.0
 70
     9
 71
     3
 72
    19
 73
    15
 74
     0
 42
0.000000001
 43
0.0000000001
 40
0.0
 40
0.0
 40
0.0
 40
0.0
 40
0.0833333335273589
 40
0.1666666665890565
 40
0.2500000001164153
 40
0.3333333331781129
 40
0.4166666667054718
 40
0.4999999997671694
 40
0.5833333332945282
 40
0.6666666668218872
 40
0.7499999998835847
 40
0.8333333334109434
 40
0.9166666664726411
 40
1.0
 40
1.0
 40
1.0
 40
1.0
 10
3129.21053859493
 20
-234.70853700114
 30
0.0
 10
3128.707594108099
 20
-249.1135066657415
 30
0.0
 10
3122.179202952363
 20
-275.1728147195761
 30
0.0
 10
3091.833270764492
 20
-305.7233870026659
 30
0.0
 10
3051.227542684411
 20
-316.1197343643407
 30
0.0
 10
3010.517521535084
 20
-305.5937383622655
 30
0.0
 10
2980.496710475176
 20
-275.7139049322902
 30
0.0
 10
2969.738897736751
 20
-234.8415809477936
 30
0.0
 10
2980.345086035954
 20
-193.9524456287226
 30
0.0
 10
3010.41858959136
 20
-163.8543398820872
 30
0.0
 10
3051.224698145698
 20
-153.291595108382
 30
0.0
 10
3091.943808042851
 20
-163.7231550314753
 30
0.0
 10
3122.291031621451
 20
-194.5060085731483
 30
0.0
 10
3128.78379598804
 20
-220.3496646905836
 30
0.0
 10
3129.21053859493
 20
-234.70853700114
 30
0.0
  0
SPLINE
  5
70248
330
703B2
100
AcDbEntity
  8
Level 26
  6
Continuous
 62
     7
370
     0
100
AcDbSpline
210
0.0
220
0.0
230
1.0
 70
     9
 71
     3
 72
    19
 73
    15
 74
     0
 42
0.000000001
 43
0.0000000001
 40
0.0
 40
0.0
 40
0.0
 40
0.0
 40
0.0833333335273589
 40
0.1666666665890565
 40
0.2500000001164153
 40
0.3333333331781129
 40
0.4166666667054718
 40
0.4999999997671694
 40
0.5833333332945282
 40
0.6666666668218872
 40
0.7499999998835847
 40
0.8333333334109434
 40
0.9166666664726411
 40
1.0
 40
1.0
 40
1.0
 40
1.0
 10
3129.21053859493
 20
-234.70853700114
 30
0.0
 10
3128.707594108099
 20
-249.1135066657415
 30
0.0
 10
3122.179202952363
 20
-275.1728147195761
 30
0.0
 10
3091.833270764491
 20
-305.7233870026659
 30
0.0
 10
3051.227542684411
 20
-316.1197343643407
 30
0.0
 10
3010.517521535084
 20
-305.5937383622655
 30
0.0
 10
2980.496710475176
 20
-275.7139049322902
 30
0.0
 10
2969.73889773675
 20
-234.8415809477936
 30
0.0
 10
2980.345086035954
 20
-193.9524456287226
 30
0.0
 10
3010.41858959136
 20
-163.8543398820872
 30
0.0
 10
3051.224698145698
 20
-153.291595108382
 30
0.0
 10
3091.943808042851
 20
-163.7231550314753
 30
0.0
 10
3122.291031621451
 20
-194.5060085731483
 30
0.0
 10
3128.78379598804
 20
-220.3496646905836
 30
0.0
 10
3129.21053859493
 20
-234.70853700114
 30
0.0
  0
SPLINE
  5
70249
330
703B2
100
AcDbEntity
  8
Level 26
  6
Continuous
 62
     7
370
     0
100
AcDbSpline
210
0.0
220
0.0
230
1.0
 70
     9
 71
     3
 72
    19
 73
    15
 74
     0
 42
0.000000001
 43
0.0000000001
 40
0.0
 40
0.0
 40
0.0
 40
0.0
 40
0.0833333335273589
 40
0.1666666665890565
 40
0.2500000001164153
 40
0.3333333331781129
 40
0.4166666667054718
 40
0.4999999997671694
 40
0.5833333332945282
 40
0.6666666668218872
 40
0.7499999998835847
 40
0.8333333334109434
 40
0.9166666664726411
 40
1.0
 40
1.0
 40
1.0
 40
1.0
 10
3129.21053859493
 20
-234.70853700114
 30
0.0
 10
3128.707594108099
 20
-249.1135066657415
 30
0.0
 10
3122.179202952363
 20
-275.1728147195761
 30
0.0
 10
3091.833270764491
 20
-305.7233870026659
 30
0.0
 10
3051.227542684411
 20
-316.1197343643407
 30
0.0
 10
3010.517521535084
 20
-305.5937383622655
 30
0.0
 10
2980.496710475176
 20
-275.7139049322902
 30
0.0
 10
2969.73889773675
 20
-234.8415809477936
 30
0.0
 10
2980.345086035954
 20
-193.9524456287226
 30
0.0
 10
3010.41858959136
 20
-163.8543398820872
 30
0.0
 10
3051.224698145698
 20
-153.291595108382
 30
0.0
 10
3091.943808042851
 20
-163.7231550314753
 30
0.0
 10
3122.291031621451
 20
-194.5060085731483
 30
0.0
 10
3128.78379598804
 20
-220.3496646905836
 30
0.0
 10
3129.21053859493
 20
-234.70853700114
 30
0.0
  0
ENDBLK
  5
703B4
330
703B2
100
AcDbEntity
  8
0
 62
    98
370
     0
100
AcDbBlockEnd
  0
BLOCK
  5
703B6
330
703B5
100
AcDbEntity
  8
0
 62
    98
370
     0
100
AcDbBlockBegin
  2
From Bspline Surface_6
 70
     0
 10
0.0
 20
0.0
 30
0.0
  3
From Bspline Surface_6
  1

  0
SPLINE
  5
6FFB3
330
703B5
100
AcDbEntity
  8
Level 26
  6
Continuous
 62
     7
370
     0
100
AcDbSpline
210
0.0
220
0.0
230
1.0
 70
     9
 71
     3
 72
    19
 73
    15
 74
     0
 42
0.000000001
 43
0.0000000001
 40
0.0
 40
0.0
 40
0.0
 40
0.0
 40
0.0833333335273589
 40
0.1666666665890565
 40
0.2500000001164153
 40
0.3333333331781129
 40
0.4166666667054718
 40
0.4999999997671694
 40
0.5833333332945282
 40
0.6666666668218872
 40
0.7499999998835847
 40
0.8333333334109434
 40
0.9166666664726411
 40
1.0
 40
1.0
 40
1.0
 40
1.0
 10
3129.21053859493
 20
-234.70853700114
 30
0.0
 10
3128.707594108099
 20
-249.1135066657415
 30
0.0
 10
3122.179202952363
 20
-275.1728147195761
 30
0.0
 10
3091.833270764491
 20
-305.7233870026659
 30
0.0
 10
3051.227542684411
 20
-316.1197343643407
 30
0.0
 10
3010.517521535084
 20
-305.5937383622655
 30
0.0
 10
2980.496710475176
 20
-275.7139049322902
 30
0.0
 10
2969.73889773675
 20
-234.8415809477936
 30
0.0
 10
2980.345086035954
 20
-193.9524456287226
 30
0.0
 10
3010.41858959136
 20
-163.8543398820872
 30
0.0
 10
3051.224698145698
 20
-153.291595108382
 30
0.0
 10
3091.943808042851
 20
-163.7231550314753
 30
0.0
 10
3122.291031621451
 20
-194.5060085731483
 30
0.0
 10
3128.78379598804
 20
-220.3496646905836
 30
0.0
 10
3129.21053859493
 20
-234.70853700114
 30
0.0
  0
SPLINE
  5
70254
330
703B5
100
AcDbEntity
  8
Level 26
  6
Continuous
 62
     7
370
     0
100
AcDbSpline
210
0.0
220
0.0
230
1.0
 70
     9
 71
     3
 72
    19
 73
    15
 74
     0
 42
0.000000001
 43
0.0000000001
 40
0.0
 40
0.0
 40
0.0
 40
0.0
 40
0.0833333335273589
 40
0.1666666665890565
 40
0.2500000001164153
 40
0.3333333331781129
 40
0.4166666667054718
 40
0.4999999997671694
 40
0.5833333332945282
 40
0.6666666668218872
 40
0.7499999998835847
 40
0.8333333334109434
 40
0.9166666664726411
 40
1.0
 40
1.0
 40
1.0
 40
1.0
 10
3129.21053859493
 20
-234.7085370011399
 30
0.0
 10
3128.707594108099
 20
-249.1135066657415
 30
0.0
 10
3122.179202952363
 20
-275.1728147195761
 30
0.0
 10
3091.833270764491
 20
-305.7233870026658
 30
0.0
 10
3051.227542684411
 20
-316.1197343643407
 30
0.0
 10
3010.517521535084
 20
-305.5937383622655
 30
0.0
 10
2980.496710475176
 20
-275.7139049322902
 30
0.0
 10
2969.73889773675
 20
-234.8415809477935
 30
0.0
 10
2980.345086035954
 20
-193.9524456287226
 30
0.0
 10
3010.41858959136
 20
-163.8543398820872
 30
0.0
 10
3051.224698145698
 20
-153.291595108382
 30
0.0
 10
3091.943808042851
 20
-163.7231550314753
 30
0.0
 10
3122.291031621451
 20
-194.5060085731483
 30
0.0
 10
3128.783795988038
 20
-220.3496646905836
 30
0.0
 10
3129.21053859493
 20
-234.7085370011399
 30
0.0
  0
SPLINE
  5
70255
330
703B5
100
AcDbEntity
  8
Level 26
  6
Continuous
 62
     7
370
     0
100
AcDbSpline
210
0.0
220
0.0
230
1.0
 70
     9
 71
     3
 72
    19
 73
    15
 74
     0
 42
0.000000001
 43
0.0000000001
 40
0.0
 40
0.0
 40
0.0
 40
0.0
 40
0.0833333335273589
 40
0.1666666665890565
 40
0.2500000001164153
 40
0.3333333331781129
 40
0.4166666667054718
 40
0.4999999997671694
 40
0.5833333332945282
 40
0.6666666668218872
 40
0.7499999998835847
 40
0.8333333334109434
 40
0.9166666664726411
 40
1.0
 40
1.0
 40
1.0
 40
1.0
 10
3129.21053859493
 20
-234.70853700114
 30
0.0
 10
3128.707594108099
 20
-249.1135066657415
 30
0.0
 10
3122.179202952363
 20
-275.1728147195761
 30
0.0
 10
3091.833270764491
 20
-305.7233870026659
 30
0.0
 10
3051.227542684411
 20
-316.1197343643407
 30
0.0
 10
3010.517521535084
 20
-305.5937383622655
 30
0.0
 10
2980.496710475176
 20
-275.7139049322902
 30
0.0
 10
2969.73889773675
 20
-234.8415809477935
 30
0.0
 10
2980.345086035954
 20
-193.9524456287226
 30
0.0
 10
3010.41858959136
 20
-163.8543398820872
 30
0.0
 10
3051.224698145698
 20
-153.291595108382
 30
0.0
 10
3091.943808042851
 20
-163.7231550314753
 30
0.0
 10
3122.291031621451
 20
-194.5060085731483
 30
0.0
 10
3128.78379598804
 20
-220.3496646905836
 30
0.0
 10
3129.21053859493
 20
-234.70853700114
 30
0.0
  0
SPLINE
  5
70256
330
703B5
100
AcDbEntity
  8
Level 26
  6
Continuous
 62
     7
370
     0
100
AcDbSpline
210
0.0
220
0.0
230
1.0
 70
     9
 71
     3
 72
    19
 73
    15
 74
     0
 42
0.000000001
 43
0.0000000001
 40
0.0
 40
0.0
 40
0.0
 40
0.0
 40
0.0833333335273589
 40
0.1666666665890565
 40
0.2500000001164153
 40
0.3333333331781129
 40
0.4166666667054718
 40
0.4999999997671694
 40
0.5833333332945282
 40
0.6666666668218872
 40
0.7499999998835847
 40
0.8333333334109434
 40
0.9166666664726411
 40
1.0
 40
1.0
 40
1.0
 40
1.0
 10
3129.21053859493
 20
-234.70853700114
 30
0.0
 10
3128.707594108099
 20
-249.1135066657416
 30
0.0
 10
3122.179202952364
 20
-275.1728147195761
 30
0.0
 10
3091.833270764491
 20
-305.7233870026659
 30
0.0
 10
3051.227542684411
 20
-316.1197343643408
 30
0.0
 10
3010.517521535084
 20
-305.5937383622655
 30
0.0
 10
2980.496710475176
 20
-275.7139049322902
 30
0.0
 10
2969.73889773675
 20
-234.8415809477936
 30
0.0
 10
2980.345086035954
 20
-193.9524456287226
 30
0.0
 10
3010.41858959136
 20
-163.8543398820872
 30
0.0
 10
3051.224698145698
 20
-153.291595108382
 30
0.0
 10
3091.943808042851
 20
-163.7231550314753
 30
0.0
 10
3122.291031621452
 20
-194.5060085731484
 30
0.0
 10
3128.78379598804
 20
-220.3496646905836
 30
0.0
 10
3129.21053859493
 20
-234.70853700114
 30
0.0
  0
SPLINE
  5
70257
330
703B5
100
AcDbEntity
  8
Level 26
  6
Continuous
 62
     7
370
     0
100
AcDbSpline
210
0.0
220
0.0
230
1.0
 70
     9
 71
     3
 72
    19
 73
    15
 74
     0
 42
0.000000001
 43
0.0000000001
 40
0.0
 40
0.0
 40
0.0
 40
0.0
 40
0.0833333335273589
 40
0.1666666665890565
 40
0.2500000001164153
 40
0.3333333331781129
 40
0.4166666667054718
 40
0.4999999997671694
 40
0.5833333332945282
 40
0.6666666668218872
 40
0.7499999998835847
 40
0.8333333334109434
 40
0.9166666664726411
 40
1.0
 40
1.0
 40
1.0
 40
1.0
 10
3129.21053859493
 20
-234.70853700114
 30
0.0
 10
3128.707594108099
 20
-249.1135066657415
 30
0.0
 10
3122.179202952363
 20
-275.1728147195761
 30
0.0
 10
3091.833270764491
 20
-305.7233870026659
 30
0.0
 10
3051.227542684411
 20
-316.1197343643407
 30
0.0
 10
3010.517521535084
 20
-305.5937383622655
 30
0.0
 10
2980.496710475176
 20
-275.7139049322902
 30
0.0
 10
2969.73889773675
 20
-234.8415809477936
 30
0.0
 10
2980.345086035954
 20
-193.9524456287226
 30
0.0
 10
3010.41858959136
 20
-163.8543398820872
 30
0.0
 10
3051.224698145698
 20
-153.291595108382
 30
0.0
 10
3091.943808042851
 20
-163.7231550314753
 30
0.0
 10
3122.291031621451
 20
-194.5060085731483
 30
0.0
 10
3128.78379598804
 20
-220.3496646905836
 30
0.0
 10
3129.21053859493
 20
-234.70853700114
 30
0.0
  0
SPLINE
  5
70258
330
703B5
100
AcDbEntity
  8
Level 26
  6
Continuous
 62
     7
370
     0
100
AcDbSpline
210
0.0
220
0.0
230
1.0
 70
     9
 71
     3
 72
    19
 73
    15
 74
     0
 42
0.000000001
 43
0.0000000001
 40
0.0
 40
0.0
 40
0.0
 40
0.0
 40
0.0833333335273589
 40
0.1666666665890565
 40
0.2500000001164153
 40
0.3333333331781129
 40
0.4166666667054718
 40
0.4999999997671694
 40
0.5833333332945282
 40
0.6666666668218872
 40
0.7499999998835847
 40
0.8333333334109434
 40
0.9166666664726411
 40
1.0
 40
1.0
 40
1.0
 40
1.0
 10
3129.21053859493
 20
-234.70853700114
 30
0.0
 10
3128.707594108099
 20
-249.1135066657415
 30
0.0
 10
3122.179202952363
 20
-275.1728147195761
 30
0.0
 10
3091.833270764491
 20
-305.7233870026659
 30
0.0
 10
3051.227542684411
 20
-316.1197343643407
 30
0.0
 10
3010.517521535084
 20
-305.5937383622655
 30
0.0
 10
2980.496710475176
 20
-275.7139049322902
 30
0.0
 10
2969.73889773675
 20
-234.8415809477936
 30
0.0
 10
2980.345086035954
 20
-193.9524456287226
 30
0.0
 10
3010.41858959136
 20
-163.8543398820872
 30
0.0
 10
3051.224698145698
 20
-153.291595108382
 30
0.0
 10
3091.943808042851
 20
-163.7231550314753
 30
0.0
 10
3122.291031621451
 20
-194.5060085731483
 30
0.0
 10
3128.78379598804
 20
-220.3496646905836
 30
0.0
 10
3129.21053859493
 20
-234.70853700114
 30
0.0
  0
SPLINE
  5
70259
330
703B5
100
AcDbEntity
  8
Level 26
  6
Continuous
 62
     7
370
     0
100
AcDbSpline
210
0.0
220
0.0
230
1.0
 70
     9
 71
     3
 72
    19
 73
    15
 74
     0
 42
0.000000001
 43
0.0000000001
 40
0.0
 40
0.0
 40
0.0
 40
0.0
 40
0.0833333335273589
 40
0.1666666665890565
 40
0.2500000001164153
 40
0.3333333331781129
 40
0.4166666667054718
 40
0.4999999997671694
 40
0.5833333332945282
 40
0.6666666668218872
 40
0.7499999998835847
 40
0.8333333334109434
 40
0.9166666664726411
 40
1.0
 40
1.0
 40
1.0
 40
1.0
 10
3129.21053859493
 20
-234.70853700114
 30
0.0
 10
3128.707594108099
 20
-249.1135066657416
 30
0.0
 10
3122.179202952363
 20
-275.1728147195761
 30
0.0
 10
3091.833270764491
 20
-305.7233870026659
 30
0.0
 10
3051.227542684411
 20
-316.1197343643407
 30
0.0
 10
3010.517521535084
 20
-305.5937383622655
 30
0.0
 10
2980.496710475176
 20
-275.7139049322902
 30
0.0
 10
2969.73889773675
 20
-234.8415809477936
 30
0.0
 10
2980.345086035954
 20
-193.9524456287226
 30
0.0
 10
3010.41858959136
 20
-163.8543398820872
 30
0.0
 10
3051.224698145698
 20
-153.291595108382
 30
0.0
 10
3091.943808042851
 20
-163.7231550314753
 30
0.0
 10
3122.291031621451
 20
-194.5060085731483
 30
0.0
 10
3128.78379598804
 20
-220.3496646905836
 30
0.0
 10
3129.21053859493
 20
-234.70853700114
 30
0.0
  0
SPLINE
  5
7025A
330
703B5
100
AcDbEntity
  8
Level 26
  6
Continuous
 62
     7
370
     0
100
AcDbSpline
210
0.0
220
0.0
230
1.0
 70
     9
 71
     3
 72
    19
 73
    15
 74
     0
 42
0.000000001
 43
0.0000000001
 40
0.0
 40
0.0
 40
0.0
 40
0.0
 40
0.0833333335273589
 40
0.1666666665890565
 40
0.2500000001164153
 40
0.3333333331781129
 40
0.4166666667054718
 40
0.4999999997671694
 40
0.5833333332945282
 40
0.6666666668218872
 40
0.7499999998835847
 40
0.8333333334109434
 40
0.9166666664726411
 40
1.0
 40
1.0
 40
1.0
 40
1.0
 10
3129.21053859493
 20
-234.70853700114
 30
0.0
 10
3128.707594108099
 20
-249.1135066657415
 30
0.0
 10
3122.179202952363
 20
-275.1728147195761
 30
0.0
 10
3091.833270764492
 20
-305.7233870026659
 30
0.0
 10
3051.227542684411
 20
-316.1197343643407
 30
0.0
 10
3010.517521535084
 20
-305.5937383622655
 30
0.0
 10
2980.496710475176
 20
-275.7139049322902
 30
0.0
 10
2969.738897736751
 20
-234.8415809477936
 30
0.0
 10
2980.345086035954
 20
-193.9524456287226
 30
0.0
 10
3010.41858959136
 20
-163.8543398820872
 30
0.0
 10
3051.224698145698
 20
-153.291595108382
 30
0.0
 10
3091.943808042851
 20
-163.7231550314753
 30
0.0
 10
3122.291031621451
 20
-194.5060085731483
 30
0.0
 10
3128.78379598804
 20
-220.3496646905836
 30
0.0
 10
3129.21053859493
 20
-234.70853700114
 30
0.0
  0
SPLINE
  5
7025B
330
703B5
100
AcDbEntity
  8
Level 26
  6
Continuous
 62
     7
370
     0
100
AcDbSpline
210
0.0
220
0.0
230
1.0
 70
     9
 71
     3
 72
    19
 73
    15
 74
     0
 42
0.000000001
 43
0.0000000001
 40
0.0
 40
0.0
 40
0.0
 40
0.0
 40
0.0833333335273589
 40
0.1666666665890565
 40
0.2500000001164153
 40
0.3333333331781129
 40
0.4166666667054718
 40
0.4999999997671694
 40
0.5833333332945282
 40
0.6666666668218872
 40
0.7499999998835847
 40
0.8333333334109434
 40
0.9166666664726411
 40
1.0
 40
1.0
 40
1.0
 40
1.0
 10
3129.21053859493
 20
-234.70853700114
 30
0.0
 10
3128.707594108099
 20
-249.1135066657415
 30
0.0
 10
3122.179202952363
 20
-275.1728147195761
 30
0.0
 10
3091.833270764491
 20
-305.7233870026659
 30
0.0
 10
3051.227542684411
 20
-316.1197343643407
 30
0.0
 10
3010.517521535084
 20
-305.5937383622655
 30
0.0
 10
2980.496710475176
 20
-275.7139049322902
 30
0.0
 10
2969.73889773675
 20
-234.8415809477936
 30
0.0
 10
2980.345086035954
 20
-193.9524456287226
 30
0.0
 10
3010.41858959136
 20
-163.8543398820872
 30
0.0
 10
3051.224698145698
 20
-153.291595108382
 30
0.0
 10
3091.943808042851
 20
-163.7231550314753
 30
0.0
 10
3122.291031621451
 20
-194.5060085731483
 30
0.0
 10
3128.78379598804
 20
-220.3496646905836
 30
0.0
 10
3129.21053859493
 20
-234.70853700114
 30
0.0
  0
SPLINE
  5
7025C
330
703B5
100
AcDbEntity
  8
Level 26
  6
Continuous
 62
     7
370
     0
100
AcDbSpline
210
0.0
220
0.0
230
1.0
 70
     9
 71
     3
 72
    19
 73
    15
 74
     0
 42
0.000000001
 43
0.0000000001
 40
0.0
 40
0.0
 40
0.0
 40
0.0
 40
0.0833333335273589
 40
0.1666666665890565
 40
0.2500000001164153
 40
0.3333333331781129
 40
0.4166666667054718
 40
0.4999999997671694
 40
0.5833333332945282
 40
0.6666666668218872
 40
0.7499999998835847
 40
0.8333333334109434
 40
0.9166666664726411
 40
1.0
 40
1.0
 40
1.0
 40
1.0
 10
3129.21053859493
 20
-234.70853700114
 30
0.0
 10
3128.707594108099
 20
-249.1135066657415
 30
0.0
 10
3122.179202952363
 20
-275.1728147195761
 30
0.0
 10
3091.833270764491
 20
-305.7233870026659
 30
0.0
 10
3051.227542684411
 20
-316.1197343643407
 30
0.0
 10
3010.517521535084
 20
-305.5937383622655
 30
0.0
 10
2980.496710475176
 20
-275.7139049322902
 30
0.0
 10
2969.73889773675
 20
-234.8415809477936
 30
0.0
 10
2980.345086035954
 20
-193.9524456287226
 30
0.0
 10
3010.41858959136
 20
-163.8543398820872
 30
0.0
 10
3051.224698145698
 20
-153.291595108382
 30
0.0
 10
3091.943808042851
 20
-163.7231550314753
 30
0.0
 10
3122.291031621451
 20
-194.5060085731483
 30
0.0
 10
3128.78379598804
 20
-220.3496646905836
 30
0.0
 10
3129.21053859493
 20
-234.70853700114
 30
0.0
  0
ENDBLK
  5
703B7
330
703B5
100
AcDbEntity
  8
0
 62
    98
370
     0
100
AcDbBlockEnd
  0
BLOCK
  5
703B9
330
703B8
100
AcDbEntity
  8
0
 62
    98
370
     0
100
AcDbBlockBegin
  2
From Bspline Surface_7
 70
     0
 10
0.0
 20
0.0
 30
0.0
  3
From Bspline Surface_7
  1

  0
SPLINE
  5
6FFC4
330
703B8
100
AcDbEntity
  8
Level 26
  6
Continuous
 62
     7
370
     0
100
AcDbSpline
210
0.0
220
0.0
230
1.0
 70
     9
 71
     3
 72
    19
 73
    15
 74
     0
 42
0.000000001
 43
0.0000000001
 40
0.0
 40
0.0
 40
0.0
 40
0.0
 40
0.0833333335273589
 40
0.1666666665890565
 40
0.2500000001164153
 40
0.3333333331781129
 40
0.4166666667054718
 40
0.4999999997671694
 40
0.5833333332945282
 40
0.6666666668218872
 40
0.7499999998835847
 40
0.8333333334109434
 40
0.9166666664726411
 40
1.0
 40
1.0
 40
1.0
 40
1.0
 10
3129.21053859493
 20
-234.70853700114
 30
0.0
 10
3128.707594108099
 20
-249.1135066657415
 30
0.0
 10
3122.179202952363
 20
-275.1728147195761
 30
0.0
 10
3091.833270764491
 20
-305.7233870026659
 30
0.0
 10
3051.227542684411
 20
-316.1197343643407
 30
0.0
 10
3010.517521535084
 20
-305.5937383622655
 30
0.0
 10
2980.496710475176
 20
-275.7139049322902
 30
0.0
 10
2969.73889773675
 20
-234.8415809477936
 30
0.0
 10
2980.345086035954
 20
-193.9524456287226
 30
0.0
 10
3010.41858959136
 20
-163.8543398820872
 30
0.0
 10
3051.224698145698
 20
-153.291595108382
 30
0.0
 10
3091.943808042851
 20
-163.7231550314753
 30
0.0
 10
3122.291031621451
 20
-194.5060085731483
 30
0.0
 10
3128.78379598804
 20
-220.3496646905836
 30
0.0
 10
3129.21053859493
 20
-234.70853700114
 30
0.0
  0
SPLINE
  5
70267
330
703B8
100
AcDbEntity
  8
Level 26
  6
Continuous
 62
     7
370
     0
100
AcDbSpline
210
0.0
220
0.0
230
1.0
 70
     9
 71
     3
 72
    19
 73
    15
 74
     0
 42
0.000000001
 43
0.0000000001
 40
0.0
 40
0.0
 40
0.0
 40
0.0
 40
0.0833333335273589
 40
0.1666666665890565
 40
0.2500000001164153
 40
0.3333333331781129
 40
0.4166666667054718
 40
0.4999999997671694
 40
0.5833333332945282
 40
0.6666666668218872
 40
0.7499999998835847
 40
0.8333333334109434
 40
0.9166666664726411
 40
1.0
 40
1.0
 40
1.0
 40
1.0
 10
3129.21053859493
 20
-234.7085370011399
 30
0.0
 10
3128.707594108099
 20
-249.1135066657415
 30
0.0
 10
3122.179202952363
 20
-275.1728147195761
 30
0.0
 10
3091.833270764491
 20
-305.7233870026658
 30
0.0
 10
3051.227542684411
 20
-316.1197343643407
 30
0.0
 10
3010.517521535084
 20
-305.5937383622655
 30
0.0
 10
2980.496710475176
 20
-275.7139049322902
 30
0.0
 10
2969.73889773675
 20
-234.8415809477935
 30
0.0
 10
2980.345086035954
 20
-193.9524456287226
 30
0.0
 10
3010.41858959136
 20
-163.8543398820872
 30
0.0
 10
3051.224698145698
 20
-153.291595108382
 30
0.0
 10
3091.943808042851
 20
-163.7231550314753
 30
0.0
 10
3122.291031621451
 20
-194.5060085731483
 30
0.0
 10
3128.783795988038
 20
-220.3496646905836
 30
0.0
 10
3129.21053859493
 20
-234.7085370011399
 30
0.0
  0
SPLINE
  5
70268
330
703B8
100
AcDbEntity
  8
Level 26
  6
Continuous
 62
     7
370
     0
100
AcDbSpline
210
0.0
220
0.0
230
1.0
 70
     9
 71
     3
 72
    19
 73
    15
 74
     0
 42
0.000000001
 43
0.0000000001
 40
0.0
 40
0.0
 40
0.0
 40
0.0
 40
0.0833333335273589
 40
0.1666666665890565
 40
0.2500000001164153
 40
0.3333333331781129
 40
0.4166666667054718
 40
0.4999999997671694
 40
0.5833333332945282
 40
0.6666666668218872
 40
0.7499999998835847
 40
0.8333333334109434
 40
0.9166666664726411
 40
1.0
 40
1.0
 40
1.0
 40
1.0
 10
3129.21053859493
 20
-234.70853700114
 30
0.0
 10
3128.707594108099
 20
-249.1135066657415
 30
0.0
 10
3122.179202952363
 20
-275.1728147195761
 30
0.0
 10
3091.833270764491
 20
-305.7233870026659
 30
0.0
 10
3051.227542684411
 20
-316.1197343643407
 30
0.0
 10
3010.517521535084
 20
-305.5937383622655
 30
0.0
 10
2980.496710475176
 20
-275.7139049322902
 30
0.0
 10
2969.73889773675
 20
-234.8415809477935
 30
0.0
 10
2980.345086035954
 20
-193.9524456287226
 30
0.0
 10
3010.41858959136
 20
-163.8543398820872
 30
0.0
 10
3051.224698145698
 20
-153.291595108382
 30
0.0
 10
3091.943808042851
 20
-163.7231550314753
 30
0.0
 10
3122.291031621451
 20
-194.5060085731483
 30
0.0
 10
3128.78379598804
 20
-220.3496646905836
 30
0.0
 10
3129.21053859493
 20
-234.70853700114
 30
0.0
  0
SPLINE
  5
70269
330
703B8
100
AcDbEntity
  8
Level 26
  6
Continuous
 62
     7
370
     0
100
AcDbSpline
210
0.0
220
0.0
230
1.0
 70
     9
 71
     3
 72
    19
 73
    15
 74
     0
 42
0.000000001
 43
0.0000000001
 40
0.0
 40
0.0
 40
0.0
 40
0.0
 40
0.0833333335273589
 40
0.1666666665890565
 40
0.2500000001164153
 40
0.3333333331781129
 40
0.4166666667054718
 40
0.4999999997671694
 40
0.5833333332945282
 40
0.6666666668218872
 40
0.7499999998835847
 40
0.8333333334109434
 40
0.9166666664726411
 40
1.0
 40
1.0
 40
1.0
 40
1.0
 10
3129.21053859493
 20
-234.70853700114
 30
0.0
 10
3128.707594108099
 20
-249.1135066657416
 30
0.0
 10
3122.179202952364
 20
-275.1728147195761
 30
0.0
 10
3091.833270764491
 20
-305.7233870026659
 30
0.0
 10
3051.227542684411
 20
-316.1197343643408
 30
0.0
 10
3010.517521535084
 20
-305.5937383622655
 30
0.0
 10
2980.496710475176
 20
-275.7139049322902
 30
0.0
 10
2969.73889773675
 20
-234.8415809477936
 30
0.0
 10
2980.345086035954
 20
-193.9524456287226
 30
0.0
 10
3010.41858959136
 20
-163.8543398820872
 30
0.0
 10
3051.224698145698
 20
-153.291595108382
 30
0.0
 10
3091.943808042851
 20
-163.7231550314753
 30
0.0
 10
3122.291031621452
 20
-194.5060085731484
 30
0.0
 10
3128.78379598804
 20
-220.3496646905836
 30
0.0
 10
3129.21053859493
 20
-234.70853700114
 30
0.0
  0
SPLINE
  5
7026A
330
703B8
100
AcDbEntity
  8
Level 26
  6
Continuous
 62
     7
370
     0
100
AcDbSpline
210
0.0
220
0.0
230
1.0
 70
     9
 71
     3
 72
    19
 73
    15
 74
     0
 42
0.000000001
 43
0.0000000001
 40
0.0
 40
0.0
 40
0.0
 40
0.0
 40
0.0833333335273589
 40
0.1666666665890565
 40
0.2500000001164153
 40
0.3333333331781129
 40
0.4166666667054718
 40
0.4999999997671694
 40
0.5833333332945282
 40
0.6666666668218872
 40
0.7499999998835847
 40
0.8333333334109434
 40
0.9166666664726411
 40
1.0
 40
1.0
 40
1.0
 40
1.0
 10
3129.21053859493
 20
-234.70853700114
 30
0.0
 10
3128.707594108099
 20
-249.1135066657415
 30
0.0
 10
3122.179202952363
 20
-275.1728147195761
 30
0.0
 10
3091.833270764491
 20
-305.7233870026659
 30
0.0
 10
3051.227542684411
 20
-316.1197343643407
 30
0.0
 10
3010.517521535084
 20
-305.5937383622655
 30
0.0
 10
2980.496710475176
 20
-275.7139049322902
 30
0.0
 10
2969.73889773675
 20
-234.8415809477936
 30
0.0
 10
2980.345086035954
 20
-193.9524456287226
 30
0.0
 10
3010.41858959136
 20
-163.8543398820872
 30
0.0
 10
3051.224698145698
 20
-153.291595108382
 30
0.0
 10
3091.943808042851
 20
-163.7231550314753
 30
0.0
 10
3122.291031621451
 20
-194.5060085731483
 30
0.0
 10
3128.78379598804
 20
-220.3496646905836
 30
0.0
 10
3129.21053859493
 20
-234.70853700114
 30
0.0
  0
SPLINE
  5
7026B
330
703B8
100
AcDbEntity
  8
Level 26
  6
Continuous
 62
     7
370
     0
100
AcDbSpline
210
0.0
220
0.0
230
1.0
 70
     9
 71
     3
 72
    19
 73
    15
 74
     0
 42
0.000000001
 43
0.0000000001
 40
0.0
 40
0.0
 40
0.0
 40
0.0
 40
0.0833333335273589
 40
0.1666666665890565
 40
0.2500000001164153
 40
0.3333333331781129
 40
0.4166666667054718
 40
0.4999999997671694
 40
0.5833333332945282
 40
0.6666666668218872
 40
0.7499999998835847
 40
0.8333333334109434
 40
0.9166666664726411
 40
1.0
 40
1.0
 40
1.0
 40
1.0
 10
3129.21053859493
 20
-234.70853700114
 30
0.0
 10
3128.707594108099
 20
-249.1135066657415
 30
0.0
 10
3122.179202952363
 20
-275.1728147195761
 30
0.0
 10
3091.833270764491
 20
-305.7233870026659
 30
0.0
 10
3051.227542684411
 20
-316.1197343643407
 30
0.0
 10
3010.517521535084
 20
-305.5937383622655
 30
0.0
 10
2980.496710475176
 20
-275.7139049322902
 30
0.0
 10
2969.73889773675
 20
-234.8415809477936
 30
0.0
 10
2980.345086035954
 20
-193.9524456287226
 30
0.0
 10
3010.41858959136
 20
-163.8543398820872
 30
0.0
 10
3051.224698145698
 20
-153.291595108382
 30
0.0
 10
3091.943808042851
 20
-163.7231550314753
 30
0.0
 10
3122.291031621451
 20
-194.5060085731483
 30
0.0
 10
3128.78379598804
 20
-220.3496646905836
 30
0.0
 10
3129.21053859493
 20
-234.70853700114
 30
0.0
  0
SPLINE
  5
7026C
330
703B8
100
AcDbEntity
  8
Level 26
  6
Continuous
 62
     7
370
     0
100
AcDbSpline
210
0.0
220
0.0
230
1.0
 70
     9
 71
     3
 72
    19
 73
    15
 74
     0
 42
0.000000001
 43
0.0000000001
 40
0.0
 40
0.0
 40
0.0
 40
0.0
 40
0.0833333335273589
 40
0.1666666665890565
 40
0.2500000001164153
 40
0.3333333331781129
 40
0.4166666667054718
 40
0.4999999997671694
 40
0.5833333332945282
 40
0.6666666668218872
 40
0.7499999998835847
 40
0.8333333334109434
 40
0.9166666664726411
 40
1.0
 40
1.0
 40
1.0
 40
1.0
 10
3129.21053859493
 20
-234.70853700114
 30
0.0
 10
3128.707594108099
 20
-249.1135066657416
 30
0.0
 10
3122.179202952363
 20
-275.1728147195761
 30
0.0
 10
3091.833270764491
 20
-305.7233870026659
 30
0.0
 10
3051.227542684411
 20
-316.1197343643407
 30
0.0
 10
3010.517521535084
 20
-305.5937383622655
 30
0.0
 10
2980.496710475176
 20
-275.7139049322902
 30
0.0
 10
2969.73889773675
 20
-234.8415809477936
 30
0.0
 10
2980.345086035954
 20
-193.9524456287226
 30
0.0
 10
3010.41858959136
 20
-163.8543398820872
 30
0.0
 10
3051.224698145698
 20
-153.291595108382
 30
0.0
 10
3091.943808042851
 20
-163.7231550314753
 30
0.0
 10
3122.291031621451
 20
-194.5060085731483
 30
0.0
 10
3128.78379598804
 20
-220.3496646905836
 30
0.0
 10
3129.21053859493
 20
-234.70853700114
 30
0.0
  0
SPLINE
  5
7026D
330
703B8
100
AcDbEntity
  8
Level 26
  6
Continuous
 62
     7
370
     0
100
AcDbSpline
210
0.0
220
0.0
230
1.0
 70
     9
 71
     3
 72
    19
 73
    15
 74
     0
 42
0.000000001
 43
0.0000000001
 40
0.0
 40
0.0
 40
0.0
 40
0.0
 40
0.0833333335273589
 40
0.1666666665890565
 40
0.2500000001164153
 40
0.3333333331781129
 40
0.4166666667054718
 40
0.4999999997671694
 40
0.5833333332945282
 40
0.6666666668218872
 40
0.7499999998835847
 40
0.8333333334109434
 40
0.9166666664726411
 40
1.0
 40
1.0
 40
1.0
 40
1.0
 10
3129.21053859493
 20
-234.70853700114
 30
0.0
 10
3128.707594108099
 20
-249.1135066657415
 30
0.0
 10
3122.179202952363
 20
-275.1728147195761
 30
0.0
 10
3091.833270764492
 20
-305.7233870026659
 30
0.0
 10
3051.227542684411
 20
-316.1197343643407
 30
0.0
 10
3010.517521535084
 20
-305.5937383622655
 30
0.0
 10
2980.496710475176
 20
-275.7139049322902
 30
0.0
 10
2969.738897736751
 20
-234.8415809477936
 30
0.0
 10
2980.345086035954
 20
-193.9524456287226
 30
0.0
 10
3010.41858959136
 20
-163.8543398820872
 30
0.0
 10
3051.224698145698
 20
-153.291595108382
 30
0.0
 10
3091.943808042851
 20
-163.7231550314753
 30
0.0
 10
3122.291031621451
 20
-194.5060085731483
 30
0.0
 10
3128.78379598804
 20
-220.3496646905836
 30
0.0
 10
3129.21053859493
 20
-234.70853700114
 30
0.0
  0
SPLINE
  5
7026E
330
703B8
100
AcDbEntity
  8
Level 26
  6
Continuous
 62
     7
370
     0
100
AcDbSpline
210
0.0
220
0.0
230
1.0
 70
     9
 71
     3
 72
    19
 73
    15
 74
     0
 42
0.000000001
 43
0.0000000001
 40
0.0
 40
0.0
 40
0.0
 40
0.0
 40
0.0833333335273589
 40
0.1666666665890565
 40
0.2500000001164153
 40
0.3333333331781129
 40
0.4166666667054718
 40
0.4999999997671694
 40
0.5833333332945282
 40
0.6666666668218872
 40
0.7499999998835847
 40
0.8333333334109434
 40
0.9166666664726411
 40
1.0
 40
1.0
 40
1.0
 40
1.0
 10
3129.21053859493
 20
-234.70853700114
 30
0.0
 10
3128.707594108099
 20
-249.1135066657415
 30
0.0
 10
3122.179202952363
 20
-275.1728147195761
 30
0.0
 10
3091.833270764491
 20
-305.7233870026659
 30
0.0
 10
3051.227542684411
 20
-316.1197343643407
 30
0.0
 10
3010.517521535084
 20
-305.5937383622655
 30
0.0
 10
2980.496710475176
 20
-275.7139049322902
 30
0.0
 10
2969.73889773675
 20
-234.8415809477936
 30
0.0
 10
2980.345086035954
 20
-193.9524456287226
 30
0.0
 10
3010.41858959136
 20
-163.8543398820872
 30
0.0
 10
3051.224698145698
 20
-153.291595108382
 30
0.0
 10
3091.943808042851
 20
-163.7231550314753
 30
0.0
 10
3122.291031621451
 20
-194.5060085731483
 30
0.0
 10
3128.78379598804
 20
-220.3496646905836
 30
0.0
 10
3129.21053859493
 20
-234.70853700114
 30
0.0
  0
SPLINE
  5
7026F
330
703B8
100
AcDbEntity
  8
Level 26
  6
Continuous
 62
     7
370
     0
100
AcDbSpline
210
0.0
220
0.0
230
1.0
 70
     9
 71
     3
 72
    19
 73
    15
 74
     0
 42
0.000000001
 43
0.0000000001
 40
0.0
 40
0.0
 40
0.0
 40
0.0
 40
0.0833333335273589
 40
0.1666666665890565
 40
0.2500000001164153
 40
0.3333333331781129
 40
0.4166666667054718
 40
0.4999999997671694
 40
0.5833333332945282
 40
0.6666666668218872
 40
0.7499999998835847
 40
0.8333333334109434
 40
0.9166666664726411
 40
1.0
 40
1.0
 40
1.0
 40
1.0
 10
3129.21053859493
 20
-234.70853700114
 30
0.0
 10
3128.707594108099
 20
-249.1135066657415
 30
0.0
 10
3122.179202952363
 20
-275.1728147195761
 30
0.0
 10
3091.833270764491
 20
-305.7233870026659
 30
0.0
 10
3051.227542684411
 20
-316.1197343643407
 30
0.0
 10
3010.517521535084
 20
-305.5937383622655
 30
0.0
 10
2980.496710475176
 20
-275.7139049322902
 30
0.0
 10
2969.73889773675
 20
-234.8415809477936
 30
0.0
 10
2980.345086035954
 20
-193.9524456287226
 30
0.0
 10
3010.41858959136
 20
-163.8543398820872
 30
0.0
 10
3051.224698145698
 20
-153.291595108382
 30
0.0
 10
3091.943808042851
 20
-163.7231550314753
 30
0.0
 10
3122.291031621451
 20
-194.5060085731483
 30
0.0
 10
3128.78379598804
 20
-220.3496646905836
 30
0.0
 10
3129.21053859493
 20
-234.70853700114
 30
0.0
  0
ENDBLK
  5
703BA
330
703B8
100
AcDbEntity
  8
0
 62
    98
370
     0
100
AcDbBlockEnd
  0
BLOCK
  5
703BC
330
703BB
100
AcDbEntity
  8
0
 62
    98
370
     0
100
AcDbBlockBegin
  2
From Solid_40
 70
     0
 10
0.0
 20
0.0
 30
0.0
  3
From Solid_40
  1

  0
LINE
  5
6FFD6
330
703BB
100
AcDbEntity
  8
Level 26
  6
Continuous
 62
    40
370
     0
100
AcDbLine
 10
2961.186003
 20
-863.158537
 30
0.0
 11
2961.186003
 21
-890.058537
 31
0.0
  0
LINE
  5
6FFD7
330
703BB
100
AcDbEntity
  8
Level 26
  6
Continuous
 62
    40
370
     0
100
AcDbLine
 10
2961.186003
 20
-863.158537
 30
0.0
 11
2961.186003
 21
-890.058537
 31
0.0
  0
LINE
  5
6FFD8
330
703BB
100
AcDbEntity
  8
Level 26
  6
Continuous
 62
    40
370
     0
100
AcDbLine
 10
2961.186003
 20
-863.158537
 30
0.0
 11
2892.136198
 21
-863.158537
 31
0.0
  0
LINE
  5
6FFD9
330
703BB
100
AcDbEntity
  8
Level 26
  6
Continuous
 62
    40
370
     0
100
AcDbLine
 10
2961.186003
 20
-876.608537
 30
0.0
 11
2878.686198
 21
-876.608537
 31
0.0
  0
LINE
  5
6FFDA
330
703BB
100
AcDbEntity
  8
Level 26
  6
Continuous
 62
    40
370
     0
100
AcDbLine
 10
2961.186003
 20
-890.058537
 30
0.0
 11
2892.136198
 21
-890.058537
 31
0.0
  0
LINE
  5
6FFDB
330
703BB
100
AcDbEntity
  8
Level 26
  6
Continuous
 62
    40
370
     0
100
AcDbLine
 10
2961.186003
 20
-876.608537
 30
0.0
 11
2905.586198
 21
-876.608537
 31
0.0
  0
ENDBLK
  5
703BD
330
703BB
100
AcDbEntity
  8
0
 62
    98
370
     0
100
AcDbBlockEnd
  0
BLOCK
  5
703BF
330
703BE
100
AcDbEntity
  8
0
 62
    98
370
     0
100
AcDbBlockBegin
  2
From Solid_41
 70
     0
 10
0.0
 20
0.0
 30
0.0
  3
From Solid_41
  1

  0
LINE
  5
6FFDD
330
703BE
100
AcDbEntity
  8
Level 26
  6
Continuous
 62
    40
370
     0
100
AcDbLine
 10
2911.209562
 20
-481.258537
 30
0.0
 11
2911.209562
 21
-508.158537
 31
0.0
  0
LINE
  5
6FFDE
330
703BE
100
AcDbEntity
  8
Level 26
  6
Continuous
 62
    40
370
     0
100
AcDbLine
 10
2911.209562
 20
-481.258537
 30
0.0
 11
2911.209562
 21
-508.158537
 31
0.0
  0
LINE
  5
6FFDF
330
703BE
100
AcDbEntity
  8
Level 26
  6
Continuous
 62
    40
370
     0
100
AcDbLine
 10
2911.209562
 20
-481.258537
 30
0.0
 11
2842.159757
 21
-481.258537
 31
0.0
  0
LINE
  5
6FFE0
330
703BE
100
AcDbEntity
  8
Level 26
  6
Continuous
 62
    40
370
     0
100
AcDbLine
 10
2911.209562
 20
-494.708537
 30
0.0
 11
2828.709757
 21
-494.708537
 31
0.0
  0
LINE
  5
6FFE1
330
703BE
100
AcDbEntity
  8
Level 26
  6
Continuous
 62
    40
370
     0
100
AcDbLine
 10
2911.209562
 20
-508.158537
 30
0.0
 11
2842.159757
 21
-508.158537
 31
0.0
  0
LINE
  5
6FFE2
330
703BE
100
AcDbEntity
  8
Level 26
  6
Continuous
 62
    40
370
     0
100
AcDbLine
 10
2911.209562
 20
-494.708537
 30
0.0
 11
2855.609757
 21
-494.708537
 31
0.0
  0
ENDBLK
  5
703C0
330
703BE
100
AcDbEntity
  8
0
 62
    98
370
     0
100
AcDbBlockEnd
  0
BLOCK
  5
703C2
330
703C1
100
AcDbEntity
  8
0
 62
    98
370
     0
100
AcDbBlockBegin
  2
From Solid_42
 70
     0
 10
0.0
 20
0.0
 30
0.0
  3
From Solid_42
  1

  0
LINE
  5
6FFE4
330
703C1
100
AcDbEntity
  8
Level 26
  6
Continuous
 62
    40
370
     0
100
AcDbLine
 10
3191.211516
 20
-481.258537
 30
0.0
 11
3191.211516
 21
-508.158537
 31
0.0
  0
LINE
  5
6FFE5
330
703C1
100
AcDbEntity
  8
Level 26
  6
Continuous
 62
    40
370
     0
100
AcDbLine
 10
3191.211516
 20
-481.258537
 30
0.0
 11
3191.211516
 21
-508.158537
 31
0.0
  0
LINE
  5
6FFE6
330
703C1
100
AcDbEntity
  8
Level 26
  6
Continuous
 62
    40
370
     0
100
AcDbLine
 10
3191.211516
 20
-481.258537
 30
0.0
 11
3260.260832
 21
-481.258537
 31
0.0
  0
LINE
  5
6FFE7
330
703C1
100
AcDbEntity
  8
Level 26
  6
Continuous
 62
    40
370
     0
100
AcDbLine
 10
3191.211516
 20
-494.708537
 30
0.0
 11
3273.710832
 21
-494.708537
 31
0.0
  0
LINE
  5
6FFE8
330
703C1
100
AcDbEntity
  8
Level 26
  6
Continuous
 62
    40
370
     0
100
AcDbLine
 10
3191.211516
 20
-508.158537
 30
0.0
 11
3260.260832
 21
-508.158537
 31
0.0
  0
LINE
  5
6FFE9
330
703C1
100
AcDbEntity
  8
Level 26
  6
Continuous
 62
    40
370
     0
100
AcDbLine
 10
3191.211516
 20
-494.708537
 30
0.0
 11
3246.810832
 21
-494.708537
 31
0.0
  0
ENDBLK
  5
703C3
330
703C1
100
AcDbEntity
  8
0
 62
    98
370
     0
100
AcDbBlockEnd
  0
BLOCK
  5
703C5
330
703C4
100
AcDbEntity
  8
0
 62
    98
370
     0
100
AcDbBlockBegin
  2
From Solid_43
 70
     0
 10
0.0
 20
0.0
 30
0.0
  3
From Solid_43
  1

  0
LINE
  5
6FFEB
330
703C4
100
AcDbEntity
  8
Level 26
  6
Continuous
 62
    40
370
     0
100
AcDbLine
 10
3141.235075
 20
-863.158537
 30
0.0
 11
3141.235075
 21
-890.058537
 31
0.0
  0
LINE
  5
6FFEC
330
703C4
100
AcDbEntity
  8
Level 26
  6
Continuous
 62
    40
370
     0
100
AcDbLine
 10
3141.235075
 20
-863.158537
 30
0.0
 11
3141.235075
 21
-890.058537
 31
0.0
  0
LINE
  5
6FFED
330
703C4
100
AcDbEntity
  8
Level 26
  6
Continuous
 62
    40
370
     0
100
AcDbLine
 10
3141.235075
 20
-863.158537
 30
0.0
 11
3210.28488
 21
-863.158537
 31
0.0
  0
LINE
  5
6FFEE
330
703C4
100
AcDbEntity
  8
Level 26
  6
Continuous
 62
    40
370
     0
100
AcDbLine
 10
3141.235075
 20
-876.608537
 30
0.0
 11
3223.73488
 21
-876.608537
 31
0.0
  0
LINE
  5
6FFEF
330
703C4
100
AcDbEntity
  8
Level 26
  6
Continuous
 62
    40
370
     0
100
AcDbLine
 10
3141.235075
 20
-890.058537
 30
0.0
 11
3210.28488
 21
-890.058537
 31
0.0
  0
LINE
  5
6FFF0
330
703C4
100
AcDbEntity
  8
Level 26
  6
Continuous
 62
    40
370
     0
100
AcDbLine
 10
3141.235075
 20
-876.608537
 30
0.0
 11
3196.83488
 21
-876.608537
 31
0.0
  0
ENDBLK
  5
703C6
330
703C4
100
AcDbEntity
  8
0
 62
    98
370
     0
100
AcDbBlockEnd
  0
BLOCK
  5
703C8
330
703C7
100
AcDbEntity
  8
0
 62
    98
370
     0
100
AcDbBlockBegin
  2
From Solid_44
 70
     0
 10
0.0
 20
0.0
 30
0.0
  3
From Solid_44
  1

  0
LINE
  5
6FFF2
330
703C7
100
AcDbEntity
  8
Level 26
  6
Continuous
 62
    40
370
     0
100
AcDbLine
 10
3679.660539
 20
-324.733073
 30
0.0
 11
3706.560539
 21
-324.733073
 31
0.0
  0
LINE
  5
6FFF3
330
703C7
100
AcDbEntity
  8
Level 26
  6
Continuous
 62
    40
370
     0
100
AcDbLine
 10
3679.660539
 20
-324.733073
 30
0.0
 11
3706.560539
 21
-324.733073
 31
0.0
  0
LINE
  5
6FFF4
330
703C7
100
AcDbEntity
  8
Level 26
  6
Continuous
 62
    40
370
     0
100
AcDbLine
 10
3679.660539
 20
-324.733073
 30
0.0
 11
3679.660539
 21
-393.782878
 31
0.0
  0
LINE
  5
6FFF5
330
703C7
100
AcDbEntity
  8
Level 26
  6
Continuous
 62
    40
370
     0
100
AcDbLine
 10
3693.110539
 20
-324.733073
 30
0.0
 11
3693.110539
 21
-407.232878
 31
0.0
  0
LINE
  5
6FFF6
330
703C7
100
AcDbEntity
  8
Level 26
  6
Continuous
 62
    40
370
     0
100
AcDbLine
 10
3706.560539
 20
-324.733073
 30
0.0
 11
3706.560539
 21
-393.782878
 31
0.0
  0
LINE
  5
6FFF7
330
703C7
100
AcDbEntity
  8
Level 26
  6
Continuous
 62
    40
370
     0
100
AcDbLine
 10
3693.110539
 20
-324.733073
 30
0.0
 11
3693.110539
 21
-380.332878
 31
0.0
  0
ENDBLK
  5
703C9
330
703C7
100
AcDbEntity
  8
0
 62
    98
370
     0
100
AcDbBlockEnd
  0
BLOCK
  5
703CB
330
703CA
100
AcDbEntity
  8
0
 62
    98
370
     0
100
AcDbBlockBegin
  2
From Solid_45
 70
     0
 10
0.0
 20
0.0
 30
0.0
  3
From Solid_45
  1

  0
LINE
  5
6FFF9
330
703CA
100
AcDbEntity
  8
Level 26
  6
Continuous
 62
    40
370
     0
100
AcDbLine
 10
3297.760539
 20
-374.709514
 30
0.0
 11
3324.660539
 21
-374.709514
 31
0.0
  0
LINE
  5
6FFFA
330
703CA
100
AcDbEntity
  8
Level 26
  6
Continuous
 62
    40
370
     0
100
AcDbLine
 10
3297.760539
 20
-374.709514
 30
0.0
 11
3324.660539
 21
-374.709514
 31
0.0
  0
LINE
  5
6FFFB
330
703CA
100
AcDbEntity
  8
Level 26
  6
Continuous
 62
    40
370
     0
100
AcDbLine
 10
3297.760539
 20
-374.709514
 30
0.0
 11
3297.760539
 21
-443.759319
 31
0.0
  0
LINE
  5
6FFFC
330
703CA
100
AcDbEntity
  8
Level 26
  6
Continuous
 62
    40
370
     0
100
AcDbLine
 10
3311.210539
 20
-374.709514
 30
0.0
 11
3311.210539
 21
-457.209319
 31
0.0
  0
LINE
  5
6FFFD
330
703CA
100
AcDbEntity
  8
Level 26
  6
Continuous
 62
    40
370
     0
100
AcDbLine
 10
3324.660539
 20
-374.709514
 30
0.0
 11
3324.660539
 21
-443.759319
 31
0.0
  0
LINE
  5
6FFFE
330
703CA
100
AcDbEntity
  8
Level 26
  6
Continuous
 62
    40
370
     0
100
AcDbLine
 10
3311.210539
 20
-374.709514
 30
0.0
 11
3311.210539
 21
-430.309319
 31
0.0
  0
ENDBLK
  5
703CC
330
703CA
100
AcDbEntity
  8
0
 62
    98
370
     0
100
AcDbBlockEnd
  0
BLOCK
  5
703CE
330
703CD
100
AcDbEntity
  8
0
 62
    98
370
     0
100
AcDbBlockBegin
  2
From Solid_46
 70
     0
 10
0.0
 20
0.0
 30
0.0
  3
From Solid_46
  1

  0
LINE
  5
70000
330
703CD
100
AcDbEntity
  8
Level 26
  6
Continuous
 62
    40
370
     0
100
AcDbLine
 10
3297.760539
 20
-94.70756
 30
0.0
 11
3324.660539
 21
-94.70756
 31
0.0
  0
LINE
  5
70001
330
703CD
100
AcDbEntity
  8
Level 26
  6
Continuous
 62
    40
370
     0
100
AcDbLine
 10
3297.760539
 20
-94.70756
 30
0.0
 11
3324.660539
 21
-94.70756
 31
0.0
  0
LINE
  5
70002
330
703CD
100
AcDbEntity
  8
Level 26
  6
Continuous
 62
    40
370
     0
100
AcDbLine
 10
3297.760539
 20
-94.70756
 30
0.0
 11
3297.760539
 21
-25.658244
 31
0.0
  0
LINE
  5
70003
330
703CD
100
AcDbEntity
  8
Level 26
  6
Continuous
 62
    40
370
     0
100
AcDbLine
 10
3311.210539
 20
-94.70756
 30
0.0
 11
3311.210539
 21
-12.208244
 31
0.0
  0
LINE
  5
70004
330
703CD
100
AcDbEntity
  8
Level 26
  6
Continuous
 62
    40
370
     0
100
AcDbLine
 10
3324.660539
 20
-94.70756
 30
0.0
 11
3324.660539
 21
-25.658244
 31
0.0
  0
LINE
  5
70005
330
703CD
100
AcDbEntity
  8
Level 26
  6
Continuous
 62
    40
370
     0
100
AcDbLine
 10
3311.210539
 20
-94.70756
 30
0.0
 11
3311.210539
 21
-39.108244
 31
0.0
  0
ENDBLK
  5
703CF
330
703CD
100
AcDbEntity
  8
0
 62
    98
370
     0
100
AcDbBlockEnd
  0
BLOCK
  5
703D1
330
703D0
100
AcDbEntity
  8
0
 62
    98
370
     0
100
AcDbBlockBegin
  2
From Solid_47
 70
     0
 10
0.0
 20
0.0
 30
0.0
  3
From Solid_47
  1

  0
LINE
  5
70007
330
703D0
100
AcDbEntity
  8
Level 26
  6
Continuous
 62
    40
370
     0
100
AcDbLine
 10
3679.660539
 20
-144.684001
 30
0.0
 11
3706.560539
 21
-144.684001
 31
0.0
  0
LINE
  5
70008
330
703D0
100
AcDbEntity
  8
Level 26
  6
Continuous
 62
    40
370
     0
100
AcDbLine
 10
3679.660539
 20
-144.684001
 30
0.0
 11
3706.560539
 21
-144.684001
 31
0.0
  0
LINE
  5
70009
330
703D0
100
AcDbEntity
  8
Level 26
  6
Continuous
 62
    40
370
     0
100
AcDbLine
 10
3679.660539
 20
-144.684001
 30
0.0
 11
3679.660539
 21
-75.634196
 31
0.0
  0
LINE
  5
7000A
330
703D0
100
AcDbEntity
  8
Level 26
  6
Continuous
 62
    40
370
     0
100
AcDbLine
 10
3693.110539
 20
-144.684001
 30
0.0
 11
3693.110539
 21
-62.184196
 31
0.0
  0
LINE
  5
7000B
330
703D0
100
AcDbEntity
  8
Level 26
  6
Continuous
 62
    40
370
     0
100
AcDbLine
 10
3706.560539
 20
-144.684001
 30
0.0
 11
3706.560539
 21
-75.634196
 31
0.0
  0
LINE
  5
7000C
330
703D0
100
AcDbEntity
  8
Level 26
  6
Continuous
 62
    40
370
     0
100
AcDbLine
 10
3693.110539
 20
-144.684001
 30
0.0
 11
3693.110539
 21
-89.084196
 31
0.0
  0
ENDBLK
  5
703D2
330
703D0
100
AcDbEntity
  8
0
 62
    98
370
     0
100
AcDbBlockEnd
  0
BLOCK
  5
703D4
330
703D3
100
AcDbEntity
  8
0
 62
    98
370
     0
100
AcDbBlockBegin
  2
From Solid_48
 70
     0
 10
0.0
 20
0.0
 30
0.0
  3
From Solid_48
  1

  0
LINE
  5
7000E
330
703D3
100
AcDbEntity
  8
Level 26
  6
Continuous
 62
    40
370
     0
100
AcDbLine
 10
3141.235075
 20
393.741463
 30
0.0
 11
3141.235075
 21
420.641463
 31
0.0
  0
LINE
  5
7000F
330
703D3
100
AcDbEntity
  8
Level 26
  6
Continuous
 62
    40
370
     0
100
AcDbLine
 10
3141.235075
 20
393.741463
 30
0.0
 11
3141.235075
 21
420.641463
 31
0.0
  0
LINE
  5
70010
330
703D3
100
AcDbEntity
  8
Level 26
  6
Continuous
 62
    40
370
     0
100
AcDbLine
 10
3141.235075
 20
393.741463
 30
0.0
 11
3210.28488
 21
393.741463
 31
0.0
  0
LINE
  5
70011
330
703D3
100
AcDbEntity
  8
Level 26
  6
Continuous
 62
    40
370
     0
100
AcDbLine
 10
3141.235075
 20
407.191463
 30
0.0
 11
3223.73488
 21
407.191463
 31
0.0
  0
LINE
  5
70012
330
703D3
100
AcDbEntity
  8
Level 26
  6
Continuous
 62
    40
370
     0
100
AcDbLine
 10
3141.235075
 20
420.641463
 30
0.0
 11
3210.28488
 21
420.641463
 31
0.0
  0
LINE
  5
70013
330
703D3
100
AcDbEntity
  8
Level 26
  6
Continuous
 62
    40
370
     0
100
AcDbLine
 10
3141.235075
 20
407.191463
 30
0.0
 11
3196.83488
 21
407.191463
 31
0.0
  0
ENDBLK
  5
703D5
330
703D3
100
AcDbEntity
  8
0
 62
    98
370
     0
100
AcDbBlockEnd
  0
BLOCK
  5
703D7
330
703D6
100
AcDbEntity
  8
0
 62
    98
370
     0
100
AcDbBlockBegin
  2
From Solid_49
 70
     0
 10
0.0
 20
0.0
 30
0.0
  3
From Solid_49
  1

  0
LINE
  5
70015
330
703D6
100
AcDbEntity
  8
Level 26
  6
Continuous
 62
    40
370
     0
100
AcDbLine
 10
3191.211516
 20
11.841463
 30
0.0
 11
3191.211516
 21
38.741463
 31
0.0
  0
LINE
  5
70016
330
703D6
100
AcDbEntity
  8
Level 26
  6
Continuous
 62
    40
370
     0
100
AcDbLine
 10
3191.211516
 20
11.841463
 30
0.0
 11
3191.211516
 21
38.741463
 31
0.0
  0
LINE
  5
70017
330
703D6
100
AcDbEntity
  8
Level 26
  6
Continuous
 62
    40
370
     0
100
AcDbLine
 10
3191.211516
 20
11.841463
 30
0.0
 11
3260.261321
 21
11.841463
 31
0.0
  0
LINE
  5
70018
330
703D6
100
AcDbEntity
  8
Level 26
  6
Continuous
 62
    40
370
     0
100
AcDbLine
 10
3191.211516
 20
25.291463
 30
0.0
 11
3273.711321
 21
25.291463
 31
0.0
  0
LINE
  5
70019
330
703D6
100
AcDbEntity
  8
Level 26
  6
Continuous
 62
    40
370
     0
100
AcDbLine
 10
3191.211516
 20
38.741463
 30
0.0
 11
3260.261321
 21
38.741463
 31
0.0
  0
LINE
  5
7001A
330
703D6
100
AcDbEntity
  8
Level 26
  6
Continuous
 62
    40
370
     0
100
AcDbLine
 10
3191.211516
 20
25.291463
 30
0.0
 11
3246.811321
 21
25.291463
 31
0.0
  0
ENDBLK
  5
703D8
330
703D6
100
AcDbEntity
  8
0
 62
    98
370
     0
100
AcDbBlockEnd
  0
BLOCK
  5
703DA
330
703D9
100
AcDbEntity
  8
0
 62
    98
370
     0
100
AcDbBlockBegin
  2
From Solid_50
 70
     0
 10
0.0
 20
0.0
 30
0.0
  3
From Solid_50
  1

  0
LINE
  5
7001C
330
703D9
100
AcDbEntity
  8
Level 26
  6
Continuous
 62
    40
370
     0
100
AcDbLine
 10
2911.209562
 20
11.841463
 30
0.0
 11
2911.209562
 21
38.741463
 31
0.0
  0
LINE
  5
7001D
330
703D9
100
AcDbEntity
  8
Level 26
  6
Continuous
 62
    40
370
     0
100
AcDbLine
 10
2911.209562
 20
11.841463
 30
0.0
 11
2911.209562
 21
38.741463
 31
0.0
  0
LINE
  5
7001E
330
703D9
100
AcDbEntity
  8
Level 26
  6
Continuous
 62
    40
370
     0
100
AcDbLine
 10
2911.209562
 20
11.841463
 30
0.0
 11
2842.160246
 21
11.841463
 31
0.0
  0
LINE
  5
7001F
330
703D9
100
AcDbEntity
  8
Level 26
  6
Continuous
 62
    40
370
     0
100
AcDbLine
 10
2911.209562
 20
25.291463
 30
0.0
 11
2828.710246
 21
25.291463
 31
0.0
  0
LINE
  5
70020
330
703D9
100
AcDbEntity
  8
Level 26
  6
Continuous
 62
    40
370
     0
100
AcDbLine
 10
2911.209562
 20
38.741463
 30
0.0
 11
2842.160246
 21
38.741463
 31
0.0
  0
LINE
  5
70021
330
703D9
100
AcDbEntity
  8
Level 26
  6
Continuous
 62
    40
370
     0
100
AcDbLine
 10
2911.209562
 20
25.291463
 30
0.0
 11
2855.610246
 21
25.291463
 31
0.0
  0
ENDBLK
  5
703DB
330
703D9
100
AcDbEntity
  8
0
 62
    98
370
     0
100
AcDbBlockEnd
  0
BLOCK
  5
703DD
330
703DC
100
AcDbEntity
  8
0
 62
    98
370
     0
100
AcDbBlockBegin
  2
From Solid_51
 70
     0
 10
0.0
 20
0.0
 30
0.0
  3
From Solid_51
  1

  0
LINE
  5
70023
330
703DC
100
AcDbEntity
  8
Level 26
  6
Continuous
 62
    40
370
     0
100
AcDbLine
 10
2961.186003
 20
393.741463
 30
0.0
 11
2961.186003
 21
420.641463
 31
0.0
  0
LINE
  5
70024
330
703DC
100
AcDbEntity
  8
Level 26
  6
Continuous
 62
    40
370
     0
100
AcDbLine
 10
2961.186003
 20
393.741463
 30
0.0
 11
2961.186003
 21
420.641463
 31
0.0
  0
LINE
  5
70025
330
703DC
100
AcDbEntity
  8
Level 26
  6
Continuous
 62
    40
370
     0
100
AcDbLine
 10
2961.186003
 20
393.741463
 30
0.0
 11
2892.136198
 21
393.741463
 31
0.0
  0
LINE
  5
70026
330
703DC
100
AcDbEntity
  8
Level 26
  6
Continuous
 62
    40
370
     0
100
AcDbLine
 10
2961.186003
 20
407.191463
 30
0.0
 11
2878.686198
 21
407.191463
 31
0.0
  0
LINE
  5
70027
330
703DC
100
AcDbEntity
  8
Level 26
  6
Continuous
 62
    40
370
     0
100
AcDbLine
 10
2961.186003
 20
420.641463
 30
0.0
 11
2892.136198
 21
420.641463
 31
0.0
  0
LINE
  5
70028
330
703DC
100
AcDbEntity
  8
Level 26
  6
Continuous
 62
    40
370
     0
100
AcDbLine
 10
2961.186003
 20
407.191463
 30
0.0
 11
2905.586198
 21
407.191463
 31
0.0
  0
ENDBLK
  5
703DE
330
703DC
100
AcDbEntity
  8
0
 62
    98
370
     0
100
AcDbBlockEnd
  0
ENDSEC
  0
SECTION
  2
ENTITIES
  0
INSERT
  5
6FD64
330
7027C
100
AcDbEntity
  8
Level 26
  6
Continuous
 62
   133
370
     0
100
AcDbBlockReference
  2
SE16
 10
3051.210539
 20
-234.708537
 30
0.0
  0
LWPOLYLINE
  5
7003C
330
7027C
100
AcDbEntity
  8
Level 15
  6
DGN Style 2
 62
     7
370
    13
100
AcDbPolyline
 90
       17
 70
   129
 43
0.0
 10
4231.387749
 20
1082.47266
 42
0.097803
 10
4368.391736
 20
945.468673
 42
-0.250125
 10
4906.110539
 20
-62.184196
 10
4906.110539
 20
-407.232878
 42
-0.250125
 10
4368.391736
 20
-1414.885747
 42
0.097803
 10
4231.387749
 20
-1551.889734
 42
-0.250125
 10
3223.73488
 20
-2089.608537
 10
2878.686198
 20
-2089.608537
 42
-0.250125
 10
1871.033328
 20
-1551.889734
 42
0.097803
 10
1734.029342
 20
-1414.885747
 42
-0.250125
 10
1196.310539
 20
-407.232878
 10
1196.310539
 20
-62.184196
 42
-0.250125
 10
1734.029342
 20
945.468673
 42
0.097803
 10
1871.033328
 20
1082.47266
 42
-0.250125
 10
2878.686198
 20
1620.191463
 10
3223.73488
 20
1620.191463
 42
-0.250125
 10
4231.387749
 20
1082.47266
  0
ENDSEC
  0
SECTION
  2
OBJECTS
  0
DICTIONARY
  5
70283
330
0
100
AcDbDictionary
281
     1
  3
ACAD_COLOR
350
702C1
  3
ACAD_GROUP
350
702AE
  3
ACAD_LAYOUT
350
70290
  3
ACAD_MATERIAL
350
70285
  3
ACAD_MLEADERSTYLE
350
702C4
  3
ACAD_MLINESTYLE
350
702AF
  3
ACAD_PLOTSETTINGS
350
702B0
  3
ACAD_PLOTSTYLENAME
350
70282
  3
ACAD_SCALELIST
350
702C2
  3
ACAD_TABLESTYLE
350
702C3
  3
ACAD_VISUALSTYLE
350
702A8
  3
ACDB_RECOMPOSE_DATA
350
703ED
  3
AcDbVariableDictionary
350
703E3
  0
DICTIONARY
  5
7029B
330
7029A
100
AcDbDictionary
280
     1
281
     1
  3
ACAD_LAYERFILTERS
360
702EE
  3
ACAD_LAYERSTATES
360
7029C
  3
ACLYDICTIONARY
360
702EF
  0
DICTIONARY
  5
7027F
330
7027E
100
AcDbDictionary
280
     1
281
     1
  3
ADSK_XREC_LAYER_RECONCILED
360
70280
  0
DICTIONARY
  5
703DF
330
702F0
100
AcDbDictionary
280
     1
281
     1
  3
ACAD_SORTENTS
360
703E0
  0
DICTIONARY
  5
702C1
102
{ACAD_REACTORS
330
70283
102
}
330
70283
100
AcDbDictionary
281
     1
  0
DICTIONARY
  5
702AE
102
{ACAD_REACTORS
330
70283
102
}
330
70283
100
AcDbDictionary
281
     1
  0
DICTIONARY
  5
70290
102
{ACAD_REACTORS
330
70283
102
}
330
70283
100
AcDbDictionary
281
     1
  3
Layout1
350
70296
  3
Model
350
7028F
  0
DICTIONARY
  5
70285
102
{ACAD_REACTORS
330
70283
102
}
330
70283
100
AcDbDictionary
281
     1
  3
ByBlock
350
702B9
  3
ByLayer
350
702B1
  3
Global
350
70284
  0
DICTIONARY
  5
702C4
102
{ACAD_REACTORS
330
70283
102
}
330
70283
100
AcDbDictionary
281
     1
  0
DICTIONARY
  5
702AF
102
{ACAD_REACTORS
330
70283
102
}
330
70283
100
AcDbDictionary
281
     1
  3
Standard
350
702C5
  0
DICTIONARY
  5
702B0
102
{ACAD_REACTORS
330
70283
102
}
330
70283
100
AcDbDictionary
281
     1
  0
ACDBDICTIONARYWDFLT
  5
70282
102
{ACAD_REACTORS
330
70283
102
}
330
70283
100
AcDbDictionary
281
     1
  3
Normal
350
70281
100
AcDbDictionaryWithDefault
340
70281
  0
DICTIONARY
  5
702C2
102
{ACAD_REACTORS
330
70283
102
}
330
70283
100
AcDbDictionary
281
     1
  3
A0
350
702CA
  3
A1
350
702CB
  3
A2
350
702CC
  3
A3
350
702CD
  3
A4
350
702CE
  3
A5
350
702CF
  3
A6
350
702D0
  3
A7
350
702D1
  3
A8
350
702D2
  3
A9
350
702D3
  3
B0
350
702D4
  3
B1
350
702D5
  3
B2
350
702D6
  3
B3
350
702D7
  3
B4
350
702D8
  3
B5
350
702D9
  3
B6
350
702DA
  3
B7
350
702DB
  3
B8
350
702DC
  3
B9
350
702DD
  3
C0
350
702DE
  3
C1
350
702DF
  3
C2
350
702E0
  3
C3
350
702E1
  3
C4
350
702E2
  3
C5
350
702E3
  3
C6
350
702E4
  3
C7
350
702E5
  3
C8
350
702E6
  3
C9
350
702E7
  3
D0
350
702E8
  3
D1
350
702E9
  3
D2
350
702EA
  0
DICTIONARY
  5
702C3
102
{ACAD_REACTORS
330
70283
102
}
330
70283
100
AcDbDictionary
281
     1
  3
Standard
350
702C6
  0
DICTIONARY
  5
702A8
102
{ACAD_REACTORS
330
70283
102
}
330
70283
100
AcDbDictionary
281
     1
  3
2dWireframe
350
702A7
  3
Realistic
350
702C8
  3
Wireframe
350
702C9
  0
XRECORD
  5
703ED
102
{ACAD_REACTORS
330
70283
102
}
330
70283
100
AcDbXrecord
280
     1
 90
        1
330
702C6
  0
DICTIONARY
  5
703E3
102
{ACAD_REACTORS
330
70283
102
}
330
70283
100
AcDbDictionary
281
     1
  3
CANNOSCALE
350
703E9
  3
CMLEADERSTYLE
350
703E5
  3
CTABLESTYLE
350
703E4
  3
CVIEWDETAILSTYLE
350
703E6
  3
CVIEWSECTIONSTYLE
350
703E7
  3
LAYEREVAL
350
703EA
  3
LAYERNOTIFY
350
703EB
  3
MSLTSCALE
350
703E8
  0
DICTIONARY
  5
702EE
102
{ACAD_REACTORS
330
7029B
102
}
330
7029B
100
AcDbDictionary
281
     1
  0
DICTIONARY
  5
7029C
102
{ACAD_REACTORS
330
7029B
102
}
330
7029B
100
AcDbDictionary
281
     1
  0
DICTIONARY
  5
702EF
102
{ACAD_REACTORS
330
7029B
102
}
330
7029B
100
AcDbDictionary
281
     1
  0
XRECORD
  5
70280
102
{ACAD_REACTORS
330
7027F
102
}
330
7027F
100
AcDbXrecord
280
     1
290
     1
  0
SORTENTSTABLE
  5
703E0
102
{ACAD_REACTORS
330
703DF
102
}
330
703DF
100
AcDbSortentsTable
330
702F0
331
700AA
  5
6FF39
331
6FD9B
  5
6FD9B
331
6FDA3
  5
6FDA3
331
700C2
  5
700BC
331
6FDAB
  5
6FDAB
331
6FD6C
  5
6FD6C
331
7013B
  5
7013B
331
70179
  5
70179
331
700B7
  5
700B0
331
6FD74
  5
6FD74
331
701D8
  5
701D8
331
700D8
  5
700D3
331
700CB
  5
700C5
331
7011C
  5
7011C
331
6FD7C
  5
6FD7C
331
6FD84
  5
6FD84
331
6FD8C
  5
6FD8C
331
700BE
  5
700B7
331
6FD94
  5
6FD94
331
700D2
  5
700CD
331
700AB
  5
6FF3E
331
6FD9C
  5
6FD9C
331
6FD65
  5
6FD65
331
6FDA4
  5
6FDA4
331
700C3
  5
700BD
331
700B0
  5
700A8
331
6FDAC
  5
6FDAC
331
6FD6D
  5
6FD6D
331
6FD75
  5
6FD75
331
701D9
  5
701D9
331
6FF30
  5
700D9
331
700D9
  5
700D4
331
700CC
  5
700C6
331
6FD7D
  5
6FD7D
331
6FE00
  5
700AB
331
6FD85
  5
6FD85
331
6FD8D
  5
6FD8D
331
6FF48
  5
700DD
331
700BF
  5
700B8
331
6FD95
  5
6FD95
331
701E0
  5
701E0
331
700D3
  5
700CE
331
700AC
  5
6FF43
331
6FD9D
  5
6FD9D
331
6FD66
  5
6FD66
331
6FDA5
  5
6FDA5
331
700C4
  5
700BE
331
700B1
  5
700A9
331
6FD6E
  5
6FD6E
331
6FD76
  5
6FD76
331
701DA
  5
701DA
331
6FF39
  5
700DA
331
700DA
  5
700D5
331
700CD
  5
700C8
331
6FD7E
  5
6FD7E
331
6FD86
  5
6FD86
331
700B8
  5
700B1
331
6FD8E
  5
6FD8E
331
6FD96
  5
6FD96
331
701E1
  5
701E1
331
700D4
  5
700CF
331
700AD
  5
6FF48
331
6FD9E
  5
6FD9E
331
6FD67
  5
6FD67
331
6FDA6
  5
6FDA6
331
700C5
  5
700BF
331
700B2
  5
700AA
331
6FD6F
  5
6FD6F
331
700A6
  5
6FE00
331
6FD77
  5
6FD77
331
701DB
  5
701DB
331
700DB
  5
700D6
331
700CE
  5
700C9
331
6FD7F
  5
6FD7F
331
6FD87
  5
6FD87
331
700FD
  5
700FD
331
700B9
  5
700B2
331
6FD8F
  5
6FD8F
331
6FD97
  5
6FD97
331
700D5
  5
700D0
331
700AE
  5
700A6
331
6FD9F
  5
6FD9F
331
6FDA7
  5
6FDA7
331
6FD68
  5
6FD68
331
700C6
  5
700C0
331
700B3
  5
700AC
331
6FD70
  5
6FD70
331
700A7
  5
6FE5C
331
701DC
  5
701DC
331
700DC
  5
700D7
331
700CF
  5
700CA
331
6FD78
  5
6FD78
331
6FD80
  5
6FD80
331
6FD88
  5
6FD88
331
6FF43
  5
700DC
331
700BA
  5
700B3
331
6FD90
  5
6FD90
331
700D6
  5
700D1
331
6FD98
  5
6FD98
331
700AF
  5
700A7
331
6FDA0
  5
6FDA0
331
6FDA8
  5
6FDA8
331
6FD69
  5
6FD69
331
700C7
  5
700C1
331
700B4
  5
700AD
331
6FD71
  5
6FD71
331
701DD
  5
701DD
331
700C8
  5
700C2
331
700DD
  5
700D8
331
6FD79
  5
6FD79
331
6FD81
  5
6FD81
331
6FD89
  5
6FD89
331
700BB
  5
700B4
331
6FD91
  5
6FD91
331
701D6
  5
701D6
331
700D7
  5
700D2
331
701B7
  5
701B7
331
700A8
  5
6FEB8
331
6FD99
  5
6FD99
331
6FDA1
  5
6FDA1
331
700C0
  5
700BA
331
6FDA9
  5
6FDA9
331
6FD6A
  5
6FD6A
331
6FEB8
  5
700C7
331
700B5
  5
700AE
331
6FD72
  5
6FD72
331
701DE
  5
701DE
331
700C9
  5
700C3
331
70198
  5
70198
331
700DE
  5
700DE
331
6FD7A
  5
6FD7A
331
6FD82
  5
6FD82
331
6FD8A
  5
6FD8A
331
700BC
  5
700B5
331
6FD92
  5
6FD92
331
701D7
  5
701D7
331
700D0
  5
700CB
331
700A9
  5
6FF30
331
6FD9A
  5
6FD9A
331
6FDA2
  5
6FDA2
331
700C1
  5
700BB
331
6FDAA
  5
6FDAA
331
6FD6B
  5
6FD6B
331
700B6
  5
700AF
331
6FD73
  5
6FD73
331
701DF
  5
701DF
331
700CA
  5
700C4
331
6FF3E
  5
700DB
331
6FD7B
  5
6FD7B
331
6FD83
  5
6FD83
331
6FD8B
  5
6FD8B
331
7015A
  5
7015A
331
700BD
  5
700B6
331
6FD93
  5
6FD93
331
700D1
  5
700CC
331
6FE5C
  5
700B9
  0
LAYOUT
  5
70296
102
{ACAD_XDICTIONARY
360
70297
102
}
102
{ACAD_REACTORS
330
70290
102
}
330
70290
100
AcDbPlotSettings
  1

  2
none_device
  4
Letter_(8.50_x_11.00_Inches)
  6

 40
6.35
 41
6.35
 42
6.350006
 43
6.350006
 44
215.899994
 45
279.399994
 46
0.0
 47
0.0
 48
0.0
 49
0.0
140
0.0
141
0.0
142
1.0
143
1.0
 70
   688
 72
     0
 73
     1
 74
     5
  7

 75
    16
147
1.0
 76
     0
 77
     2
 78
   300
148
0.0
149
0.0
100
AcDbLayout
  1
Layout1
 70
     1
 71
     1
 10
-0.25
 20
-0.25
 11
10.75
 21
8.25
 12
0.0
 22
0.0
 32
0.0
 14
1.05
 24
0.8
 34
0.0
 15
9.45
 25
7.2
 35
0.0
146
0.0
 13
0.0
 23
0.0
 33
0.0
 16
1.0
 26
0.0
 36
0.0
 17
0.0
 27
1.0
 37
0.0
 76
     0
330
70293
1001
ACAD_PSEXT
1000
None
1000
None
1000
Not applicable
1000
The layout will not be plotted unless a new plotter configuration name is selected.
1070
     0
  0
LAYOUT
  5
7028F
102
{ACAD_XDICTIONARY
360
70291
102
}
102
{ACAD_REACTORS
330
70290
102
}
330
70290
100
AcDbPlotSettings
  1

  2
none_device
  4
ANSI_A_(8.50_x_11.00_Inches)
  6

 40
6.35
 41
19.049999
 42
6.350006
 43
19.049988
 44
215.899994
 45
279.399994
 46
0.0
 47
0.0
 48
0.0
 49
0.0
140
0.0
141
0.0
142
1.0
143
2.584895
 70
 11952
 72
     0
 73
     1
 74
     0
  7

 75
     0
147
0.386863
 76
     0
 77
     2
 78
   300
148
0.0
149
0.0
100
AcDbLayout
  1
Model
 70
     1
 71
     0
 10
0.0
 20
0.0
 11
12.0
 21
9.0
 12
0.0
 22
0.0
 32
0.0
 14
0.0
 24
0.0
 34
0.0
 15
0.0
 25
0.0
 35
0.0
146
0.0
 13
0.0
 23
0.0
 33
0.0
 16
1.0
 26
0.0
 36
0.0
 17
0.0
 27
1.0
 37
0.0
 76
     0
330
7027C
331
702A6
  0
MATERIAL
  5
702B9
102
{ACAD_XDICTIONARY
360
702BA
102
}
102
{ACAD_REACTORS
330
70285
102
}
330
70285
100
AcDbMaterial
  1
ByBlock
 72
     0
 43
0.020833
 43
0.0
 43
0.0
 43
0.0
 43
0.0
 43
0.020833
 43
0.0
 43
0.0
 43
0.0
 43
0.0
 43
1.0
 43
0.0
 43
0.0
 43
0.0
 43
0.0
 43
1.0
 77
     0
 47
0.020833
 47
0.0
 47
0.0
 47
0.0
 47
0.0
 47
0.020833
 47
0.0
 47
0.0
 47
0.0
 47
0.0
 47
1.0
 47
0.0
 47
0.0
 47
0.0
 47
0.0
 47
1.0
171
     0
 49
0.020833
 49
0.0
 49
0.0
 49
0.0
 49
0.0
 49
0.020833
 49
0.0
 49
0.0
 49
0.0
 49
0.0
 49
1.0
 49
0.0
 49
0.0
 49
0.0
 49
0.0
 49
1.0
175
     0
142
0.020833
142
0.0
142
0.0
142
0.0
142
0.0
142
0.020833
142
0.0
142
0.0
142
0.0
142
0.0
142
1.0
142
0.0
142
0.0
142
0.0
142
0.0
142
1.0
179
     0
144
0.020833
144
0.0
144
0.0
144
0.0
144
0.0
144
0.020833
144
0.0
144
0.0
144
0.0
144
0.0
144
1.0
144
0.0
144
0.0
144
0.0
144
0.0
144
1.0
147
0.020833
147
0.0
147
0.0
147
0.0
147
0.0
147
0.020833
147
0.0
147
0.0
147
0.0
147
0.0
147
1.0
147
0.0
147
0.0
147
0.0
147
0.0
147
1.0
  0
MATERIAL
  5
702B1
102
{ACAD_XDICTIONARY
360
702B2
102
}
102
{ACAD_REACTORS
330
70285
102
}
330
70285
100
AcDbMaterial
  1
ByLayer
 72
     0
 43
0.020833
 43
0.0
 43
0.0
 43
0.0
 43
0.0
 43
0.020833
 43
0.0
 43
0.0
 43
0.0
 43
0.0
 43
1.0
 43
0.0
 43
0.0
 43
0.0
 43
0.0
 43
1.0
 77
     0
 47
0.020833
 47
0.0
 47
0.0
 47
0.0
 47
0.0
 47
0.020833
 47
0.0
 47
0.0
 47
0.0
 47
0.0
 47
1.0
 47
0.0
 47
0.0
 47
0.0
 47
0.0
 47
1.0
171
     0
 49
0.020833
 49
0.0
 49
0.0
 49
0.0
 49
0.0
 49
0.020833
 49
0.0
 49
0.0
 49
0.0
 49
0.0
 49
1.0
 49
0.0
 49
0.0
 49
0.0
 49
0.0
 49
1.0
175
     0
142
0.020833
142
0.0
142
0.0
142
0.0
142
0.0
142
0.020833
142
0.0
142
0.0
142
0.0
142
0.0
142
1.0
142
0.0
142
0.0
142
0.0
142
0.0
142
1.0
179
     0
144
0.020833
144
0.0
144
0.0
144
0.0
144
0.0
144
0.020833
144
0.0
144
0.0
144
0.0
144
0.0
144
1.0
144
0.0
144
0.0
144
0.0
144
0.0
144
1.0
147
0.020833
147
0.0
147
0.0
147
0.0
147
0.0
147
0.020833
147
0.0
147
0.0
147
0.0
147
0.0
147
1.0
147
0.0
147
0.0
147
0.0
147
0.0
147
1.0
  0
MATERIAL
  5
70284
102
{ACAD_XDICTIONARY
360
70286
102
}
102
{ACAD_REACTORS
330
70285
102
}
330
70285
100
AcDbMaterial
  1
Global
 72
     0
 43
0.020833
 43
0.0
 43
0.0
 43
0.0
 43
0.0
 43
0.020833
 43
0.0
 43
0.0
 43
0.0
 43
0.0
 43
1.0
 43
0.0
 43
0.0
 43
0.0
 43
0.0
 43
1.0
 77
     0
 47
0.020833
 47
0.0
 47
0.0
 47
0.0
 47
0.0
 47
0.020833
 47
0.0
 47
0.0
 47
0.0
 47
0.0
 47
1.0
 47
0.0
 47
0.0
 47
0.0
 47
0.0
 47
1.0
171
     0
 49
0.020833
 49
0.0
 49
0.0
 49
0.0
 49
0.0
 49
0.020833
 49
0.0
 49
0.0
 49
0.0
 49
0.0
 49
1.0
 49
0.0
 49
0.0
 49
0.0
 49
0.0
 49
1.0
175
     0
142
0.020833
142
0.0
142
0.0
142
0.0
142
0.0
142
0.020833
142
0.0
142
0.0
142
0.0
142
0.0
142
1.0
142
0.0
142
0.0
142
0.0
142
0.0
142
1.0
179
     0
144
0.020833
144
0.0
144
0.0
144
0.0
144
0.0
144
0.020833
144
0.0
144
0.0
144
0.0
144
0.0
144
1.0
144
0.0
144
0.0
144
0.0
144
0.0
144
1.0
147
0.020833
147
0.0
147
0.0
147
0.0
147
0.0
147
0.020833
147
0.0
147
0.0
147
0.0
147
0.0
147
1.0
147
0.0
147
0.0
147
0.0
147
0.0
147
1.0
  0
MLINESTYLE
  5
702C5
102
{ACAD_REACTORS
330
702AF
102
}
330
702AF
100
AcDbMlineStyle
  2
STANDARD
 70
     0
  3

 62
   256
 51
90.0
 52
90.0
 71
     2
 49
0.5
 62
   256
  6
BYLAYER
 49
-0.5
 62
   256
  6
BYLAYER
  0
ACDBPLACEHOLDER
  5
70281
102
{ACAD_REACTORS
330
70282
102
}
330
70282
  0
SCALE
  5
702CA
102
{ACAD_REACTORS
330
702C2
102
}
330
702C2
100
AcDbScale
 70
     0
300
1:1
140
1.0
141
1.0
290
     1
  0
SCALE
  5
702CB
102
{ACAD_REACTORS
330
702C2
102
}
330
702C2
100
AcDbScale
 70
     0
300
1:2
140
1.0
141
2.0
290
     0
  0
SCALE
  5
702CC
102
{ACAD_REACTORS
330
702C2
102
}
330
702C2
100
AcDbScale
 70
     0
300
1:4
140
1.0
141
4.0
290
     0
  0
SCALE
  5
702CD
102
{ACAD_REACTORS
330
702C2
102
}
330
702C2
100
AcDbScale
 70
     0
300
1:5
140
1.0
141
5.0
290
     0
  0
SCALE
  5
702CE
102
{ACAD_REACTORS
330
702C2
102
}
330
702C2
100
AcDbScale
 70
     0
300
1:8
140
1.0
141
8.0
290
     0
  0
SCALE
  5
702CF
102
{ACAD_REACTORS
330
702C2
102
}
330
702C2
100
AcDbScale
 70
     0
300
1:10
140
1.0
141
10.0
290
     0
  0
SCALE
  5
702D0
102
{ACAD_REACTORS
330
702C2
102
}
330
702C2
100
AcDbScale
 70
     0
300
1:16
140
1.0
141
16.0
290
     0
  0
SCALE
  5
702D1
102
{ACAD_REACTORS
330
702C2
102
}
330
702C2
100
AcDbScale
 70
     0
300
1:20
140
1.0
141
20.0
290
     0
  0
SCALE
  5
702D2
102
{ACAD_REACTORS
330
702C2
102
}
330
702C2
100
AcDbScale
 70
     0
300
1:30
140
1.0
141
30.0
290
     0
  0
SCALE
  5
702D3
102
{ACAD_REACTORS
330
702C2
102
}
330
702C2
100
AcDbScale
 70
     0
300
1:40
140
1.0
141
40.0
290
     0
  0
SCALE
  5
702D4
102
{ACAD_REACTORS
330
702C2
102
}
330
702C2
100
AcDbScale
 70
     0
300
1:50
140
1.0
141
50.0
290
     0
  0
SCALE
  5
702D5
102
{ACAD_REACTORS
330
702C2
102
}
330
702C2
100
AcDbScale
 70
     0
300
1:100
140
1.0
141
100.0
290
     0
  0
SCALE
  5
702D6
102
{ACAD_REACTORS
330
702C2
102
}
330
702C2
100
AcDbScale
 70
     0
300
2:1
140
2.0
141
1.0
290
     0
  0
SCALE
  5
702D7
102
{ACAD_REACTORS
330
702C2
102
}
330
702C2
100
AcDbScale
 70
     0
300
4:1
140
4.0
141
1.0
290
     0
  0
SCALE
  5
702D8
102
{ACAD_REACTORS
330
702C2
102
}
330
702C2
100
AcDbScale
 70
     0
300
8:1
140
8.0
141
1.0
290
     0
  0
SCALE
  5
702D9
102
{ACAD_REACTORS
330
702C2
102
}
330
702C2
100
AcDbScale
 70
     0
300
10:1
140
10.0
141
1.0
290
     0
  0
SCALE
  5
702DA
102
{ACAD_REACTORS
330
702C2
102
}
330
702C2
100
AcDbScale
 70
     0
300
100:1
140
100.0
141
1.0
290
     0
  0
SCALE
  5
702DB
102
{ACAD_REACTORS
330
702C2
102
}
330
702C2
100
AcDbScale
 70
     0
300
1/128" = 1'-0"
140
0.007813
141
12.0
290
     0
  0
SCALE
  5
702DC
102
{ACAD_REACTORS
330
702C2
102
}
330
702C2
100
AcDbScale
 70
     0
300
1/64" = 1'-0"
140
0.015625
141
12.0
290
     0
  0
SCALE
  5
702DD
102
{ACAD_REACTORS
330
702C2
102
}
330
702C2
100
AcDbScale
 70
     0
300
1/32" = 1'-0"
140
0.03125
141
12.0
290
     0
  0
SCALE
  5
702DE
102
{ACAD_REACTORS
330
702C2
102
}
330
702C2
100
AcDbScale
 70
     0
300
1/16" = 1'-0"
140
0.0625
141
12.0
290
     0
  0
SCALE
  5
702DF
102
{ACAD_REACTORS
330
702C2
102
}
330
702C2
100
AcDbScale
 70
     0
300
3/32" = 1'-0"
140
0.09375
141
12.0
290
     0
  0
SCALE
  5
702E0
102
{ACAD_REACTORS
330
702C2
102
}
330
702C2
100
AcDbScale
 70
     0
300
1/8" = 1'-0"
140
0.125
141
12.0
290
     0
  0
SCALE
  5
702E1
102
{ACAD_REACTORS
330
702C2
102
}
330
702C2
100
AcDbScale
 70
     0
300
3/16" = 1'-0"
140
0.1875
141
12.0
290
     0
  0
SCALE
  5
702E2
102
{ACAD_REACTORS
330
702C2
102
}
330
702C2
100
AcDbScale
 70
     0
300
1/4" = 1'-0"
140
0.25
141
12.0
290
     0
  0
SCALE
  5
702E3
102
{ACAD_REACTORS
330
702C2
102
}
330
702C2
100
AcDbScale
 70
     0
300
3/8" = 1'-0"
140
0.375
141
12.0
290
     0
  0
SCALE
  5
702E4
102
{ACAD_REACTORS
330
702C2
102
}
330
702C2
100
AcDbScale
 70
     0
300
1/2" = 1'-0"
140
0.5
141
12.0
290
     0
  0
SCALE
  5
702E5
102
{ACAD_REACTORS
330
702C2
102
}
330
702C2
100
AcDbScale
 70
     0
300
3/4" = 1'-0"
140
0.75
141
12.0
290
     0
  0
SCALE
  5
702E6
102
{ACAD_REACTORS
330
702C2
102
}
330
702C2
100
AcDbScale
 70
     0
300
1" = 1'-0"
140
1.0
141
12.0
290
     0
  0
SCALE
  5
702E7
102
{ACAD_REACTORS
330
702C2
102
}
330
702C2
100
AcDbScale
 70
     0
300
1-1/2" = 1'-0"
140
1.5
141
12.0
290
     0
  0
SCALE
  5
702E8
102
{ACAD_REACTORS
330
702C2
102
}
330
702C2
100
AcDbScale
 70
     0
300
3" = 1'-0"
140
3.0
141
12.0
290
     0
  0
SCALE
  5
702E9
102
{ACAD_REACTORS
330
702C2
102
}
330
702C2
100
AcDbScale
 70
     0
300
6" = 1'-0"
140
6.0
141
12.0
290
     0
  0
SCALE
  5
702EA
102
{ACAD_REACTORS
330
702C2
102
}
330
702C2
100
AcDbScale
 70
     0
300
1'-0" = 1'-0"
140
12.0
141
12.0
290
     0
  0
TABLESTYLE
  5
702C6
102
{ACAD_XDICTIONARY
360
702C7
102
}
102
{ACAD_REACTORS
330
702C3
102
}
330
702C3
100
AcDbTableStyle
280
     0
  3
Standard
 70
     0
 71
     0
 40
0.06
 41
0.06
280
     0
281
     0
  7
Standard
140
0.18
170
     2
 62
     0
 63
     7
283
     0
 90
        4
 91
        0
  1

274
    -2
284
     1
 64
     0
275
    -2
285
     1
 65
     0
276
    -2
286
     1
 66
     0
277
    -2
287
     1
 67
     0
278
    -2
288
     1
 68
     0
279
    -2
289
     1
 69
     0
  7
Standard
140
0.25
170
     5
 62
     0
 63
     7
283
     0
 90
        4
 91
        0
  1

274
    -2
284
     1
 64
     0
275
    -2
285
     1
 65
     0
276
    -2
286
     1
 66
     0
277
    -2
287
     1
 67
     0
278
    -2
288
     1
 68
     0
279
    -2
289
     1
 69
     0
  7
Standard
140
0.18
170
     5
 62
     0
 63
     7
283
     0
 90
        4
 91
        0
  1

274
    -2
284
     1
 64
     0
275
    -2
285
     1
 65
     0
276
    -2
286
     1
 66
     0
277
    -2
287
     1
 67
     0
278
    -2
288
     1
 68
     0
279
    -2
289
     1
 69
     0
  0
VISUALSTYLE
  5
702A7
102
{ACAD_REACTORS
330
702A8
102
}
330
702A8
100
AcDbVisualStyle
  2
2dWireframe
 70
     4
177
     3
291
     0
 70
    58
 90
        0
176
     1
 90
        2
176
     1
 90
        0
176
     1
 90
        0
176
     1
 40
0.6
176
     1
 40
30.0
176
     1
 62
     7
420
 16777215
176
     1
 90
        1
176
     1
 90
        4
176
     1
 62
     7
176
     1
 62
   257
176
     1
 90
        1
176
     1
 90
        1
176
     1
 40
1.0
176
     1
 90
        0
176
     1
 62
   257
176
     1
 40
1.0
176
     1
 90
        1
176
     1
 90
        6
176
     1
 90
        2
176
     1
 62
     7
176
     1
 90
        5
176
     1
 90
        0
176
     1
 90
        0
176
     1
290
     0
176
     1
 90
        1
176
     1
 40
0.0
176
     1
 90
        0
176
     1
290
     1
176
     1
290
     1
176
     1
290
     0
176
     1
290
     0
176
     1
290
     0
176
     1
290
     0
176
     1
290
     0
176
     1
290
     0
176
     1
290
     0
176
     1
 90
       50
176
     1
 40
0.0
176
     1
 40
1.0
176
     1
 90
        0
176
     1
 62
    18
420
        0
176
     1
 90
       50
176
     1
 90
        3
176
     1
 62
     5
420
      255
176
     1
290
     0
176
     1
 90
       50
176
     1
 90
       50
176
     1
 90
       50
176
     1
290
     0
176
     1
 90
       50
176
     1
 62
   256
176
     0
 40
1.0
176
     0
 90
        2
176
     1
  1
strokes_ogs.tif
176
     1
290
     0
176
     1
 40
1.0
176
     1
 40
1.0
176
     1
  0
VISUALSTYLE
  5
702C8
102
{ACAD_REACTORS
330
702A8
102
}
330
702A8
100
AcDbVisualStyle
  2
Realistic
 70
     8
177
     3
291
     0
 70
    58
 90
        2
176
     1
 90
        2
176
     1
 90
        0
176
     1
 90
        0
176
     1
 40
0.6
176
     1
 40
30.0
176
     1
 62
     7
420
 16777215
176
     1
 90
        1
176
     1
 90
        0
176
     1
 62
     7
176
     1
 62
   257
176
     1
 90
        1
176
     1
 90
        1
176
     1
 40
1.0
176
     1
 90
        8
176
     1
 62
     8
420
  7895160
176
     1
 40
1.0
176
     1
 90
        1
176
     1
 90
        6
176
     1
 90
        2
176
     1
 62
     7
176
     1
 90
        5
176
     1
 90
        0
176
     1
 90
        0
176
     1
290
     0
176
     1
 90
       13
176
     1
 40
0.0
176
     1
 90
        0
176
     1
290
     0
176
     1
290
     1
176
     1
290
     1
176
     1
290
     0
176
     1
290
     0
176
     1
290
     0
176
     1
290
     0
176
     1
290
     0
176
     1
290
     0
176
     1
 90
       50
176
     1
 40
0.0
176
     1
 40
1.0
176
     1
 90
        0
176
     1
 62
    18
420
        0
176
     1
 90
       50
176
     1
 90
        3
176
     1
 62
     5
420
      255
176
     1
290
     0
176
     1
 90
       50
176
     1
 90
       50
176
     1
 90
       50
176
     1
290
     0
176
     1
 90
       50
176
     1
 62
   256
176
     0
 40
1.0
176
     0
 90
        2
176
     1
  1
strokes_ogs.tif
176
     1
290
     0
176
     1
 40
1.0
176
     1
 40
1.0
176
     1
  0
VISUALSTYLE
  5
702C9
102
{ACAD_REACTORS
330
702A8
102
}
330
702A8
100
AcDbVisualStyle
  2
Wireframe
 70
     5
177
     3
291
     0
 70
    58
 90
        0
176
     1
 90
        2
176
     1
 90
        0
176
     1
 90
        0
176
     1
 40
0.6
176
     1
 40
30.0
176
     1
 62
     7
420
 16777215
176
     1
 90
        1
176
     1
 90
        4
176
     1
 62
     7
176
     1
 62
   257
176
     1
 90
        1
176
     1
 90
        1
176
     1
 40
1.0
176
     1
 90
        0
176
     1
 62
   257
176
     1
 40
1.0
176
     1
 90
        1
176
     1
 90
        6
176
     1
 90
        2
176
     1
 62
     7
176
     1
 90
        3
176
     1
 90
        0
176
     1
 90
        0
176
     1
290
     0
176
     1
 90
        1
176
     1
 40
0.0
176
     1
 90
        0
176
     1
290
     0
176
     1
290
     1
176
     1
290
     1
176
     1
290
     0
176
     1
290
     0
176
     1
290
     0
176
     1
290
     0
176
     1
290
     0
176
     1
290
     0
176
     1
 90
       50
176
     1
 40
0.0
176
     1
 40
1.0
176
     1
 90
        0
176
     1
 62
    18
420
        0
176
     1
 90
       50
176
     1
 90
        3
176
     1
 62
     5
420
      255
176
     1
290
     0
176
     1
 90
       50
176
     1
 90
       50
176
     1
 90
       50
176
     1
290
     0
176
     1
 90
       50
176
     1
 62
   256
176
     0
 40
1.0
176
     0
 90
        2
176
     1
  1
strokes_ogs.tif
176
     1
290
     0
176
     1
 40
1.0
176
     1
 40
1.0
176
     1
  0
DICTIONARYVAR
  5
703E9
102
{ACAD_REACTORS
330
703E3
102
}
330
703E3
100
DictionaryVariables
280
     0
  1
1:1
  0
DICTIONARYVAR
  5
703E5
102
{ACAD_REACTORS
330
703E3
102
}
330
703E3
100
DictionaryVariables
280
     0
  1
STANDARD
  0
DICTIONARYVAR
  5
703E4
102
{ACAD_REACTORS
330
703E3
102
}
330
703E3
100
DictionaryVariables
280
     0
  1
STANDARD
  0
DICTIONARYVAR
  5
703E6
102
{ACAD_REACTORS
330
703E3
102
}
330
703E3
100
DictionaryVariables
280
     0
  1

  0
DICTIONARYVAR
  5
703E7
102
{ACAD_REACTORS
330
703E3
102
}
330
703E3
100
DictionaryVariables
280
     0
  1

  0
DICTIONARYVAR
  5
703EA
102
{ACAD_REACTORS
330
703E3
102
}
330
703E3
100
DictionaryVariables
280
     0
  1
1
  0
DICTIONARYVAR
  5
703EB
102
{ACAD_REACTORS
330
703E3
102
}
330
703E3
100
DictionaryVariables
280
     0
  1
15
  0
DICTIONARYVAR
  5
703E8
102
{ACAD_REACTORS
330
703E3
102
}
330
703E3
100
DictionaryVariables
280
     0
  1
0
  0
DICTIONARY
  5
70297
330
70296
100
AcDbDictionary
280
     1
281
     1
  0
DICTIONARY
  5
70291
330
7028F
100
AcDbDictionary
280
     1
281
     1
  0
DICTIONARY
  5
702BA
330
702B9
100
AcDbDictionary
280
     1
281
     1
  3
BUMPTILE
360
702BB
  3
DIFFUSETILE
360
702BC
  3
OPACITYTILE
360
702BD
  3
REFLECTIONTILE
360
702BE
  3
REFRACTIONTILE
360
702BF
  3
SPECULARTILE
360
702C0
  0
DICTIONARY
  5
702B2
330
702B1
100
AcDbDictionary
280
     1
281
     1
  3
BUMPTILE
360
702B3
  3
DIFFUSETILE
360
702B4
  3
OPACITYTILE
360
702B5
  3
REFLECTIONTILE
360
702B6
  3
REFRACTIONTILE
360
702B7
  3
SPECULARTILE
360
702B8
  0
DICTIONARY
  5
70286
330
70284
100
AcDbDictionary
280
     1
281
     1
  3
BUMPTILE
360
70287
  3
DIFFUSETILE
360
70288
  3
OPACITYTILE
360
70289
  3
REFLECTIONTILE
360
7028A
  3
REFRACTIONTILE
360
7028B
  3
SPECULARTILE
360
7028C
  0
DICTIONARY
  5
702C7
330
702C6
100
AcDbDictionary
280
     1
281
     1
  3
ACAD_ROUNDTRIP_2008_TABLESTYLE_CELLSTYLEMAP
360
703EC
  0
XRECORD
  5
702BB
102
{ACAD_REACTORS
330
702BA
102
}
330
702BA
100
AcDbXrecord
280
     1
270
     1
271
     1
  0
XRECORD
  5
702BC
102
{ACAD_REACTORS
330
702BA
102
}
330
702BA
100
AcDbXrecord
280
     1
270
     1
271
     1
  0
XRECORD
  5
702BD
102
{ACAD_REACTORS
330
702BA
102
}
330
702BA
100
AcDbXrecord
280
     1
270
     1
271
     1
  0
XRECORD
  5
702BE
102
{ACAD_REACTORS
330
702BA
102
}
330
702BA
100
AcDbXrecord
280
     1
270
     1
271
     1
  0
XRECORD
  5
702BF
102
{ACAD_REACTORS
330
702BA
102
}
330
702BA
100
AcDbXrecord
280
     1
270
     1
271
     1
  0
XRECORD
  5
702C0
102
{ACAD_REACTORS
330
702BA
102
}
330
702BA
100
AcDbXrecord
280
     1
270
     1
271
     1
  0
XRECORD
  5
702B3
102
{ACAD_REACTORS
330
702B2
102
}
330
702B2
100
AcDbXrecord
280
     1
270
     1
271
     1
  0
XRECORD
  5
702B4
102
{ACAD_REACTORS
330
702B2
102
}
330
702B2
100
AcDbXrecord
280
     1
270
     1
271
     1
  0
XRECORD
  5
702B5
102
{ACAD_REACTORS
330
702B2
102
}
330
702B2
100
AcDbXrecord
280
     1
270
     1
271
     1
  0
XRECORD
  5
702B6
102
{ACAD_REACTORS
330
702B2
102
}
330
702B2
100
AcDbXrecord
280
     1
270
     1
271
     1
  0
XRECORD
  5
702B7
102
{ACAD_REACTORS
330
702B2
102
}
330
702B2
100
AcDbXrecord
280
     1
270
     1
271
     1
  0
XRECORD
  5
702B8
102
{ACAD_REACTORS
330
702B2
102
}
330
702B2
100
AcDbXrecord
280
     1
270
     1
271
     1
  0
XRECORD
  5
70287
102
{ACAD_REACTORS
330
70286
102
}
330
70286
100
AcDbXrecord
280
     1
270
     1
271
     1
  0
XRECORD
  5
70288
102
{ACAD_REACTORS
330
70286
102
}
330
70286
100
AcDbXrecord
280
     1
270
     1
271
     1
  0
XRECORD
  5
70289
102
{ACAD_REACTORS
330
70286
102
}
330
70286
100
AcDbXrecord
280
     1
270
     1
271
     1
  0
XRECORD
  5
7028A
102
{ACAD_REACTORS
330
70286
102
}
330
70286
100
AcDbXrecord
280
     1
270
     1
271
     1
  0
XRECORD
  5
7028B
102
{ACAD_REACTORS
330
70286
102
}
330
70286
100
AcDbXrecord
280
     1
270
     1
271
     1
  0
XRECORD
  5
7028C
102
{ACAD_REACTORS
330
70286
102
}
330
70286
100
AcDbXrecord
280
     1
270
     1
271
     1
  0
CELLSTYLEMAP
  5
703EC
102
{ACAD_REACTORS
330
702C7
102
}
330
702C7
100
AcDbCellStyleMap
 90
        3
300
CELLSTYLE
  1
TABLEFORMAT_BEGIN
 90
        5
170
     1
 91
        0
 92
    32768
 62
   257
 93
        1
300
CONTENTFORMAT
  1
CONTENTFORMAT_BEGIN
 90
        0
 91
        0
 92
        4
 93
        0
300

 40
0.0
140
1.0
 94
        5
 62
     0
340
7029E
144
0.25
309
CONTENTFORMAT_END
171
     0
 94
        6
 95
        1
302
GRIDFORMAT
  1
GRIDFORMAT_BEGIN
 90
        0
 91
        1
 62
     0
 92
       -2
340
0
 93
        0
 40
0.045
309
GRIDFORMAT_END
 95
        2
302
GRIDFORMAT
  1
GRIDFORMAT_BEGIN
 90
        0
 91
        1
 62
     0
 92
       -2
340
0
 93
        0
 40
0.045
309
GRIDFORMAT_END
 95
        4
302
GRIDFORMAT
  1
GRIDFORMAT_BEGIN
 90
        0
 91
        1
 62
     0
 92
       -2
340
0
 93
        0
 40
0.045
309
GRIDFORMAT_END
 95
        8
302
GRIDFORMAT
  1
GRIDFORMAT_BEGIN
 90
        0
 91
        1
 62
     0
 92
       -2
340
0
 93
        0
 40
0.045
309
GRIDFORMAT_END
 95
       16
302
GRIDFORMAT
  1
GRIDFORMAT_BEGIN
 90
        0
 91
        1
 62
     0
 92
       -2
340
0
 93
        0
 40
0.045
309
GRIDFORMAT_END
 95
       32
302
GRIDFORMAT
  1
GRIDFORMAT_BEGIN
 90
        0
 91
        1
 62
     0
 92
       -2
340
0
 93
        0
 40
0.045
309
GRIDFORMAT_END
309
TABLEFORMAT_END
  1
CELLSTYLE_BEGIN
 90
        1
 91
        1
300
_TITLE
309
CELLSTYLE_END
300
CELLSTYLE
  1
TABLEFORMAT_BEGIN
 90
        5
170
     1
 91
        0
 92
        0
 62
   257
 93
        1
300
CONTENTFORMAT
  1
CONTENTFORMAT_BEGIN
 90
        0
 91
        0
 92
        4
 93
        0
300

 40
0.0
140
1.0
 94
        5
 62
     0
340
7029E
144
0.18
309
CONTENTFORMAT_END
171
     0
 94
        6
 95
        1
302
GRIDFORMAT
  1
GRIDFORMAT_BEGIN
 90
        0
 91
        1
 62
     0
 92
       -2
340
0
 93
        0
 40
0.045
309
GRIDFORMAT_END
 95
        2
302
GRIDFORMAT
  1
GRIDFORMAT_BEGIN
 90
        0
 91
        1
 62
     0
 92
       -2
340
0
 93
        0
 40
0.045
309
GRIDFORMAT_END
 95
        4
302
GRIDFORMAT
  1
GRIDFORMAT_BEGIN
 90
        0
 91
        1
 62
     0
 92
       -2
340
0
 93
        0
 40
0.045
309
GRIDFORMAT_END
 95
        8
302
GRIDFORMAT
  1
GRIDFORMAT_BEGIN
 90
        0
 91
        1
 62
     0
 92
       -2
340
0
 93
        0
 40
0.045
309
GRIDFORMAT_END
 95
       16
302
GRIDFORMAT
  1
GRIDFORMAT_BEGIN
 90
        0
 91
        1
 62
     0
 92
       -2
340
0
 93
        0
 40
0.045
309
GRIDFORMAT_END
 95
       32
302
GRIDFORMAT
  1
GRIDFORMAT_BEGIN
 90
        0
 91
        1
 62
     0
 92
       -2
340
0
 93
        0
 40
0.045
309
GRIDFORMAT_END
309
TABLEFORMAT_END
  1
CELLSTYLE_BEGIN
 90
        2
 91
        1
300
_HEADER
309
CELLSTYLE_END
300
CELLSTYLE
  1
TABLEFORMAT_BEGIN
 90
        5
170
     1
 91
        0
 92
        0
 62
   257
 93
        1
300
CONTENTFORMAT
  1
CONTENTFORMAT_BEGIN
 90
        0
 91
        0
 92
        4
 93
        0
300

 40
0.0
140
1.0
 94
        2
 62
     0
340
7029E
144
0.18
309
CONTENTFORMAT_END
171
     0
 94
        6
 95
        1
302
GRIDFORMAT
  1
GRIDFORMAT_BEGIN
 90
        0
 91
        1
 62
     0
 92
       -2
340
0
 93
        0
 40
0.045
309
GRIDFORMAT_END
 95
        2
302
GRIDFORMAT
  1
GRIDFORMAT_BEGIN
 90
        0
 91
        1
 62
     0
 92
       -2
340
0
 93
        0
 40
0.045
309
GRIDFORMAT_END
 95
        4
302
GRIDFORMAT
  1
GRIDFORMAT_BEGIN
 90
        0
 91
        1
 62
     0
 92
       -2
340
0
 93
        0
 40
0.045
309
GRIDFORMAT_END
 95
        8
302
GRIDFORMAT
  1
GRIDFORMAT_BEGIN
 90
        0
 91
        1
 62
     0
 92
       -2
340
0
 93
        0
 40
0.045
309
GRIDFORMAT_END
 95
       16
302
GRIDFORMAT
  1
GRIDFORMAT_BEGIN
 90
        0
 91
        1
 62
     0
 92
       -2
340
0
 93
        0
 40
0.045
309
GRIDFORMAT_END
 95
       32
302
GRIDFORMAT
  1
GRIDFORMAT_BEGIN
 90
        0
 91
        1
 62
     0
 92
       -2
340
0
 93
        0
 40
0.045
309
GRIDFORMAT_END
309
TABLEFORMAT_END
  1
CELLSTYLE_BEGIN
 90
        3
 91
        2
300
_DATA
309
CELLSTYLE_END
  0
ENDSEC
  0
SECTION
  2
ACDSDATA
 70
     2
 71
     6
  0
ACDSSCHEMA
 90
        0
  1
AcDb_Thumbnail_Schema
  2
AcDbDs::ID
280
    10
 91
        8
  2
Thumbnail_Data
280
    15
 91
        0
101
ACDSRECORD
 95
        0
 90
        1
  2
AcDbDs::TreatedAsObjectData
280
     1
291
     1
101
ACDSRECORD
 95
        0
 90
        2
  2
AcDbDs::Legacy
280
     1
291
     1
101
ACDSRECORD
  1
AcDbDs::ID
 90
        3
  2
AcDs:Indexable
280
     1
291
     1
101
ACDSRECORD
  1
AcDbDs::ID
 90
        4
  2
AcDbDs::HandleAttribute
280
     7
282
     1
  0
ACDSSCHEMA
 90
        1
  1
AcDbDs::TreatedAsObjectDataSchema
  2
AcDbDs::TreatedAsObjectData
280
     1
 91
        0
  0
ACDSSCHEMA
 90
        2
  1
AcDbDs::LegacySchema
  2
AcDbDs::Legacy
280
     1
 91
        0
  0
ACDSSCHEMA
 90
        3
  1
AcDbDs::IndexedPropertySchema
  2
AcDs:Indexable
280
     1
 91
        0
  0
ACDSSCHEMA
 90
        4
  1
AcDbDs::HandleAttributeSchema
  2
AcDbDs::HandleAttribute
280
     7
 91
        1
284
     1
  0
ACDSRECORD
 90
        0
  2
AcDbDs::ID
280
    10
320
70296
  2
Thumbnail_Data
280
    15
 94
     1183
310
89504E470D0A1A0A0000000D4948445200000100000000C508030000008CFEDCE700000300504C5445FFFFFF000000FFFFFF0000000000000000000000000000000000000000000000000000330000660000990000CC0000FF0033000033330033660033990033CC0033FF0066000066330066660066990066CC0066FF0099
310
000099330099660099990099CC0099FF00CC0000CC3300CC6600CC9900CCCC00CCFF00FF0000FF3300FF6600FF9900FFCC00FFFF3300003300333300663300993300CC3300FF3333003333333333663333993333CC3333FF3366003366333366663366993366CC3366FF3399003399333399663399993399CC3399FF33CC00
310
33CC3333CC6633CC9933CCCC33CCFF33FF0033FF3333FF6633FF9933FFCC33FFFF6600006600336600666600996600CC6600FF6633006633336633666633996633CC6633FF6666006666336666666666996666CC6666FF6699006699336699666699996699CC6699FF66CC0066CC3366CC6666CC9966CCCC66CCFF66FF0066
310
FF3366FF6666FF9966FFCC66FFFF9900009900339900669900999900CC9900FF9933009933339933669933999933CC9933FF9966009966339966669966999966CC9966FF9999009999339999669999999999CC9999FF99CC0099CC3399CC6699CC9999CCCC99CCFF99FF0099FF3399FF6699FF9999FFCC99FFFFCC0000CC00
310
33CC0066CC0099CC00CCCC00FFCC3300CC3333CC3366CC3399CC33CCCC33FFCC6600CC6633CC6666CC6699CC66CCCC66FFCC9900CC9933CC9966CC9999CC99CCCC99FFCCCC00CCCC33CCCC66CCCC99CCCCCCCCCCFFCCFF00CCFF33CCFF66CCFF99CCFFCCCCFFFFFF0000FF0033FF0066FF0099FF00CCFF00FFFF3300FF3333
310
FF3366FF3399FF33CCFF33FFFF6600FF6633FF6666FF6699FF66CCFF66FFFF9900FF9933FF9966FF9999FF99CCFF99FFFFCC00FFCC33FFCC66FFCC99FFCCCCFFCCFFFFFF00FFFF33FFFF66FFFF99FFFFCCFFFFFF0000000D0D0D1A1A1A2828283535354343435050505D5D5D6B6B6B787878868686939393A1A1A1AEAEAEBB
310
BBBBC9C9C9D6D6D6E4E4E4F1F1F1FFFFFF000000000000000000000000000000000000000000000000000000000000790CAC0F0000015A4944415478DAEDD8410A8340100440FFFFCCF9C09EE61E104224896014844D579F64F420A587DE592A3A632CD5C101100F500500C0F36ACDF6D636BFCEEBAEF9E9177D0788FBF600
310
000000000000004D1000000000000000100F50FB4F4C9E8B5578FAFF0300000000000000000000000000000000B00BD069000D0000000000000000A009020000000000000000000000000000000052013A0DA001000000000000000000A8C2000000000000000000000000000000402A40FC420400000000000000002016C0
310
5900000000000000000000000000000000C803885F88000000000000000000C402380B0000000000000000000000000000000000E2003A0DA0010000000000000000344100000000000000000000000000000000C0E7C660F21C04080D0000000000000000C01F54DE73151900000000000000D0AFCDCFB6227CDDAB1C9CD7
310
5DF3D32FAA0902000000C00A109E658C110DF0000E6CC6FBCCF8EC2E0000000049454E44AE426082
  0
ACDSRECORD
 90
        0
  2
AcDbDs::ID
280
    10
320
7028F
  2
Thumbnail_Data
280
    15
 94
     1017
310
89504E470D0A1A0A0000000D4948445200000100000000890803000000F46416F000000300504C5445FEFCF0000000FFFFFF0000000000000000000000000000000000000000000000000000330000660000990000CC0000FF0033000033330033660033990033CC0033FF0066000066330066660066990066CC0066FF0099
310
000099330099660099990099CC0099FF00CC0000CC3300CC6600CC9900CCCC00CCFF00FF0000FF3300FF6600FF9900FFCC00FFFF3300003300333300663300993300CC3300FF3333003333333333663333993333CC3333FF3366003366333366663366993366CC3366FF3399003399333399663399993399CC3399FF33CC00
310
33CC3333CC6633CC9933CCCC33CCFF33FF0033FF3333FF6633FF9933FFCC33FFFF6600006600336600666600996600CC6600FF6633006633336633666633996633CC6633FF6666006666336666666666996666CC6666FF6699006699336699666699996699CC6699FF66CC0066CC3366CC6666CC9966CCCC66CCFF66FF0066
310
FF3366FF6666FF9966FFCC66FFFF9900009900339900669900999900CC9900FF9933009933339933669933999933CC9933FF9966009966339966669966999966CC9966FF9999009999339999669999999999CC9999FF99CC0099CC3399CC6699CC9999CCCC99CCFF99FF0099FF3399FF6699FF9999FFCC99FFFFCC0000CC00
310
33CC0066CC0099CC00CCCC00FFCC3300CC3333CC3366CC3399CC33CCCC33FFCC6600CC6633CC6666CC6699CC66CCCC66FFCC9900CC9933CC9966CC9999CC99CCCC99FFCCCC00CCCC33CCCC66CCCC99CCCCCCCCCCFFCCFF00CCFF33CCFF66CCFF99CCFFCCCCFFFFFF0000FF0033FF0066FF0099FF00CCFF00FFFF3300FF3333
310
FF3366FF3399FF33CCFF33FFFF6600FF6633FF6666FF6699FF66CCFF66FFFF9900FF9933FF9966FF9999FF99CCFF99FFFFCC00FFCC33FFCC66FFCC99FFCCCCFFCCFFFFFF00FFFF33FFFF66FFFF99FFFFCCFFFFFF0000000D0D0D1A1A1A2828283535354343435050505D5D5D6B6B6B787878868686939393A1A1A1AEAEAEBB
310
BBBBC9C9C9D6D6D6E4E4E4F1F1F1FFFFFF0000000000000000000000000000000000000000000000000000000000007C77BAA7000000B44944415478DAEDD0310100000C0220FBB7B48931760C22903E1701020408102040800001020408102040800001020408102040800001020408102040800001020408102040800001
310
020408102040800001020408102040800001020408102040800001020408102040800001020408102040800001020408102040800001020408102040800001020408102040800001020408102040800001020408102040800001020408102040800001020408102040C099016B33700943E05F3C0000000049454E44AE4260
310
82
  0
ENDSEC
  0
EOF
