  0
SECTION
  2
HEADER
  9
$ACADVER
  1
AC1027
  9
$ACADMAINTVER
 70
    55
  9
$DWGCODEPAGE
  3
ANSI_1252
  9
$AUTHOR
  1
WAEngineering1
  9
$LASTSAVEDBY
  1
WAMarketing2
  9
$REQUIREDVERSIONS
160
                 0
  9
$INSBASE
 10
0.0
 20
0.0
 30
0.0
  9
$EXTMIN
 10
1374.367
 20
-1349.707
 30
0.0
  9
$EXTMAX
 10
5084.168
 20
1521.296
 30
0.0
  9
$LIMMIN
 10
-6152.690011
 20
-9296.163011
  9
$LIMMAX
 10
12611.225011
 20
9467.752011
  9
$ORTHOMODE
 70
     0
  9
$REGENMODE
 70
     1
  9
$FILLMODE
 70
     1
  9
$QTEXTMODE
 70
     0
  9
$MIRRTEXT
 70
     0
  9
$LTSCALE
 40
1.0
  9
$ATTMODE
 70
     1
  9
$TEXTSIZE
 40
100.0
  9
$TRACEWID
 40
0.05
  9
$TEXTSTYLE
  7
Standard
  9
$CLAYER
  8
Level 8
  9
$CELTYPE
  6
Continuous
  9
$CECOLOR
 62
    98
  9
$CELTSCALE
 40
1.0
  9
$DISPSILH
 70
     0
  9
$DIMSCALE
 40
1.0
  9
$DIMASZ
 40
0.18
  9
$DIMEXO
 40
0.0625
  9
$DIMDLI
 40
0.38
  9
$DIMRND
 40
0.0
  9
$DIMDLE
 40
0.0
  9
$DIMEXE
 40
0.18
  9
$DIMTP
 40
0.0
  9
$DIMTM
 40
0.0
  9
$DIMTXT
 40
0.18
  9
$DIMCEN
 40
0.09
  9
$DIMTSZ
 40
0.0
  9
$DIMTOL
 70
     0
  9
$DIMLIM
 70
     0
  9
$DIMTIH
 70
     1
  9
$DIMTOH
 70
     1
  9
$DIMSE1
 70
     0
  9
$DIMSE2
 70
     0
  9
$DIMTAD
 70
     0
  9
$DIMZIN
 70
     0
  9
$DIMBLK
  1

  9
$DIMASO
 70
     1
  9
$DIMSHO
 70
     1
  9
$DIMPOST
  1

  9
$DIMAPOST
  1

  9
$DIMALT
 70
     0
  9
$DIMALTD
 70
     2
  9
$DIMALTF
 40
25.4
  9
$DIMLFAC
 40
1.0
  9
$DIMTOFL
 70
     0
  9
$DIMTVP
 40
0.0
  9
$DIMTIX
 70
     0
  9
$DIMSOXD
 70
     0
  9
$DIMSAH
 70
     0
  9
$DIMBLK1
  1

  9
$DIMBLK2
  1

  9
$DIMSTYLE
  2
Standard
  9
$DIMCLRD
 70
     0
  9
$DIMCLRE
 70
     0
  9
$DIMCLRT
 70
     0
  9
$DIMTFAC
 40
1.0
  9
$DIMGAP
 40
0.09
  9
$DIMJUST
 70
     0
  9
$DIMSD1
 70
     0
  9
$DIMSD2
 70
     0
  9
$DIMTOLJ
 70
     1
  9
$DIMTZIN
 70
     0
  9
$DIMALTZ
 70
     0
  9
$DIMALTTZ
 70
     0
  9
$DIMUPT
 70
     0
  9
$DIMDEC
 70
     4
  9
$DIMTDEC
 70
     4
  9
$DIMALTU
 70
     2
  9
$DIMALTTD
 70
     2
  9
$DIMTXSTY
  7
Standard
  9
$DIMAUNIT
 70
     0
  9
$DIMADEC
 70
     0
  9
$DIMALTRND
 40
0.0
  9
$DIMAZIN
 70
     0
  9
$DIMDSEP
 70
    46
  9
$DIMATFIT
 70
     3
  9
$DIMFRAC
 70
     0
  9
$DIMLDRBLK
  1

  9
$DIMLUNIT
 70
     2
  9
$DIMLWD
 70
    -2
  9
$DIMLWE
 70
    -2
  9
$DIMTMOVE
 70
     0
  9
$DIMFXL
 40
1.0
  9
$DIMFXLON
 70
     0
  9
$DIMJOGANG
 40
0.785398
  9
$DIMTFILL
 70
     0
  9
$DIMTFILLCLR
 70
     0
  9
$DIMARCSYM
 70
     0
  9
$DIMLTYPE
  6

  9
$DIMLTEX1
  6

  9
$DIMLTEX2
  6

  9
$DIMTXTDIRECTION
 70
     0
  9
$LUNITS
 70
     2
  9
$LUPREC
 70
     0
  9
$SKETCHINC
 40
0.1
  9
$FILLETRAD
 40
0.0
  9
$AUNITS
 70
     0
  9
$AUPREC
 70
     0
  9
$MENU
  1
.
  9
$ELEVATION
 40
0.0
  9
$PELEVATION
 40
0.0
  9
$THICKNESS
 40
0.0
  9
$LIMCHECK
 70
     0
  9
$CHAMFERA
 40
0.0
  9
$CHAMFERB
 40
0.0
  9
$CHAMFERC
 40
0.0
  9
$CHAMFERD
 40
0.0
  9
$SKPOLY
 70
     0
  9
$TDCREATE
 40
2454145.111357350
  9
$TDUCREATE
 40
2454144.778024017
  9
$TDUPDATE
 40
2455657.145108565
  9
$TDUUPDATE
 40
2455656.811775231
  9
$TDINDWG
 40
0.0262176852
  9
$TDUSRTIMER
 40
0.0262175000
  9
$USRTIMER
 70
     1
  9
$ANGBASE
 50
0.0
  9
$ANGDIR
 70
     0
  9
$PDMODE
 70
     0
  9
$PDSIZE
 40
0.0
  9
$PLINEWID
 40
0.0
  9
$SPLFRAME
 70
     0
  9
$SPLINETYPE
 70
     6
  9
$SPLINESEGS
 70
     8
  9
$HANDSEED
  5
70244
  9
$SURFTAB1
 70
     6
  9
$SURFTAB2
 70
     6
  9
$SURFTYPE
 70
     6
  9
$SURFU
 70
     6
  9
$SURFV
 70
     6
  9
$UCSBASE
  2

  9
$UCSNAME
  2

  9
$UCSORG
 10
0.0
 20
0.0
 30
0.0
  9
$UCSXDIR
 10
1.0
 20
0.0
 30
0.0
  9
$UCSYDIR
 10
0.0
 20
1.0
 30
0.0
  9
$UCSORTHOREF
  2

  9
$UCSORTHOVIEW
 70
     0
  9
$UCSORGTOP
 10
0.0
 20
0.0
 30
0.0
  9
$UCSORGBOTTOM
 10
0.0
 20
0.0
 30
0.0
  9
$UCSORGLEFT
 10
0.0
 20
0.0
 30
0.0
  9
$UCSORGRIGHT
 10
0.0
 20
0.0
 30
0.0
  9
$UCSORGFRONT
 10
0.0
 20
0.0
 30
0.0
  9
$UCSORGBACK
 10
0.0
 20
0.0
 30
0.0
  9
$PUCSBASE
  2

  9
$PUCSNAME
  2

  9
$PUCSORG
 10
0.0
 20
0.0
 30
0.0
  9
$PUCSXDIR
 10
1.0
 20
0.0
 30
0.0
  9
$PUCSYDIR
 10
0.0
 20
1.0
 30
0.0
  9
$PUCSORTHOREF
  2

  9
$PUCSORTHOVIEW
 70
     0
  9
$PUCSORGTOP
 10
0.0
 20
0.0
 30
0.0
  9
$PUCSORGBOTTOM
 10
0.0
 20
0.0
 30
0.0
  9
$PUCSORGLEFT
 10
0.0
 20
0.0
 30
0.0
  9
$PUCSORGRIGHT
 10
0.0
 20
0.0
 30
0.0
  9
$PUCSORGFRONT
 10
0.0
 20
0.0
 30
0.0
  9
$PUCSORGBACK
 10
0.0
 20
0.0
 30
0.0
  9
$USERI1
 70
     0
  9
$USERI2
 70
     0
  9
$USERI3
 70
     0
  9
$USERI4
 70
     0
  9
$USERI5
 70
     0
  9
$USERR1
 40
0.0
  9
$USERR2
 40
0.0
  9
$USERR3
 40
0.0
  9
$USERR4
 40
0.0
  9
$USERR5
 40
0.0
  9
$WORLDVIEW
 70
     1
  9
$SHADEDGE
 70
     3
  9
$SHADEDIF
 70
    70
  9
$TILEMODE
 70
     1
  9
$MAXACTVP
 70
    64
  9
$PINSBASE
 10
0.0
 20
0.0
 30
0.0
  9
$PLIMCHECK
 70
     0
  9
$PEXTMIN
 10
1.05
 20
0.8
 30
0.0
  9
$PEXTMAX
 10
9.45
 20
7.2
 30
0.0
  9
$PLIMMIN
 10
-0.25
 20
-0.25
  9
$PLIMMAX
 10
10.75
 20
8.25
  9
$UNITMODE
 70
     0
  9
$VISRETAIN
 70
     1
  9
$PLINEGEN
 70
     0
  9
$PSLTSCALE
 70
     0
  9
$TREEDEPTH
 70
  3020
  9
$CMLSTYLE
  2
Standard
  9
$CMLJUST
 70
     0
  9
$CMLSCALE
 40
1.0
  9
$PROXYGRAPHICS
 70
     1
  9
$MEASUREMENT
 70
     0
  9
$CELWEIGHT
370
     0
  9
$ENDCAPS
280
     0
  9
$JOINSTYLE
280
     0
  9
$LWDISPLAY
290
     1
  9
$INSUNITS
 70
     4
  9
$HYPERLINKBASE
  1

  9
$STYLESHEET
  1

  9
$XEDIT
290
     1
  9
$CEPSNTYPE
380
     0
  9
$PSTYLEMODE
290
     1
  9
$FINGERPRINTGUID
  2
{D8C9BE76-25F9-448C-8F9B-E1A5938B1F20}
  9
$VERSIONGUID
  2
{5066CCA6-5121-4C7B-A04C-375F92FA871B}
  9
$EXTNAMES
290
     1
  9
$PSVPSCALE
 40
0.0
  9
$OLESTARTUP
290
     0
  9
$SORTENTS
280
   127
  9
$INDEXCTL
280
     0
  9
$HIDETEXT
280
     1
  9
$XCLIPFRAME
280
     0
  9
$HALOGAP
280
     0
  9
$OBSCOLOR
 70
   257
  9
$OBSLTYPE
280
     0
  9
$INTERSECTIONDISPLAY
280
     0
  9
$INTERSECTIONCOLOR
 70
   257
  9
$DIMASSOC
280
     1
  9
$PROJECTNAME
  1

  9
$CAMERADISPLAY
290
     0
  9
$LENSLENGTH
 40
50.0
  9
$CAMERAHEIGHT
 40
0.0
  9
$STEPSPERSEC
 40
2.0
  9
$STEPSIZE
 40
6.0
  9
$3DDWFPREC
 40
2.0
  9
$PSOLWIDTH
 40
0.25
  9
$PSOLHEIGHT
 40
4.0
  9
$LOFTANG1
 40
1.570796
  9
$LOFTANG2
 40
1.570796
  9
$LOFTMAG1
 40
0.0
  9
$LOFTMAG2
 40
0.0
  9
$LOFTPARAM
 70
     7
  9
$LOFTNORMALS
280
     1
  9
$LATITUDE
 40
37.795
  9
$LONGITUDE
 40
-122.394
  9
$NORTHDIRECTION
 40
0.0
  9
$TIMEZONE
 70
 -8000
  9
$LIGHTGLYPHDISPLAY
280
     1
  9
$TILEMODELIGHTSYNCH
280
     1
  9
$CMATERIAL
347
70171
  9
$SOLIDHIST
280
     1
  9
$SHOWHIST
280
     1
  9
$DWFFRAME
280
     2
  9
$DGNFRAME
280
     0
  9
$REALWORLDSCALE
290
     1
  9
$INTERFERECOLOR
 62
     1
  9
$INTERFEREOBJVS
345
70188
  9
$INTERFEREVPVS
346
70189
  9
$CSHADOW
280
     0
  9
$SHADOWPLANELOCATION
 40
0.0
  0
ENDSEC
  0
SECTION
  2
CLASSES
  0
CLASS
  1
ACDBDICTIONARYWDFLT
  2
AcDbDictionaryWithDefault
  3
ObjectDBX Classes
 90
        0
 91
        1
280
     0
281
     0
  0
CLASS
  1
DICTIONARYVAR
  2
AcDbDictionaryVar
  3
ObjectDBX Classes
 90
        0
 91
        8
280
     0
281
     0
  0
CLASS
  1
TABLESTYLE
  2
AcDbTableStyle
  3
ObjectDBX Classes
 90
     4095
 91
        1
280
     0
281
     0
  0
CLASS
  1
MATERIAL
  2
AcDbMaterial
  3
ObjectDBX Classes
 90
     1153
 91
        3
280
     0
281
     0
  0
CLASS
  1
VISUALSTYLE
  2
AcDbVisualStyle
  3
ObjectDBX Classes
 90
     4095
 91
        3
280
     0
281
     0
  0
CLASS
  1
SCALE
  2
AcDbScale
  3
ObjectDBX Classes
 90
     1153
 91
       33
280
     0
281
     0
  0
CLASS
  1
MLEADERSTYLE
  2
AcDbMLeaderStyle
  3
ACDB_MLEADERSTYLE_CLASS
 90
     4095
 91
        0
280
     0
281
     0
  0
CLASS
  1
EXACXREFPANELOBJECT
  2
ExAcXREFPanelObject
  3
EXAC_ESW
 90
     1025
 91
        0
280
     1
281
     0
  0
CLASS
  1
NPOCOLLECTION
  2
AcDbImpNonPersistentObjectsCollection
  3
ObjectDBX Classes
 90
     1153
 91
        0
280
     0
281
     0
  0
CLASS
  1
CELLSTYLEMAP
  2
AcDbCellStyleMap
  3
ObjectDBX Classes
 90
     1152
 91
        1
280
     0
281
     0
  0
CLASS
  1
ACDBSECTIONVIEWSTYLE
  2
AcDbSectionViewStyle
  3
ObjectDBX Classes
 90
     1025
 91
        0
280
     0
281
     0
  0
CLASS
  1
ACDBDETAILVIEWSTYLE
  2
AcDbDetailViewStyle
  3
ObjectDBX Classes
 90
     1025
 91
        0
280
     0
281
     0
  0
CLASS
  1
SORTENTSTABLE
  2
AcDbSortentsTable
  3
ObjectDBX Classes
 90
        0
 91
        1
280
     0
281
     0
  0
ENDSEC
  0
SECTION
  2
TABLES
  0
TABLE
  2
VPORT
  5
70165
330
0
100
AcDbSymbolTable
 70
     2
  0
VPORT
  5
4B
330
70165
100
AcDbSymbolTableRecord
100
AcDbViewportTableRecord
  2
*ACTIVE
 70
     0
 10
0.0
 20
0.0
 11
1.0
 21
1.0
 12
3229.2675
 22
85.7945
 13
0.0
 23
0.0
 14
1.0
 24
1.0
 15
1.0
 25
1.0
 16
0.0
 26
0.0
 36
1.0
 17
0.0
 27
0.0
 37
0.0
 40
2985.84312
 41
2.090493
 42
50.0
 43
0.0
 44
0.0
 50
0.0
 51
0.0
 71
     0
 72
   100
 73
     1
 74
     0
 75
     0
 76
     0
 77
     0
 78
     1
281
     0
 65
     1
110
0.0
120
0.0
130
0.0
111
1.0
121
0.0
131
0.0
112
0.0
122
1.0
132
0.0
 79
     0
146
0.0
 60
     3
 61
    10
292
     0
282
     1
141
0.0
142
0.0
 63
     7
421
 16777215
  0
ENDTAB
  0
TABLE
  2
LTYPE
  5
70160
330
0
100
AcDbSymbolTable
 70
     2
  0
LTYPE
  5
70161
330
70160
100
AcDbSymbolTableRecord
100
AcDbLinetypeTableRecord
  2
ByBlock
 70
     0
  3

 72
    65
 73
     0
 40
0.0
  0
LTYPE
  5
70162
330
70160
100
AcDbSymbolTableRecord
100
AcDbLinetypeTableRecord
  2
ByLayer
 70
     0
  3

 72
    65
 73
     0
 40
0.0
  0
LTYPE
  5
7014D
330
70160
100
AcDbSymbolTableRecord
100
AcDbLinetypeTableRecord
  2
Continuous
 70
     0
  3
Solid line
 72
    65
 73
     0
 40
0.0
  0
LTYPE
  5
70237
330
70160
100
AcDbSymbolTableRecord
100
AcDbLinetypeTableRecord
  2
DGN Style 2
 70
     0
  3
Dgn Style 2
 72
    65
 73
     2
 40
62.418828
 49
37.451297
 74
     0
 49
-24.967531
 74
     0
  0
ENDTAB
  0
TABLE
  2
LAYER
  5
7015A
102
{ACAD_XDICTIONARY
360
7015B
102
}
330
0
100
AcDbSymbolTable
 70
    65
  0
LAYER
  5
7013E
102
{ACAD_XDICTIONARY
360
7013F
102
}
330
7015A
100
AcDbSymbolTableRecord
100
AcDbLayerTableRecord
  2
0
 70
     0
 62
     7
  6
Continuous
370
    -3
390
70141
347
70144
348
0
1001
AcCmTransparency
1071
 33554687
  0
LAYER
  5
7
330
7015A
100
AcDbSymbolTableRecord
100
AcDbLayerTableRecord
  2
Level 1
 70
     0
 62
     7
  6
Continuous
370
     0
390
70141
347
70144
348
0
1001
AcCmTransparency
1071
 33554687
  0
LAYER
  5
8
330
7015A
100
AcDbSymbolTableRecord
100
AcDbLayerTableRecord
  2
Level 2
 70
     0
 62
     7
  6
Continuous
370
     0
390
70141
347
70144
348
0
1001
AcCmTransparency
1071
 33554687
  0
LAYER
  5
9
330
7015A
100
AcDbSymbolTableRecord
100
AcDbLayerTableRecord
  2
Level 3
 70
     0
 62
     7
  6
Continuous
370
     0
390
70141
347
70144
348
0
1001
AcCmTransparency
1071
 33554687
  0
LAYER
  5
A
330
7015A
100
AcDbSymbolTableRecord
100
AcDbLayerTableRecord
  2
Level 4
 70
     0
 62
     7
  6
Continuous
370
     0
390
70141
347
70144
348
0
1001
AcCmTransparency
1071
 33554687
  0
LAYER
  5
B
330
7015A
100
AcDbSymbolTableRecord
100
AcDbLayerTableRecord
  2
Level 5
 70
     0
 62
     7
  6
Continuous
370
     0
390
70141
347
70144
348
0
1001
AcCmTransparency
1071
 33554687
  0
LAYER
  5
C
330
7015A
100
AcDbSymbolTableRecord
100
AcDbLayerTableRecord
  2
Level 6
 70
     0
 62
     7
  6
Continuous
370
     0
390
70141
347
70144
348
0
1001
AcCmTransparency
1071
 33554687
  0
LAYER
  5
D
330
7015A
100
AcDbSymbolTableRecord
100
AcDbLayerTableRecord
  2
Level 7
 70
     0
 62
     7
  6
Continuous
370
     0
390
70141
347
70144
348
0
1001
AcCmTransparency
1071
 33554687
  0
LAYER
  5
E
330
7015A
100
AcDbSymbolTableRecord
100
AcDbLayerTableRecord
  2
Level 8
 70
     0
 62
     7
  6
Continuous
370
     0
390
70141
347
70144
348
0
1001
AcCmTransparency
1071
 33554687
  0
LAYER
  5
F
330
7015A
100
AcDbSymbolTableRecord
100
AcDbLayerTableRecord
  2
Level 9
 70
     0
 62
     7
  6
Continuous
370
     0
390
70141
347
70144
348
0
1001
AcCmTransparency
1071
 33554687
  0
LAYER
  5
10
330
7015A
100
AcDbSymbolTableRecord
100
AcDbLayerTableRecord
  2
Level 10
 70
     0
 62
     7
  6
Continuous
370
     0
390
70141
347
70144
348
0
1001
AcCmTransparency
1071
 33554687
  0
LAYER
  5
11
330
7015A
100
AcDbSymbolTableRecord
100
AcDbLayerTableRecord
  2
Level 11
 70
     0
 62
     7
  6
Continuous
370
     0
390
70141
347
70144
348
0
1001
AcCmTransparency
1071
 33554687
  0
LAYER
  5
12
330
7015A
100
AcDbSymbolTableRecord
100
AcDbLayerTableRecord
  2
Level 12
 70
     0
 62
     7
  6
Continuous
370
     0
390
70141
347
70144
348
0
1001
AcCmTransparency
1071
 33554687
  0
LAYER
  5
13
330
7015A
100
AcDbSymbolTableRecord
100
AcDbLayerTableRecord
  2
Level 13
 70
     0
 62
     7
  6
Continuous
370
     0
390
70141
347
70144
348
0
1001
AcCmTransparency
1071
 33554687
  0
LAYER
  5
14
330
7015A
100
AcDbSymbolTableRecord
100
AcDbLayerTableRecord
  2
Level 14
 70
     0
 62
     7
  6
Continuous
370
     0
390
70141
347
70144
348
0
1001
AcCmTransparency
1071
 33554687
  0
LAYER
  5
15
330
7015A
100
AcDbSymbolTableRecord
100
AcDbLayerTableRecord
  2
Level 15
 70
     0
 62
     7
  6
Continuous
370
     0
390
70141
347
70144
348
0
1001
AcCmTransparency
1071
 33554687
  0
LAYER
  5
16
330
7015A
100
AcDbSymbolTableRecord
100
AcDbLayerTableRecord
  2
Level 16
 70
     0
 62
     7
  6
Continuous
370
     0
390
70141
347
70144
348
0
1001
AcCmTransparency
1071
 33554687
  0
LAYER
  5
17
330
7015A
100
AcDbSymbolTableRecord
100
AcDbLayerTableRecord
  2
Level 17
 70
     0
 62
     7
  6
Continuous
370
     0
390
70141
347
70144
348
0
1001
AcCmTransparency
1071
 33554687
  0
LAYER
  5
18
330
7015A
100
AcDbSymbolTableRecord
100
AcDbLayerTableRecord
  2
Level 18
 70
     0
 62
     7
  6
Continuous
370
     0
390
70141
347
70144
348
0
1001
AcCmTransparency
1071
 33554687
  0
LAYER
  5
19
330
7015A
100
AcDbSymbolTableRecord
100
AcDbLayerTableRecord
  2
Level 19
 70
     0
 62
     7
  6
Continuous
370
     0
390
70141
347
70144
348
0
1001
AcCmTransparency
1071
 33554687
  0
LAYER
  5
1A
330
7015A
100
AcDbSymbolTableRecord
100
AcDbLayerTableRecord
  2
Level 20
 70
     0
 62
     7
  6
Continuous
370
     0
390
70141
347
70144
348
0
1001
AcCmTransparency
1071
 33554687
  0
LAYER
  5
1B
330
7015A
100
AcDbSymbolTableRecord
100
AcDbLayerTableRecord
  2
Level 21
 70
     0
 62
     7
  6
Continuous
370
     0
390
70141
347
70144
348
0
1001
AcCmTransparency
1071
 33554687
  0
LAYER
  5
1C
330
7015A
100
AcDbSymbolTableRecord
100
AcDbLayerTableRecord
  2
Level 22
 70
     0
 62
     7
  6
Continuous
370
     0
390
70141
347
70144
348
0
1001
AcCmTransparency
1071
 33554687
  0
LAYER
  5
1D
330
7015A
100
AcDbSymbolTableRecord
100
AcDbLayerTableRecord
  2
Level 23
 70
     0
 62
     7
  6
Continuous
370
     0
390
70141
347
70144
348
0
1001
AcCmTransparency
1071
 33554687
  0
LAYER
  5
1E
330
7015A
100
AcDbSymbolTableRecord
100
AcDbLayerTableRecord
  2
Level 24
 70
     0
 62
     7
  6
Continuous
370
     0
390
70141
347
70144
348
0
1001
AcCmTransparency
1071
 33554687
  0
LAYER
  5
1F
330
7015A
100
AcDbSymbolTableRecord
100
AcDbLayerTableRecord
  2
Level 25
 70
     0
 62
     7
  6
Continuous
370
     0
390
70141
347
70144
348
0
1001
AcCmTransparency
1071
 33554687
  0
LAYER
  5
20
330
7015A
100
AcDbSymbolTableRecord
100
AcDbLayerTableRecord
  2
Level 26
 70
     0
 62
     7
  6
Continuous
370
     0
390
70141
347
70144
348
0
1001
AcCmTransparency
1071
 33554687
  0
LAYER
  5
21
330
7015A
100
AcDbSymbolTableRecord
100
AcDbLayerTableRecord
  2
Level 27
 70
     0
 62
     7
  6
Continuous
370
     0
390
70141
347
70144
348
0
1001
AcCmTransparency
1071
 33554687
  0
LAYER
  5
22
330
7015A
100
AcDbSymbolTableRecord
100
AcDbLayerTableRecord
  2
Level 28
 70
     0
 62
     7
  6
Continuous
370
     0
390
70141
347
70144
348
0
1001
AcCmTransparency
1071
 33554687
  0
LAYER
  5
23
330
7015A
100
AcDbSymbolTableRecord
100
AcDbLayerTableRecord
  2
Level 29
 70
     0
 62
     7
  6
Continuous
370
     0
390
70141
347
70144
348
0
1001
AcCmTransparency
1071
 33554687
  0
LAYER
  5
24
330
7015A
100
AcDbSymbolTableRecord
100
AcDbLayerTableRecord
  2
Level 30
 70
     0
 62
     7
  6
Continuous
370
     0
390
70141
347
70144
348
0
1001
AcCmTransparency
1071
 33554687
  0
LAYER
  5
25
330
7015A
100
AcDbSymbolTableRecord
100
AcDbLayerTableRecord
  2
Level 31
 70
     0
 62
     7
  6
Continuous
370
     0
390
70141
347
70144
348
0
1001
AcCmTransparency
1071
 33554687
  0
LAYER
  5
26
330
7015A
100
AcDbSymbolTableRecord
100
AcDbLayerTableRecord
  2
Level 32
 70
     0
 62
     7
  6
Continuous
370
     0
390
70141
347
70144
348
0
1001
AcCmTransparency
1071
 33554687
  0
LAYER
  5
27
330
7015A
100
AcDbSymbolTableRecord
100
AcDbLayerTableRecord
  2
Level 33
 70
     0
 62
     7
  6
Continuous
370
     0
390
70141
347
70144
348
0
1001
AcCmTransparency
1071
 33554687
  0
LAYER
  5
28
330
7015A
100
AcDbSymbolTableRecord
100
AcDbLayerTableRecord
  2
Level 34
 70
     0
 62
     7
  6
Continuous
370
     0
390
70141
347
70144
348
0
1001
AcCmTransparency
1071
 33554687
  0
LAYER
  5
29
330
7015A
100
AcDbSymbolTableRecord
100
AcDbLayerTableRecord
  2
Level 35
 70
     0
 62
     7
  6
Continuous
370
     0
390
70141
347
70144
348
0
1001
AcCmTransparency
1071
 33554687
  0
LAYER
  5
2A
330
7015A
100
AcDbSymbolTableRecord
100
AcDbLayerTableRecord
  2
Level 36
 70
     0
 62
     7
  6
Continuous
370
     0
390
70141
347
70144
348
0
1001
AcCmTransparency
1071
 33554687
  0
LAYER
  5
2B
330
7015A
100
AcDbSymbolTableRecord
100
AcDbLayerTableRecord
  2
Level 37
 70
     0
 62
     7
  6
Continuous
370
     0
390
70141
347
70144
348
0
1001
AcCmTransparency
1071
 33554687
  0
LAYER
  5
2C
330
7015A
100
AcDbSymbolTableRecord
100
AcDbLayerTableRecord
  2
Level 38
 70
     0
 62
     7
  6
Continuous
370
     0
390
70141
347
70144
348
0
1001
AcCmTransparency
1071
 33554687
  0
LAYER
  5
2D
330
7015A
100
AcDbSymbolTableRecord
100
AcDbLayerTableRecord
  2
Level 39
 70
     0
 62
     7
  6
Continuous
370
     0
390
70141
347
70144
348
0
1001
AcCmTransparency
1071
 33554687
  0
LAYER
  5
2E
330
7015A
100
AcDbSymbolTableRecord
100
AcDbLayerTableRecord
  2
Level 40
 70
     0
 62
     7
  6
Continuous
370
     0
390
70141
347
70144
348
0
1001
AcCmTransparency
1071
 33554687
  0
LAYER
  5
2F
330
7015A
100
AcDbSymbolTableRecord
100
AcDbLayerTableRecord
  2
Level 41
 70
     0
 62
     7
  6
Continuous
370
     0
390
70141
347
70144
348
0
1001
AcCmTransparency
1071
 33554687
  0
LAYER
  5
30
330
7015A
100
AcDbSymbolTableRecord
100
AcDbLayerTableRecord
  2
Level 42
 70
     0
 62
     7
  6
Continuous
370
     0
390
70141
347
70144
348
0
1001
AcCmTransparency
1071
 33554687
  0
LAYER
  5
31
330
7015A
100
AcDbSymbolTableRecord
100
AcDbLayerTableRecord
  2
Level 43
 70
     0
 62
     7
  6
Continuous
370
     0
390
70141
347
70144
348
0
1001
AcCmTransparency
1071
 33554687
  0
LAYER
  5
32
330
7015A
100
AcDbSymbolTableRecord
100
AcDbLayerTableRecord
  2
Level 44
 70
     0
 62
     7
  6
Continuous
370
     0
390
70141
347
70144
348
0
1001
AcCmTransparency
1071
 33554687
  0
LAYER
  5
33
330
7015A
100
AcDbSymbolTableRecord
100
AcDbLayerTableRecord
  2
Level 45
 70
     0
 62
     7
  6
Continuous
370
     0
390
70141
347
70144
348
0
1001
AcCmTransparency
1071
 33554687
  0
LAYER
  5
34
330
7015A
100
AcDbSymbolTableRecord
100
AcDbLayerTableRecord
  2
Level 46
 70
     0
 62
     7
  6
Continuous
370
     0
390
70141
347
70144
348
0
1001
AcCmTransparency
1071
 33554687
  0
LAYER
  5
35
330
7015A
100
AcDbSymbolTableRecord
100
AcDbLayerTableRecord
  2
Level 47
 70
     0
 62
     7
  6
Continuous
370
     0
390
70141
347
70144
348
0
1001
AcCmTransparency
1071
 33554687
  0
LAYER
  5
36
330
7015A
100
AcDbSymbolTableRecord
100
AcDbLayerTableRecord
  2
Level 48
 70
     0
 62
     7
  6
Continuous
370
     0
390
70141
347
70144
348
0
1001
AcCmTransparency
1071
 33554687
  0
LAYER
  5
37
330
7015A
100
AcDbSymbolTableRecord
100
AcDbLayerTableRecord
  2
Level 49
 70
     0
 62
     7
  6
Continuous
370
     0
390
70141
347
70144
348
0
1001
AcCmTransparency
1071
 33554687
  0
LAYER
  5
38
330
7015A
100
AcDbSymbolTableRecord
100
AcDbLayerTableRecord
  2
Level 50
 70
     0
 62
     7
  6
Continuous
370
     0
390
70141
347
70144
348
0
1001
AcCmTransparency
1071
 33554687
  0
LAYER
  5
39
330
7015A
100
AcDbSymbolTableRecord
100
AcDbLayerTableRecord
  2
Level 51
 70
     0
 62
     7
  6
Continuous
370
     0
390
70141
347
70144
348
0
1001
AcCmTransparency
1071
 33554687
  0
LAYER
  5
3A
330
7015A
100
AcDbSymbolTableRecord
100
AcDbLayerTableRecord
  2
Level 52
 70
     0
 62
     7
  6
Continuous
370
     0
390
70141
347
70144
348
0
1001
AcCmTransparency
1071
 33554687
  0
LAYER
  5
3B
330
7015A
100
AcDbSymbolTableRecord
100
AcDbLayerTableRecord
  2
Level 53
 70
     0
 62
     7
  6
Continuous
370
     0
390
70141
347
70144
348
0
1001
AcCmTransparency
1071
 33554687
  0
LAYER
  5
3C
330
7015A
100
AcDbSymbolTableRecord
100
AcDbLayerTableRecord
  2
Level 54
 70
     0
 62
     7
  6
Continuous
370
     0
390
70141
347
70144
348
0
1001
AcCmTransparency
1071
 33554687
  0
LAYER
  5
3D
330
7015A
100
AcDbSymbolTableRecord
100
AcDbLayerTableRecord
  2
Level 55
 70
     0
 62
     7
  6
Continuous
370
     0
390
70141
347
70144
348
0
1001
AcCmTransparency
1071
 33554687
  0
LAYER
  5
3E
330
7015A
100
AcDbSymbolTableRecord
100
AcDbLayerTableRecord
  2
Level 56
 70
     0
 62
     7
  6
Continuous
370
     0
390
70141
347
70144
348
0
1001
AcCmTransparency
1071
 33554687
  0
LAYER
  5
3F
330
7015A
100
AcDbSymbolTableRecord
100
AcDbLayerTableRecord
  2
Level 57
 70
     0
 62
     7
  6
Continuous
370
     0
390
70141
347
70144
348
0
1001
AcCmTransparency
1071
 33554687
  0
LAYER
  5
40
330
7015A
100
AcDbSymbolTableRecord
100
AcDbLayerTableRecord
  2
Level 58
 70
     0
 62
     7
  6
Continuous
370
     0
390
70141
347
70144
348
0
1001
AcCmTransparency
1071
 33554687
  0
LAYER
  5
41
330
7015A
100
AcDbSymbolTableRecord
100
AcDbLayerTableRecord
  2
Level 59
 70
     0
 62
     7
  6
Continuous
370
     0
390
70141
347
70144
348
0
1001
AcCmTransparency
1071
 33554687
  0
LAYER
  5
42
330
7015A
100
AcDbSymbolTableRecord
100
AcDbLayerTableRecord
  2
Level 60
 70
     0
 62
     7
  6
Continuous
370
     0
390
70141
347
70144
348
0
1001
AcCmTransparency
1071
 33554687
  0
LAYER
  5
43
330
7015A
100
AcDbSymbolTableRecord
100
AcDbLayerTableRecord
  2
Level 61
 70
     0
 62
     7
  6
Continuous
370
     0
390
70141
347
70144
348
0
1001
AcCmTransparency
1071
 33554687
  0
LAYER
  5
44
330
7015A
100
AcDbSymbolTableRecord
100
AcDbLayerTableRecord
  2
Level 62
 70
     0
 62
     7
  6
Continuous
370
     0
390
70141
347
70144
348
0
1001
AcCmTransparency
1071
 33554687
  0
LAYER
  5
45
330
7015A
100
AcDbSymbolTableRecord
100
AcDbLayerTableRecord
  2
Level 63
 70
     0
 62
     7
  6
Continuous
370
     0
390
70141
347
70144
348
0
1001
AcCmTransparency
1071
 33554687
  0
LAYER
  5
50CA0
330
7015A
100
AcDbSymbolTableRecord
100
AcDbLayerTableRecord
  2
25
 70
     0
 62
     7
  6
Continuous
370
     0
390
70141
347
70144
348
0
1001
AcCmTransparency
1071
 33554687
  0
ENDTAB
  0
TABLE
  2
STYLE
  5
7015D
330
0
100
AcDbSymbolTable
 70
     1
  0
STYLE
  5
7015E
330
7015D
100
AcDbSymbolTableRecord
100
AcDbTextStyleTableRecord
  2
Standard
 70
     0
 40
0.0
 41
1.0
 50
0.0
 71
     0
 42
100.0
  3
txt
  4

  0
ENDTAB
  0
TABLE
  2
VIEW
  5
70163
330
0
100
AcDbSymbolTable
 70
     0
  0
ENDTAB
  0
TABLE
  2
UCS
  5
70164
330
0
100
AcDbSymbolTable
 70
     0
  0
ENDTAB
  0
TABLE
  2
APPID
  5
70169
330
0
100
AcDbSymbolTable
 70
     3
  0
APPID
  5
7016A
330
70169
100
AcDbSymbolTableRecord
100
AcDbRegAppTableRecord
  2
ACAD
 70
     0
  0
APPID
  5
70159
330
70169
100
AcDbSymbolTableRecord
100
AcDbRegAppTableRecord
  2
ACAD_PSEXT
 70
     0
  0
APPID
  5
701AD
330
70169
100
AcDbSymbolTableRecord
100
AcDbRegAppTableRecord
  2
AcCmTransparency
 70
     0
  0
ENDTAB
  0
TABLE
  2
DIMSTYLE
  5
7016B
330
0
100
AcDbSymbolTable
 70
     1
100
AcDbDimStyleTable
 71
     1
340
7016C
  0
DIMSTYLE
105
7016C
330
7016B
100
AcDbSymbolTableRecord
100
AcDbDimStyleTableRecord
  2
Standard
 70
     0
340
7015E
  0
ENDTAB
  0
TABLE
  2
BLOCK_RECORD
  5
7013B
330
0
100
AcDbSymbolTable
 70
    43
  0
BLOCK_RECORD
  5
7013C
330
7013B
100
AcDbSymbolTableRecord
100
AcDbBlockTableRecord
  2
*Model_Space
340
7014F
 70
     0
280
     1
281
     0
  0
BLOCK_RECORD
  5
70153
330
7013B
100
AcDbSymbolTableRecord
100
AcDbBlockTableRecord
  2
*Paper_Space
340
70156
 70
     0
280
     1
281
     0
  0
BLOCK_RECORD
  5
701B0
102
{ACAD_XDICTIONARY
360
70235
102
}
330
7013B
100
AcDbSymbolTableRecord
100
AcDbBlockTableRecord
  2
SE15
340
0
102
{BLKREFS
331
6FD64
102
}
 70
     0
280
     1
281
     0
  0
BLOCK_RECORD
  5
701B3
330
7013B
100
AcDbSymbolTableRecord
100
AcDbBlockTableRecord
  2
From Solid
340
0
102
{BLKREFS
331
6FF88
102
}
 70
     0
280
     1
281
     0
  0
BLOCK_RECORD
  5
701B6
330
7013B
100
AcDbSymbolTableRecord
100
AcDbBlockTableRecord
  2
From Solid_1
340
0
102
{BLKREFS
331
6FF89
102
}
 70
     0
280
     1
281
     0
  0
BLOCK_RECORD
  5
701B9
330
7013B
100
AcDbSymbolTableRecord
100
AcDbBlockTableRecord
  2
From Solid_2
340
0
102
{BLKREFS
331
6FF8A
102
}
 70
     0
280
     1
281
     0
  0
BLOCK_RECORD
  5
701BC
330
7013B
100
AcDbSymbolTableRecord
100
AcDbBlockTableRecord
  2
From Solid_3
340
0
102
{BLKREFS
331
6FF8B
102
}
 70
     0
280
     1
281
     0
  0
BLOCK_RECORD
  5
701BF
330
7013B
100
AcDbSymbolTableRecord
100
AcDbBlockTableRecord
  2
From Solid_4
340
0
102
{BLKREFS
331
6FF8C
102
}
 70
     0
280
     1
281
     0
  0
BLOCK_RECORD
  5
701C2
330
7013B
100
AcDbSymbolTableRecord
100
AcDbBlockTableRecord
  2
From Solid_5
340
0
102
{BLKREFS
331
6FF8D
102
}
 70
     0
280
     1
281
     0
  0
BLOCK_RECORD
  5
701C5
330
7013B
100
AcDbSymbolTableRecord
100
AcDbBlockTableRecord
  2
From Solid_6
340
0
102
{BLKREFS
331
6FF8E
102
}
 70
     0
280
     1
281
     0
  0
BLOCK_RECORD
  5
701C8
330
7013B
100
AcDbSymbolTableRecord
100
AcDbBlockTableRecord
  2
From Solid_7
340
0
102
{BLKREFS
331
6FF8F
102
}
 70
     0
280
     1
281
     0
  0
BLOCK_RECORD
  5
701CB
330
7013B
100
AcDbSymbolTableRecord
100
AcDbBlockTableRecord
  2
From Solid_8
340
0
102
{BLKREFS
331
6FF90
102
}
 70
     0
280
     1
281
     0
  0
BLOCK_RECORD
  5
701CE
330
7013B
100
AcDbSymbolTableRecord
100
AcDbBlockTableRecord
  2
From Solid_9
340
0
102
{BLKREFS
331
6FF91
102
}
 70
     0
280
     1
281
     0
  0
BLOCK_RECORD
  5
701D2
330
7013B
100
AcDbSymbolTableRecord
100
AcDbBlockTableRecord
  2
From Solid_10
340
0
102
{BLKREFS
331
6FF92
102
}
 70
     0
280
     1
281
     0
  0
BLOCK_RECORD
  5
701D6
330
7013B
100
AcDbSymbolTableRecord
100
AcDbBlockTableRecord
  2
From Solid_11
340
0
102
{BLKREFS
331
6FF93
102
}
 70
     0
280
     1
281
     0
  0
BLOCK_RECORD
  5
701D9
330
7013B
100
AcDbSymbolTableRecord
100
AcDbBlockTableRecord
  2
From Solid_12
340
0
102
{BLKREFS
331
6FF94
102
}
 70
     0
280
     1
281
     0
  0
BLOCK_RECORD
  5
701DC
330
7013B
100
AcDbSymbolTableRecord
100
AcDbBlockTableRecord
  2
From Surface
340
0
102
{BLKREFS
331
6FF95
102
}
 70
     0
280
     1
281
     0
  0
BLOCK_RECORD
  5
701DF
330
7013B
100
AcDbSymbolTableRecord
100
AcDbBlockTableRecord
  2
From Surface_1
340
0
102
{BLKREFS
331
6FF96
102
}
 70
     0
280
     1
281
     0
  0
BLOCK_RECORD
  5
701E2
330
7013B
100
AcDbSymbolTableRecord
100
AcDbBlockTableRecord
  2
From Surface_2
340
0
102
{BLKREFS
331
6FF97
102
}
 70
     0
280
     1
281
     0
  0
BLOCK_RECORD
  5
701E5
330
7013B
100
AcDbSymbolTableRecord
100
AcDbBlockTableRecord
  2
From Surface_3
340
0
102
{BLKREFS
331
6FF98
102
}
 70
     0
280
     1
281
     0
  0
BLOCK_RECORD
  5
701E8
330
7013B
100
AcDbSymbolTableRecord
100
AcDbBlockTableRecord
  2
From Solid_13
340
0
102
{BLKREFS
331
6FF99
102
}
 70
     0
280
     1
281
     0
  0
BLOCK_RECORD
  5
701EB
330
7013B
100
AcDbSymbolTableRecord
100
AcDbBlockTableRecord
  2
From Solid_14
340
0
102
{BLKREFS
331
6FF9A
102
}
 70
     0
280
     1
281
     0
  0
BLOCK_RECORD
  5
701EE
330
7013B
100
AcDbSymbolTableRecord
100
AcDbBlockTableRecord
  2
From Solid_15
340
0
102
{BLKREFS
331
6FF9B
102
}
 70
     0
280
     1
281
     0
  0
BLOCK_RECORD
  5
701F1
330
7013B
100
AcDbSymbolTableRecord
100
AcDbBlockTableRecord
  2
From Solid_16
340
0
102
{BLKREFS
331
6FF9C
102
}
 70
     0
280
     1
281
     0
  0
BLOCK_RECORD
  5
701F4
330
7013B
100
AcDbSymbolTableRecord
100
AcDbBlockTableRecord
  2
From Solid_17
340
0
102
{BLKREFS
331
6FF9D
102
}
 70
     0
280
     1
281
     0
  0
BLOCK_RECORD
  5
701F7
330
7013B
100
AcDbSymbolTableRecord
100
AcDbBlockTableRecord
  2
From Solid_18
340
0
102
{BLKREFS
331
6FF9E
102
}
 70
     0
280
     1
281
     0
  0
BLOCK_RECORD
  5
701FA
330
7013B
100
AcDbSymbolTableRecord
100
AcDbBlockTableRecord
  2
From Solid_19
340
0
102
{BLKREFS
331
6FF9F
102
}
 70
     0
280
     1
281
     0
  0
BLOCK_RECORD
  5
701FD
330
7013B
100
AcDbSymbolTableRecord
100
AcDbBlockTableRecord
  2
From Solid_20
340
0
102
{BLKREFS
331
6FFA0
102
}
 70
     0
280
     1
281
     0
  0
BLOCK_RECORD
  5
70201
330
7013B
100
AcDbSymbolTableRecord
100
AcDbBlockTableRecord
  2
From Solid_21
340
0
102
{BLKREFS
331
6FFA1
102
}
 70
     0
280
     1
281
     0
  0
BLOCK_RECORD
  5
70205
330
7013B
100
AcDbSymbolTableRecord
100
AcDbBlockTableRecord
  2
From Surface_4
340
0
102
{BLKREFS
331
6FFA2
102
}
 70
     0
280
     1
281
     0
  0
BLOCK_RECORD
  5
70208
330
7013B
100
AcDbSymbolTableRecord
100
AcDbBlockTableRecord
  2
From Surface_5
340
0
102
{BLKREFS
331
6FFA3
102
}
 70
     0
280
     1
281
     0
  0
BLOCK_RECORD
  5
7020B
330
7013B
100
AcDbSymbolTableRecord
100
AcDbBlockTableRecord
  2
From Surface_6
340
0
102
{BLKREFS
331
6FFA4
102
}
 70
     0
280
     1
281
     0
  0
BLOCK_RECORD
  5
7020E
330
7013B
100
AcDbSymbolTableRecord
100
AcDbBlockTableRecord
  2
From Surface_7
340
0
102
{BLKREFS
331
6FFA5
102
}
 70
     0
280
     1
281
     0
  0
BLOCK_RECORD
  5
70211
330
7013B
100
AcDbSymbolTableRecord
100
AcDbBlockTableRecord
  2
From Bspline Surface
340
0
102
{BLKREFS
331
6FFA6
102
}
 70
     0
280
     1
281
     0
  0
BLOCK_RECORD
  5
70214
330
7013B
100
AcDbSymbolTableRecord
100
AcDbBlockTableRecord
  2
From Bspline Surface_1
340
0
102
{BLKREFS
331
6FFC5
102
}
 70
     0
280
     1
281
     0
  0
BLOCK_RECORD
  5
70217
330
7013B
100
AcDbSymbolTableRecord
100
AcDbBlockTableRecord
  2
From Bspline Surface_2
340
0
102
{BLKREFS
331
6FFE4
102
}
 70
     0
280
     1
281
     0
  0
BLOCK_RECORD
  5
7021A
330
7013B
100
AcDbSymbolTableRecord
100
AcDbBlockTableRecord
  2
From Bspline Surface_3
340
0
102
{BLKREFS
331
70003
102
}
 70
     0
280
     1
281
     0
  0
BLOCK_RECORD
  5
7021D
330
7013B
100
AcDbSymbolTableRecord
100
AcDbBlockTableRecord
  2
From Bspline Surface_4
340
0
102
{BLKREFS
331
70022
102
}
 70
     0
280
     1
281
     0
  0
BLOCK_RECORD
  5
70220
330
7013B
100
AcDbSymbolTableRecord
100
AcDbBlockTableRecord
  2
From Bspline Surface_5
340
0
102
{BLKREFS
331
70041
102
}
 70
     0
280
     1
281
     0
  0
BLOCK_RECORD
  5
70223
330
7013B
100
AcDbSymbolTableRecord
100
AcDbBlockTableRecord
  2
From Bspline Surface_6
340
0
102
{BLKREFS
331
70060
102
}
 70
     0
280
     1
281
     0
  0
BLOCK_RECORD
  5
70226
330
7013B
100
AcDbSymbolTableRecord
100
AcDbBlockTableRecord
  2
From Bspline Surface_7
340
0
102
{BLKREFS
331
7007F
102
}
 70
     0
280
     1
281
     0
  0
BLOCK_RECORD
  5
70229
330
7013B
100
AcDbSymbolTableRecord
100
AcDbBlockTableRecord
  2
From Solid_22
340
0
102
{BLKREFS
331
7009E
102
}
 70
     0
280
     1
281
     0
  0
BLOCK_RECORD
  5
7022C
330
7013B
100
AcDbSymbolTableRecord
100
AcDbBlockTableRecord
  2
From Solid_23
340
0
102
{BLKREFS
331
7009F
102
}
 70
     0
280
     1
281
     0
  0
BLOCK_RECORD
  5
7022F
330
7013B
100
AcDbSymbolTableRecord
100
AcDbBlockTableRecord
  2
From Solid_24
340
0
102
{BLKREFS
331
700A0
102
}
 70
     0
280
     1
281
     0
  0
BLOCK_RECORD
  5
70232
330
7013B
100
AcDbSymbolTableRecord
100
AcDbBlockTableRecord
  2
From Solid_25
340
0
102
{BLKREFS
331
700A1
102
}
 70
     0
280
     1
281
     0
  0
ENDTAB
  0
ENDSEC
  0
SECTION
  2
BLOCKS
  0
BLOCK
  5
7013D
330
7013C
100
AcDbEntity
  8
0
100
AcDbBlockBegin
  2
*Model_Space
 70
     0
 10
0.0
 20
0.0
 30
0.0
  3
*Model_Space
  1

  0
ENDBLK
  5
7014E
330
7013C
100
AcDbEntity
  8
0
100
AcDbBlockEnd
  0
BLOCK
  5
70154
330
70153
100
AcDbEntity
 67
     1
  8
0
100
AcDbBlockBegin
  2
*Paper_Space
 70
     0
 10
0.0
 20
0.0
 30
0.0
  3
*Paper_Space
  1

  0
ENDBLK
  5
70155
330
70153
100
AcDbEntity
 67
     1
  8
0
100
AcDbBlockEnd
  0
BLOCK
  5
701B1
330
701B0
100
AcDbEntity
  8
0
 62
    98
370
     0
100
AcDbBlockBegin
  2
SE15
 70
     0
 10
0.0
 20
0.0
 30
0.0
  3
SE15
  1

  0
LWPOLYLINE
  5
6FD65
330
701B0
100
AcDbEntity
  8
Level 26
  6
Continuous
 62
   133
370
     0
100
AcDbPolyline
 90
        5
 70
   129
 43
0.0
 10
585.0
 20
37.5
 10
585.0
 20
37.5
 10
-585.0
 20
37.5
 10
-585.0
 20
37.5
 10
585.0
 20
37.5
  0
LWPOLYLINE
  5
6FD66
330
701B0
100
AcDbEntity
  8
Level 26
  6
Continuous
 62
   133
370
     0
100
AcDbPolyline
 90
        5
 70
   129
 43
0.0
 10
585.0
 20
37.5
 10
585.0
 20
-37.5
 10
-585.0
 20
-37.5
 10
-585.0
 20
37.5
 10
585.0
 20
37.5
  0
LWPOLYLINE
  5
6FD67
330
701B0
100
AcDbEntity
  8
Level 26
  6
Continuous
 62
   133
370
     0
100
AcDbPolyline
 90
        5
 70
   129
 43
0.0
 10
585.0
 20
-37.5
 10
585.0
 20
-37.5
 10
-585.0
 20
-37.5
 10
-585.0
 20
-37.5
 10
585.0
 20
-37.5
  0
LWPOLYLINE
  5
6FD68
330
701B0
100
AcDbEntity
  8
Level 26
  6
Continuous
 62
   133
370
     0
100
AcDbPolyline
 90
        5
 70
   129
 43
0.0
 10
585.0
 20
-37.5
 10
585.0
 20
37.5
 10
-585.0
 20
37.5
 10
-585.0
 20
-37.5
 10
585.0
 20
-37.5
  0
LWPOLYLINE
  5
6FD69
330
701B0
100
AcDbEntity
  8
Level 26
  6
Continuous
 62
    40
370
     0
100
AcDbPolyline
 90
        5
 70
   129
 43
0.0
 10
-641.9
 20
-57.5
 10
-641.9
 20
-32.5
 10
-260.0
 20
-32.5
 10
-260.0
 20
-57.5
 10
-641.9
 20
-57.5
  0
LWPOLYLINE
  5
6FD6A
330
701B0
100
AcDbEntity
  8
Level 26
  6
Continuous
 62
    40
370
     0
100
AcDbPolyline
 90
        5
 70
   129
 43
0.0
 10
-641.9
 20
-32.5
 10
-641.9
 20
-32.5
 10
-260.0
 20
-32.5
 10
-260.0
 20
-32.5
 10
-641.9
 20
-32.5
  0
LWPOLYLINE
  5
6FD6B
330
701B0
100
AcDbEntity
  8
Level 26
  6
Continuous
 62
    40
370
     0
100
AcDbPolyline
 90
        5
 70
   129
 43
0.0
 10
-641.9
 20
-32.5
 10
-641.9
 20
-57.5
 10
-260.0
 20
-57.5
 10
-260.0
 20
-32.5
 10
-641.9
 20
-32.5
  0
LWPOLYLINE
  5
6FD6C
330
701B0
100
AcDbEntity
  8
Level 26
  6
Continuous
 62
    40
370
     0
100
AcDbPolyline
 90
        5
 70
   129
 43
0.0
 10
-641.9
 20
-57.5
 10
-641.9
 20
-57.5
 10
-260.0
 20
-57.5
 10
-260.0
 20
-57.5
 10
-641.9
 20
-57.5
  0
LWPOLYLINE
  5
6FD6D
330
701B0
100
AcDbEntity
  8
Level 26
  6
Continuous
 62
    40
370
     0
100
AcDbPolyline
 90
        5
 70
   129
 43
0.0
 10
-641.9
 20
57.5
 10
-641.9
 20
57.5
 10
-260.0
 20
57.5
 10
-260.0
 20
57.5
 10
-641.9
 20
57.5
  0
LWPOLYLINE
  5
6FD6E
330
701B0
100
AcDbEntity
  8
Level 26
  6
Continuous
 62
    40
370
     0
100
AcDbPolyline
 90
        5
 70
   129
 43
0.0
 10
-641.9
 20
32.5
 10
-641.9
 20
57.5
 10
-260.0
 20
57.5
 10
-260.0
 20
32.5
 10
-641.9
 20
32.5
  0
LWPOLYLINE
  5
6FD6F
330
701B0
100
AcDbEntity
  8
Level 26
  6
Continuous
 62
    40
370
     0
100
AcDbPolyline
 90
        5
 70
   129
 43
0.0
 10
-641.9
 20
32.5
 10
-641.9
 20
32.5
 10
-260.0
 20
32.5
 10
-260.0
 20
32.5
 10
-641.9
 20
32.5
  0
LWPOLYLINE
  5
6FD70
330
701B0
100
AcDbEntity
  8
Level 26
  6
Continuous
 62
    40
370
     0
100
AcDbPolyline
 90
        5
 70
   129
 43
0.0
 10
-641.9
 20
57.5
 10
-641.9
 20
32.5
 10
-260.0
 20
32.5
 10
-260.0
 20
57.5
 10
-641.9
 20
57.5
  0
LWPOLYLINE
  5
6FD71
330
701B0
100
AcDbEntity
  8
Level 26
  6
Continuous
 62
    20
370
     0
100
AcDbPolyline
 90
        5
 70
   129
 43
0.0
 10
-310.0
 20
-80.0
 10
-310.0
 20
80.0
 10
-310.0
 20
80.0
 10
-310.0
 20
-80.0
 10
-310.0
 20
-80.0
  0
LWPOLYLINE
  5
6FD72
330
701B0
100
AcDbEntity
  8
Level 26
  6
Continuous
 62
    20
370
     0
100
AcDbPolyline
 90
        5
 70
   129
 43
0.0
 10
-330.0
 20
100.0
 10
-580.0
 20
100.0
 10
-580.0
 20
100.0
 10
-330.0
 20
100.0
 10
-330.0
 20
100.0
  0
LWPOLYLINE
  5
6FD73
330
701B0
100
AcDbEntity
  8
Level 26
  6
Continuous
 62
    20
370
     0
100
AcDbPolyline
 90
        5
 70
   129
 43
0.0
 10
-600.0
 20
80.0
 10
-600.0
 20
-80.0
 10
-600.0
 20
-80.0
 10
-600.0
 20
80.0
 10
-600.0
 20
80.0
  0
LWPOLYLINE
  5
6FD74
330
701B0
100
AcDbEntity
  8
Level 26
  6
Continuous
 62
    20
370
     0
100
AcDbPolyline
 90
        5
 70
   129
 43
0.0
 10
-580.0
 20
-100.0
 10
-330.0
 20
-100.0
 10
-330.0
 20
-100.0
 10
-580.0
 20
-100.0
 10
-580.0
 20
-100.0
  0
LWPOLYLINE
  5
6FD75
330
701B0
100
AcDbEntity
  8
Level 26
  6
Continuous
 62
    40
370
     0
100
AcDbPolyline
 90
        5
 70
   129
 43
0.0
 10
641.9
 20
57.5
 10
641.9
 20
32.5
 10
260.0
 20
32.5
 10
260.0
 20
57.5
 10
641.9
 20
57.5
  0
LWPOLYLINE
  5
6FD76
330
701B0
100
AcDbEntity
  8
Level 26
  6
Continuous
 62
    40
370
     0
100
AcDbPolyline
 90
        5
 70
   129
 43
0.0
 10
641.9
 20
32.5
 10
641.9
 20
32.5
 10
260.0
 20
32.5
 10
260.0
 20
32.5
 10
641.9
 20
32.5
  0
LWPOLYLINE
  5
6FD77
330
701B0
100
AcDbEntity
  8
Level 26
  6
Continuous
 62
    40
370
     0
100
AcDbPolyline
 90
        5
 70
   129
 43
0.0
 10
641.9
 20
32.5
 10
641.9
 20
57.5
 10
260.0
 20
57.5
 10
260.0
 20
32.5
 10
641.9
 20
32.5
  0
LWPOLYLINE
  5
6FD78
330
701B0
100
AcDbEntity
  8
Level 26
  6
Continuous
 62
    40
370
     0
100
AcDbPolyline
 90
        5
 70
   129
 43
0.0
 10
641.9
 20
57.5
 10
641.9
 20
57.5
 10
260.0
 20
57.5
 10
260.0
 20
57.5
 10
641.9
 20
57.5
  0
LWPOLYLINE
  5
6FD79
330
701B0
100
AcDbEntity
  8
Level 26
  6
Continuous
 62
    40
370
     0
100
AcDbPolyline
 90
        5
 70
   129
 43
0.0
 10
641.9
 20
-57.5
 10
641.9
 20
-57.5
 10
260.0
 20
-57.5
 10
260.0
 20
-57.5
 10
641.9
 20
-57.5
  0
LWPOLYLINE
  5
6FD7A
330
701B0
100
AcDbEntity
  8
Level 26
  6
Continuous
 62
    40
370
     0
100
AcDbPolyline
 90
        5
 70
   129
 43
0.0
 10
641.9
 20
-32.5
 10
641.9
 20
-57.5
 10
260.0
 20
-57.5
 10
260.0
 20
-32.5
 10
641.9
 20
-32.5
  0
LWPOLYLINE
  5
6FD7B
330
701B0
100
AcDbEntity
  8
Level 26
  6
Continuous
 62
    40
370
     0
100
AcDbPolyline
 90
        5
 70
   129
 43
0.0
 10
641.9
 20
-32.5
 10
641.9
 20
-32.5
 10
260.0
 20
-32.5
 10
260.0
 20
-32.5
 10
641.9
 20
-32.5
  0
LWPOLYLINE
  5
6FD7C
330
701B0
100
AcDbEntity
  8
Level 26
  6
Continuous
 62
    40
370
     0
100
AcDbPolyline
 90
        5
 70
   129
 43
0.0
 10
641.9
 20
-57.5
 10
641.9
 20
-32.5
 10
260.0
 20
-32.5
 10
260.0
 20
-57.5
 10
641.9
 20
-57.5
  0
LWPOLYLINE
  5
6FD7D
330
701B0
100
AcDbEntity
  8
Level 26
  6
Continuous
 62
    20
370
     0
100
AcDbPolyline
 90
        5
 70
   129
 43
0.0
 10
310.0
 20
80.0
 10
310.0
 20
-80.0
 10
310.0
 20
-80.0
 10
310.0
 20
80.0
 10
310.0
 20
80.0
  0
LWPOLYLINE
  5
6FD7E
330
701B0
100
AcDbEntity
  8
Level 26
  6
Continuous
 62
    20
370
     0
100
AcDbPolyline
 90
        5
 70
   129
 43
0.0
 10
330.0
 20
-100.0
 10
580.0
 20
-100.0
 10
580.0
 20
-100.0
 10
330.0
 20
-100.0
 10
330.0
 20
-100.0
  0
LWPOLYLINE
  5
6FD7F
330
701B0
100
AcDbEntity
  8
Level 26
  6
Continuous
 62
    20
370
     0
100
AcDbPolyline
 90
        5
 70
   129
 43
0.0
 10
600.0
 20
-80.0
 10
600.0
 20
80.0
 10
600.0
 20
80.0
 10
600.0
 20
-80.0
 10
600.0
 20
-80.0
  0
LWPOLYLINE
  5
6FD80
330
701B0
100
AcDbEntity
  8
Level 26
  6
Continuous
 62
    20
370
     0
100
AcDbPolyline
 90
        5
 70
   129
 43
0.0
 10
580.0
 20
100.0
 10
330.0
 20
100.0
 10
330.0
 20
100.0
 10
580.0
 20
100.0
 10
580.0
 20
100.0
  0
LWPOLYLINE
  5
6FD81
330
701B0
100
AcDbEntity
  8
Level 26
  6
Continuous
 62
    40
370
     0
100
AcDbPolyline
 90
        5
 70
   129
 43
0.0
 10
-585.0
 20
37.5
 10
-585.0
 20
-37.5
 10
-595.0
 20
-37.5
 10
-595.0
 20
37.5
 10
-585.0
 20
37.5
  0
LWPOLYLINE
  5
6FD82
330
701B0
100
AcDbEntity
  8
Level 26
  6
Continuous
 62
    40
370
     0
100
AcDbPolyline
 90
        5
 70
   129
 43
0.0
 10
-585.0
 20
37.5
 10
-585.0
 20
37.5
 10
-595.0
 20
37.5
 10
-595.0
 20
37.5
 10
-585.0
 20
37.5
  0
LWPOLYLINE
  5
6FD83
330
701B0
100
AcDbEntity
  8
Level 26
  6
Continuous
 62
    40
370
     0
100
AcDbPolyline
 90
        5
 70
   129
 43
0.0
 10
-585.0
 20
-37.5
 10
-585.0
 20
37.5
 10
-595.0
 20
37.5
 10
-595.0
 20
-37.5
 10
-585.0
 20
-37.5
  0
LWPOLYLINE
  5
6FD84
330
701B0
100
AcDbEntity
  8
Level 26
  6
Continuous
 62
    40
370
     0
100
AcDbPolyline
 90
        5
 70
   129
 43
0.0
 10
-585.0
 20
-37.5
 10
-585.0
 20
-37.5
 10
-595.0
 20
-37.5
 10
-595.0
 20
-37.5
 10
-585.0
 20
-37.5
  0
LWPOLYLINE
  5
6FD85
330
701B0
100
AcDbEntity
  8
Level 26
  6
Continuous
 62
    40
370
     0
100
AcDbPolyline
 90
        5
 70
   129
 43
0.0
 10
585.0
 20
37.5
 10
585.0
 20
-37.5
 10
595.0
 20
-37.5
 10
595.0
 20
37.5
 10
585.0
 20
37.5
  0
LWPOLYLINE
  5
6FD86
330
701B0
100
AcDbEntity
  8
Level 26
  6
Continuous
 62
    40
370
     0
100
AcDbPolyline
 90
        5
 70
   129
 43
0.0
 10
585.0
 20
37.5
 10
585.0
 20
37.5
 10
595.0
 20
37.5
 10
595.0
 20
37.5
 10
585.0
 20
37.5
  0
LWPOLYLINE
  5
6FD87
330
701B0
100
AcDbEntity
  8
Level 26
  6
Continuous
 62
    40
370
     0
100
AcDbPolyline
 90
        5
 70
   129
 43
0.0
 10
585.0
 20
-37.5
 10
585.0
 20
37.5
 10
595.0
 20
37.5
 10
595.0
 20
-37.5
 10
585.0
 20
-37.5
  0
LWPOLYLINE
  5
6FD88
330
701B0
100
AcDbEntity
  8
Level 26
  6
Continuous
 62
    40
370
     0
100
AcDbPolyline
 90
        5
 70
   129
 43
0.0
 10
585.0
 20
-37.5
 10
585.0
 20
-37.5
 10
595.0
 20
-37.5
 10
595.0
 20
-37.5
 10
585.0
 20
-37.5
  0
INSERT
  5
6FF88
330
701B0
100
AcDbEntity
  8
Level 26
  6
Continuous
 62
    40
370
     0
100
AcDbBlockReference
  2
From Solid
 10
-3229.267868
 20
-85.794657
 30
0.0
  0
INSERT
  5
6FF89
330
701B0
100
AcDbEntity
  8
Level 26
  6
Continuous
 62
    40
370
     0
100
AcDbBlockReference
  2
From Solid_1
 10
-3229.267868
 20
-85.794657
 30
0.0
  0
INSERT
  5
6FF8A
330
701B0
100
AcDbEntity
  8
Level 26
  6
Continuous
 62
    40
370
     0
100
AcDbBlockReference
  2
From Solid_2
 10
-3229.267868
 20
-85.794657
 30
0.0
  0
INSERT
  5
6FF8B
330
701B0
100
AcDbEntity
  8
Level 26
  6
Continuous
 62
    40
370
     0
100
AcDbBlockReference
  2
From Solid_3
 10
-3229.267868
 20
-85.794657
 30
0.0
  0
INSERT
  5
6FF8C
330
701B0
100
AcDbEntity
  8
Level 26
  6
Continuous
 62
    40
370
     0
100
AcDbBlockReference
  2
From Solid_4
 10
-3229.267868
 20
-85.794657
 30
0.0
  0
INSERT
  5
6FF8D
330
701B0
100
AcDbEntity
  8
Level 26
  6
Continuous
 62
    40
370
     0
100
AcDbBlockReference
  2
From Solid_5
 10
-3229.267868
 20
-85.794657
 30
0.0
  0
INSERT
  5
6FF8E
330
701B0
100
AcDbEntity
  8
Level 26
  6
Continuous
 62
    40
370
     0
100
AcDbBlockReference
  2
From Solid_6
 10
-3229.267868
 20
-85.794657
 30
0.0
  0
INSERT
  5
6FF8F
330
701B0
100
AcDbEntity
  8
Level 26
  6
Continuous
 62
    40
370
     0
100
AcDbBlockReference
  2
From Solid_7
 10
-3229.267868
 20
-85.794657
 30
0.0
  0
INSERT
  5
6FF90
330
701B0
100
AcDbEntity
  8
Level 26
  6
Continuous
 62
    40
370
     0
100
AcDbBlockReference
  2
From Solid_8
 10
-3229.267868
 20
-85.794657
 30
0.0
  0
INSERT
  5
6FF91
330
701B0
100
AcDbEntity
  8
Level 26
  6
Continuous
 62
    40
370
     0
100
AcDbBlockReference
  2
From Solid_9
 10
-3229.267868
 20
-85.794657
 30
0.0
  0
INSERT
  5
6FF92
330
701B0
100
AcDbEntity
  8
Level 26
  6
Continuous
 62
    40
370
     0
100
AcDbBlockReference
  2
From Solid_10
 10
-3229.267868
 20
-85.794657
 30
0.0
  0
INSERT
  5
6FF93
330
701B0
100
AcDbEntity
  8
Level 26
  6
Continuous
 62
    40
370
     0
100
AcDbBlockReference
  2
From Solid_11
 10
-3229.267868
 20
-85.794657
 30
0.0
  0
INSERT
  5
6FF94
330
701B0
100
AcDbEntity
  8
Level 26
  6
Continuous
 62
    40
370
     0
100
AcDbBlockReference
  2
From Solid_12
 10
-3229.267868
 20
-85.794657
 30
0.0
  0
INSERT
  5
6FF95
330
701B0
100
AcDbEntity
  8
Level 26
  6
Continuous
 62
    20
370
     0
100
AcDbBlockReference
  2
From Surface
 10
-3229.267868
 20
-85.794657
 30
0.0
  0
INSERT
  5
6FF96
330
701B0
100
AcDbEntity
  8
Level 26
  6
Continuous
 62
    20
370
     0
100
AcDbBlockReference
  2
From Surface_1
 10
-3229.267868
 20
-85.794657
 30
0.0
  0
INSERT
  5
6FF97
330
701B0
100
AcDbEntity
  8
Level 26
  6
Continuous
 62
    20
370
     0
100
AcDbBlockReference
  2
From Surface_2
 10
-3229.267868
 20
-85.794657
 30
0.0
  0
INSERT
  5
6FF98
330
701B0
100
AcDbEntity
  8
Level 26
  6
Continuous
 62
    20
370
     0
100
AcDbBlockReference
  2
From Surface_3
 10
-3229.267868
 20
-85.794657
 30
0.0
  0
LWPOLYLINE
  5
6FDF8
330
701B0
100
AcDbEntity
  8
Level 26
  6
Continuous
 62
    20
370
     0
100
AcDbPolyline
 90
        9
 70
   129
 43
0.0
 10
-600.0
 20
80.0
 10
-600.0
 20
-80.0
 42
0.414214
 10
-580.0
 20
-100.0
 10
-330.0
 20
-100.0
 42
0.414214
 10
-310.0
 20
-80.0
 10
-310.0
 20
80.0
 42
0.414214
 10
-330.0
 20
100.0
 10
-580.0
 20
100.0
 42
0.414214
 10
-600.0
 20
80.0
  0
INSERT
  5
6FF99
330
701B0
100
AcDbEntity
  8
Level 26
  6
Continuous
 62
    40
370
     0
100
AcDbBlockReference
  2
From Solid_13
 10
-3229.267868
 20
-85.794657
 30
0.0
  0
INSERT
  5
6FF9A
330
701B0
100
AcDbEntity
  8
Level 26
  6
Continuous
 62
    40
370
     0
100
AcDbBlockReference
  2
From Solid_14
 10
-3229.267868
 20
-85.794657
 30
0.0
  0
INSERT
  5
6FF9B
330
701B0
100
AcDbEntity
  8
Level 26
  6
Continuous
 62
    40
370
     0
100
AcDbBlockReference
  2
From Solid_15
 10
-3229.267868
 20
-85.794657
 30
0.0
  0
INSERT
  5
6FF9C
330
701B0
100
AcDbEntity
  8
Level 26
  6
Continuous
 62
    40
370
     0
100
AcDbBlockReference
  2
From Solid_16
 10
-3229.267868
 20
-85.794657
 30
0.0
  0
INSERT
  5
6FF9D
330
701B0
100
AcDbEntity
  8
Level 26
  6
Continuous
 62
    40
370
     0
100
AcDbBlockReference
  2
From Solid_17
 10
-3229.267868
 20
-85.794657
 30
0.0
  0
INSERT
  5
6FF9E
330
701B0
100
AcDbEntity
  8
Level 26
  6
Continuous
 62
    40
370
     0
100
AcDbBlockReference
  2
From Solid_18
 10
-3229.267868
 20
-85.794657
 30
0.0
  0
INSERT
  5
6FF9F
330
701B0
100
AcDbEntity
  8
Level 26
  6
Continuous
 62
    40
370
     0
100
AcDbBlockReference
  2
From Solid_19
 10
-3229.267868
 20
-85.794657
 30
0.0
  0
INSERT
  5
6FFA0
330
701B0
100
AcDbEntity
  8
Level 26
  6
Continuous
 62
    40
370
     0
100
AcDbBlockReference
  2
From Solid_20
 10
-3229.267868
 20
-85.794657
 30
0.0
  0
INSERT
  5
6FFA1
330
701B0
100
AcDbEntity
  8
Level 26
  6
Continuous
 62
    40
370
     0
100
AcDbBlockReference
  2
From Solid_21
 10
-3229.267868
 20
-85.794657
 30
0.0
  0
INSERT
  5
6FFA2
330
701B0
100
AcDbEntity
  8
Level 26
  6
Continuous
 62
    20
370
     0
100
AcDbBlockReference
  2
From Surface_4
 10
-3229.267868
 20
-85.794657
 30
0.0
  0
INSERT
  5
6FFA3
330
701B0
100
AcDbEntity
  8
Level 26
  6
Continuous
 62
    20
370
     0
100
AcDbBlockReference
  2
From Surface_5
 10
-3229.267868
 20
-85.794657
 30
0.0
  0
INSERT
  5
6FFA4
330
701B0
100
AcDbEntity
  8
Level 26
  6
Continuous
 62
    20
370
     0
100
AcDbBlockReference
  2
From Surface_6
 10
-3229.267868
 20
-85.794657
 30
0.0
  0
INSERT
  5
6FFA5
330
701B0
100
AcDbEntity
  8
Level 26
  6
Continuous
 62
    20
370
     0
100
AcDbBlockReference
  2
From Surface_7
 10
-3229.267868
 20
-85.794657
 30
0.0
  0
LWPOLYLINE
  5
6FE54
330
701B0
100
AcDbEntity
  8
Level 26
  6
Continuous
 62
    20
370
     0
100
AcDbPolyline
 90
        9
 70
   129
 43
0.0
 10
600.0
 20
-80.0
 10
600.0
 20
80.0
 42
0.414214
 10
580.0
 20
100.0
 10
330.0
 20
100.0
 42
0.414214
 10
310.0
 20
80.0
 10
310.0
 20
-80.0
 42
0.414214
 10
330.0
 20
-100.0
 10
580.0
 20
-100.0
 42
0.414214
 10
600.0
 20
-80.0
  0
LWPOLYLINE
  5
6FE5D
330
701B0
100
AcDbEntity
  8
Level 26
  6
Continuous
 62
    40
370
     0
100
AcDbPolyline
 90
        5
 70
   129
 43
0.0
 10
-595.0
 20
37.5
 10
-595.0
 20
-37.5
 10
-595.0
 20
-37.5
 10
-595.0
 20
37.5
 10
-595.0
 20
37.5
  0
LWPOLYLINE
  5
6FE62
330
701B0
100
AcDbEntity
  8
Level 26
  6
Continuous
 62
    40
370
     0
100
AcDbPolyline
 90
        5
 70
   129
 43
0.0
 10
595.0
 20
37.5
 10
595.0
 20
-37.5
 10
595.0
 20
-37.5
 10
595.0
 20
37.5
 10
595.0
 20
37.5
  0
INSERT
  5
6FFA6
330
701B0
100
AcDbEntity
  8
Level 26
  6
Continuous
 62
     7
370
     0
100
AcDbBlockReference
  2
From Bspline Surface
 10
-3229.267868
 20
-85.794657
 30
0.0
  0
INSERT
  5
6FFC5
330
701B0
100
AcDbEntity
  8
Level 26
  6
Continuous
 62
     7
370
     0
100
AcDbBlockReference
  2
From Bspline Surface_1
 10
-3229.267868
 20
-85.794657
 30
0.0
  0
INSERT
  5
6FFE4
330
701B0
100
AcDbEntity
  8
Level 26
  6
Continuous
 62
     7
370
     0
100
AcDbBlockReference
  2
From Bspline Surface_2
 10
-3229.267868
 20
-85.794657
 30
0.0
  0
INSERT
  5
70003
330
701B0
100
AcDbEntity
  8
Level 26
  6
Continuous
 62
     7
370
     0
100
AcDbBlockReference
  2
From Bspline Surface_3
 10
-3229.267868
 20
-85.794657
 30
0.0
  0
INSERT
  5
70022
330
701B0
100
AcDbEntity
  8
Level 26
  6
Continuous
 62
     7
370
     0
100
AcDbBlockReference
  2
From Bspline Surface_4
 10
-3229.267868
 20
-85.794657
 30
0.0
  0
INSERT
  5
70041
330
701B0
100
AcDbEntity
  8
Level 26
  6
Continuous
 62
     7
370
     0
100
AcDbBlockReference
  2
From Bspline Surface_5
 10
-3229.267868
 20
-85.794657
 30
0.0
  0
INSERT
  5
70060
330
701B0
100
AcDbEntity
  8
Level 26
  6
Continuous
 62
     7
370
     0
100
AcDbBlockReference
  2
From Bspline Surface_6
 10
-3229.267868
 20
-85.794657
 30
0.0
  0
INSERT
  5
7007F
330
701B0
100
AcDbEntity
  8
Level 26
  6
Continuous
 62
     7
370
     0
100
AcDbBlockReference
  2
From Bspline Surface_7
 10
-3229.267868
 20
-85.794657
 30
0.0
  0
INSERT
  5
7009E
330
701B0
100
AcDbEntity
  8
Level 26
  6
Continuous
 62
    40
370
     0
100
AcDbBlockReference
  2
From Solid_22
 10
-3229.267868
 20
-85.794657
 30
0.0
  0
INSERT
  5
7009F
330
701B0
100
AcDbEntity
  8
Level 26
  6
Continuous
 62
    40
370
     0
100
AcDbBlockReference
  2
From Solid_23
 10
-3229.267868
 20
-85.794657
 30
0.0
  0
INSERT
  5
700A0
330
701B0
100
AcDbEntity
  8
Level 26
  6
Continuous
 62
    40
370
     0
100
AcDbBlockReference
  2
From Solid_24
 10
-3229.267868
 20
-85.794657
 30
0.0
  0
INSERT
  5
700A1
330
701B0
100
AcDbEntity
  8
Level 26
  6
Continuous
 62
    40
370
     0
100
AcDbBlockReference
  2
From Solid_25
 10
-3229.267868
 20
-85.794657
 30
0.0
  0
ENDBLK
  5
701B2
330
701B0
100
AcDbEntity
  8
0
 62
    98
370
     0
100
AcDbBlockEnd
  0
BLOCK
  5
701B4
330
701B3
100
AcDbEntity
  8
0
 62
    98
370
     0
100
AcDbBlockBegin
  2
From Solid
 70
     0
 10
0.0
 20
0.0
 30
0.0
  3
From Solid
  1

  0
LINE
  5
6FD8A
330
701B3
100
AcDbEntity
  8
Level 26
  6
Continuous
 62
    40
370
     0
100
AcDbLine
 10
2955.817868
 20
225.795634
 30
0.0
 11
2982.717868
 21
225.795634
 31
0.0
  0
LINE
  5
6FD8B
330
701B3
100
AcDbEntity
  8
Level 26
  6
Continuous
 62
    40
370
     0
100
AcDbLine
 10
2955.817868
 20
-54.20632
 30
0.0
 11
2982.717868
 21
-54.20632
 31
0.0
  0
LINE
  5
6FD8C
330
701B3
100
AcDbEntity
  8
Level 26
  6
Continuous
 62
    40
370
     0
100
AcDbLine
 10
2969.267868
 20
225.795634
 30
0.0
 11
2969.267868
 21
-54.20632
 31
0.0
  0
LINE
  5
6FD8D
330
701B3
100
AcDbEntity
  8
Level 26
  6
Continuous
 62
    40
370
     0
100
AcDbLine
 10
2955.817868
 20
225.795634
 30
0.0
 11
2955.817868
 21
-54.20632
 31
0.0
  0
LINE
  5
6FD8E
330
701B3
100
AcDbEntity
  8
Level 26
  6
Continuous
 62
    40
370
     0
100
AcDbLine
 10
2969.267868
 20
225.795634
 30
0.0
 11
2969.267868
 21
-54.20632
 31
0.0
  0
LINE
  5
6FD8F
330
701B3
100
AcDbEntity
  8
Level 26
  6
Continuous
 62
    40
370
     0
100
AcDbLine
 10
2982.717868
 20
225.795634
 30
0.0
 11
2982.717868
 21
-54.20632
 31
0.0
  0
ENDBLK
  5
701B5
330
701B3
100
AcDbEntity
  8
0
 62
    98
370
     0
100
AcDbBlockEnd
  0
BLOCK
  5
701B7
330
701B6
100
AcDbEntity
  8
0
 62
    98
370
     0
100
AcDbBlockBegin
  2
From Solid_1
 70
     0
 10
0.0
 20
0.0
 30
0.0
  3
From Solid_1
  1

  0
LINE
  5
6FD91
330
701B6
100
AcDbEntity
  8
Level 26
  6
Continuous
 62
    40
370
     0
100
AcDbLine
 10
2955.817868
 20
225.795634
 30
0.0
 11
2982.717868
 21
225.795634
 31
0.0
  0
LINE
  5
6FD92
330
701B6
100
AcDbEntity
  8
Level 26
  6
Continuous
 62
    40
370
     0
100
AcDbLine
 10
2955.817868
 20
-54.20632
 30
0.0
 11
2982.717868
 21
-54.20632
 31
0.0
  0
LINE
  5
6FD93
330
701B6
100
AcDbEntity
  8
Level 26
  6
Continuous
 62
    40
370
     0
100
AcDbLine
 10
2969.267868
 20
225.795634
 30
0.0
 11
2969.267868
 21
-54.20632
 31
0.0
  0
LINE
  5
6FD94
330
701B6
100
AcDbEntity
  8
Level 26
  6
Continuous
 62
    40
370
     0
100
AcDbLine
 10
2955.817868
 20
225.795634
 30
0.0
 11
2955.817868
 21
-54.20632
 31
0.0
  0
LINE
  5
6FD95
330
701B6
100
AcDbEntity
  8
Level 26
  6
Continuous
 62
    40
370
     0
100
AcDbLine
 10
2969.267868
 20
225.795634
 30
0.0
 11
2969.267868
 21
-54.20632
 31
0.0
  0
LINE
  5
6FD96
330
701B6
100
AcDbEntity
  8
Level 26
  6
Continuous
 62
    40
370
     0
100
AcDbLine
 10
2982.717868
 20
225.795634
 30
0.0
 11
2982.717868
 21
-54.20632
 31
0.0
  0
ENDBLK
  5
701B8
330
701B6
100
AcDbEntity
  8
0
 62
    98
370
     0
100
AcDbBlockEnd
  0
BLOCK
  5
701BA
330
701B9
100
AcDbEntity
  8
0
 62
    98
370
     0
100
AcDbBlockBegin
  2
From Solid_2
 70
     0
 10
0.0
 20
0.0
 30
0.0
  3
From Solid_2
  1

  0
CIRCLE
  5
6FD98
330
701B9
100
AcDbEntity
  8
Level 26
  6
Continuous
 62
    40
370
     0
100
AcDbCircle
 10
2969.267868
 20
227.344706
 30
0.0
 40
13.45
  0
CIRCLE
  5
6FD99
330
701B9
100
AcDbEntity
  8
Level 26
  6
Continuous
 62
    40
370
     0
100
AcDbCircle
 10
2969.267868
 20
227.344706
 30
0.0
 40
13.45
  0
POINT
  5
6FD9A
330
701B9
100
AcDbEntity
  8
Level 26
  6
Continuous
 62
    40
370
     0
100
AcDbPoint
 10
2982.717868
 20
227.344706
 30
0.0
  0
POINT
  5
6FD9B
330
701B9
100
AcDbEntity
  8
Level 26
  6
Continuous
 62
    40
370
     0
100
AcDbPoint
 10
2969.267868
 20
240.794706
 30
0.0
  0
POINT
  5
6FD9C
330
701B9
100
AcDbEntity
  8
Level 26
  6
Continuous
 62
    40
370
     0
100
AcDbPoint
 10
2955.817868
 20
227.344706
 30
0.0
  0
POINT
  5
6FD9D
330
701B9
100
AcDbEntity
  8
Level 26
  6
Continuous
 62
    40
370
     0
100
AcDbPoint
 10
2969.267868
 20
213.894706
 30
0.0
  0
ENDBLK
  5
701BB
330
701B9
100
AcDbEntity
  8
0
 62
    98
370
     0
100
AcDbBlockEnd
  0
BLOCK
  5
701BD
330
701BC
100
AcDbEntity
  8
0
 62
    98
370
     0
100
AcDbBlockBegin
  2
From Solid_3
 70
     0
 10
0.0
 20
0.0
 30
0.0
  3
From Solid_3
  1

  0
CIRCLE
  5
6FD9F
330
701BC
100
AcDbEntity
  8
Level 26
  6
Continuous
 62
    40
370
     0
100
AcDbCircle
 10
2969.267868
 20
-55.755391
 30
0.0
 40
13.45
  0
CIRCLE
  5
6FDA0
330
701BC
100
AcDbEntity
  8
Level 26
  6
Continuous
 62
    40
370
     0
100
AcDbCircle
 10
2969.267868
 20
-55.755391
 30
0.0
 40
13.45
  0
POINT
  5
6FDA1
330
701BC
100
AcDbEntity
  8
Level 26
  6
Continuous
 62
    40
370
     0
100
AcDbPoint
 10
2955.817868
 20
-55.755391
 30
0.0
  0
POINT
  5
6FDA2
330
701BC
100
AcDbEntity
  8
Level 26
  6
Continuous
 62
    40
370
     0
100
AcDbPoint
 10
2969.267868
 20
-42.305391
 30
0.0
  0
POINT
  5
6FDA3
330
701BC
100
AcDbEntity
  8
Level 26
  6
Continuous
 62
    40
370
     0
100
AcDbPoint
 10
2982.717868
 20
-55.755391
 30
0.0
  0
POINT
  5
6FDA4
330
701BC
100
AcDbEntity
  8
Level 26
  6
Continuous
 62
    40
370
     0
100
AcDbPoint
 10
2969.267868
 20
-69.205391
 30
0.0
  0
ENDBLK
  5
701BE
330
701BC
100
AcDbEntity
  8
0
 62
    98
370
     0
100
AcDbBlockEnd
  0
BLOCK
  5
701C0
330
701BF
100
AcDbEntity
  8
0
 62
    98
370
     0
100
AcDbBlockBegin
  2
From Solid_4
 70
     0
 10
0.0
 20
0.0
 30
0.0
  3
From Solid_4
  1

  0
LINE
  5
6FDA6
330
701BF
100
AcDbEntity
  8
Level 26
  6
Continuous
 62
    40
370
     0
100
AcDbLine
 10
2955.817868
 20
14.244609
 30
0.0
 11
2982.717868
 21
14.244609
 31
0.0
  0
LINE
  5
6FDA7
330
701BF
100
AcDbEntity
  8
Level 26
  6
Continuous
 62
    40
370
     0
100
AcDbLine
 10
2955.817868
 20
157.344706
 30
0.0
 11
2982.717868
 21
157.344706
 31
0.0
  0
LINE
  5
6FDA8
330
701BF
100
AcDbEntity
  8
Level 26
  6
Continuous
 62
    40
370
     0
100
AcDbLine
 10
2969.267868
 20
14.244609
 30
0.0
 11
2969.267868
 21
157.344706
 31
0.0
  0
LINE
  5
6FDA9
330
701BF
100
AcDbEntity
  8
Level 26
  6
Continuous
 62
    40
370
     0
100
AcDbLine
 10
2955.817868
 20
14.244609
 30
0.0
 11
2955.817868
 21
157.344706
 31
0.0
  0
LINE
  5
6FDAA
330
701BF
100
AcDbEntity
  8
Level 26
  6
Continuous
 62
    40
370
     0
100
AcDbLine
 10
2969.267868
 20
14.244609
 30
0.0
 11
2969.267868
 21
157.344706
 31
0.0
  0
LINE
  5
6FDAB
330
701BF
100
AcDbEntity
  8
Level 26
  6
Continuous
 62
    40
370
     0
100
AcDbLine
 10
2982.717868
 20
14.244609
 30
0.0
 11
2982.717868
 21
157.344706
 31
0.0
  0
ENDBLK
  5
701C1
330
701BF
100
AcDbEntity
  8
0
 62
    98
370
     0
100
AcDbBlockEnd
  0
BLOCK
  5
701C3
330
701C2
100
AcDbEntity
  8
0
 62
    98
370
     0
100
AcDbBlockBegin
  2
From Solid_5
 70
     0
 10
0.0
 20
0.0
 30
0.0
  3
From Solid_5
  1

  0
LINE
  5
6FDAD
330
701C2
100
AcDbEntity
  8
Level 26
  6
Continuous
 62
    40
370
     0
100
AcDbLine
 10
2573.917868
 20
-4.229879
 30
0.0
 11
2600.817868
 21
-4.229879
 31
0.0
  0
LINE
  5
6FDAE
330
701C2
100
AcDbEntity
  8
Level 26
  6
Continuous
 62
    40
370
     0
100
AcDbLine
 10
2573.917868
 20
175.819193
 30
0.0
 11
2600.817868
 21
175.819193
 31
0.0
  0
LINE
  5
6FDAF
330
701C2
100
AcDbEntity
  8
Level 26
  6
Continuous
 62
    40
370
     0
100
AcDbLine
 10
2587.367868
 20
-4.229879
 30
0.0
 11
2587.367868
 21
175.819193
 31
0.0
  0
LINE
  5
6FDB0
330
701C2
100
AcDbEntity
  8
Level 26
  6
Continuous
 62
    40
370
     0
100
AcDbLine
 10
2573.917868
 20
-4.229879
 30
0.0
 11
2573.917868
 21
175.819193
 31
0.0
  0
LINE
  5
6FDB1
330
701C2
100
AcDbEntity
  8
Level 26
  6
Continuous
 62
    40
370
     0
100
AcDbLine
 10
2587.367868
 20
-4.229879
 30
0.0
 11
2587.367868
 21
175.819193
 31
0.0
  0
LINE
  5
6FDB2
330
701C2
100
AcDbEntity
  8
Level 26
  6
Continuous
 62
    40
370
     0
100
AcDbLine
 10
2600.817868
 20
-4.229879
 30
0.0
 11
2600.817868
 21
175.819193
 31
0.0
  0
ENDBLK
  5
701C4
330
701C2
100
AcDbEntity
  8
0
 62
    98
370
     0
100
AcDbBlockEnd
  0
BLOCK
  5
701C6
330
701C5
100
AcDbEntity
  8
0
 62
    98
370
     0
100
AcDbBlockBegin
  2
From Solid_6
 70
     0
 10
0.0
 20
0.0
 30
0.0
  3
From Solid_6
  1

  0
LINE
  5
6FDB4
330
701C5
100
AcDbEntity
  8
Level 26
  6
Continuous
 62
    40
370
     0
100
AcDbLine
 10
2573.917868
 20
-4.229879
 30
0.0
 11
2600.817868
 21
-4.229879
 31
0.0
  0
LINE
  5
6FDB5
330
701C5
100
AcDbEntity
  8
Level 26
  6
Continuous
 62
    40
370
     0
100
AcDbLine
 10
2573.917868
 20
175.819193
 30
0.0
 11
2600.817868
 21
175.819193
 31
0.0
  0
LINE
  5
6FDB6
330
701C5
100
AcDbEntity
  8
Level 26
  6
Continuous
 62
    40
370
     0
100
AcDbLine
 10
2587.367868
 20
-4.229879
 30
0.0
 11
2587.367868
 21
175.819193
 31
0.0
  0
LINE
  5
6FDB7
330
701C5
100
AcDbEntity
  8
Level 26
  6
Continuous
 62
    40
370
     0
100
AcDbLine
 10
2573.917868
 20
-4.229879
 30
0.0
 11
2573.917868
 21
175.819193
 31
0.0
  0
LINE
  5
6FDB8
330
701C5
100
AcDbEntity
  8
Level 26
  6
Continuous
 62
    40
370
     0
100
AcDbLine
 10
2587.367868
 20
-4.229879
 30
0.0
 11
2587.367868
 21
175.819193
 31
0.0
  0
LINE
  5
6FDB9
330
701C5
100
AcDbEntity
  8
Level 26
  6
Continuous
 62
    40
370
     0
100
AcDbLine
 10
2600.817868
 20
-4.229879
 30
0.0
 11
2600.817868
 21
175.819193
 31
0.0
  0
ENDBLK
  5
701C7
330
701C5
100
AcDbEntity
  8
0
 62
    98
370
     0
100
AcDbBlockEnd
  0
BLOCK
  5
701C9
330
701C8
100
AcDbEntity
  8
0
 62
    98
370
     0
100
AcDbBlockBegin
  2
From Solid_7
 70
     0
 10
0.0
 20
0.0
 30
0.0
  3
From Solid_7
  1

  0
LINE
  5
6FDBB
330
701C8
100
AcDbEntity
  8
Level 26
  6
Continuous
 62
    40
370
     0
100
AcDbLine
 10
2982.717868
 20
225.795634
 30
0.0
 11
2955.817868
 21
225.795634
 31
0.0
  0
LINE
  5
6FDBC
330
701C8
100
AcDbEntity
  8
Level 26
  6
Continuous
 62
    40
370
     0
100
AcDbLine
 10
2982.717868
 20
225.795634
 30
0.0
 11
2955.817868
 21
225.795634
 31
0.0
  0
LINE
  5
6FDBD
330
701C8
100
AcDbEntity
  8
Level 26
  6
Continuous
 62
    40
370
     0
100
AcDbLine
 10
2982.717868
 20
225.795634
 30
0.0
 11
2982.717868
 21
294.845439
 31
0.0
  0
LINE
  5
6FDBE
330
701C8
100
AcDbEntity
  8
Level 26
  6
Continuous
 62
    40
370
     0
100
AcDbLine
 10
2969.267868
 20
225.795634
 30
0.0
 11
2969.267868
 21
308.295439
 31
0.0
  0
LINE
  5
6FDBF
330
701C8
100
AcDbEntity
  8
Level 26
  6
Continuous
 62
    40
370
     0
100
AcDbLine
 10
2955.817868
 20
225.795634
 30
0.0
 11
2955.817868
 21
294.845439
 31
0.0
  0
LINE
  5
6FDC0
330
701C8
100
AcDbEntity
  8
Level 26
  6
Continuous
 62
    40
370
     0
100
AcDbLine
 10
2969.267868
 20
225.795634
 30
0.0
 11
2969.267868
 21
281.395439
 31
0.0
  0
ENDBLK
  5
701CA
330
701C8
100
AcDbEntity
  8
0
 62
    98
370
     0
100
AcDbBlockEnd
  0
BLOCK
  5
701CC
330
701CB
100
AcDbEntity
  8
0
 62
    98
370
     0
100
AcDbBlockBegin
  2
From Solid_8
 70
     0
 10
0.0
 20
0.0
 30
0.0
  3
From Solid_8
  1

  0
LINE
  5
6FDC2
330
701CB
100
AcDbEntity
  8
Level 26
  6
Continuous
 62
    40
370
     0
100
AcDbLine
 10
2982.717868
 20
-54.20632
 30
0.0
 11
2955.817868
 21
-54.20632
 31
0.0
  0
LINE
  5
6FDC3
330
701CB
100
AcDbEntity
  8
Level 26
  6
Continuous
 62
    40
370
     0
100
AcDbLine
 10
2982.717868
 20
-54.20632
 30
0.0
 11
2955.817868
 21
-54.20632
 31
0.0
  0
LINE
  5
6FDC4
330
701CB
100
AcDbEntity
  8
Level 26
  6
Continuous
 62
    40
370
     0
100
AcDbLine
 10
2982.717868
 20
-54.20632
 30
0.0
 11
2982.717868
 21
-123.255636
 31
0.0
  0
LINE
  5
6FDC5
330
701CB
100
AcDbEntity
  8
Level 26
  6
Continuous
 62
    40
370
     0
100
AcDbLine
 10
2969.267868
 20
-54.20632
 30
0.0
 11
2969.267868
 21
-136.705636
 31
0.0
  0
LINE
  5
6FDC6
330
701CB
100
AcDbEntity
  8
Level 26
  6
Continuous
 62
    40
370
     0
100
AcDbLine
 10
2955.817868
 20
-54.20632
 30
0.0
 11
2955.817868
 21
-123.255636
 31
0.0
  0
LINE
  5
6FDC7
330
701CB
100
AcDbEntity
  8
Level 26
  6
Continuous
 62
    40
370
     0
100
AcDbLine
 10
2969.267868
 20
-54.20632
 30
0.0
 11
2969.267868
 21
-109.805636
 31
0.0
  0
ENDBLK
  5
701CD
330
701CB
100
AcDbEntity
  8
0
 62
    98
370
     0
100
AcDbBlockEnd
  0
BLOCK
  5
701CF
330
701CE
100
AcDbEntity
  8
0
 62
    98
370
     0
100
AcDbBlockBegin
  2
From Solid_9
 70
     0
 10
0.0
 20
0.0
 30
0.0
  3
From Solid_9
  1

  0
LWPOLYLINE
  5
701D1
330
701CE
100
AcDbEntity
  8
Level 26
  6
Continuous
 62
    40
370
     0
100
AcDbPolyline
 90
        2
 70
   128
 43
0.0
 10
2955.817868
 20
14.244607
 10
2982.717868
 20
14.244607
  0
CIRCLE
  5
6FDCA
330
701CE
100
AcDbEntity
  8
Level 26
  6
Continuous
 62
    40
370
     0
100
AcDbCircle
 10
2969.267868
 20
-55.755392
 30
0.0
 40
13.45
  0
LINE
  5
6FDCB
330
701CE
100
AcDbEntity
  8
Level 26
  6
Continuous
 62
    40
370
     0
100
AcDbLine
 10
2982.717868
 20
-55.755392
 30
0.0
 11
2982.717868
 21
14.244607
 31
0.0
  0
LINE
  5
6FDCC
330
701CE
100
AcDbEntity
  8
Level 26
  6
Continuous
 62
    40
370
     0
100
AcDbLine
 10
2969.267868
 20
-69.205392
 30
0.0
 11
2969.267868
 21
14.244662
 31
0.0
  0
LINE
  5
6FDCD
330
701CE
100
AcDbEntity
  8
Level 26
  6
Continuous
 62
    40
370
     0
100
AcDbLine
 10
2955.817868
 20
-55.755392
 30
0.0
 11
2955.817868
 21
14.244607
 31
0.0
  0
LINE
  5
6FDCE
330
701CE
100
AcDbEntity
  8
Level 26
  6
Continuous
 62
    40
370
     0
100
AcDbLine
 10
2969.267868
 20
-42.305392
 30
0.0
 11
2969.267868
 21
14.244552
 31
0.0
  0
ENDBLK
  5
701D0
330
701CE
100
AcDbEntity
  8
0
 62
    98
370
     0
100
AcDbBlockEnd
  0
BLOCK
  5
701D3
330
701D2
100
AcDbEntity
  8
0
 62
    98
370
     0
100
AcDbBlockBegin
  2
From Solid_10
 70
     0
 10
0.0
 20
0.0
 30
0.0
  3
From Solid_10
  1

  0
CIRCLE
  5
6FDD0
330
701D2
100
AcDbEntity
  8
Level 26
  6
Continuous
 62
    40
370
     0
100
AcDbCircle
 10
2969.267868
 20
227.344706
 30
0.0
 40
13.45
  0
LWPOLYLINE
  5
701D5
330
701D2
100
AcDbEntity
  8
Level 26
  6
Continuous
 62
    40
370
     0
100
AcDbPolyline
 90
        2
 70
   128
 43
0.0
 10
2955.817868
 20
157.344707
 10
2982.717868
 20
157.344707
  0
LINE
  5
6FDD2
330
701D2
100
AcDbEntity
  8
Level 26
  6
Continuous
 62
    40
370
     0
100
AcDbLine
 10
2982.717868
 20
157.344707
 30
0.0
 11
2982.717868
 21
227.344706
 31
0.0
  0
LINE
  5
6FDD3
330
701D2
100
AcDbEntity
  8
Level 26
  6
Continuous
 62
    40
370
     0
100
AcDbLine
 10
2969.267868
 20
157.344652
 30
0.0
 11
2969.267868
 21
240.794706
 31
0.0
  0
LINE
  5
6FDD4
330
701D2
100
AcDbEntity
  8
Level 26
  6
Continuous
 62
    40
370
     0
100
AcDbLine
 10
2955.817868
 20
157.344707
 30
0.0
 11
2955.817868
 21
227.344706
 31
0.0
  0
LINE
  5
6FDD5
330
701D2
100
AcDbEntity
  8
Level 26
  6
Continuous
 62
    40
370
     0
100
AcDbLine
 10
2969.267868
 20
157.344761
 30
0.0
 11
2969.267868
 21
213.894706
 31
0.0
  0
ENDBLK
  5
701D4
330
701D2
100
AcDbEntity
  8
0
 62
    98
370
     0
100
AcDbBlockEnd
  0
BLOCK
  5
701D7
330
701D6
100
AcDbEntity
  8
0
 62
    98
370
     0
100
AcDbBlockBegin
  2
From Solid_11
 70
     0
 10
0.0
 20
0.0
 30
0.0
  3
From Solid_11
  1

  0
LINE
  5
6FDD7
330
701D6
100
AcDbEntity
  8
Level 26
  6
Continuous
 62
    40
370
     0
100
AcDbLine
 10
2600.817868
 20
175.819193
 30
0.0
 11
2573.917868
 21
175.819193
 31
0.0
  0
LINE
  5
6FDD8
330
701D6
100
AcDbEntity
  8
Level 26
  6
Continuous
 62
    40
370
     0
100
AcDbLine
 10
2600.817868
 20
175.819193
 30
0.0
 11
2573.917868
 21
175.819193
 31
0.0
  0
LINE
  5
6FDD9
330
701D6
100
AcDbEntity
  8
Level 26
  6
Continuous
 62
    40
370
     0
100
AcDbLine
 10
2600.817868
 20
175.819193
 30
0.0
 11
2600.817868
 21
244.868998
 31
0.0
  0
LINE
  5
6FDDA
330
701D6
100
AcDbEntity
  8
Level 26
  6
Continuous
 62
    40
370
     0
100
AcDbLine
 10
2587.367868
 20
175.819193
 30
0.0
 11
2587.367868
 21
258.318998
 31
0.0
  0
LINE
  5
6FDDB
330
701D6
100
AcDbEntity
  8
Level 26
  6
Continuous
 62
    40
370
     0
100
AcDbLine
 10
2573.917868
 20
175.819193
 30
0.0
 11
2573.917868
 21
244.868998
 31
0.0
  0
LINE
  5
6FDDC
330
701D6
100
AcDbEntity
  8
Level 26
  6
Continuous
 62
    40
370
     0
100
AcDbLine
 10
2587.367868
 20
175.819193
 30
0.0
 11
2587.367868
 21
231.418998
 31
0.0
  0
ENDBLK
  5
701D8
330
701D6
100
AcDbEntity
  8
0
 62
    98
370
     0
100
AcDbBlockEnd
  0
BLOCK
  5
701DA
330
701D9
100
AcDbEntity
  8
0
 62
    98
370
     0
100
AcDbBlockBegin
  2
From Solid_12
 70
     0
 10
0.0
 20
0.0
 30
0.0
  3
From Solid_12
  1

  0
LINE
  5
6FDDE
330
701D9
100
AcDbEntity
  8
Level 26
  6
Continuous
 62
    40
370
     0
100
AcDbLine
 10
2600.817868
 20
-4.229879
 30
0.0
 11
2573.917868
 21
-4.229879
 31
0.0
  0
LINE
  5
6FDDF
330
701D9
100
AcDbEntity
  8
Level 26
  6
Continuous
 62
    40
370
     0
100
AcDbLine
 10
2600.817868
 20
-4.229879
 30
0.0
 11
2573.917868
 21
-4.229879
 31
0.0
  0
LINE
  5
6FDE0
330
701D9
100
AcDbEntity
  8
Level 26
  6
Continuous
 62
    40
370
     0
100
AcDbLine
 10
2600.817868
 20
-4.229879
 30
0.0
 11
2600.817868
 21
-73.279684
 31
0.0
  0
LINE
  5
6FDE1
330
701D9
100
AcDbEntity
  8
Level 26
  6
Continuous
 62
    40
370
     0
100
AcDbLine
 10
2587.367868
 20
-4.229879
 30
0.0
 11
2587.367868
 21
-86.729684
 31
0.0
  0
LINE
  5
6FDE2
330
701D9
100
AcDbEntity
  8
Level 26
  6
Continuous
 62
    40
370
     0
100
AcDbLine
 10
2573.917868
 20
-4.229879
 30
0.0
 11
2573.917868
 21
-73.279684
 31
0.0
  0
LINE
  5
6FDE3
330
701D9
100
AcDbEntity
  8
Level 26
  6
Continuous
 62
    40
370
     0
100
AcDbLine
 10
2587.367868
 20
-4.229879
 30
0.0
 11
2587.367868
 21
-59.829684
 31
0.0
  0
ENDBLK
  5
701DB
330
701D9
100
AcDbEntity
  8
0
 62
    98
370
     0
100
AcDbBlockEnd
  0
BLOCK
  5
701DD
330
701DC
100
AcDbEntity
  8
0
 62
    98
370
     0
100
AcDbBlockBegin
  2
From Surface
 70
     0
 10
0.0
 20
0.0
 30
0.0
  3
From Surface
  1

  0
ARC
  5
6FDE5
330
701DC
100
AcDbEntity
  8
Level 26
  6
Continuous
 62
    20
370
     0
100
AcDbCircle
 10
-2899.26787
 20
5.794655
 30
0.0
 40
19.99999871533719
210
0.0
220
0.0
230
-1.0
100
AcDbArc
 50
179.999996
 51
270.000004
  0
ARC
  5
6FDE6
330
701DC
100
AcDbEntity
  8
Level 26
  6
Continuous
 62
    20
370
     0
100
AcDbCircle
 10
-2899.26787
 20
5.794655
 30
0.0
 40
19.99999871533719
210
0.0
220
0.0
230
-1.0
100
AcDbArc
 50
179.999996
 51
270.000004
  0
POINT
  5
6FDE7
330
701DC
100
AcDbEntity
  8
Level 26
  6
Continuous
 62
    20
370
     0
100
AcDbPoint
 10
2919.267868
 20
5.794657
 30
0.0
  0
POINT
  5
6FDE8
330
701DC
100
AcDbEntity
  8
Level 26
  6
Continuous
 62
    20
370
     0
100
AcDbPoint
 10
2899.267868
 20
-14.205343
 30
0.0
  0
ENDBLK
  5
701DE
330
701DC
100
AcDbEntity
  8
0
 62
    98
370
     0
100
AcDbBlockEnd
  0
BLOCK
  5
701E0
330
701DF
100
AcDbEntity
  8
0
 62
    98
370
     0
100
AcDbBlockBegin
  2
From Surface_1
 70
     0
 10
0.0
 20
0.0
 30
0.0
  3
From Surface_1
  1

  0
ARC
  5
6FDEA
330
701DF
100
AcDbEntity
  8
Level 26
  6
Continuous
 62
    20
370
     0
100
AcDbCircle
 10
-2899.26787
 20
165.794658
 30
0.0
 40
19.99999871533725
210
0.0
220
0.0
230
-1.0
100
AcDbArc
 50
89.999996
 51
180.000004
  0
ARC
  5
6FDEB
330
701DF
100
AcDbEntity
  8
Level 26
  6
Continuous
 62
    20
370
     0
100
AcDbCircle
 10
-2899.26787
 20
165.794658
 30
0.0
 40
19.99999871533726
210
0.0
220
0.0
230
-1.0
100
AcDbArc
 50
89.999996
 51
180.000004
  0
POINT
  5
6FDEC
330
701DF
100
AcDbEntity
  8
Level 26
  6
Continuous
 62
    20
370
     0
100
AcDbPoint
 10
2899.267868
 20
185.794657
 30
0.0
  0
POINT
  5
6FDED
330
701DF
100
AcDbEntity
  8
Level 26
  6
Continuous
 62
    20
370
     0
100
AcDbPoint
 10
2919.267868
 20
165.794657
 30
0.0
  0
ENDBLK
  5
701E1
330
701DF
100
AcDbEntity
  8
0
 62
    98
370
     0
100
AcDbBlockEnd
  0
BLOCK
  5
701E3
330
701E2
100
AcDbEntity
  8
0
 62
    98
370
     0
100
AcDbBlockBegin
  2
From Surface_2
 70
     0
 10
0.0
 20
0.0
 30
0.0
  3
From Surface_2
  1

  0
ARC
  5
6FDEF
330
701E2
100
AcDbEntity
  8
Level 26
  6
Continuous
 62
    20
370
     0
100
AcDbCircle
 10
-2649.267867
 20
165.794658
 30
0.0
 40
19.99999871533696
210
0.0
220
0.0
230
-1.0
100
AcDbArc
 50
359.999996
 51
90.000004
  0
ARC
  5
6FDF0
330
701E2
100
AcDbEntity
  8
Level 26
  6
Continuous
 62
    20
370
     0
100
AcDbCircle
 10
-2649.267867
 20
165.794658
 30
0.0
 40
19.99999871533696
210
0.0
220
0.0
230
-1.0
100
AcDbArc
 50
359.999996
 51
90.000004
  0
POINT
  5
6FDF1
330
701E2
100
AcDbEntity
  8
Level 26
  6
Continuous
 62
    20
370
     0
100
AcDbPoint
 10
2629.267868
 20
165.794657
 30
0.0
  0
POINT
  5
6FDF2
330
701E2
100
AcDbEntity
  8
Level 26
  6
Continuous
 62
    20
370
     0
100
AcDbPoint
 10
2649.267868
 20
185.794657
 30
0.0
  0
ENDBLK
  5
701E4
330
701E2
100
AcDbEntity
  8
0
 62
    98
370
     0
100
AcDbBlockEnd
  0
BLOCK
  5
701E6
330
701E5
100
AcDbEntity
  8
0
 62
    98
370
     0
100
AcDbBlockBegin
  2
From Surface_3
 70
     0
 10
0.0
 20
0.0
 30
0.0
  3
From Surface_3
  1

  0
ARC
  5
6FDF4
330
701E5
100
AcDbEntity
  8
Level 26
  6
Continuous
 62
    20
370
     0
100
AcDbCircle
 10
-2649.267867
 20
5.794655
 30
0.0
 40
19.99999871533713
210
0.0
220
0.0
230
-1.0
100
AcDbArc
 50
269.999996
 51
0.000004
  0
ARC
  5
6FDF5
330
701E5
100
AcDbEntity
  8
Level 26
  6
Continuous
 62
    20
370
     0
100
AcDbCircle
 10
-2649.267867
 20
5.794655
 30
0.0
 40
19.99999871533713
210
0.0
220
0.0
230
-1.0
100
AcDbArc
 50
269.999996
 51
0.000004
  0
POINT
  5
6FDF6
330
701E5
100
AcDbEntity
  8
Level 26
  6
Continuous
 62
    20
370
     0
100
AcDbPoint
 10
2649.267868
 20
-14.205343
 30
0.0
  0
POINT
  5
6FDF7
330
701E5
100
AcDbEntity
  8
Level 26
  6
Continuous
 62
    20
370
     0
100
AcDbPoint
 10
2629.267868
 20
5.794657
 30
0.0
  0
ENDBLK
  5
701E7
330
701E5
100
AcDbEntity
  8
0
 62
    98
370
     0
100
AcDbBlockEnd
  0
BLOCK
  5
701E9
330
701E8
100
AcDbEntity
  8
0
 62
    98
370
     0
100
AcDbBlockBegin
  2
From Solid_13
 70
     0
 10
0.0
 20
0.0
 30
0.0
  3
From Solid_13
  1

  0
LINE
  5
6FE02
330
701E8
100
AcDbEntity
  8
Level 26
  6
Continuous
 62
    40
370
     0
100
AcDbLine
 10
3502.717868
 20
-54.20632
 30
0.0
 11
3475.817868
 21
-54.20632
 31
0.0
  0
LINE
  5
6FE03
330
701E8
100
AcDbEntity
  8
Level 26
  6
Continuous
 62
    40
370
     0
100
AcDbLine
 10
3502.717868
 20
225.795634
 30
0.0
 11
3475.817868
 21
225.795634
 31
0.0
  0
LINE
  5
6FE04
330
701E8
100
AcDbEntity
  8
Level 26
  6
Continuous
 62
    40
370
     0
100
AcDbLine
 10
3489.267868
 20
-54.20632
 30
0.0
 11
3489.267868
 21
225.795634
 31
0.0
  0
LINE
  5
6FE05
330
701E8
100
AcDbEntity
  8
Level 26
  6
Continuous
 62
    40
370
     0
100
AcDbLine
 10
3502.717868
 20
-54.20632
 30
0.0
 11
3502.717868
 21
225.795634
 31
0.0
  0
LINE
  5
6FE06
330
701E8
100
AcDbEntity
  8
Level 26
  6
Continuous
 62
    40
370
     0
100
AcDbLine
 10
3489.267868
 20
-54.20632
 30
0.0
 11
3489.267868
 21
225.795634
 31
0.0
  0
LINE
  5
6FE07
330
701E8
100
AcDbEntity
  8
Level 26
  6
Continuous
 62
    40
370
     0
100
AcDbLine
 10
3475.817868
 20
-54.20632
 30
0.0
 11
3475.817868
 21
225.795634
 31
0.0
  0
ENDBLK
  5
701EA
330
701E8
100
AcDbEntity
  8
0
 62
    98
370
     0
100
AcDbBlockEnd
  0
BLOCK
  5
701EC
330
701EB
100
AcDbEntity
  8
0
 62
    98
370
     0
100
AcDbBlockBegin
  2
From Solid_14
 70
     0
 10
0.0
 20
0.0
 30
0.0
  3
From Solid_14
  1

  0
LINE
  5
6FE09
330
701EB
100
AcDbEntity
  8
Level 26
  6
Continuous
 62
    40
370
     0
100
AcDbLine
 10
3502.717868
 20
-54.20632
 30
0.0
 11
3475.817868
 21
-54.20632
 31
0.0
  0
LINE
  5
6FE0A
330
701EB
100
AcDbEntity
  8
Level 26
  6
Continuous
 62
    40
370
     0
100
AcDbLine
 10
3502.717868
 20
225.795634
 30
0.0
 11
3475.817868
 21
225.795634
 31
0.0
  0
LINE
  5
6FE0B
330
701EB
100
AcDbEntity
  8
Level 26
  6
Continuous
 62
    40
370
     0
100
AcDbLine
 10
3489.267868
 20
-54.20632
 30
0.0
 11
3489.267868
 21
225.795634
 31
0.0
  0
LINE
  5
6FE0C
330
701EB
100
AcDbEntity
  8
Level 26
  6
Continuous
 62
    40
370
     0
100
AcDbLine
 10
3502.717868
 20
-54.20632
 30
0.0
 11
3502.717868
 21
225.795634
 31
0.0
  0
LINE
  5
6FE0D
330
701EB
100
AcDbEntity
  8
Level 26
  6
Continuous
 62
    40
370
     0
100
AcDbLine
 10
3489.267868
 20
-54.20632
 30
0.0
 11
3489.267868
 21
225.795634
 31
0.0
  0
LINE
  5
6FE0E
330
701EB
100
AcDbEntity
  8
Level 26
  6
Continuous
 62
    40
370
     0
100
AcDbLine
 10
3475.817868
 20
-54.20632
 30
0.0
 11
3475.817868
 21
225.795634
 31
0.0
  0
ENDBLK
  5
701ED
330
701EB
100
AcDbEntity
  8
0
 62
    98
370
     0
100
AcDbBlockEnd
  0
BLOCK
  5
701EF
330
701EE
100
AcDbEntity
  8
0
 62
    98
370
     0
100
AcDbBlockBegin
  2
From Solid_15
 70
     0
 10
0.0
 20
0.0
 30
0.0
  3
From Solid_15
  1

  0
CIRCLE
  5
6FE10
330
701EE
100
AcDbEntity
  8
Level 26
  6
Continuous
 62
    40
370
     0
100
AcDbCircle
 10
3489.267868
 20
-55.755392
 30
0.0
 40
13.45
  0
CIRCLE
  5
6FE11
330
701EE
100
AcDbEntity
  8
Level 26
  6
Continuous
 62
    40
370
     0
100
AcDbCircle
 10
3489.267868
 20
-55.755392
 30
0.0
 40
13.45
  0
POINT
  5
6FE12
330
701EE
100
AcDbEntity
  8
Level 26
  6
Continuous
 62
    40
370
     0
100
AcDbPoint
 10
3475.817868
 20
-55.755392
 30
0.0
  0
POINT
  5
6FE13
330
701EE
100
AcDbEntity
  8
Level 26
  6
Continuous
 62
    40
370
     0
100
AcDbPoint
 10
3489.267868
 20
-69.205392
 30
0.0
  0
POINT
  5
6FE14
330
701EE
100
AcDbEntity
  8
Level 26
  6
Continuous
 62
    40
370
     0
100
AcDbPoint
 10
3502.717868
 20
-55.755392
 30
0.0
  0
POINT
  5
6FE15
330
701EE
100
AcDbEntity
  8
Level 26
  6
Continuous
 62
    40
370
     0
100
AcDbPoint
 10
3489.267868
 20
-42.305392
 30
0.0
  0
ENDBLK
  5
701F0
330
701EE
100
AcDbEntity
  8
0
 62
    98
370
     0
100
AcDbBlockEnd
  0
BLOCK
  5
701F2
330
701F1
100
AcDbEntity
  8
0
 62
    98
370
     0
100
AcDbBlockBegin
  2
From Solid_16
 70
     0
 10
0.0
 20
0.0
 30
0.0
  3
From Solid_16
  1

  0
CIRCLE
  5
6FE17
330
701F1
100
AcDbEntity
  8
Level 26
  6
Continuous
 62
    40
370
     0
100
AcDbCircle
 10
3489.267868
 20
227.344705
 30
0.0
 40
13.45
  0
CIRCLE
  5
6FE18
330
701F1
100
AcDbEntity
  8
Level 26
  6
Continuous
 62
    40
370
     0
100
AcDbCircle
 10
3489.267868
 20
227.344705
 30
0.0
 40
13.45
  0
POINT
  5
6FE19
330
701F1
100
AcDbEntity
  8
Level 26
  6
Continuous
 62
    40
370
     0
100
AcDbPoint
 10
3502.717868
 20
227.344705
 30
0.0
  0
POINT
  5
6FE1A
330
701F1
100
AcDbEntity
  8
Level 26
  6
Continuous
 62
    40
370
     0
100
AcDbPoint
 10
3489.267868
 20
213.894705
 30
0.0
  0
POINT
  5
6FE1B
330
701F1
100
AcDbEntity
  8
Level 26
  6
Continuous
 62
    40
370
     0
100
AcDbPoint
 10
3475.817868
 20
227.344705
 30
0.0
  0
POINT
  5
6FE1C
330
701F1
100
AcDbEntity
  8
Level 26
  6
Continuous
 62
    40
370
     0
100
AcDbPoint
 10
3489.267868
 20
240.794705
 30
0.0
  0
ENDBLK
  5
701F3
330
701F1
100
AcDbEntity
  8
0
 62
    98
370
     0
100
AcDbBlockEnd
  0
BLOCK
  5
701F5
330
701F4
100
AcDbEntity
  8
0
 62
    98
370
     0
100
AcDbBlockBegin
  2
From Solid_17
 70
     0
 10
0.0
 20
0.0
 30
0.0
  3
From Solid_17
  1

  0
LINE
  5
6FE1E
330
701F4
100
AcDbEntity
  8
Level 26
  6
Continuous
 62
    40
370
     0
100
AcDbLine
 10
3502.717868
 20
157.344705
 30
0.0
 11
3475.817868
 21
157.344705
 31
0.0
  0
LINE
  5
6FE1F
330
701F4
100
AcDbEntity
  8
Level 26
  6
Continuous
 62
    40
370
     0
100
AcDbLine
 10
3502.717868
 20
14.244608
 30
0.0
 11
3475.817868
 21
14.244608
 31
0.0
  0
LINE
  5
6FE20
330
701F4
100
AcDbEntity
  8
Level 26
  6
Continuous
 62
    40
370
     0
100
AcDbLine
 10
3489.267868
 20
157.344705
 30
0.0
 11
3489.267868
 21
14.244608
 31
0.0
  0
LINE
  5
6FE21
330
701F4
100
AcDbEntity
  8
Level 26
  6
Continuous
 62
    40
370
     0
100
AcDbLine
 10
3502.717868
 20
157.344705
 30
0.0
 11
3502.717868
 21
14.244608
 31
0.0
  0
LINE
  5
6FE22
330
701F4
100
AcDbEntity
  8
Level 26
  6
Continuous
 62
    40
370
     0
100
AcDbLine
 10
3489.267868
 20
157.344705
 30
0.0
 11
3489.267868
 21
14.244608
 31
0.0
  0
LINE
  5
6FE23
330
701F4
100
AcDbEntity
  8
Level 26
  6
Continuous
 62
    40
370
     0
100
AcDbLine
 10
3475.817868
 20
157.344705
 30
0.0
 11
3475.817868
 21
14.244608
 31
0.0
  0
ENDBLK
  5
701F6
330
701F4
100
AcDbEntity
  8
0
 62
    98
370
     0
100
AcDbBlockEnd
  0
BLOCK
  5
701F8
330
701F7
100
AcDbEntity
  8
0
 62
    98
370
     0
100
AcDbBlockBegin
  2
From Solid_18
 70
     0
 10
0.0
 20
0.0
 30
0.0
  3
From Solid_18
  1

  0
LINE
  5
6FE25
330
701F7
100
AcDbEntity
  8
Level 26
  6
Continuous
 62
    40
370
     0
100
AcDbLine
 10
3884.617868
 20
175.819193
 30
0.0
 11
3857.717868
 21
175.819193
 31
0.0
  0
LINE
  5
6FE26
330
701F7
100
AcDbEntity
  8
Level 26
  6
Continuous
 62
    40
370
     0
100
AcDbLine
 10
3884.617868
 20
-4.229879
 30
0.0
 11
3857.717868
 21
-4.229879
 31
0.0
  0
LINE
  5
6FE27
330
701F7
100
AcDbEntity
  8
Level 26
  6
Continuous
 62
    40
370
     0
100
AcDbLine
 10
3871.167868
 20
175.819193
 30
0.0
 11
3871.167868
 21
-4.229879
 31
0.0
  0
LINE
  5
6FE28
330
701F7
100
AcDbEntity
  8
Level 26
  6
Continuous
 62
    40
370
     0
100
AcDbLine
 10
3884.617868
 20
175.819193
 30
0.0
 11
3884.617868
 21
-4.229879
 31
0.0
  0
LINE
  5
6FE29
330
701F7
100
AcDbEntity
  8
Level 26
  6
Continuous
 62
    40
370
     0
100
AcDbLine
 10
3871.167868
 20
175.819193
 30
0.0
 11
3871.167868
 21
-4.229879
 31
0.0
  0
LINE
  5
6FE2A
330
701F7
100
AcDbEntity
  8
Level 26
  6
Continuous
 62
    40
370
     0
100
AcDbLine
 10
3857.717868
 20
175.819193
 30
0.0
 11
3857.717868
 21
-4.229879
 31
0.0
  0
ENDBLK
  5
701F9
330
701F7
100
AcDbEntity
  8
0
 62
    98
370
     0
100
AcDbBlockEnd
  0
BLOCK
  5
701FB
330
701FA
100
AcDbEntity
  8
0
 62
    98
370
     0
100
AcDbBlockBegin
  2
From Solid_19
 70
     0
 10
0.0
 20
0.0
 30
0.0
  3
From Solid_19
  1

  0
LINE
  5
6FE2C
330
701FA
100
AcDbEntity
  8
Level 26
  6
Continuous
 62
    40
370
     0
100
AcDbLine
 10
3884.617868
 20
175.819193
 30
0.0
 11
3857.717868
 21
175.819193
 31
0.0
  0
LINE
  5
6FE2D
330
701FA
100
AcDbEntity
  8
Level 26
  6
Continuous
 62
    40
370
     0
100
AcDbLine
 10
3884.617868
 20
-4.229879
 30
0.0
 11
3857.717868
 21
-4.229879
 31
0.0
  0
LINE
  5
6FE2E
330
701FA
100
AcDbEntity
  8
Level 26
  6
Continuous
 62
    40
370
     0
100
AcDbLine
 10
3871.167868
 20
175.819193
 30
0.0
 11
3871.167868
 21
-4.229879
 31
0.0
  0
LINE
  5
6FE2F
330
701FA
100
AcDbEntity
  8
Level 26
  6
Continuous
 62
    40
370
     0
100
AcDbLine
 10
3884.617868
 20
175.819193
 30
0.0
 11
3884.617868
 21
-4.229879
 31
0.0
  0
LINE
  5
6FE30
330
701FA
100
AcDbEntity
  8
Level 26
  6
Continuous
 62
    40
370
     0
100
AcDbLine
 10
3871.167868
 20
175.819193
 30
0.0
 11
3871.167868
 21
-4.229879
 31
0.0
  0
LINE
  5
6FE31
330
701FA
100
AcDbEntity
  8
Level 26
  6
Continuous
 62
    40
370
     0
100
AcDbLine
 10
3857.717868
 20
175.819193
 30
0.0
 11
3857.717868
 21
-4.229879
 31
0.0
  0
ENDBLK
  5
701FC
330
701FA
100
AcDbEntity
  8
0
 62
    98
370
     0
100
AcDbBlockEnd
  0
BLOCK
  5
701FE
330
701FD
100
AcDbEntity
  8
0
 62
    98
370
     0
100
AcDbBlockBegin
  2
From Solid_20
 70
     0
 10
0.0
 20
0.0
 30
0.0
  3
From Solid_20
  1

  0
LWPOLYLINE
  5
70200
330
701FD
100
AcDbEntity
  8
Level 26
  6
Continuous
 62
    40
370
     0
100
AcDbPolyline
 90
        2
 70
   128
 43
0.0
 10
3502.717868
 20
157.344707
 10
3475.817868
 20
157.344707
  0
CIRCLE
  5
6FE34
330
701FD
100
AcDbEntity
  8
Level 26
  6
Continuous
 62
    40
370
     0
100
AcDbCircle
 10
3489.267868
 20
227.344706
 30
0.0
 40
13.45
  0
LINE
  5
6FE35
330
701FD
100
AcDbEntity
  8
Level 26
  6
Continuous
 62
    40
370
     0
100
AcDbLine
 10
3475.817868
 20
227.344706
 30
0.0
 11
3475.817868
 21
157.344707
 31
0.0
  0
LINE
  5
6FE36
330
701FD
100
AcDbEntity
  8
Level 26
  6
Continuous
 62
    40
370
     0
100
AcDbLine
 10
3489.267868
 20
240.794706
 30
0.0
 11
3489.267868
 21
157.344652
 31
0.0
  0
LINE
  5
6FE37
330
701FD
100
AcDbEntity
  8
Level 26
  6
Continuous
 62
    40
370
     0
100
AcDbLine
 10
3502.717868
 20
227.344706
 30
0.0
 11
3502.717868
 21
157.344707
 31
0.0
  0
LINE
  5
6FE38
330
701FD
100
AcDbEntity
  8
Level 26
  6
Continuous
 62
    40
370
     0
100
AcDbLine
 10
3489.267868
 20
213.894706
 30
0.0
 11
3489.267868
 21
157.344762
 31
0.0
  0
ENDBLK
  5
701FF
330
701FD
100
AcDbEntity
  8
0
 62
    98
370
     0
100
AcDbBlockEnd
  0
BLOCK
  5
70202
330
70201
100
AcDbEntity
  8
0
 62
    98
370
     0
100
AcDbBlockBegin
  2
From Solid_21
 70
     0
 10
0.0
 20
0.0
 30
0.0
  3
From Solid_21
  1

  0
CIRCLE
  5
6FE3A
330
70201
100
AcDbEntity
  8
Level 26
  6
Continuous
 62
    40
370
     0
100
AcDbCircle
 10
3489.267868
 20
-55.755392
 30
0.0
 40
13.45
  0
LWPOLYLINE
  5
70204
330
70201
100
AcDbEntity
  8
Level 26
  6
Continuous
 62
    40
370
     0
100
AcDbPolyline
 90
        2
 70
   128
 43
0.0
 10
3502.717868
 20
14.244607
 10
3475.817868
 20
14.244607
  0
LINE
  5
6FE3C
330
70201
100
AcDbEntity
  8
Level 26
  6
Continuous
 62
    40
370
     0
100
AcDbLine
 10
3475.817868
 20
14.244607
 30
0.0
 11
3475.817868
 21
-55.755392
 31
0.0
  0
LINE
  5
6FE3D
330
70201
100
AcDbEntity
  8
Level 26
  6
Continuous
 62
    40
370
     0
100
AcDbLine
 10
3489.267868
 20
14.244661
 30
0.0
 11
3489.267868
 21
-69.205392
 31
0.0
  0
LINE
  5
6FE3E
330
70201
100
AcDbEntity
  8
Level 26
  6
Continuous
 62
    40
370
     0
100
AcDbLine
 10
3502.717868
 20
14.244607
 30
0.0
 11
3502.717868
 21
-55.755392
 31
0.0
  0
LINE
  5
6FE3F
330
70201
100
AcDbEntity
  8
Level 26
  6
Continuous
 62
    40
370
     0
100
AcDbLine
 10
3489.267868
 20
14.244552
 30
0.0
 11
3489.267868
 21
-42.305392
 31
0.0
  0
ENDBLK
  5
70203
330
70201
100
AcDbEntity
  8
0
 62
    98
370
     0
100
AcDbBlockEnd
  0
BLOCK
  5
70206
330
70205
100
AcDbEntity
  8
0
 62
    98
370
     0
100
AcDbBlockBegin
  2
From Surface_4
 70
     0
 10
0.0
 20
0.0
 30
0.0
  3
From Surface_4
  1

  0
ARC
  5
6FE41
330
70205
100
AcDbEntity
  8
Level 26
  6
Continuous
 62
    20
370
     0
100
AcDbCircle
 10
-3559.267867
 20
165.794658
 30
0.0
 40
19.99999871533719
210
0.0
220
0.0
230
-1.0
100
AcDbArc
 50
359.999996
 51
90.000004
  0
ARC
  5
6FE42
330
70205
100
AcDbEntity
  8
Level 26
  6
Continuous
 62
    20
370
     0
100
AcDbCircle
 10
-3559.267867
 20
165.794658
 30
0.0
 40
19.99999871533719
210
0.0
220
0.0
230
-1.0
100
AcDbArc
 50
359.999996
 51
90.000004
  0
POINT
  5
6FE43
330
70205
100
AcDbEntity
  8
Level 26
  6
Continuous
 62
    20
370
     0
100
AcDbPoint
 10
3539.267868
 20
165.794657
 30
0.0
  0
POINT
  5
6FE44
330
70205
100
AcDbEntity
  8
Level 26
  6
Continuous
 62
    20
370
     0
100
AcDbPoint
 10
3559.267868
 20
185.794657
 30
0.0
  0
ENDBLK
  5
70207
330
70205
100
AcDbEntity
  8
0
 62
    98
370
     0
100
AcDbBlockEnd
  0
BLOCK
  5
70209
330
70208
100
AcDbEntity
  8
0
 62
    98
370
     0
100
AcDbBlockBegin
  2
From Surface_5
 70
     0
 10
0.0
 20
0.0
 30
0.0
  3
From Surface_5
  1

  0
ARC
  5
6FE46
330
70208
100
AcDbEntity
  8
Level 26
  6
Continuous
 62
    20
370
     0
100
AcDbCircle
 10
-3559.267867
 20
5.794655
 30
0.0
 40
19.99999871533725
210
0.0
220
0.0
230
-1.0
100
AcDbArc
 50
269.999996
 51
0.000004
  0
ARC
  5
6FE47
330
70208
100
AcDbEntity
  8
Level 26
  6
Continuous
 62
    20
370
     0
100
AcDbCircle
 10
-3559.267867
 20
5.794655
 30
0.0
 40
19.99999871533726
210
0.0
220
0.0
230
-1.0
100
AcDbArc
 50
269.999996
 51
0.000004
  0
POINT
  5
6FE48
330
70208
100
AcDbEntity
  8
Level 26
  6
Continuous
 62
    20
370
     0
100
AcDbPoint
 10
3559.267868
 20
-14.205343
 30
0.0
  0
POINT
  5
6FE49
330
70208
100
AcDbEntity
  8
Level 26
  6
Continuous
 62
    20
370
     0
100
AcDbPoint
 10
3539.267868
 20
5.794657
 30
0.0
  0
ENDBLK
  5
7020A
330
70208
100
AcDbEntity
  8
0
 62
    98
370
     0
100
AcDbBlockEnd
  0
BLOCK
  5
7020C
330
7020B
100
AcDbEntity
  8
0
 62
    98
370
     0
100
AcDbBlockBegin
  2
From Surface_6
 70
     0
 10
0.0
 20
0.0
 30
0.0
  3
From Surface_6
  1

  0
ARC
  5
6FE4B
330
7020B
100
AcDbEntity
  8
Level 26
  6
Continuous
 62
    20
370
     0
100
AcDbCircle
 10
-3809.26787
 20
5.794655
 30
0.0
 40
19.99999871533696
210
0.0
220
0.0
230
-1.0
100
AcDbArc
 50
179.999996
 51
270.000004
  0
ARC
  5
6FE4C
330
7020B
100
AcDbEntity
  8
Level 26
  6
Continuous
 62
    20
370
     0
100
AcDbCircle
 10
-3809.26787
 20
5.794655
 30
0.0
 40
19.99999871533696
210
0.0
220
0.0
230
-1.0
100
AcDbArc
 50
179.999996
 51
270.000004
  0
POINT
  5
6FE4D
330
7020B
100
AcDbEntity
  8
Level 26
  6
Continuous
 62
    20
370
     0
100
AcDbPoint
 10
3829.267868
 20
5.794657
 30
0.0
  0
POINT
  5
6FE4E
330
7020B
100
AcDbEntity
  8
Level 26
  6
Continuous
 62
    20
370
     0
100
AcDbPoint
 10
3809.267868
 20
-14.205343
 30
0.0
  0
ENDBLK
  5
7020D
330
7020B
100
AcDbEntity
  8
0
 62
    98
370
     0
100
AcDbBlockEnd
  0
BLOCK
  5
7020F
330
7020E
100
AcDbEntity
  8
0
 62
    98
370
     0
100
AcDbBlockBegin
  2
From Surface_7
 70
     0
 10
0.0
 20
0.0
 30
0.0
  3
From Surface_7
  1

  0
ARC
  5
6FE50
330
7020E
100
AcDbEntity
  8
Level 26
  6
Continuous
 62
    20
370
     0
100
AcDbCircle
 10
-3809.26787
 20
165.794658
 30
0.0
 40
19.99999871533713
210
0.0
220
0.0
230
-1.0
100
AcDbArc
 50
89.999996
 51
180.000004
  0
ARC
  5
6FE51
330
7020E
100
AcDbEntity
  8
Level 26
  6
Continuous
 62
    20
370
     0
100
AcDbCircle
 10
-3809.26787
 20
165.794658
 30
0.0
 40
19.99999871533713
210
0.0
220
0.0
230
-1.0
100
AcDbArc
 50
89.999996
 51
180.000004
  0
POINT
  5
6FE52
330
7020E
100
AcDbEntity
  8
Level 26
  6
Continuous
 62
    20
370
     0
100
AcDbPoint
 10
3809.267868
 20
185.794657
 30
0.0
  0
POINT
  5
6FE53
330
7020E
100
AcDbEntity
  8
Level 26
  6
Continuous
 62
    20
370
     0
100
AcDbPoint
 10
3829.267868
 20
165.794657
 30
0.0
  0
ENDBLK
  5
70210
330
7020E
100
AcDbEntity
  8
0
 62
    98
370
     0
100
AcDbBlockEnd
  0
BLOCK
  5
70212
330
70211
100
AcDbEntity
  8
0
 62
    98
370
     0
100
AcDbBlockBegin
  2
From Bspline Surface
 70
     0
 10
0.0
 20
0.0
 30
0.0
  3
From Bspline Surface
  1

  0
SPLINE
  5
6FE67
330
70211
100
AcDbEntity
  8
Level 26
  6
Continuous
 62
     7
370
     0
100
AcDbSpline
210
0.0
220
0.0
230
1.0
 70
     9
 71
     3
 72
    19
 73
    15
 74
     0
 42
0.000000001
 43
0.0000000001
 40
0.0
 40
0.0
 40
0.0
 40
0.0
 40
0.0833333335273589
 40
0.1666666665890565
 40
0.2500000001164153
 40
0.3333333331781129
 40
0.4166666667054718
 40
0.4999999997671694
 40
0.5833333332945282
 40
0.6666666668218872
 40
0.7499999998835847
 40
0.8333333334109434
 40
0.9166666664726411
 40
1.0
 40
1.0
 40
1.0
 40
1.0
 10
3229.267868425924
 20
163.7946566946478
 30
0.0
 10
3243.672838090525
 20
163.2917122078166
 30
0.0
 10
3269.73214614436
 20
156.7633210520807
 30
0.0
 10
3300.28271842745
 20
126.4173888642087
 30
0.0
 10
3310.679065789125
 20
85.81166078412811
 30
0.0
 10
3300.153069787049
 20
45.10163963480105
 30
0.0
 10
3270.273236357074
 20
15.08082857489322
 30
0.0
 10
3229.400912372577
 20
4.323015836467369
 30
0.0
 10
3188.511777053506
 20
14.92920413567083
 30
0.0
 10
3158.413671306871
 20
45.0027076910772
 30
0.0
 10
3147.850926533166
 20
85.8088162454154
 30
0.0
 10
3158.282486456259
 20
126.527926142568
 30
0.0
 10
3189.065339997932
 20
156.8751497211684
 30
0.0
 10
3214.908996115367
 20
163.3679140877567
 30
0.0
 10
3229.267868425924
 20
163.7946566946478
 30
0.0
  0
SPLINE
  5
700A2
330
70211
100
AcDbEntity
  8
Level 26
  6
Continuous
 62
     7
370
     0
100
AcDbSpline
210
0.0
220
0.0
230
1.0
 70
     9
 71
     3
 72
    19
 73
    15
 74
     0
 42
0.000000001
 43
0.0000000001
 40
0.0
 40
0.0
 40
0.0
 40
0.0
 40
0.0833333335273589
 40
0.1666666665890565
 40
0.2500000001164153
 40
0.3333333331781129
 40
0.4166666667054718
 40
0.4999999997671694
 40
0.5833333332945282
 40
0.6666666668218872
 40
0.7499999998835847
 40
0.8333333334109434
 40
0.9166666664726411
 40
1.0
 40
1.0
 40
1.0
 40
1.0
 10
3229.267868425924
 20
163.7946566946478
 30
0.0
 10
3243.672838090525
 20
163.2917122078166
 30
0.0
 10
3269.73214614436
 20
156.7633210520807
 30
0.0
 10
3300.28271842745
 20
126.4173888642087
 30
0.0
 10
3310.679065789125
 20
85.81166078412811
 30
0.0
 10
3300.153069787049
 20
45.10163963480105
 30
0.0
 10
3270.273236357074
 20
15.08082857489322
 30
0.0
 10
3229.400912372577
 20
4.323015836467369
 30
0.0
 10
3188.511777053506
 20
14.92920413567083
 30
0.0
 10
3158.413671306871
 20
45.0027076910772
 30
0.0
 10
3147.850926533166
 20
85.8088162454154
 30
0.0
 10
3158.282486456259
 20
126.527926142568
 30
0.0
 10
3189.065339997932
 20
156.8751497211684
 30
0.0
 10
3214.908996115367
 20
163.3679140877567
 30
0.0
 10
3229.267868425924
 20
163.7946566946478
 30
0.0
  0
SPLINE
  5
700A3
330
70211
100
AcDbEntity
  8
Level 26
  6
Continuous
 62
     7
370
     0
100
AcDbSpline
210
0.0
220
0.0
230
1.0
 70
     9
 71
     3
 72
    19
 73
    15
 74
     0
 42
0.000000001
 43
0.0000000001
 40
0.0
 40
0.0
 40
0.0
 40
0.0
 40
0.0833333335273589
 40
0.1666666665890565
 40
0.2500000001164153
 40
0.3333333331781129
 40
0.4166666667054718
 40
0.4999999997671694
 40
0.5833333332945282
 40
0.6666666668218872
 40
0.7499999998835847
 40
0.8333333334109434
 40
0.9166666664726411
 40
1.0
 40
1.0
 40
1.0
 40
1.0
 10
3229.267868425924
 20
163.7946566946478
 30
0.0
 10
3243.672838090525
 20
163.2917122078166
 30
0.0
 10
3269.73214614436
 20
156.7633210520807
 30
0.0
 10
3300.28271842745
 20
126.4173888642087
 30
0.0
 10
3310.679065789125
 20
85.81166078412811
 30
0.0
 10
3300.153069787049
 20
45.10163963480105
 30
0.0
 10
3270.273236357074
 20
15.08082857489322
 30
0.0
 10
3229.400912372577
 20
4.323015836467369
 30
0.0
 10
3188.511777053506
 20
14.92920413567083
 30
0.0
 10
3158.413671306871
 20
45.0027076910772
 30
0.0
 10
3147.850926533166
 20
85.8088162454154
 30
0.0
 10
3158.282486456259
 20
126.527926142568
 30
0.0
 10
3189.065339997932
 20
156.8751497211684
 30
0.0
 10
3214.908996115367
 20
163.3679140877567
 30
0.0
 10
3229.267868425924
 20
163.7946566946478
 30
0.0
  0
SPLINE
  5
700A4
330
70211
100
AcDbEntity
  8
Level 26
  6
Continuous
 62
     7
370
     0
100
AcDbSpline
210
0.0
220
0.0
230
1.0
 70
     9
 71
     3
 72
    19
 73
    15
 74
     0
 42
0.000000001
 43
0.0000000001
 40
0.0
 40
0.0
 40
0.0
 40
0.0
 40
0.0833333335273589
 40
0.1666666665890565
 40
0.2500000001164153
 40
0.3333333331781129
 40
0.4166666667054718
 40
0.4999999997671694
 40
0.5833333332945282
 40
0.6666666668218872
 40
0.7499999998835847
 40
0.8333333334109434
 40
0.9166666664726411
 40
1.0
 40
1.0
 40
1.0
 40
1.0
 10
3229.267868425924
 20
163.7946566946478
 30
0.0
 10
3243.672838090526
 20
163.2917122078166
 30
0.0
 10
3269.73214614436
 20
156.7633210520807
 30
0.0
 10
3300.28271842745
 20
126.4173888642087
 30
0.0
 10
3310.679065789125
 20
85.81166078412811
 30
0.0
 10
3300.153069787049
 20
45.10163963480105
 30
0.0
 10
3270.273236357075
 20
15.08082857489323
 30
0.0
 10
3229.400912372577
 20
4.323015836467369
 30
0.0
 10
3188.511777053507
 20
14.92920413567083
 30
0.0
 10
3158.413671306871
 20
45.00270769107721
 30
0.0
 10
3147.850926533166
 20
85.8088162454154
 30
0.0
 10
3158.282486456259
 20
126.527926142568
 30
0.0
 10
3189.065339997933
 20
156.8751497211684
 30
0.0
 10
3214.908996115367
 20
163.3679140877567
 30
0.0
 10
3229.267868425924
 20
163.7946566946478
 30
0.0
  0
SPLINE
  5
700A5
330
70211
100
AcDbEntity
  8
Level 26
  6
Continuous
 62
     7
370
     0
100
AcDbSpline
210
0.0
220
0.0
230
1.0
 70
     9
 71
     3
 72
    19
 73
    15
 74
     0
 42
0.000000001
 43
0.0000000001
 40
0.0
 40
0.0
 40
0.0
 40
0.0
 40
0.0833333335273589
 40
0.1666666665890565
 40
0.2500000001164153
 40
0.3333333331781129
 40
0.4166666667054718
 40
0.4999999997671694
 40
0.5833333332945282
 40
0.6666666668218872
 40
0.7499999998835847
 40
0.8333333334109434
 40
0.9166666664726411
 40
1.0
 40
1.0
 40
1.0
 40
1.0
 10
3229.267868425924
 20
163.7946566946478
 30
0.0
 10
3243.672838090525
 20
163.2917122078166
 30
0.0
 10
3269.73214614436
 20
156.7633210520807
 30
0.0
 10
3300.28271842745
 20
126.4173888642087
 30
0.0
 10
3310.679065789125
 20
85.81166078412811
 30
0.0
 10
3300.153069787049
 20
45.10163963480105
 30
0.0
 10
3270.273236357074
 20
15.08082857489322
 30
0.0
 10
3229.400912372577
 20
4.323015836467369
 30
0.0
 10
3188.511777053506
 20
14.92920413567083
 30
0.0
 10
3158.413671306871
 20
45.0027076910772
 30
0.0
 10
3147.850926533166
 20
85.8088162454154
 30
0.0
 10
3158.282486456259
 20
126.527926142568
 30
0.0
 10
3189.065339997932
 20
156.8751497211684
 30
0.0
 10
3214.908996115367
 20
163.3679140877567
 30
0.0
 10
3229.267868425924
 20
163.7946566946478
 30
0.0
  0
SPLINE
  5
700A6
330
70211
100
AcDbEntity
  8
Level 26
  6
Continuous
 62
     7
370
     0
100
AcDbSpline
210
0.0
220
0.0
230
1.0
 70
     9
 71
     3
 72
    19
 73
    15
 74
     0
 42
0.000000001
 43
0.0000000001
 40
0.0
 40
0.0
 40
0.0
 40
0.0
 40
0.0833333335273589
 40
0.1666666665890565
 40
0.2500000001164153
 40
0.3333333331781129
 40
0.4166666667054718
 40
0.4999999997671694
 40
0.5833333332945282
 40
0.6666666668218872
 40
0.7499999998835847
 40
0.8333333334109434
 40
0.9166666664726411
 40
1.0
 40
1.0
 40
1.0
 40
1.0
 10
3229.267868425924
 20
163.7946566946478
 30
0.0
 10
3243.672838090525
 20
163.2917122078166
 30
0.0
 10
3269.73214614436
 20
156.7633210520807
 30
0.0
 10
3300.28271842745
 20
126.4173888642087
 30
0.0
 10
3310.679065789125
 20
85.81166078412811
 30
0.0
 10
3300.153069787049
 20
45.10163963480105
 30
0.0
 10
3270.273236357074
 20
15.08082857489322
 30
0.0
 10
3229.400912372577
 20
4.323015836467369
 30
0.0
 10
3188.511777053506
 20
14.92920413567083
 30
0.0
 10
3158.413671306871
 20
45.0027076910772
 30
0.0
 10
3147.850926533166
 20
85.8088162454154
 30
0.0
 10
3158.282486456259
 20
126.527926142568
 30
0.0
 10
3189.065339997932
 20
156.8751497211684
 30
0.0
 10
3214.908996115367
 20
163.3679140877567
 30
0.0
 10
3229.267868425924
 20
163.7946566946478
 30
0.0
  0
SPLINE
  5
700A7
330
70211
100
AcDbEntity
  8
Level 26
  6
Continuous
 62
     7
370
     0
100
AcDbSpline
210
0.0
220
0.0
230
1.0
 70
     9
 71
     3
 72
    19
 73
    15
 74
     0
 42
0.000000001
 43
0.0000000001
 40
0.0
 40
0.0
 40
0.0
 40
0.0
 40
0.0833333335273589
 40
0.1666666665890565
 40
0.2500000001164153
 40
0.3333333331781129
 40
0.4166666667054718
 40
0.4999999997671694
 40
0.5833333332945282
 40
0.6666666668218872
 40
0.7499999998835847
 40
0.8333333334109434
 40
0.9166666664726411
 40
1.0
 40
1.0
 40
1.0
 40
1.0
 10
3229.267868425924
 20
163.7946566946478
 30
0.0
 10
3243.672838090525
 20
163.2917122078166
 30
0.0
 10
3269.73214614436
 20
156.7633210520807
 30
0.0
 10
3300.28271842745
 20
126.4173888642087
 30
0.0
 10
3310.679065789125
 20
85.81166078412811
 30
0.0
 10
3300.153069787049
 20
45.10163963480105
 30
0.0
 10
3270.273236357074
 20
15.08082857489322
 30
0.0
 10
3229.400912372577
 20
4.323015836467369
 30
0.0
 10
3188.511777053506
 20
14.92920413567083
 30
0.0
 10
3158.413671306871
 20
45.0027076910772
 30
0.0
 10
3147.850926533166
 20
85.8088162454154
 30
0.0
 10
3158.282486456259
 20
126.527926142568
 30
0.0
 10
3189.065339997933
 20
156.8751497211684
 30
0.0
 10
3214.908996115367
 20
163.3679140877567
 30
0.0
 10
3229.267868425924
 20
163.7946566946478
 30
0.0
  0
SPLINE
  5
700A8
330
70211
100
AcDbEntity
  8
Level 26
  6
Continuous
 62
     7
370
     0
100
AcDbSpline
210
0.0
220
0.0
230
1.0
 70
     9
 71
     3
 72
    19
 73
    15
 74
     0
 42
0.000000001
 43
0.0000000001
 40
0.0
 40
0.0
 40
0.0
 40
0.0
 40
0.0833333335273589
 40
0.1666666665890565
 40
0.2500000001164153
 40
0.3333333331781129
 40
0.4166666667054718
 40
0.4999999997671694
 40
0.5833333332945282
 40
0.6666666668218872
 40
0.7499999998835847
 40
0.8333333334109434
 40
0.9166666664726411
 40
1.0
 40
1.0
 40
1.0
 40
1.0
 10
3229.267868425924
 20
163.7946566946478
 30
0.0
 10
3243.672838090525
 20
163.2917122078166
 30
0.0
 10
3269.73214614436
 20
156.7633210520807
 30
0.0
 10
3300.28271842745
 20
126.4173888642087
 30
0.0
 10
3310.679065789125
 20
85.81166078412811
 30
0.0
 10
3300.153069787049
 20
45.10163963480105
 30
0.0
 10
3270.273236357074
 20
15.08082857489322
 30
0.0
 10
3229.400912372577
 20
4.323015836467369
 30
0.0
 10
3188.511777053506
 20
14.92920413567083
 30
0.0
 10
3158.413671306871
 20
45.00270769107719
 30
0.0
 10
3147.850926533166
 20
85.8088162454154
 30
0.0
 10
3158.282486456259
 20
126.527926142568
 30
0.0
 10
3189.065339997933
 20
156.8751497211684
 30
0.0
 10
3214.908996115367
 20
163.3679140877567
 30
0.0
 10
3229.267868425924
 20
163.7946566946478
 30
0.0
  0
SPLINE
  5
700A9
330
70211
100
AcDbEntity
  8
Level 26
  6
Continuous
 62
     7
370
     0
100
AcDbSpline
210
0.0
220
0.0
230
1.0
 70
     9
 71
     3
 72
    19
 73
    15
 74
     0
 42
0.000000001
 43
0.0000000001
 40
0.0
 40
0.0
 40
0.0
 40
0.0
 40
0.0833333335273589
 40
0.1666666665890565
 40
0.2500000001164153
 40
0.3333333331781129
 40
0.4166666667054718
 40
0.4999999997671694
 40
0.5833333332945282
 40
0.6666666668218872
 40
0.7499999998835847
 40
0.8333333334109434
 40
0.9166666664726411
 40
1.0
 40
1.0
 40
1.0
 40
1.0
 10
3229.267868425924
 20
163.7946566946478
 30
0.0
 10
3243.672838090525
 20
163.2917122078166
 30
0.0
 10
3269.73214614436
 20
156.7633210520807
 30
0.0
 10
3300.28271842745
 20
126.4173888642087
 30
0.0
 10
3310.679065789125
 20
85.81166078412811
 30
0.0
 10
3300.153069787049
 20
45.10163963480105
 30
0.0
 10
3270.273236357074
 20
15.08082857489322
 30
0.0
 10
3229.400912372577
 20
4.323015836467369
 30
0.0
 10
3188.511777053506
 20
14.92920413567083
 30
0.0
 10
3158.413671306871
 20
45.0027076910772
 30
0.0
 10
3147.850926533166
 20
85.8088162454154
 30
0.0
 10
3158.282486456259
 20
126.527926142568
 30
0.0
 10
3189.065339997933
 20
156.8751497211684
 30
0.0
 10
3214.908996115367
 20
163.3679140877567
 30
0.0
 10
3229.267868425924
 20
163.7946566946478
 30
0.0
  0
SPLINE
  5
700AA
330
70211
100
AcDbEntity
  8
Level 26
  6
Continuous
 62
     7
370
     0
100
AcDbSpline
210
0.0
220
0.0
230
1.0
 70
     9
 71
     3
 72
    19
 73
    15
 74
     0
 42
0.000000001
 43
0.0000000001
 40
0.0
 40
0.0
 40
0.0
 40
0.0
 40
0.0833333335273589
 40
0.1666666665890565
 40
0.2500000001164153
 40
0.3333333331781129
 40
0.4166666667054718
 40
0.4999999997671694
 40
0.5833333332945282
 40
0.6666666668218872
 40
0.7499999998835847
 40
0.8333333334109434
 40
0.9166666664726411
 40
1.0
 40
1.0
 40
1.0
 40
1.0
 10
3229.267868425924
 20
163.7946566946478
 30
0.0
 10
3243.672838090525
 20
163.2917122078166
 30
0.0
 10
3269.73214614436
 20
156.7633210520807
 30
0.0
 10
3300.28271842745
 20
126.4173888642087
 30
0.0
 10
3310.679065789125
 20
85.81166078412811
 30
0.0
 10
3300.153069787049
 20
45.10163963480105
 30
0.0
 10
3270.273236357074
 20
15.08082857489322
 30
0.0
 10
3229.400912372577
 20
4.323015836467369
 30
0.0
 10
3188.511777053506
 20
14.92920413567083
 30
0.0
 10
3158.413671306871
 20
45.0027076910772
 30
0.0
 10
3147.850926533166
 20
85.8088162454154
 30
0.0
 10
3158.282486456259
 20
126.527926142568
 30
0.0
 10
3189.065339997932
 20
156.8751497211684
 30
0.0
 10
3214.908996115367
 20
163.3679140877567
 30
0.0
 10
3229.267868425924
 20
163.7946566946478
 30
0.0
  0
ENDBLK
  5
70213
330
70211
100
AcDbEntity
  8
0
 62
    98
370
     0
100
AcDbBlockEnd
  0
BLOCK
  5
70215
330
70214
100
AcDbEntity
  8
0
 62
    98
370
     0
100
AcDbBlockBegin
  2
From Bspline Surface_1
 70
     0
 10
0.0
 20
0.0
 30
0.0
  3
From Bspline Surface_1
  1

  0
SPLINE
  5
6FE78
330
70214
100
AcDbEntity
  8
Level 26
  6
Continuous
 62
     7
370
     0
100
AcDbSpline
210
0.0
220
0.0
230
1.0
 70
     9
 71
     3
 72
    19
 73
    15
 74
     0
 42
0.000000001
 43
0.0000000001
 40
0.0
 40
0.0
 40
0.0
 40
0.0
 40
0.0833333335273589
 40
0.1666666665890565
 40
0.2500000001164153
 40
0.3333333331781129
 40
0.4166666667054718
 40
0.4999999997671694
 40
0.5833333332945282
 40
0.6666666668218872
 40
0.7499999998835847
 40
0.8333333334109434
 40
0.9166666664726411
 40
1.0
 40
1.0
 40
1.0
 40
1.0
 10
3229.267868425924
 20
163.7946566946478
 30
0.0
 10
3243.672838090525
 20
163.2917122078166
 30
0.0
 10
3269.73214614436
 20
156.7633210520807
 30
0.0
 10
3300.28271842745
 20
126.4173888642087
 30
0.0
 10
3310.679065789125
 20
85.81166078412811
 30
0.0
 10
3300.153069787049
 20
45.10163963480105
 30
0.0
 10
3270.273236357074
 20
15.08082857489322
 30
0.0
 10
3229.400912372577
 20
4.323015836467369
 30
0.0
 10
3188.511777053506
 20
14.92920413567083
 30
0.0
 10
3158.413671306871
 20
45.0027076910772
 30
0.0
 10
3147.850926533166
 20
85.8088162454154
 30
0.0
 10
3158.282486456259
 20
126.527926142568
 30
0.0
 10
3189.065339997932
 20
156.8751497211684
 30
0.0
 10
3214.908996115367
 20
163.3679140877567
 30
0.0
 10
3229.267868425924
 20
163.7946566946478
 30
0.0
  0
SPLINE
  5
700B5
330
70214
100
AcDbEntity
  8
Level 26
  6
Continuous
 62
     7
370
     0
100
AcDbSpline
210
0.0
220
0.0
230
1.0
 70
     9
 71
     3
 72
    19
 73
    15
 74
     0
 42
0.000000001
 43
0.0000000001
 40
0.0
 40
0.0
 40
0.0
 40
0.0
 40
0.0833333335273589
 40
0.1666666665890565
 40
0.2500000001164153
 40
0.3333333331781129
 40
0.4166666667054718
 40
0.4999999997671694
 40
0.5833333332945282
 40
0.6666666668218872
 40
0.7499999998835847
 40
0.8333333334109434
 40
0.9166666664726411
 40
1.0
 40
1.0
 40
1.0
 40
1.0
 10
3229.267868425924
 20
163.7946566946478
 30
0.0
 10
3243.672838090525
 20
163.2917122078166
 30
0.0
 10
3269.73214614436
 20
156.7633210520807
 30
0.0
 10
3300.28271842745
 20
126.4173888642087
 30
0.0
 10
3310.679065789125
 20
85.81166078412811
 30
0.0
 10
3300.153069787049
 20
45.10163963480105
 30
0.0
 10
3270.273236357074
 20
15.08082857489322
 30
0.0
 10
3229.400912372577
 20
4.323015836467369
 30
0.0
 10
3188.511777053506
 20
14.92920413567083
 30
0.0
 10
3158.413671306871
 20
45.0027076910772
 30
0.0
 10
3147.850926533166
 20
85.8088162454154
 30
0.0
 10
3158.282486456259
 20
126.527926142568
 30
0.0
 10
3189.065339997932
 20
156.8751497211684
 30
0.0
 10
3214.908996115367
 20
163.3679140877567
 30
0.0
 10
3229.267868425924
 20
163.7946566946478
 30
0.0
  0
SPLINE
  5
700B6
330
70214
100
AcDbEntity
  8
Level 26
  6
Continuous
 62
     7
370
     0
100
AcDbSpline
210
0.0
220
0.0
230
1.0
 70
     9
 71
     3
 72
    19
 73
    15
 74
     0
 42
0.000000001
 43
0.0000000001
 40
0.0
 40
0.0
 40
0.0
 40
0.0
 40
0.0833333335273589
 40
0.1666666665890565
 40
0.2500000001164153
 40
0.3333333331781129
 40
0.4166666667054718
 40
0.4999999997671694
 40
0.5833333332945282
 40
0.6666666668218872
 40
0.7499999998835847
 40
0.8333333334109434
 40
0.9166666664726411
 40
1.0
 40
1.0
 40
1.0
 40
1.0
 10
3229.267868425924
 20
163.7946566946478
 30
0.0
 10
3243.672838090525
 20
163.2917122078166
 30
0.0
 10
3269.73214614436
 20
156.7633210520807
 30
0.0
 10
3300.28271842745
 20
126.4173888642087
 30
0.0
 10
3310.679065789125
 20
85.81166078412811
 30
0.0
 10
3300.153069787049
 20
45.10163963480105
 30
0.0
 10
3270.273236357074
 20
15.08082857489322
 30
0.0
 10
3229.400912372577
 20
4.323015836467369
 30
0.0
 10
3188.511777053506
 20
14.92920413567083
 30
0.0
 10
3158.413671306871
 20
45.0027076910772
 30
0.0
 10
3147.850926533166
 20
85.8088162454154
 30
0.0
 10
3158.282486456259
 20
126.527926142568
 30
0.0
 10
3189.065339997932
 20
156.8751497211684
 30
0.0
 10
3214.908996115367
 20
163.3679140877567
 30
0.0
 10
3229.267868425924
 20
163.7946566946478
 30
0.0
  0
SPLINE
  5
700B7
330
70214
100
AcDbEntity
  8
Level 26
  6
Continuous
 62
     7
370
     0
100
AcDbSpline
210
0.0
220
0.0
230
1.0
 70
     9
 71
     3
 72
    19
 73
    15
 74
     0
 42
0.000000001
 43
0.0000000001
 40
0.0
 40
0.0
 40
0.0
 40
0.0
 40
0.0833333335273589
 40
0.1666666665890565
 40
0.2500000001164153
 40
0.3333333331781129
 40
0.4166666667054718
 40
0.4999999997671694
 40
0.5833333332945282
 40
0.6666666668218872
 40
0.7499999998835847
 40
0.8333333334109434
 40
0.9166666664726411
 40
1.0
 40
1.0
 40
1.0
 40
1.0
 10
3229.267868425924
 20
163.7946566946478
 30
0.0
 10
3243.672838090526
 20
163.2917122078166
 30
0.0
 10
3269.73214614436
 20
156.7633210520807
 30
0.0
 10
3300.28271842745
 20
126.4173888642087
 30
0.0
 10
3310.679065789125
 20
85.81166078412811
 30
0.0
 10
3300.153069787049
 20
45.10163963480105
 30
0.0
 10
3270.273236357075
 20
15.08082857489323
 30
0.0
 10
3229.400912372577
 20
4.323015836467369
 30
0.0
 10
3188.511777053507
 20
14.92920413567083
 30
0.0
 10
3158.413671306871
 20
45.00270769107721
 30
0.0
 10
3147.850926533166
 20
85.8088162454154
 30
0.0
 10
3158.282486456259
 20
126.527926142568
 30
0.0
 10
3189.065339997933
 20
156.8751497211684
 30
0.0
 10
3214.908996115367
 20
163.3679140877567
 30
0.0
 10
3229.267868425924
 20
163.7946566946478
 30
0.0
  0
SPLINE
  5
700B8
330
70214
100
AcDbEntity
  8
Level 26
  6
Continuous
 62
     7
370
     0
100
AcDbSpline
210
0.0
220
0.0
230
1.0
 70
     9
 71
     3
 72
    19
 73
    15
 74
     0
 42
0.000000001
 43
0.0000000001
 40
0.0
 40
0.0
 40
0.0
 40
0.0
 40
0.0833333335273589
 40
0.1666666665890565
 40
0.2500000001164153
 40
0.3333333331781129
 40
0.4166666667054718
 40
0.4999999997671694
 40
0.5833333332945282
 40
0.6666666668218872
 40
0.7499999998835847
 40
0.8333333334109434
 40
0.9166666664726411
 40
1.0
 40
1.0
 40
1.0
 40
1.0
 10
3229.267868425924
 20
163.7946566946478
 30
0.0
 10
3243.672838090525
 20
163.2917122078166
 30
0.0
 10
3269.73214614436
 20
156.7633210520807
 30
0.0
 10
3300.28271842745
 20
126.4173888642087
 30
0.0
 10
3310.679065789125
 20
85.81166078412811
 30
0.0
 10
3300.153069787049
 20
45.10163963480105
 30
0.0
 10
3270.273236357074
 20
15.08082857489322
 30
0.0
 10
3229.400912372577
 20
4.323015836467369
 30
0.0
 10
3188.511777053506
 20
14.92920413567083
 30
0.0
 10
3158.413671306871
 20
45.0027076910772
 30
0.0
 10
3147.850926533166
 20
85.8088162454154
 30
0.0
 10
3158.282486456259
 20
126.527926142568
 30
0.0
 10
3189.065339997932
 20
156.8751497211684
 30
0.0
 10
3214.908996115367
 20
163.3679140877567
 30
0.0
 10
3229.267868425924
 20
163.7946566946478
 30
0.0
  0
SPLINE
  5
700B9
330
70214
100
AcDbEntity
  8
Level 26
  6
Continuous
 62
     7
370
     0
100
AcDbSpline
210
0.0
220
0.0
230
1.0
 70
     9
 71
     3
 72
    19
 73
    15
 74
     0
 42
0.000000001
 43
0.0000000001
 40
0.0
 40
0.0
 40
0.0
 40
0.0
 40
0.0833333335273589
 40
0.1666666665890565
 40
0.2500000001164153
 40
0.3333333331781129
 40
0.4166666667054718
 40
0.4999999997671694
 40
0.5833333332945282
 40
0.6666666668218872
 40
0.7499999998835847
 40
0.8333333334109434
 40
0.9166666664726411
 40
1.0
 40
1.0
 40
1.0
 40
1.0
 10
3229.267868425924
 20
163.7946566946478
 30
0.0
 10
3243.672838090525
 20
163.2917122078166
 30
0.0
 10
3269.73214614436
 20
156.7633210520807
 30
0.0
 10
3300.28271842745
 20
126.4173888642087
 30
0.0
 10
3310.679065789125
 20
85.81166078412811
 30
0.0
 10
3300.153069787049
 20
45.10163963480105
 30
0.0
 10
3270.273236357074
 20
15.08082857489322
 30
0.0
 10
3229.400912372577
 20
4.323015836467369
 30
0.0
 10
3188.511777053506
 20
14.92920413567083
 30
0.0
 10
3158.413671306871
 20
45.0027076910772
 30
0.0
 10
3147.850926533166
 20
85.8088162454154
 30
0.0
 10
3158.282486456259
 20
126.527926142568
 30
0.0
 10
3189.065339997932
 20
156.8751497211684
 30
0.0
 10
3214.908996115367
 20
163.3679140877567
 30
0.0
 10
3229.267868425924
 20
163.7946566946478
 30
0.0
  0
SPLINE
  5
700BA
330
70214
100
AcDbEntity
  8
Level 26
  6
Continuous
 62
     7
370
     0
100
AcDbSpline
210
0.0
220
0.0
230
1.0
 70
     9
 71
     3
 72
    19
 73
    15
 74
     0
 42
0.000000001
 43
0.0000000001
 40
0.0
 40
0.0
 40
0.0
 40
0.0
 40
0.0833333335273589
 40
0.1666666665890565
 40
0.2500000001164153
 40
0.3333333331781129
 40
0.4166666667054718
 40
0.4999999997671694
 40
0.5833333332945282
 40
0.6666666668218872
 40
0.7499999998835847
 40
0.8333333334109434
 40
0.9166666664726411
 40
1.0
 40
1.0
 40
1.0
 40
1.0
 10
3229.267868425924
 20
163.7946566946478
 30
0.0
 10
3243.672838090525
 20
163.2917122078166
 30
0.0
 10
3269.73214614436
 20
156.7633210520807
 30
0.0
 10
3300.28271842745
 20
126.4173888642087
 30
0.0
 10
3310.679065789125
 20
85.81166078412811
 30
0.0
 10
3300.153069787049
 20
45.10163963480105
 30
0.0
 10
3270.273236357074
 20
15.08082857489322
 30
0.0
 10
3229.400912372577
 20
4.323015836467369
 30
0.0
 10
3188.511777053506
 20
14.92920413567083
 30
0.0
 10
3158.413671306871
 20
45.0027076910772
 30
0.0
 10
3147.850926533166
 20
85.8088162454154
 30
0.0
 10
3158.282486456259
 20
126.527926142568
 30
0.0
 10
3189.065339997933
 20
156.8751497211684
 30
0.0
 10
3214.908996115367
 20
163.3679140877567
 30
0.0
 10
3229.267868425924
 20
163.7946566946478
 30
0.0
  0
SPLINE
  5
700BB
330
70214
100
AcDbEntity
  8
Level 26
  6
Continuous
 62
     7
370
     0
100
AcDbSpline
210
0.0
220
0.0
230
1.0
 70
     9
 71
     3
 72
    19
 73
    15
 74
     0
 42
0.000000001
 43
0.0000000001
 40
0.0
 40
0.0
 40
0.0
 40
0.0
 40
0.0833333335273589
 40
0.1666666665890565
 40
0.2500000001164153
 40
0.3333333331781129
 40
0.4166666667054718
 40
0.4999999997671694
 40
0.5833333332945282
 40
0.6666666668218872
 40
0.7499999998835847
 40
0.8333333334109434
 40
0.9166666664726411
 40
1.0
 40
1.0
 40
1.0
 40
1.0
 10
3229.267868425924
 20
163.7946566946478
 30
0.0
 10
3243.672838090525
 20
163.2917122078166
 30
0.0
 10
3269.73214614436
 20
156.7633210520807
 30
0.0
 10
3300.28271842745
 20
126.4173888642087
 30
0.0
 10
3310.679065789125
 20
85.81166078412811
 30
0.0
 10
3300.153069787049
 20
45.10163963480105
 30
0.0
 10
3270.273236357074
 20
15.08082857489322
 30
0.0
 10
3229.400912372577
 20
4.323015836467369
 30
0.0
 10
3188.511777053506
 20
14.92920413567083
 30
0.0
 10
3158.413671306871
 20
45.00270769107719
 30
0.0
 10
3147.850926533166
 20
85.8088162454154
 30
0.0
 10
3158.282486456259
 20
126.527926142568
 30
0.0
 10
3189.065339997933
 20
156.8751497211684
 30
0.0
 10
3214.908996115367
 20
163.3679140877567
 30
0.0
 10
3229.267868425924
 20
163.7946566946478
 30
0.0
  0
SPLINE
  5
700BC
330
70214
100
AcDbEntity
  8
Level 26
  6
Continuous
 62
     7
370
     0
100
AcDbSpline
210
0.0
220
0.0
230
1.0
 70
     9
 71
     3
 72
    19
 73
    15
 74
     0
 42
0.000000001
 43
0.0000000001
 40
0.0
 40
0.0
 40
0.0
 40
0.0
 40
0.0833333335273589
 40
0.1666666665890565
 40
0.2500000001164153
 40
0.3333333331781129
 40
0.4166666667054718
 40
0.4999999997671694
 40
0.5833333332945282
 40
0.6666666668218872
 40
0.7499999998835847
 40
0.8333333334109434
 40
0.9166666664726411
 40
1.0
 40
1.0
 40
1.0
 40
1.0
 10
3229.267868425924
 20
163.7946566946478
 30
0.0
 10
3243.672838090525
 20
163.2917122078166
 30
0.0
 10
3269.73214614436
 20
156.7633210520807
 30
0.0
 10
3300.28271842745
 20
126.4173888642087
 30
0.0
 10
3310.679065789125
 20
85.81166078412811
 30
0.0
 10
3300.153069787049
 20
45.10163963480105
 30
0.0
 10
3270.273236357074
 20
15.08082857489322
 30
0.0
 10
3229.400912372577
 20
4.323015836467369
 30
0.0
 10
3188.511777053506
 20
14.92920413567083
 30
0.0
 10
3158.413671306871
 20
45.0027076910772
 30
0.0
 10
3147.850926533166
 20
85.8088162454154
 30
0.0
 10
3158.282486456259
 20
126.527926142568
 30
0.0
 10
3189.065339997933
 20
156.8751497211684
 30
0.0
 10
3214.908996115367
 20
163.3679140877567
 30
0.0
 10
3229.267868425924
 20
163.7946566946478
 30
0.0
  0
SPLINE
  5
700BD
330
70214
100
AcDbEntity
  8
Level 26
  6
Continuous
 62
     7
370
     0
100
AcDbSpline
210
0.0
220
0.0
230
1.0
 70
     9
 71
     3
 72
    19
 73
    15
 74
     0
 42
0.000000001
 43
0.0000000001
 40
0.0
 40
0.0
 40
0.0
 40
0.0
 40
0.0833333335273589
 40
0.1666666665890565
 40
0.2500000001164153
 40
0.3333333331781129
 40
0.4166666667054718
 40
0.4999999997671694
 40
0.5833333332945282
 40
0.6666666668218872
 40
0.7499999998835847
 40
0.8333333334109434
 40
0.9166666664726411
 40
1.0
 40
1.0
 40
1.0
 40
1.0
 10
3229.267868425924
 20
163.7946566946478
 30
0.0
 10
3243.672838090525
 20
163.2917122078166
 30
0.0
 10
3269.73214614436
 20
156.7633210520807
 30
0.0
 10
3300.28271842745
 20
126.4173888642087
 30
0.0
 10
3310.679065789125
 20
85.81166078412811
 30
0.0
 10
3300.153069787049
 20
45.10163963480105
 30
0.0
 10
3270.273236357074
 20
15.08082857489322
 30
0.0
 10
3229.400912372577
 20
4.323015836467369
 30
0.0
 10
3188.511777053506
 20
14.92920413567083
 30
0.0
 10
3158.413671306871
 20
45.0027076910772
 30
0.0
 10
3147.850926533166
 20
85.8088162454154
 30
0.0
 10
3158.282486456259
 20
126.527926142568
 30
0.0
 10
3189.065339997932
 20
156.8751497211684
 30
0.0
 10
3214.908996115367
 20
163.3679140877567
 30
0.0
 10
3229.267868425924
 20
163.7946566946478
 30
0.0
  0
ENDBLK
  5
70216
330
70214
100
AcDbEntity
  8
0
 62
    98
370
     0
100
AcDbBlockEnd
  0
BLOCK
  5
70218
330
70217
100
AcDbEntity
  8
0
 62
    98
370
     0
100
AcDbBlockBegin
  2
From Bspline Surface_2
 70
     0
 10
0.0
 20
0.0
 30
0.0
  3
From Bspline Surface_2
  1

  0
SPLINE
  5
6FE89
330
70217
100
AcDbEntity
  8
Level 26
  6
Continuous
 62
     7
370
     0
100
AcDbSpline
210
0.0
220
0.0
230
1.0
 70
     9
 71
     3
 72
    19
 73
    15
 74
     0
 42
0.000000001
 43
0.0000000001
 40
0.0
 40
0.0
 40
0.0
 40
0.0
 40
0.0833333335273589
 40
0.1666666665890565
 40
0.2500000001164153
 40
0.3333333331781129
 40
0.4166666667054718
 40
0.4999999997671694
 40
0.5833333332945282
 40
0.6666666668218872
 40
0.7499999998835847
 40
0.8333333334109434
 40
0.9166666664726411
 40
1.0
 40
1.0
 40
1.0
 40
1.0
 10
3229.267868425924
 20
163.7946566946478
 30
0.0
 10
3243.672838090525
 20
163.2917122078166
 30
0.0
 10
3269.73214614436
 20
156.7633210520807
 30
0.0
 10
3300.28271842745
 20
126.4173888642087
 30
0.0
 10
3310.679065789125
 20
85.81166078412811
 30
0.0
 10
3300.153069787049
 20
45.10163963480105
 30
0.0
 10
3270.273236357074
 20
15.08082857489322
 30
0.0
 10
3229.400912372577
 20
4.323015836467369
 30
0.0
 10
3188.511777053506
 20
14.92920413567083
 30
0.0
 10
3158.413671306871
 20
45.0027076910772
 30
0.0
 10
3147.850926533166
 20
85.8088162454154
 30
0.0
 10
3158.282486456259
 20
126.527926142568
 30
0.0
 10
3189.065339997932
 20
156.8751497211684
 30
0.0
 10
3214.908996115367
 20
163.3679140877567
 30
0.0
 10
3229.267868425924
 20
163.7946566946478
 30
0.0
  0
SPLINE
  5
700C8
330
70217
100
AcDbEntity
  8
Level 26
  6
Continuous
 62
     7
370
     0
100
AcDbSpline
210
0.0
220
0.0
230
1.0
 70
     9
 71
     3
 72
    19
 73
    15
 74
     0
 42
0.000000001
 43
0.0000000001
 40
0.0
 40
0.0
 40
0.0
 40
0.0
 40
0.0833333335273589
 40
0.1666666665890565
 40
0.2500000001164153
 40
0.3333333331781129
 40
0.4166666667054718
 40
0.4999999997671694
 40
0.5833333332945282
 40
0.6666666668218872
 40
0.7499999998835847
 40
0.8333333334109434
 40
0.9166666664726411
 40
1.0
 40
1.0
 40
1.0
 40
1.0
 10
3229.267868425924
 20
163.7946566946478
 30
0.0
 10
3243.672838090525
 20
163.2917122078166
 30
0.0
 10
3269.73214614436
 20
156.7633210520807
 30
0.0
 10
3300.28271842745
 20
126.4173888642087
 30
0.0
 10
3310.679065789125
 20
85.81166078412811
 30
0.0
 10
3300.153069787049
 20
45.10163963480105
 30
0.0
 10
3270.273236357074
 20
15.08082857489322
 30
0.0
 10
3229.400912372577
 20
4.323015836467369
 30
0.0
 10
3188.511777053506
 20
14.92920413567083
 30
0.0
 10
3158.413671306871
 20
45.0027076910772
 30
0.0
 10
3147.850926533166
 20
85.8088162454154
 30
0.0
 10
3158.282486456259
 20
126.527926142568
 30
0.0
 10
3189.065339997932
 20
156.8751497211684
 30
0.0
 10
3214.908996115367
 20
163.3679140877567
 30
0.0
 10
3229.267868425924
 20
163.7946566946478
 30
0.0
  0
SPLINE
  5
700C9
330
70217
100
AcDbEntity
  8
Level 26
  6
Continuous
 62
     7
370
     0
100
AcDbSpline
210
0.0
220
0.0
230
1.0
 70
     9
 71
     3
 72
    19
 73
    15
 74
     0
 42
0.000000001
 43
0.0000000001
 40
0.0
 40
0.0
 40
0.0
 40
0.0
 40
0.0833333335273589
 40
0.1666666665890565
 40
0.2500000001164153
 40
0.3333333331781129
 40
0.4166666667054718
 40
0.4999999997671694
 40
0.5833333332945282
 40
0.6666666668218872
 40
0.7499999998835847
 40
0.8333333334109434
 40
0.9166666664726411
 40
1.0
 40
1.0
 40
1.0
 40
1.0
 10
3229.267868425924
 20
163.7946566946478
 30
0.0
 10
3243.672838090525
 20
163.2917122078166
 30
0.0
 10
3269.73214614436
 20
156.7633210520807
 30
0.0
 10
3300.28271842745
 20
126.4173888642087
 30
0.0
 10
3310.679065789125
 20
85.81166078412811
 30
0.0
 10
3300.153069787049
 20
45.10163963480105
 30
0.0
 10
3270.273236357074
 20
15.08082857489322
 30
0.0
 10
3229.400912372577
 20
4.323015836467369
 30
0.0
 10
3188.511777053506
 20
14.92920413567083
 30
0.0
 10
3158.413671306871
 20
45.0027076910772
 30
0.0
 10
3147.850926533166
 20
85.8088162454154
 30
0.0
 10
3158.282486456259
 20
126.527926142568
 30
0.0
 10
3189.065339997932
 20
156.8751497211684
 30
0.0
 10
3214.908996115367
 20
163.3679140877567
 30
0.0
 10
3229.267868425924
 20
163.7946566946478
 30
0.0
  0
SPLINE
  5
700CA
330
70217
100
AcDbEntity
  8
Level 26
  6
Continuous
 62
     7
370
     0
100
AcDbSpline
210
0.0
220
0.0
230
1.0
 70
     9
 71
     3
 72
    19
 73
    15
 74
     0
 42
0.000000001
 43
0.0000000001
 40
0.0
 40
0.0
 40
0.0
 40
0.0
 40
0.0833333335273589
 40
0.1666666665890565
 40
0.2500000001164153
 40
0.3333333331781129
 40
0.4166666667054718
 40
0.4999999997671694
 40
0.5833333332945282
 40
0.6666666668218872
 40
0.7499999998835847
 40
0.8333333334109434
 40
0.9166666664726411
 40
1.0
 40
1.0
 40
1.0
 40
1.0
 10
3229.267868425924
 20
163.7946566946478
 30
0.0
 10
3243.672838090526
 20
163.2917122078166
 30
0.0
 10
3269.73214614436
 20
156.7633210520807
 30
0.0
 10
3300.28271842745
 20
126.4173888642087
 30
0.0
 10
3310.679065789125
 20
85.81166078412811
 30
0.0
 10
3300.153069787049
 20
45.10163963480105
 30
0.0
 10
3270.273236357075
 20
15.08082857489323
 30
0.0
 10
3229.400912372577
 20
4.323015836467369
 30
0.0
 10
3188.511777053507
 20
14.92920413567083
 30
0.0
 10
3158.413671306871
 20
45.00270769107721
 30
0.0
 10
3147.850926533166
 20
85.8088162454154
 30
0.0
 10
3158.282486456259
 20
126.527926142568
 30
0.0
 10
3189.065339997933
 20
156.8751497211684
 30
0.0
 10
3214.908996115367
 20
163.3679140877567
 30
0.0
 10
3229.267868425924
 20
163.7946566946478
 30
0.0
  0
SPLINE
  5
700CB
330
70217
100
AcDbEntity
  8
Level 26
  6
Continuous
 62
     7
370
     0
100
AcDbSpline
210
0.0
220
0.0
230
1.0
 70
     9
 71
     3
 72
    19
 73
    15
 74
     0
 42
0.000000001
 43
0.0000000001
 40
0.0
 40
0.0
 40
0.0
 40
0.0
 40
0.0833333335273589
 40
0.1666666665890565
 40
0.2500000001164153
 40
0.3333333331781129
 40
0.4166666667054718
 40
0.4999999997671694
 40
0.5833333332945282
 40
0.6666666668218872
 40
0.7499999998835847
 40
0.8333333334109434
 40
0.9166666664726411
 40
1.0
 40
1.0
 40
1.0
 40
1.0
 10
3229.267868425924
 20
163.7946566946478
 30
0.0
 10
3243.672838090525
 20
163.2917122078166
 30
0.0
 10
3269.73214614436
 20
156.7633210520807
 30
0.0
 10
3300.28271842745
 20
126.4173888642087
 30
0.0
 10
3310.679065789125
 20
85.81166078412811
 30
0.0
 10
3300.153069787049
 20
45.10163963480105
 30
0.0
 10
3270.273236357074
 20
15.08082857489322
 30
0.0
 10
3229.400912372577
 20
4.323015836467369
 30
0.0
 10
3188.511777053506
 20
14.92920413567083
 30
0.0
 10
3158.413671306871
 20
45.0027076910772
 30
0.0
 10
3147.850926533166
 20
85.8088162454154
 30
0.0
 10
3158.282486456259
 20
126.527926142568
 30
0.0
 10
3189.065339997932
 20
156.8751497211684
 30
0.0
 10
3214.908996115367
 20
163.3679140877567
 30
0.0
 10
3229.267868425924
 20
163.7946566946478
 30
0.0
  0
SPLINE
  5
700CC
330
70217
100
AcDbEntity
  8
Level 26
  6
Continuous
 62
     7
370
     0
100
AcDbSpline
210
0.0
220
0.0
230
1.0
 70
     9
 71
     3
 72
    19
 73
    15
 74
     0
 42
0.000000001
 43
0.0000000001
 40
0.0
 40
0.0
 40
0.0
 40
0.0
 40
0.0833333335273589
 40
0.1666666665890565
 40
0.2500000001164153
 40
0.3333333331781129
 40
0.4166666667054718
 40
0.4999999997671694
 40
0.5833333332945282
 40
0.6666666668218872
 40
0.7499999998835847
 40
0.8333333334109434
 40
0.9166666664726411
 40
1.0
 40
1.0
 40
1.0
 40
1.0
 10
3229.267868425924
 20
163.7946566946478
 30
0.0
 10
3243.672838090525
 20
163.2917122078166
 30
0.0
 10
3269.73214614436
 20
156.7633210520807
 30
0.0
 10
3300.28271842745
 20
126.4173888642087
 30
0.0
 10
3310.679065789125
 20
85.81166078412811
 30
0.0
 10
3300.153069787049
 20
45.10163963480105
 30
0.0
 10
3270.273236357074
 20
15.08082857489322
 30
0.0
 10
3229.400912372577
 20
4.323015836467369
 30
0.0
 10
3188.511777053506
 20
14.92920413567083
 30
0.0
 10
3158.413671306871
 20
45.0027076910772
 30
0.0
 10
3147.850926533166
 20
85.8088162454154
 30
0.0
 10
3158.282486456259
 20
126.527926142568
 30
0.0
 10
3189.065339997932
 20
156.8751497211684
 30
0.0
 10
3214.908996115367
 20
163.3679140877567
 30
0.0
 10
3229.267868425924
 20
163.7946566946478
 30
0.0
  0
SPLINE
  5
700CD
330
70217
100
AcDbEntity
  8
Level 26
  6
Continuous
 62
     7
370
     0
100
AcDbSpline
210
0.0
220
0.0
230
1.0
 70
     9
 71
     3
 72
    19
 73
    15
 74
     0
 42
0.000000001
 43
0.0000000001
 40
0.0
 40
0.0
 40
0.0
 40
0.0
 40
0.0833333335273589
 40
0.1666666665890565
 40
0.2500000001164153
 40
0.3333333331781129
 40
0.4166666667054718
 40
0.4999999997671694
 40
0.5833333332945282
 40
0.6666666668218872
 40
0.7499999998835847
 40
0.8333333334109434
 40
0.9166666664726411
 40
1.0
 40
1.0
 40
1.0
 40
1.0
 10
3229.267868425924
 20
163.7946566946478
 30
0.0
 10
3243.672838090525
 20
163.2917122078166
 30
0.0
 10
3269.73214614436
 20
156.7633210520807
 30
0.0
 10
3300.28271842745
 20
126.4173888642087
 30
0.0
 10
3310.679065789125
 20
85.81166078412811
 30
0.0
 10
3300.153069787049
 20
45.10163963480105
 30
0.0
 10
3270.273236357074
 20
15.08082857489322
 30
0.0
 10
3229.400912372577
 20
4.323015836467369
 30
0.0
 10
3188.511777053506
 20
14.92920413567083
 30
0.0
 10
3158.413671306871
 20
45.0027076910772
 30
0.0
 10
3147.850926533166
 20
85.8088162454154
 30
0.0
 10
3158.282486456259
 20
126.527926142568
 30
0.0
 10
3189.065339997933
 20
156.8751497211684
 30
0.0
 10
3214.908996115367
 20
163.3679140877567
 30
0.0
 10
3229.267868425924
 20
163.7946566946478
 30
0.0
  0
SPLINE
  5
700CE
330
70217
100
AcDbEntity
  8
Level 26
  6
Continuous
 62
     7
370
     0
100
AcDbSpline
210
0.0
220
0.0
230
1.0
 70
     9
 71
     3
 72
    19
 73
    15
 74
     0
 42
0.000000001
 43
0.0000000001
 40
0.0
 40
0.0
 40
0.0
 40
0.0
 40
0.0833333335273589
 40
0.1666666665890565
 40
0.2500000001164153
 40
0.3333333331781129
 40
0.4166666667054718
 40
0.4999999997671694
 40
0.5833333332945282
 40
0.6666666668218872
 40
0.7499999998835847
 40
0.8333333334109434
 40
0.9166666664726411
 40
1.0
 40
1.0
 40
1.0
 40
1.0
 10
3229.267868425924
 20
163.7946566946478
 30
0.0
 10
3243.672838090525
 20
163.2917122078166
 30
0.0
 10
3269.73214614436
 20
156.7633210520807
 30
0.0
 10
3300.28271842745
 20
126.4173888642087
 30
0.0
 10
3310.679065789125
 20
85.81166078412811
 30
0.0
 10
3300.153069787049
 20
45.10163963480105
 30
0.0
 10
3270.273236357074
 20
15.08082857489322
 30
0.0
 10
3229.400912372577
 20
4.323015836467369
 30
0.0
 10
3188.511777053506
 20
14.92920413567083
 30
0.0
 10
3158.413671306871
 20
45.00270769107719
 30
0.0
 10
3147.850926533166
 20
85.8088162454154
 30
0.0
 10
3158.282486456259
 20
126.527926142568
 30
0.0
 10
3189.065339997933
 20
156.8751497211684
 30
0.0
 10
3214.908996115367
 20
163.3679140877567
 30
0.0
 10
3229.267868425924
 20
163.7946566946478
 30
0.0
  0
SPLINE
  5
700CF
330
70217
100
AcDbEntity
  8
Level 26
  6
Continuous
 62
     7
370
     0
100
AcDbSpline
210
0.0
220
0.0
230
1.0
 70
     9
 71
     3
 72
    19
 73
    15
 74
     0
 42
0.000000001
 43
0.0000000001
 40
0.0
 40
0.0
 40
0.0
 40
0.0
 40
0.0833333335273589
 40
0.1666666665890565
 40
0.2500000001164153
 40
0.3333333331781129
 40
0.4166666667054718
 40
0.4999999997671694
 40
0.5833333332945282
 40
0.6666666668218872
 40
0.7499999998835847
 40
0.8333333334109434
 40
0.9166666664726411
 40
1.0
 40
1.0
 40
1.0
 40
1.0
 10
3229.267868425924
 20
163.7946566946478
 30
0.0
 10
3243.672838090525
 20
163.2917122078166
 30
0.0
 10
3269.73214614436
 20
156.7633210520807
 30
0.0
 10
3300.28271842745
 20
126.4173888642087
 30
0.0
 10
3310.679065789125
 20
85.81166078412811
 30
0.0
 10
3300.153069787049
 20
45.10163963480105
 30
0.0
 10
3270.273236357074
 20
15.08082857489322
 30
0.0
 10
3229.400912372577
 20
4.323015836467369
 30
0.0
 10
3188.511777053506
 20
14.92920413567083
 30
0.0
 10
3158.413671306871
 20
45.0027076910772
 30
0.0
 10
3147.850926533166
 20
85.8088162454154
 30
0.0
 10
3158.282486456259
 20
126.527926142568
 30
0.0
 10
3189.065339997933
 20
156.8751497211684
 30
0.0
 10
3214.908996115367
 20
163.3679140877567
 30
0.0
 10
3229.267868425924
 20
163.7946566946478
 30
0.0
  0
SPLINE
  5
700D0
330
70217
100
AcDbEntity
  8
Level 26
  6
Continuous
 62
     7
370
     0
100
AcDbSpline
210
0.0
220
0.0
230
1.0
 70
     9
 71
     3
 72
    19
 73
    15
 74
     0
 42
0.000000001
 43
0.0000000001
 40
0.0
 40
0.0
 40
0.0
 40
0.0
 40
0.0833333335273589
 40
0.1666666665890565
 40
0.2500000001164153
 40
0.3333333331781129
 40
0.4166666667054718
 40
0.4999999997671694
 40
0.5833333332945282
 40
0.6666666668218872
 40
0.7499999998835847
 40
0.8333333334109434
 40
0.9166666664726411
 40
1.0
 40
1.0
 40
1.0
 40
1.0
 10
3229.267868425924
 20
163.7946566946478
 30
0.0
 10
3243.672838090525
 20
163.2917122078166
 30
0.0
 10
3269.73214614436
 20
156.7633210520807
 30
0.0
 10
3300.28271842745
 20
126.4173888642087
 30
0.0
 10
3310.679065789125
 20
85.81166078412811
 30
0.0
 10
3300.153069787049
 20
45.10163963480105
 30
0.0
 10
3270.273236357074
 20
15.08082857489322
 30
0.0
 10
3229.400912372577
 20
4.323015836467369
 30
0.0
 10
3188.511777053506
 20
14.92920413567083
 30
0.0
 10
3158.413671306871
 20
45.0027076910772
 30
0.0
 10
3147.850926533166
 20
85.8088162454154
 30
0.0
 10
3158.282486456259
 20
126.527926142568
 30
0.0
 10
3189.065339997932
 20
156.8751497211684
 30
0.0
 10
3214.908996115367
 20
163.3679140877567
 30
0.0
 10
3229.267868425924
 20
163.7946566946478
 30
0.0
  0
ENDBLK
  5
70219
330
70217
100
AcDbEntity
  8
0
 62
    98
370
     0
100
AcDbBlockEnd
  0
BLOCK
  5
7021B
330
7021A
100
AcDbEntity
  8
0
 62
    98
370
     0
100
AcDbBlockBegin
  2
From Bspline Surface_3
 70
     0
 10
0.0
 20
0.0
 30
0.0
  3
From Bspline Surface_3
  1

  0
SPLINE
  5
6FE9A
330
7021A
100
AcDbEntity
  8
Level 26
  6
Continuous
 62
     7
370
     0
100
AcDbSpline
210
0.0
220
0.0
230
1.0
 70
     9
 71
     3
 72
    19
 73
    15
 74
     0
 42
0.000000001
 43
0.0000000001
 40
0.0
 40
0.0
 40
0.0
 40
0.0
 40
0.0833333335273589
 40
0.1666666665890565
 40
0.2500000001164153
 40
0.3333333331781129
 40
0.4166666667054718
 40
0.4999999997671694
 40
0.5833333332945282
 40
0.6666666668218872
 40
0.7499999998835847
 40
0.8333333334109434
 40
0.9166666664726411
 40
1.0
 40
1.0
 40
1.0
 40
1.0
 10
3229.267868425924
 20
163.7946566946478
 30
0.0
 10
3243.672838090525
 20
163.2917122078166
 30
0.0
 10
3269.73214614436
 20
156.7633210520807
 30
0.0
 10
3300.28271842745
 20
126.4173888642087
 30
0.0
 10
3310.679065789125
 20
85.81166078412811
 30
0.0
 10
3300.153069787049
 20
45.10163963480105
 30
0.0
 10
3270.273236357074
 20
15.08082857489322
 30
0.0
 10
3229.400912372577
 20
4.323015836467369
 30
0.0
 10
3188.511777053506
 20
14.92920413567083
 30
0.0
 10
3158.413671306871
 20
45.0027076910772
 30
0.0
 10
3147.850926533166
 20
85.8088162454154
 30
0.0
 10
3158.282486456259
 20
126.527926142568
 30
0.0
 10
3189.065339997932
 20
156.8751497211684
 30
0.0
 10
3214.908996115367
 20
163.3679140877567
 30
0.0
 10
3229.267868425924
 20
163.7946566946478
 30
0.0
  0
SPLINE
  5
700DB
330
7021A
100
AcDbEntity
  8
Level 26
  6
Continuous
 62
     7
370
     0
100
AcDbSpline
210
0.0
220
0.0
230
1.0
 70
     9
 71
     3
 72
    19
 73
    15
 74
     0
 42
0.000000001
 43
0.0000000001
 40
0.0
 40
0.0
 40
0.0
 40
0.0
 40
0.0833333335273589
 40
0.1666666665890565
 40
0.2500000001164153
 40
0.3333333331781129
 40
0.4166666667054718
 40
0.4999999997671694
 40
0.5833333332945282
 40
0.6666666668218872
 40
0.7499999998835847
 40
0.8333333334109434
 40
0.9166666664726411
 40
1.0
 40
1.0
 40
1.0
 40
1.0
 10
3229.267868425924
 20
163.7946566946478
 30
0.0
 10
3243.672838090525
 20
163.2917122078166
 30
0.0
 10
3269.73214614436
 20
156.7633210520807
 30
0.0
 10
3300.28271842745
 20
126.4173888642087
 30
0.0
 10
3310.679065789125
 20
85.81166078412811
 30
0.0
 10
3300.153069787049
 20
45.10163963480105
 30
0.0
 10
3270.273236357074
 20
15.08082857489322
 30
0.0
 10
3229.400912372577
 20
4.323015836467369
 30
0.0
 10
3188.511777053506
 20
14.92920413567083
 30
0.0
 10
3158.413671306871
 20
45.0027076910772
 30
0.0
 10
3147.850926533166
 20
85.8088162454154
 30
0.0
 10
3158.282486456259
 20
126.527926142568
 30
0.0
 10
3189.065339997932
 20
156.8751497211684
 30
0.0
 10
3214.908996115367
 20
163.3679140877567
 30
0.0
 10
3229.267868425924
 20
163.7946566946478
 30
0.0
  0
SPLINE
  5
700DC
330
7021A
100
AcDbEntity
  8
Level 26
  6
Continuous
 62
     7
370
     0
100
AcDbSpline
210
0.0
220
0.0
230
1.0
 70
     9
 71
     3
 72
    19
 73
    15
 74
     0
 42
0.000000001
 43
0.0000000001
 40
0.0
 40
0.0
 40
0.0
 40
0.0
 40
0.0833333335273589
 40
0.1666666665890565
 40
0.2500000001164153
 40
0.3333333331781129
 40
0.4166666667054718
 40
0.4999999997671694
 40
0.5833333332945282
 40
0.6666666668218872
 40
0.7499999998835847
 40
0.8333333334109434
 40
0.9166666664726411
 40
1.0
 40
1.0
 40
1.0
 40
1.0
 10
3229.267868425924
 20
163.7946566946478
 30
0.0
 10
3243.672838090525
 20
163.2917122078166
 30
0.0
 10
3269.73214614436
 20
156.7633210520807
 30
0.0
 10
3300.28271842745
 20
126.4173888642087
 30
0.0
 10
3310.679065789125
 20
85.81166078412811
 30
0.0
 10
3300.153069787049
 20
45.10163963480105
 30
0.0
 10
3270.273236357074
 20
15.08082857489322
 30
0.0
 10
3229.400912372577
 20
4.323015836467369
 30
0.0
 10
3188.511777053506
 20
14.92920413567083
 30
0.0
 10
3158.413671306871
 20
45.0027076910772
 30
0.0
 10
3147.850926533166
 20
85.8088162454154
 30
0.0
 10
3158.282486456259
 20
126.527926142568
 30
0.0
 10
3189.065339997932
 20
156.8751497211684
 30
0.0
 10
3214.908996115367
 20
163.3679140877567
 30
0.0
 10
3229.267868425924
 20
163.7946566946478
 30
0.0
  0
SPLINE
  5
700DD
330
7021A
100
AcDbEntity
  8
Level 26
  6
Continuous
 62
     7
370
     0
100
AcDbSpline
210
0.0
220
0.0
230
1.0
 70
     9
 71
     3
 72
    19
 73
    15
 74
     0
 42
0.000000001
 43
0.0000000001
 40
0.0
 40
0.0
 40
0.0
 40
0.0
 40
0.0833333335273589
 40
0.1666666665890565
 40
0.2500000001164153
 40
0.3333333331781129
 40
0.4166666667054718
 40
0.4999999997671694
 40
0.5833333332945282
 40
0.6666666668218872
 40
0.7499999998835847
 40
0.8333333334109434
 40
0.9166666664726411
 40
1.0
 40
1.0
 40
1.0
 40
1.0
 10
3229.267868425924
 20
163.7946566946478
 30
0.0
 10
3243.672838090526
 20
163.2917122078166
 30
0.0
 10
3269.73214614436
 20
156.7633210520807
 30
0.0
 10
3300.28271842745
 20
126.4173888642087
 30
0.0
 10
3310.679065789125
 20
85.81166078412811
 30
0.0
 10
3300.153069787049
 20
45.10163963480105
 30
0.0
 10
3270.273236357075
 20
15.08082857489323
 30
0.0
 10
3229.400912372577
 20
4.323015836467369
 30
0.0
 10
3188.511777053507
 20
14.92920413567083
 30
0.0
 10
3158.413671306871
 20
45.00270769107721
 30
0.0
 10
3147.850926533166
 20
85.8088162454154
 30
0.0
 10
3158.282486456259
 20
126.527926142568
 30
0.0
 10
3189.065339997933
 20
156.8751497211684
 30
0.0
 10
3214.908996115367
 20
163.3679140877567
 30
0.0
 10
3229.267868425924
 20
163.7946566946478
 30
0.0
  0
SPLINE
  5
700DE
330
7021A
100
AcDbEntity
  8
Level 26
  6
Continuous
 62
     7
370
     0
100
AcDbSpline
210
0.0
220
0.0
230
1.0
 70
     9
 71
     3
 72
    19
 73
    15
 74
     0
 42
0.000000001
 43
0.0000000001
 40
0.0
 40
0.0
 40
0.0
 40
0.0
 40
0.0833333335273589
 40
0.1666666665890565
 40
0.2500000001164153
 40
0.3333333331781129
 40
0.4166666667054718
 40
0.4999999997671694
 40
0.5833333332945282
 40
0.6666666668218872
 40
0.7499999998835847
 40
0.8333333334109434
 40
0.9166666664726411
 40
1.0
 40
1.0
 40
1.0
 40
1.0
 10
3229.267868425924
 20
163.7946566946478
 30
0.0
 10
3243.672838090525
 20
163.2917122078166
 30
0.0
 10
3269.73214614436
 20
156.7633210520807
 30
0.0
 10
3300.28271842745
 20
126.4173888642087
 30
0.0
 10
3310.679065789125
 20
85.81166078412811
 30
0.0
 10
3300.153069787049
 20
45.10163963480105
 30
0.0
 10
3270.273236357074
 20
15.08082857489322
 30
0.0
 10
3229.400912372577
 20
4.323015836467369
 30
0.0
 10
3188.511777053506
 20
14.92920413567083
 30
0.0
 10
3158.413671306871
 20
45.0027076910772
 30
0.0
 10
3147.850926533166
 20
85.8088162454154
 30
0.0
 10
3158.282486456259
 20
126.527926142568
 30
0.0
 10
3189.065339997932
 20
156.8751497211684
 30
0.0
 10
3214.908996115367
 20
163.3679140877567
 30
0.0
 10
3229.267868425924
 20
163.7946566946478
 30
0.0
  0
SPLINE
  5
700DF
330
7021A
100
AcDbEntity
  8
Level 26
  6
Continuous
 62
     7
370
     0
100
AcDbSpline
210
0.0
220
0.0
230
1.0
 70
     9
 71
     3
 72
    19
 73
    15
 74
     0
 42
0.000000001
 43
0.0000000001
 40
0.0
 40
0.0
 40
0.0
 40
0.0
 40
0.0833333335273589
 40
0.1666666665890565
 40
0.2500000001164153
 40
0.3333333331781129
 40
0.4166666667054718
 40
0.4999999997671694
 40
0.5833333332945282
 40
0.6666666668218872
 40
0.7499999998835847
 40
0.8333333334109434
 40
0.9166666664726411
 40
1.0
 40
1.0
 40
1.0
 40
1.0
 10
3229.267868425924
 20
163.7946566946478
 30
0.0
 10
3243.672838090525
 20
163.2917122078166
 30
0.0
 10
3269.73214614436
 20
156.7633210520807
 30
0.0
 10
3300.28271842745
 20
126.4173888642087
 30
0.0
 10
3310.679065789125
 20
85.81166078412811
 30
0.0
 10
3300.153069787049
 20
45.10163963480105
 30
0.0
 10
3270.273236357074
 20
15.08082857489322
 30
0.0
 10
3229.400912372577
 20
4.323015836467369
 30
0.0
 10
3188.511777053506
 20
14.92920413567083
 30
0.0
 10
3158.413671306871
 20
45.0027076910772
 30
0.0
 10
3147.850926533166
 20
85.8088162454154
 30
0.0
 10
3158.282486456259
 20
126.527926142568
 30
0.0
 10
3189.065339997932
 20
156.8751497211684
 30
0.0
 10
3214.908996115367
 20
163.3679140877567
 30
0.0
 10
3229.267868425924
 20
163.7946566946478
 30
0.0
  0
SPLINE
  5
700E0
330
7021A
100
AcDbEntity
  8
Level 26
  6
Continuous
 62
     7
370
     0
100
AcDbSpline
210
0.0
220
0.0
230
1.0
 70
     9
 71
     3
 72
    19
 73
    15
 74
     0
 42
0.000000001
 43
0.0000000001
 40
0.0
 40
0.0
 40
0.0
 40
0.0
 40
0.0833333335273589
 40
0.1666666665890565
 40
0.2500000001164153
 40
0.3333333331781129
 40
0.4166666667054718
 40
0.4999999997671694
 40
0.5833333332945282
 40
0.6666666668218872
 40
0.7499999998835847
 40
0.8333333334109434
 40
0.9166666664726411
 40
1.0
 40
1.0
 40
1.0
 40
1.0
 10
3229.267868425924
 20
163.7946566946478
 30
0.0
 10
3243.672838090525
 20
163.2917122078166
 30
0.0
 10
3269.73214614436
 20
156.7633210520807
 30
0.0
 10
3300.28271842745
 20
126.4173888642087
 30
0.0
 10
3310.679065789125
 20
85.81166078412811
 30
0.0
 10
3300.153069787049
 20
45.10163963480105
 30
0.0
 10
3270.273236357074
 20
15.08082857489322
 30
0.0
 10
3229.400912372577
 20
4.323015836467369
 30
0.0
 10
3188.511777053506
 20
14.92920413567083
 30
0.0
 10
3158.413671306871
 20
45.0027076910772
 30
0.0
 10
3147.850926533166
 20
85.8088162454154
 30
0.0
 10
3158.282486456259
 20
126.527926142568
 30
0.0
 10
3189.065339997933
 20
156.8751497211684
 30
0.0
 10
3214.908996115367
 20
163.3679140877567
 30
0.0
 10
3229.267868425924
 20
163.7946566946478
 30
0.0
  0
SPLINE
  5
700E1
330
7021A
100
AcDbEntity
  8
Level 26
  6
Continuous
 62
     7
370
     0
100
AcDbSpline
210
0.0
220
0.0
230
1.0
 70
     9
 71
     3
 72
    19
 73
    15
 74
     0
 42
0.000000001
 43
0.0000000001
 40
0.0
 40
0.0
 40
0.0
 40
0.0
 40
0.0833333335273589
 40
0.1666666665890565
 40
0.2500000001164153
 40
0.3333333331781129
 40
0.4166666667054718
 40
0.4999999997671694
 40
0.5833333332945282
 40
0.6666666668218872
 40
0.7499999998835847
 40
0.8333333334109434
 40
0.9166666664726411
 40
1.0
 40
1.0
 40
1.0
 40
1.0
 10
3229.267868425924
 20
163.7946566946478
 30
0.0
 10
3243.672838090525
 20
163.2917122078166
 30
0.0
 10
3269.73214614436
 20
156.7633210520807
 30
0.0
 10
3300.28271842745
 20
126.4173888642087
 30
0.0
 10
3310.679065789125
 20
85.81166078412811
 30
0.0
 10
3300.153069787049
 20
45.10163963480105
 30
0.0
 10
3270.273236357074
 20
15.08082857489322
 30
0.0
 10
3229.400912372577
 20
4.323015836467369
 30
0.0
 10
3188.511777053506
 20
14.92920413567083
 30
0.0
 10
3158.413671306871
 20
45.00270769107719
 30
0.0
 10
3147.850926533166
 20
85.8088162454154
 30
0.0
 10
3158.282486456259
 20
126.527926142568
 30
0.0
 10
3189.065339997933
 20
156.8751497211684
 30
0.0
 10
3214.908996115367
 20
163.3679140877567
 30
0.0
 10
3229.267868425924
 20
163.7946566946478
 30
0.0
  0
SPLINE
  5
700E2
330
7021A
100
AcDbEntity
  8
Level 26
  6
Continuous
 62
     7
370
     0
100
AcDbSpline
210
0.0
220
0.0
230
1.0
 70
     9
 71
     3
 72
    19
 73
    15
 74
     0
 42
0.000000001
 43
0.0000000001
 40
0.0
 40
0.0
 40
0.0
 40
0.0
 40
0.0833333335273589
 40
0.1666666665890565
 40
0.2500000001164153
 40
0.3333333331781129
 40
0.4166666667054718
 40
0.4999999997671694
 40
0.5833333332945282
 40
0.6666666668218872
 40
0.7499999998835847
 40
0.8333333334109434
 40
0.9166666664726411
 40
1.0
 40
1.0
 40
1.0
 40
1.0
 10
3229.267868425924
 20
163.7946566946478
 30
0.0
 10
3243.672838090525
 20
163.2917122078166
 30
0.0
 10
3269.73214614436
 20
156.7633210520807
 30
0.0
 10
3300.28271842745
 20
126.4173888642087
 30
0.0
 10
3310.679065789125
 20
85.81166078412811
 30
0.0
 10
3300.153069787049
 20
45.10163963480105
 30
0.0
 10
3270.273236357074
 20
15.08082857489322
 30
0.0
 10
3229.400912372577
 20
4.323015836467369
 30
0.0
 10
3188.511777053506
 20
14.92920413567083
 30
0.0
 10
3158.413671306871
 20
45.0027076910772
 30
0.0
 10
3147.850926533166
 20
85.8088162454154
 30
0.0
 10
3158.282486456259
 20
126.527926142568
 30
0.0
 10
3189.065339997933
 20
156.8751497211684
 30
0.0
 10
3214.908996115367
 20
163.3679140877567
 30
0.0
 10
3229.267868425924
 20
163.7946566946478
 30
0.0
  0
SPLINE
  5
700E3
330
7021A
100
AcDbEntity
  8
Level 26
  6
Continuous
 62
     7
370
     0
100
AcDbSpline
210
0.0
220
0.0
230
1.0
 70
     9
 71
     3
 72
    19
 73
    15
 74
     0
 42
0.000000001
 43
0.0000000001
 40
0.0
 40
0.0
 40
0.0
 40
0.0
 40
0.0833333335273589
 40
0.1666666665890565
 40
0.2500000001164153
 40
0.3333333331781129
 40
0.4166666667054718
 40
0.4999999997671694
 40
0.5833333332945282
 40
0.6666666668218872
 40
0.7499999998835847
 40
0.8333333334109434
 40
0.9166666664726411
 40
1.0
 40
1.0
 40
1.0
 40
1.0
 10
3229.267868425924
 20
163.7946566946478
 30
0.0
 10
3243.672838090525
 20
163.2917122078166
 30
0.0
 10
3269.73214614436
 20
156.7633210520807
 30
0.0
 10
3300.28271842745
 20
126.4173888642087
 30
0.0
 10
3310.679065789125
 20
85.81166078412811
 30
0.0
 10
3300.153069787049
 20
45.10163963480105
 30
0.0
 10
3270.273236357074
 20
15.08082857489322
 30
0.0
 10
3229.400912372577
 20
4.323015836467369
 30
0.0
 10
3188.511777053506
 20
14.92920413567083
 30
0.0
 10
3158.413671306871
 20
45.0027076910772
 30
0.0
 10
3147.850926533166
 20
85.8088162454154
 30
0.0
 10
3158.282486456259
 20
126.527926142568
 30
0.0
 10
3189.065339997932
 20
156.8751497211684
 30
0.0
 10
3214.908996115367
 20
163.3679140877567
 30
0.0
 10
3229.267868425924
 20
163.7946566946478
 30
0.0
  0
ENDBLK
  5
7021C
330
7021A
100
AcDbEntity
  8
0
 62
    98
370
     0
100
AcDbBlockEnd
  0
BLOCK
  5
7021E
330
7021D
100
AcDbEntity
  8
0
 62
    98
370
     0
100
AcDbBlockBegin
  2
From Bspline Surface_4
 70
     0
 10
0.0
 20
0.0
 30
0.0
  3
From Bspline Surface_4
  1

  0
SPLINE
  5
6FEAB
330
7021D
100
AcDbEntity
  8
Level 26
  6
Continuous
 62
     7
370
     0
100
AcDbSpline
210
0.0
220
0.0
230
1.0
 70
     9
 71
     3
 72
    19
 73
    15
 74
     0
 42
0.000000001
 43
0.0000000001
 40
0.0
 40
0.0
 40
0.0
 40
0.0
 40
0.0833333335273589
 40
0.1666666665890565
 40
0.2500000001164153
 40
0.3333333331781129
 40
0.4166666667054718
 40
0.4999999997671694
 40
0.5833333332945282
 40
0.6666666668218872
 40
0.7499999998835847
 40
0.8333333334109434
 40
0.9166666664726411
 40
1.0
 40
1.0
 40
1.0
 40
1.0
 10
3229.267868425924
 20
163.7946566946478
 30
0.0
 10
3243.672838090525
 20
163.2917122078166
 30
0.0
 10
3269.73214614436
 20
156.7633210520807
 30
0.0
 10
3300.28271842745
 20
126.4173888642087
 30
0.0
 10
3310.679065789125
 20
85.81166078412811
 30
0.0
 10
3300.153069787049
 20
45.10163963480105
 30
0.0
 10
3270.273236357074
 20
15.08082857489322
 30
0.0
 10
3229.400912372577
 20
4.323015836467369
 30
0.0
 10
3188.511777053506
 20
14.92920413567083
 30
0.0
 10
3158.413671306871
 20
45.0027076910772
 30
0.0
 10
3147.850926533166
 20
85.8088162454154
 30
0.0
 10
3158.282486456259
 20
126.527926142568
 30
0.0
 10
3189.065339997932
 20
156.8751497211684
 30
0.0
 10
3214.908996115367
 20
163.3679140877567
 30
0.0
 10
3229.267868425924
 20
163.7946566946478
 30
0.0
  0
SPLINE
  5
700EE
330
7021D
100
AcDbEntity
  8
Level 26
  6
Continuous
 62
     7
370
     0
100
AcDbSpline
210
0.0
220
0.0
230
1.0
 70
     9
 71
     3
 72
    19
 73
    15
 74
     0
 42
0.000000001
 43
0.0000000001
 40
0.0
 40
0.0
 40
0.0
 40
0.0
 40
0.0833333335273589
 40
0.1666666665890565
 40
0.2500000001164153
 40
0.3333333331781129
 40
0.4166666667054718
 40
0.4999999997671694
 40
0.5833333332945282
 40
0.6666666668218872
 40
0.7499999998835847
 40
0.8333333334109434
 40
0.9166666664726411
 40
1.0
 40
1.0
 40
1.0
 40
1.0
 10
3229.267868425924
 20
163.7946566946478
 30
0.0
 10
3243.672838090525
 20
163.2917122078166
 30
0.0
 10
3269.73214614436
 20
156.7633210520807
 30
0.0
 10
3300.28271842745
 20
126.4173888642087
 30
0.0
 10
3310.679065789125
 20
85.81166078412811
 30
0.0
 10
3300.153069787049
 20
45.10163963480105
 30
0.0
 10
3270.273236357074
 20
15.08082857489322
 30
0.0
 10
3229.400912372577
 20
4.323015836467369
 30
0.0
 10
3188.511777053506
 20
14.92920413567083
 30
0.0
 10
3158.413671306871
 20
45.0027076910772
 30
0.0
 10
3147.850926533166
 20
85.8088162454154
 30
0.0
 10
3158.282486456259
 20
126.527926142568
 30
0.0
 10
3189.065339997932
 20
156.8751497211684
 30
0.0
 10
3214.908996115367
 20
163.3679140877567
 30
0.0
 10
3229.267868425924
 20
163.7946566946478
 30
0.0
  0
SPLINE
  5
700EF
330
7021D
100
AcDbEntity
  8
Level 26
  6
Continuous
 62
     7
370
     0
100
AcDbSpline
210
0.0
220
0.0
230
1.0
 70
     9
 71
     3
 72
    19
 73
    15
 74
     0
 42
0.000000001
 43
0.0000000001
 40
0.0
 40
0.0
 40
0.0
 40
0.0
 40
0.0833333335273589
 40
0.1666666665890565
 40
0.2500000001164153
 40
0.3333333331781129
 40
0.4166666667054718
 40
0.4999999997671694
 40
0.5833333332945282
 40
0.6666666668218872
 40
0.7499999998835847
 40
0.8333333334109434
 40
0.9166666664726411
 40
1.0
 40
1.0
 40
1.0
 40
1.0
 10
3229.267868425924
 20
163.7946566946478
 30
0.0
 10
3243.672838090525
 20
163.2917122078166
 30
0.0
 10
3269.73214614436
 20
156.7633210520807
 30
0.0
 10
3300.28271842745
 20
126.4173888642087
 30
0.0
 10
3310.679065789125
 20
85.81166078412811
 30
0.0
 10
3300.153069787049
 20
45.10163963480105
 30
0.0
 10
3270.273236357074
 20
15.08082857489322
 30
0.0
 10
3229.400912372577
 20
4.323015836467369
 30
0.0
 10
3188.511777053506
 20
14.92920413567083
 30
0.0
 10
3158.413671306871
 20
45.0027076910772
 30
0.0
 10
3147.850926533166
 20
85.8088162454154
 30
0.0
 10
3158.282486456259
 20
126.527926142568
 30
0.0
 10
3189.065339997932
 20
156.8751497211684
 30
0.0
 10
3214.908996115367
 20
163.3679140877567
 30
0.0
 10
3229.267868425924
 20
163.7946566946478
 30
0.0
  0
SPLINE
  5
700F0
330
7021D
100
AcDbEntity
  8
Level 26
  6
Continuous
 62
     7
370
     0
100
AcDbSpline
210
0.0
220
0.0
230
1.0
 70
     9
 71
     3
 72
    19
 73
    15
 74
     0
 42
0.000000001
 43
0.0000000001
 40
0.0
 40
0.0
 40
0.0
 40
0.0
 40
0.0833333335273589
 40
0.1666666665890565
 40
0.2500000001164153
 40
0.3333333331781129
 40
0.4166666667054718
 40
0.4999999997671694
 40
0.5833333332945282
 40
0.6666666668218872
 40
0.7499999998835847
 40
0.8333333334109434
 40
0.9166666664726411
 40
1.0
 40
1.0
 40
1.0
 40
1.0
 10
3229.267868425924
 20
163.7946566946478
 30
0.0
 10
3243.672838090526
 20
163.2917122078166
 30
0.0
 10
3269.73214614436
 20
156.7633210520807
 30
0.0
 10
3300.28271842745
 20
126.4173888642087
 30
0.0
 10
3310.679065789125
 20
85.81166078412811
 30
0.0
 10
3300.153069787049
 20
45.10163963480105
 30
0.0
 10
3270.273236357075
 20
15.08082857489323
 30
0.0
 10
3229.400912372577
 20
4.323015836467369
 30
0.0
 10
3188.511777053507
 20
14.92920413567083
 30
0.0
 10
3158.413671306871
 20
45.00270769107721
 30
0.0
 10
3147.850926533166
 20
85.8088162454154
 30
0.0
 10
3158.282486456259
 20
126.527926142568
 30
0.0
 10
3189.065339997933
 20
156.8751497211684
 30
0.0
 10
3214.908996115367
 20
163.3679140877567
 30
0.0
 10
3229.267868425924
 20
163.7946566946478
 30
0.0
  0
SPLINE
  5
700F1
330
7021D
100
AcDbEntity
  8
Level 26
  6
Continuous
 62
     7
370
     0
100
AcDbSpline
210
0.0
220
0.0
230
1.0
 70
     9
 71
     3
 72
    19
 73
    15
 74
     0
 42
0.000000001
 43
0.0000000001
 40
0.0
 40
0.0
 40
0.0
 40
0.0
 40
0.0833333335273589
 40
0.1666666665890565
 40
0.2500000001164153
 40
0.3333333331781129
 40
0.4166666667054718
 40
0.4999999997671694
 40
0.5833333332945282
 40
0.6666666668218872
 40
0.7499999998835847
 40
0.8333333334109434
 40
0.9166666664726411
 40
1.0
 40
1.0
 40
1.0
 40
1.0
 10
3229.267868425924
 20
163.7946566946478
 30
0.0
 10
3243.672838090525
 20
163.2917122078166
 30
0.0
 10
3269.73214614436
 20
156.7633210520807
 30
0.0
 10
3300.28271842745
 20
126.4173888642087
 30
0.0
 10
3310.679065789125
 20
85.81166078412811
 30
0.0
 10
3300.153069787049
 20
45.10163963480105
 30
0.0
 10
3270.273236357074
 20
15.08082857489322
 30
0.0
 10
3229.400912372577
 20
4.323015836467369
 30
0.0
 10
3188.511777053506
 20
14.92920413567083
 30
0.0
 10
3158.413671306871
 20
45.0027076910772
 30
0.0
 10
3147.850926533166
 20
85.8088162454154
 30
0.0
 10
3158.282486456259
 20
126.527926142568
 30
0.0
 10
3189.065339997932
 20
156.8751497211684
 30
0.0
 10
3214.908996115367
 20
163.3679140877567
 30
0.0
 10
3229.267868425924
 20
163.7946566946478
 30
0.0
  0
SPLINE
  5
700F2
330
7021D
100
AcDbEntity
  8
Level 26
  6
Continuous
 62
     7
370
     0
100
AcDbSpline
210
0.0
220
0.0
230
1.0
 70
     9
 71
     3
 72
    19
 73
    15
 74
     0
 42
0.000000001
 43
0.0000000001
 40
0.0
 40
0.0
 40
0.0
 40
0.0
 40
0.0833333335273589
 40
0.1666666665890565
 40
0.2500000001164153
 40
0.3333333331781129
 40
0.4166666667054718
 40
0.4999999997671694
 40
0.5833333332945282
 40
0.6666666668218872
 40
0.7499999998835847
 40
0.8333333334109434
 40
0.9166666664726411
 40
1.0
 40
1.0
 40
1.0
 40
1.0
 10
3229.267868425924
 20
163.7946566946478
 30
0.0
 10
3243.672838090525
 20
163.2917122078166
 30
0.0
 10
3269.73214614436
 20
156.7633210520807
 30
0.0
 10
3300.28271842745
 20
126.4173888642087
 30
0.0
 10
3310.679065789125
 20
85.81166078412811
 30
0.0
 10
3300.153069787049
 20
45.10163963480105
 30
0.0
 10
3270.273236357074
 20
15.08082857489322
 30
0.0
 10
3229.400912372577
 20
4.323015836467369
 30
0.0
 10
3188.511777053506
 20
14.92920413567083
 30
0.0
 10
3158.413671306871
 20
45.0027076910772
 30
0.0
 10
3147.850926533166
 20
85.8088162454154
 30
0.0
 10
3158.282486456259
 20
126.527926142568
 30
0.0
 10
3189.065339997932
 20
156.8751497211684
 30
0.0
 10
3214.908996115367
 20
163.3679140877567
 30
0.0
 10
3229.267868425924
 20
163.7946566946478
 30
0.0
  0
SPLINE
  5
700F3
330
7021D
100
AcDbEntity
  8
Level 26
  6
Continuous
 62
     7
370
     0
100
AcDbSpline
210
0.0
220
0.0
230
1.0
 70
     9
 71
     3
 72
    19
 73
    15
 74
     0
 42
0.000000001
 43
0.0000000001
 40
0.0
 40
0.0
 40
0.0
 40
0.0
 40
0.0833333335273589
 40
0.1666666665890565
 40
0.2500000001164153
 40
0.3333333331781129
 40
0.4166666667054718
 40
0.4999999997671694
 40
0.5833333332945282
 40
0.6666666668218872
 40
0.7499999998835847
 40
0.8333333334109434
 40
0.9166666664726411
 40
1.0
 40
1.0
 40
1.0
 40
1.0
 10
3229.267868425924
 20
163.7946566946478
 30
0.0
 10
3243.672838090525
 20
163.2917122078166
 30
0.0
 10
3269.73214614436
 20
156.7633210520807
 30
0.0
 10
3300.28271842745
 20
126.4173888642087
 30
0.0
 10
3310.679065789125
 20
85.81166078412811
 30
0.0
 10
3300.153069787049
 20
45.10163963480105
 30
0.0
 10
3270.273236357074
 20
15.08082857489322
 30
0.0
 10
3229.400912372577
 20
4.323015836467369
 30
0.0
 10
3188.511777053506
 20
14.92920413567083
 30
0.0
 10
3158.413671306871
 20
45.0027076910772
 30
0.0
 10
3147.850926533166
 20
85.8088162454154
 30
0.0
 10
3158.282486456259
 20
126.527926142568
 30
0.0
 10
3189.065339997933
 20
156.8751497211684
 30
0.0
 10
3214.908996115367
 20
163.3679140877567
 30
0.0
 10
3229.267868425924
 20
163.7946566946478
 30
0.0
  0
SPLINE
  5
700F4
330
7021D
100
AcDbEntity
  8
Level 26
  6
Continuous
 62
     7
370
     0
100
AcDbSpline
210
0.0
220
0.0
230
1.0
 70
     9
 71
     3
 72
    19
 73
    15
 74
     0
 42
0.000000001
 43
0.0000000001
 40
0.0
 40
0.0
 40
0.0
 40
0.0
 40
0.0833333335273589
 40
0.1666666665890565
 40
0.2500000001164153
 40
0.3333333331781129
 40
0.4166666667054718
 40
0.4999999997671694
 40
0.5833333332945282
 40
0.6666666668218872
 40
0.7499999998835847
 40
0.8333333334109434
 40
0.9166666664726411
 40
1.0
 40
1.0
 40
1.0
 40
1.0
 10
3229.267868425924
 20
163.7946566946478
 30
0.0
 10
3243.672838090525
 20
163.2917122078166
 30
0.0
 10
3269.73214614436
 20
156.7633210520807
 30
0.0
 10
3300.28271842745
 20
126.4173888642087
 30
0.0
 10
3310.679065789125
 20
85.81166078412811
 30
0.0
 10
3300.153069787049
 20
45.10163963480105
 30
0.0
 10
3270.273236357074
 20
15.08082857489322
 30
0.0
 10
3229.400912372577
 20
4.323015836467369
 30
0.0
 10
3188.511777053506
 20
14.92920413567083
 30
0.0
 10
3158.413671306871
 20
45.00270769107719
 30
0.0
 10
3147.850926533166
 20
85.8088162454154
 30
0.0
 10
3158.282486456259
 20
126.527926142568
 30
0.0
 10
3189.065339997933
 20
156.8751497211684
 30
0.0
 10
3214.908996115367
 20
163.3679140877567
 30
0.0
 10
3229.267868425924
 20
163.7946566946478
 30
0.0
  0
SPLINE
  5
700F5
330
7021D
100
AcDbEntity
  8
Level 26
  6
Continuous
 62
     7
370
     0
100
AcDbSpline
210
0.0
220
0.0
230
1.0
 70
     9
 71
     3
 72
    19
 73
    15
 74
     0
 42
0.000000001
 43
0.0000000001
 40
0.0
 40
0.0
 40
0.0
 40
0.0
 40
0.0833333335273589
 40
0.1666666665890565
 40
0.2500000001164153
 40
0.3333333331781129
 40
0.4166666667054718
 40
0.4999999997671694
 40
0.5833333332945282
 40
0.6666666668218872
 40
0.7499999998835847
 40
0.8333333334109434
 40
0.9166666664726411
 40
1.0
 40
1.0
 40
1.0
 40
1.0
 10
3229.267868425924
 20
163.7946566946478
 30
0.0
 10
3243.672838090525
 20
163.2917122078166
 30
0.0
 10
3269.73214614436
 20
156.7633210520807
 30
0.0
 10
3300.28271842745
 20
126.4173888642087
 30
0.0
 10
3310.679065789125
 20
85.81166078412811
 30
0.0
 10
3300.153069787049
 20
45.10163963480105
 30
0.0
 10
3270.273236357074
 20
15.08082857489322
 30
0.0
 10
3229.400912372577
 20
4.323015836467369
 30
0.0
 10
3188.511777053506
 20
14.92920413567083
 30
0.0
 10
3158.413671306871
 20
45.0027076910772
 30
0.0
 10
3147.850926533166
 20
85.8088162454154
 30
0.0
 10
3158.282486456259
 20
126.527926142568
 30
0.0
 10
3189.065339997933
 20
156.8751497211684
 30
0.0
 10
3214.908996115367
 20
163.3679140877567
 30
0.0
 10
3229.267868425924
 20
163.7946566946478
 30
0.0
  0
SPLINE
  5
700F6
330
7021D
100
AcDbEntity
  8
Level 26
  6
Continuous
 62
     7
370
     0
100
AcDbSpline
210
0.0
220
0.0
230
1.0
 70
     9
 71
     3
 72
    19
 73
    15
 74
     0
 42
0.000000001
 43
0.0000000001
 40
0.0
 40
0.0
 40
0.0
 40
0.0
 40
0.0833333335273589
 40
0.1666666665890565
 40
0.2500000001164153
 40
0.3333333331781129
 40
0.4166666667054718
 40
0.4999999997671694
 40
0.5833333332945282
 40
0.6666666668218872
 40
0.7499999998835847
 40
0.8333333334109434
 40
0.9166666664726411
 40
1.0
 40
1.0
 40
1.0
 40
1.0
 10
3229.267868425924
 20
163.7946566946478
 30
0.0
 10
3243.672838090525
 20
163.2917122078166
 30
0.0
 10
3269.73214614436
 20
156.7633210520807
 30
0.0
 10
3300.28271842745
 20
126.4173888642087
 30
0.0
 10
3310.679065789125
 20
85.81166078412811
 30
0.0
 10
3300.153069787049
 20
45.10163963480105
 30
0.0
 10
3270.273236357074
 20
15.08082857489322
 30
0.0
 10
3229.400912372577
 20
4.323015836467369
 30
0.0
 10
3188.511777053506
 20
14.92920413567083
 30
0.0
 10
3158.413671306871
 20
45.0027076910772
 30
0.0
 10
3147.850926533166
 20
85.8088162454154
 30
0.0
 10
3158.282486456259
 20
126.527926142568
 30
0.0
 10
3189.065339997932
 20
156.8751497211684
 30
0.0
 10
3214.908996115367
 20
163.3679140877567
 30
0.0
 10
3229.267868425924
 20
163.7946566946478
 30
0.0
  0
ENDBLK
  5
7021F
330
7021D
100
AcDbEntity
  8
0
 62
    98
370
     0
100
AcDbBlockEnd
  0
BLOCK
  5
70221
330
70220
100
AcDbEntity
  8
0
 62
    98
370
     0
100
AcDbBlockBegin
  2
From Bspline Surface_5
 70
     0
 10
0.0
 20
0.0
 30
0.0
  3
From Bspline Surface_5
  1

  0
SPLINE
  5
6FEBC
330
70220
100
AcDbEntity
  8
Level 26
  6
Continuous
 62
     7
370
     0
100
AcDbSpline
210
0.0
220
0.0
230
1.0
 70
     9
 71
     3
 72
    19
 73
    15
 74
     0
 42
0.000000001
 43
0.0000000001
 40
0.0
 40
0.0
 40
0.0
 40
0.0
 40
0.0833333335273589
 40
0.1666666665890565
 40
0.2500000001164153
 40
0.3333333331781129
 40
0.4166666667054718
 40
0.4999999997671694
 40
0.5833333332945282
 40
0.6666666668218872
 40
0.7499999998835847
 40
0.8333333334109434
 40
0.9166666664726411
 40
1.0
 40
1.0
 40
1.0
 40
1.0
 10
3229.267868425924
 20
163.7946566946478
 30
0.0
 10
3243.672838090525
 20
163.2917122078166
 30
0.0
 10
3269.73214614436
 20
156.7633210520807
 30
0.0
 10
3300.28271842745
 20
126.4173888642087
 30
0.0
 10
3310.679065789125
 20
85.81166078412811
 30
0.0
 10
3300.153069787049
 20
45.10163963480105
 30
0.0
 10
3270.273236357074
 20
15.08082857489322
 30
0.0
 10
3229.400912372577
 20
4.323015836467369
 30
0.0
 10
3188.511777053506
 20
14.92920413567083
 30
0.0
 10
3158.413671306871
 20
45.0027076910772
 30
0.0
 10
3147.850926533166
 20
85.8088162454154
 30
0.0
 10
3158.282486456259
 20
126.527926142568
 30
0.0
 10
3189.065339997932
 20
156.8751497211684
 30
0.0
 10
3214.908996115367
 20
163.3679140877567
 30
0.0
 10
3229.267868425924
 20
163.7946566946478
 30
0.0
  0
SPLINE
  5
70101
330
70220
100
AcDbEntity
  8
Level 26
  6
Continuous
 62
     7
370
     0
100
AcDbSpline
210
0.0
220
0.0
230
1.0
 70
     9
 71
     3
 72
    19
 73
    15
 74
     0
 42
0.000000001
 43
0.0000000001
 40
0.0
 40
0.0
 40
0.0
 40
0.0
 40
0.0833333335273589
 40
0.1666666665890565
 40
0.2500000001164153
 40
0.3333333331781129
 40
0.4166666667054718
 40
0.4999999997671694
 40
0.5833333332945282
 40
0.6666666668218872
 40
0.7499999998835847
 40
0.8333333334109434
 40
0.9166666664726411
 40
1.0
 40
1.0
 40
1.0
 40
1.0
 10
3229.267868425924
 20
163.7946566946478
 30
0.0
 10
3243.672838090525
 20
163.2917122078166
 30
0.0
 10
3269.73214614436
 20
156.7633210520807
 30
0.0
 10
3300.28271842745
 20
126.4173888642087
 30
0.0
 10
3310.679065789125
 20
85.81166078412811
 30
0.0
 10
3300.153069787049
 20
45.10163963480105
 30
0.0
 10
3270.273236357074
 20
15.08082857489322
 30
0.0
 10
3229.400912372577
 20
4.323015836467369
 30
0.0
 10
3188.511777053506
 20
14.92920413567083
 30
0.0
 10
3158.413671306871
 20
45.0027076910772
 30
0.0
 10
3147.850926533166
 20
85.8088162454154
 30
0.0
 10
3158.282486456259
 20
126.527926142568
 30
0.0
 10
3189.065339997932
 20
156.8751497211684
 30
0.0
 10
3214.908996115367
 20
163.3679140877567
 30
0.0
 10
3229.267868425924
 20
163.7946566946478
 30
0.0
  0
SPLINE
  5
70102
330
70220
100
AcDbEntity
  8
Level 26
  6
Continuous
 62
     7
370
     0
100
AcDbSpline
210
0.0
220
0.0
230
1.0
 70
     9
 71
     3
 72
    19
 73
    15
 74
     0
 42
0.000000001
 43
0.0000000001
 40
0.0
 40
0.0
 40
0.0
 40
0.0
 40
0.0833333335273589
 40
0.1666666665890565
 40
0.2500000001164153
 40
0.3333333331781129
 40
0.4166666667054718
 40
0.4999999997671694
 40
0.5833333332945282
 40
0.6666666668218872
 40
0.7499999998835847
 40
0.8333333334109434
 40
0.9166666664726411
 40
1.0
 40
1.0
 40
1.0
 40
1.0
 10
3229.267868425924
 20
163.7946566946478
 30
0.0
 10
3243.672838090525
 20
163.2917122078166
 30
0.0
 10
3269.73214614436
 20
156.7633210520807
 30
0.0
 10
3300.28271842745
 20
126.4173888642087
 30
0.0
 10
3310.679065789125
 20
85.81166078412811
 30
0.0
 10
3300.153069787049
 20
45.10163963480105
 30
0.0
 10
3270.273236357074
 20
15.08082857489322
 30
0.0
 10
3229.400912372577
 20
4.323015836467369
 30
0.0
 10
3188.511777053506
 20
14.92920413567083
 30
0.0
 10
3158.413671306871
 20
45.0027076910772
 30
0.0
 10
3147.850926533166
 20
85.8088162454154
 30
0.0
 10
3158.282486456259
 20
126.527926142568
 30
0.0
 10
3189.065339997932
 20
156.8751497211684
 30
0.0
 10
3214.908996115367
 20
163.3679140877567
 30
0.0
 10
3229.267868425924
 20
163.7946566946478
 30
0.0
  0
SPLINE
  5
70103
330
70220
100
AcDbEntity
  8
Level 26
  6
Continuous
 62
     7
370
     0
100
AcDbSpline
210
0.0
220
0.0
230
1.0
 70
     9
 71
     3
 72
    19
 73
    15
 74
     0
 42
0.000000001
 43
0.0000000001
 40
0.0
 40
0.0
 40
0.0
 40
0.0
 40
0.0833333335273589
 40
0.1666666665890565
 40
0.2500000001164153
 40
0.3333333331781129
 40
0.4166666667054718
 40
0.4999999997671694
 40
0.5833333332945282
 40
0.6666666668218872
 40
0.7499999998835847
 40
0.8333333334109434
 40
0.9166666664726411
 40
1.0
 40
1.0
 40
1.0
 40
1.0
 10
3229.267868425924
 20
163.7946566946478
 30
0.0
 10
3243.672838090526
 20
163.2917122078166
 30
0.0
 10
3269.73214614436
 20
156.7633210520807
 30
0.0
 10
3300.28271842745
 20
126.4173888642087
 30
0.0
 10
3310.679065789125
 20
85.81166078412811
 30
0.0
 10
3300.153069787049
 20
45.10163963480105
 30
0.0
 10
3270.273236357075
 20
15.08082857489323
 30
0.0
 10
3229.400912372577
 20
4.323015836467369
 30
0.0
 10
3188.511777053507
 20
14.92920413567083
 30
0.0
 10
3158.413671306871
 20
45.00270769107721
 30
0.0
 10
3147.850926533166
 20
85.8088162454154
 30
0.0
 10
3158.282486456259
 20
126.527926142568
 30
0.0
 10
3189.065339997933
 20
156.8751497211684
 30
0.0
 10
3214.908996115367
 20
163.3679140877567
 30
0.0
 10
3229.267868425924
 20
163.7946566946478
 30
0.0
  0
SPLINE
  5
70104
330
70220
100
AcDbEntity
  8
Level 26
  6
Continuous
 62
     7
370
     0
100
AcDbSpline
210
0.0
220
0.0
230
1.0
 70
     9
 71
     3
 72
    19
 73
    15
 74
     0
 42
0.000000001
 43
0.0000000001
 40
0.0
 40
0.0
 40
0.0
 40
0.0
 40
0.0833333335273589
 40
0.1666666665890565
 40
0.2500000001164153
 40
0.3333333331781129
 40
0.4166666667054718
 40
0.4999999997671694
 40
0.5833333332945282
 40
0.6666666668218872
 40
0.7499999998835847
 40
0.8333333334109434
 40
0.9166666664726411
 40
1.0
 40
1.0
 40
1.0
 40
1.0
 10
3229.267868425924
 20
163.7946566946478
 30
0.0
 10
3243.672838090525
 20
163.2917122078166
 30
0.0
 10
3269.73214614436
 20
156.7633210520807
 30
0.0
 10
3300.28271842745
 20
126.4173888642087
 30
0.0
 10
3310.679065789125
 20
85.81166078412811
 30
0.0
 10
3300.153069787049
 20
45.10163963480105
 30
0.0
 10
3270.273236357074
 20
15.08082857489322
 30
0.0
 10
3229.400912372577
 20
4.323015836467369
 30
0.0
 10
3188.511777053506
 20
14.92920413567083
 30
0.0
 10
3158.413671306871
 20
45.0027076910772
 30
0.0
 10
3147.850926533166
 20
85.8088162454154
 30
0.0
 10
3158.282486456259
 20
126.527926142568
 30
0.0
 10
3189.065339997932
 20
156.8751497211684
 30
0.0
 10
3214.908996115367
 20
163.3679140877567
 30
0.0
 10
3229.267868425924
 20
163.7946566946478
 30
0.0
  0
SPLINE
  5
70105
330
70220
100
AcDbEntity
  8
Level 26
  6
Continuous
 62
     7
370
     0
100
AcDbSpline
210
0.0
220
0.0
230
1.0
 70
     9
 71
     3
 72
    19
 73
    15
 74
     0
 42
0.000000001
 43
0.0000000001
 40
0.0
 40
0.0
 40
0.0
 40
0.0
 40
0.0833333335273589
 40
0.1666666665890565
 40
0.2500000001164153
 40
0.3333333331781129
 40
0.4166666667054718
 40
0.4999999997671694
 40
0.5833333332945282
 40
0.6666666668218872
 40
0.7499999998835847
 40
0.8333333334109434
 40
0.9166666664726411
 40
1.0
 40
1.0
 40
1.0
 40
1.0
 10
3229.267868425924
 20
163.7946566946478
 30
0.0
 10
3243.672838090525
 20
163.2917122078166
 30
0.0
 10
3269.73214614436
 20
156.7633210520807
 30
0.0
 10
3300.28271842745
 20
126.4173888642087
 30
0.0
 10
3310.679065789125
 20
85.81166078412811
 30
0.0
 10
3300.153069787049
 20
45.10163963480105
 30
0.0
 10
3270.273236357074
 20
15.08082857489322
 30
0.0
 10
3229.400912372577
 20
4.323015836467369
 30
0.0
 10
3188.511777053506
 20
14.92920413567083
 30
0.0
 10
3158.413671306871
 20
45.0027076910772
 30
0.0
 10
3147.850926533166
 20
85.8088162454154
 30
0.0
 10
3158.282486456259
 20
126.527926142568
 30
0.0
 10
3189.065339997932
 20
156.8751497211684
 30
0.0
 10
3214.908996115367
 20
163.3679140877567
 30
0.0
 10
3229.267868425924
 20
163.7946566946478
 30
0.0
  0
SPLINE
  5
70106
330
70220
100
AcDbEntity
  8
Level 26
  6
Continuous
 62
     7
370
     0
100
AcDbSpline
210
0.0
220
0.0
230
1.0
 70
     9
 71
     3
 72
    19
 73
    15
 74
     0
 42
0.000000001
 43
0.0000000001
 40
0.0
 40
0.0
 40
0.0
 40
0.0
 40
0.0833333335273589
 40
0.1666666665890565
 40
0.2500000001164153
 40
0.3333333331781129
 40
0.4166666667054718
 40
0.4999999997671694
 40
0.5833333332945282
 40
0.6666666668218872
 40
0.7499999998835847
 40
0.8333333334109434
 40
0.9166666664726411
 40
1.0
 40
1.0
 40
1.0
 40
1.0
 10
3229.267868425924
 20
163.7946566946478
 30
0.0
 10
3243.672838090525
 20
163.2917122078166
 30
0.0
 10
3269.73214614436
 20
156.7633210520807
 30
0.0
 10
3300.28271842745
 20
126.4173888642087
 30
0.0
 10
3310.679065789125
 20
85.81166078412811
 30
0.0
 10
3300.153069787049
 20
45.10163963480105
 30
0.0
 10
3270.273236357074
 20
15.08082857489322
 30
0.0
 10
3229.400912372577
 20
4.323015836467369
 30
0.0
 10
3188.511777053506
 20
14.92920413567083
 30
0.0
 10
3158.413671306871
 20
45.0027076910772
 30
0.0
 10
3147.850926533166
 20
85.8088162454154
 30
0.0
 10
3158.282486456259
 20
126.527926142568
 30
0.0
 10
3189.065339997933
 20
156.8751497211684
 30
0.0
 10
3214.908996115367
 20
163.3679140877567
 30
0.0
 10
3229.267868425924
 20
163.7946566946478
 30
0.0
  0
SPLINE
  5
70107
330
70220
100
AcDbEntity
  8
Level 26
  6
Continuous
 62
     7
370
     0
100
AcDbSpline
210
0.0
220
0.0
230
1.0
 70
     9
 71
     3
 72
    19
 73
    15
 74
     0
 42
0.000000001
 43
0.0000000001
 40
0.0
 40
0.0
 40
0.0
 40
0.0
 40
0.0833333335273589
 40
0.1666666665890565
 40
0.2500000001164153
 40
0.3333333331781129
 40
0.4166666667054718
 40
0.4999999997671694
 40
0.5833333332945282
 40
0.6666666668218872
 40
0.7499999998835847
 40
0.8333333334109434
 40
0.9166666664726411
 40
1.0
 40
1.0
 40
1.0
 40
1.0
 10
3229.267868425924
 20
163.7946566946478
 30
0.0
 10
3243.672838090525
 20
163.2917122078166
 30
0.0
 10
3269.73214614436
 20
156.7633210520807
 30
0.0
 10
3300.28271842745
 20
126.4173888642087
 30
0.0
 10
3310.679065789125
 20
85.81166078412811
 30
0.0
 10
3300.153069787049
 20
45.10163963480105
 30
0.0
 10
3270.273236357074
 20
15.08082857489322
 30
0.0
 10
3229.400912372577
 20
4.323015836467369
 30
0.0
 10
3188.511777053506
 20
14.92920413567083
 30
0.0
 10
3158.413671306871
 20
45.00270769107719
 30
0.0
 10
3147.850926533166
 20
85.8088162454154
 30
0.0
 10
3158.282486456259
 20
126.527926142568
 30
0.0
 10
3189.065339997933
 20
156.8751497211684
 30
0.0
 10
3214.908996115367
 20
163.3679140877567
 30
0.0
 10
3229.267868425924
 20
163.7946566946478
 30
0.0
  0
SPLINE
  5
70108
330
70220
100
AcDbEntity
  8
Level 26
  6
Continuous
 62
     7
370
     0
100
AcDbSpline
210
0.0
220
0.0
230
1.0
 70
     9
 71
     3
 72
    19
 73
    15
 74
     0
 42
0.000000001
 43
0.0000000001
 40
0.0
 40
0.0
 40
0.0
 40
0.0
 40
0.0833333335273589
 40
0.1666666665890565
 40
0.2500000001164153
 40
0.3333333331781129
 40
0.4166666667054718
 40
0.4999999997671694
 40
0.5833333332945282
 40
0.6666666668218872
 40
0.7499999998835847
 40
0.8333333334109434
 40
0.9166666664726411
 40
1.0
 40
1.0
 40
1.0
 40
1.0
 10
3229.267868425924
 20
163.7946566946478
 30
0.0
 10
3243.672838090525
 20
163.2917122078166
 30
0.0
 10
3269.73214614436
 20
156.7633210520807
 30
0.0
 10
3300.28271842745
 20
126.4173888642087
 30
0.0
 10
3310.679065789125
 20
85.81166078412811
 30
0.0
 10
3300.153069787049
 20
45.10163963480105
 30
0.0
 10
3270.273236357074
 20
15.08082857489322
 30
0.0
 10
3229.400912372577
 20
4.323015836467369
 30
0.0
 10
3188.511777053506
 20
14.92920413567083
 30
0.0
 10
3158.413671306871
 20
45.0027076910772
 30
0.0
 10
3147.850926533166
 20
85.8088162454154
 30
0.0
 10
3158.282486456259
 20
126.527926142568
 30
0.0
 10
3189.065339997933
 20
156.8751497211684
 30
0.0
 10
3214.908996115367
 20
163.3679140877567
 30
0.0
 10
3229.267868425924
 20
163.7946566946478
 30
0.0
  0
SPLINE
  5
70109
330
70220
100
AcDbEntity
  8
Level 26
  6
Continuous
 62
     7
370
     0
100
AcDbSpline
210
0.0
220
0.0
230
1.0
 70
     9
 71
     3
 72
    19
 73
    15
 74
     0
 42
0.000000001
 43
0.0000000001
 40
0.0
 40
0.0
 40
0.0
 40
0.0
 40
0.0833333335273589
 40
0.1666666665890565
 40
0.2500000001164153
 40
0.3333333331781129
 40
0.4166666667054718
 40
0.4999999997671694
 40
0.5833333332945282
 40
0.6666666668218872
 40
0.7499999998835847
 40
0.8333333334109434
 40
0.9166666664726411
 40
1.0
 40
1.0
 40
1.0
 40
1.0
 10
3229.267868425924
 20
163.7946566946478
 30
0.0
 10
3243.672838090525
 20
163.2917122078166
 30
0.0
 10
3269.73214614436
 20
156.7633210520807
 30
0.0
 10
3300.28271842745
 20
126.4173888642087
 30
0.0
 10
3310.679065789125
 20
85.81166078412811
 30
0.0
 10
3300.153069787049
 20
45.10163963480105
 30
0.0
 10
3270.273236357074
 20
15.08082857489322
 30
0.0
 10
3229.400912372577
 20
4.323015836467369
 30
0.0
 10
3188.511777053506
 20
14.92920413567083
 30
0.0
 10
3158.413671306871
 20
45.0027076910772
 30
0.0
 10
3147.850926533166
 20
85.8088162454154
 30
0.0
 10
3158.282486456259
 20
126.527926142568
 30
0.0
 10
3189.065339997932
 20
156.8751497211684
 30
0.0
 10
3214.908996115367
 20
163.3679140877567
 30
0.0
 10
3229.267868425924
 20
163.7946566946478
 30
0.0
  0
ENDBLK
  5
70222
330
70220
100
AcDbEntity
  8
0
 62
    98
370
     0
100
AcDbBlockEnd
  0
BLOCK
  5
70224
330
70223
100
AcDbEntity
  8
0
 62
    98
370
     0
100
AcDbBlockBegin
  2
From Bspline Surface_6
 70
     0
 10
0.0
 20
0.0
 30
0.0
  3
From Bspline Surface_6
  1

  0
SPLINE
  5
6FECD
330
70223
100
AcDbEntity
  8
Level 26
  6
Continuous
 62
     7
370
     0
100
AcDbSpline
210
0.0
220
0.0
230
1.0
 70
     9
 71
     3
 72
    19
 73
    15
 74
     0
 42
0.000000001
 43
0.0000000001
 40
0.0
 40
0.0
 40
0.0
 40
0.0
 40
0.0833333335273589
 40
0.1666666665890565
 40
0.2500000001164153
 40
0.3333333331781129
 40
0.4166666667054718
 40
0.4999999997671694
 40
0.5833333332945282
 40
0.6666666668218872
 40
0.7499999998835847
 40
0.8333333334109434
 40
0.9166666664726411
 40
1.0
 40
1.0
 40
1.0
 40
1.0
 10
3229.267868425924
 20
163.7946566946478
 30
0.0
 10
3243.672838090525
 20
163.2917122078166
 30
0.0
 10
3269.73214614436
 20
156.7633210520807
 30
0.0
 10
3300.28271842745
 20
126.4173888642087
 30
0.0
 10
3310.679065789125
 20
85.81166078412811
 30
0.0
 10
3300.153069787049
 20
45.10163963480105
 30
0.0
 10
3270.273236357074
 20
15.08082857489322
 30
0.0
 10
3229.400912372577
 20
4.323015836467369
 30
0.0
 10
3188.511777053506
 20
14.92920413567083
 30
0.0
 10
3158.413671306871
 20
45.0027076910772
 30
0.0
 10
3147.850926533166
 20
85.8088162454154
 30
0.0
 10
3158.282486456259
 20
126.527926142568
 30
0.0
 10
3189.065339997932
 20
156.8751497211684
 30
0.0
 10
3214.908996115367
 20
163.3679140877567
 30
0.0
 10
3229.267868425924
 20
163.7946566946478
 30
0.0
  0
SPLINE
  5
70114
330
70223
100
AcDbEntity
  8
Level 26
  6
Continuous
 62
     7
370
     0
100
AcDbSpline
210
0.0
220
0.0
230
1.0
 70
     9
 71
     3
 72
    19
 73
    15
 74
     0
 42
0.000000001
 43
0.0000000001
 40
0.0
 40
0.0
 40
0.0
 40
0.0
 40
0.0833333335273589
 40
0.1666666665890565
 40
0.2500000001164153
 40
0.3333333331781129
 40
0.4166666667054718
 40
0.4999999997671694
 40
0.5833333332945282
 40
0.6666666668218872
 40
0.7499999998835847
 40
0.8333333334109434
 40
0.9166666664726411
 40
1.0
 40
1.0
 40
1.0
 40
1.0
 10
3229.267868425924
 20
163.7946566946478
 30
0.0
 10
3243.672838090525
 20
163.2917122078166
 30
0.0
 10
3269.73214614436
 20
156.7633210520807
 30
0.0
 10
3300.28271842745
 20
126.4173888642087
 30
0.0
 10
3310.679065789125
 20
85.81166078412811
 30
0.0
 10
3300.153069787049
 20
45.10163963480105
 30
0.0
 10
3270.273236357074
 20
15.08082857489322
 30
0.0
 10
3229.400912372577
 20
4.323015836467369
 30
0.0
 10
3188.511777053506
 20
14.92920413567083
 30
0.0
 10
3158.413671306871
 20
45.0027076910772
 30
0.0
 10
3147.850926533166
 20
85.8088162454154
 30
0.0
 10
3158.282486456259
 20
126.527926142568
 30
0.0
 10
3189.065339997932
 20
156.8751497211684
 30
0.0
 10
3214.908996115367
 20
163.3679140877567
 30
0.0
 10
3229.267868425924
 20
163.7946566946478
 30
0.0
  0
SPLINE
  5
70115
330
70223
100
AcDbEntity
  8
Level 26
  6
Continuous
 62
     7
370
     0
100
AcDbSpline
210
0.0
220
0.0
230
1.0
 70
     9
 71
     3
 72
    19
 73
    15
 74
     0
 42
0.000000001
 43
0.0000000001
 40
0.0
 40
0.0
 40
0.0
 40
0.0
 40
0.0833333335273589
 40
0.1666666665890565
 40
0.2500000001164153
 40
0.3333333331781129
 40
0.4166666667054718
 40
0.4999999997671694
 40
0.5833333332945282
 40
0.6666666668218872
 40
0.7499999998835847
 40
0.8333333334109434
 40
0.9166666664726411
 40
1.0
 40
1.0
 40
1.0
 40
1.0
 10
3229.267868425924
 20
163.7946566946478
 30
0.0
 10
3243.672838090525
 20
163.2917122078166
 30
0.0
 10
3269.73214614436
 20
156.7633210520807
 30
0.0
 10
3300.28271842745
 20
126.4173888642087
 30
0.0
 10
3310.679065789125
 20
85.81166078412811
 30
0.0
 10
3300.153069787049
 20
45.10163963480105
 30
0.0
 10
3270.273236357074
 20
15.08082857489322
 30
0.0
 10
3229.400912372577
 20
4.323015836467369
 30
0.0
 10
3188.511777053506
 20
14.92920413567083
 30
0.0
 10
3158.413671306871
 20
45.0027076910772
 30
0.0
 10
3147.850926533166
 20
85.8088162454154
 30
0.0
 10
3158.282486456259
 20
126.527926142568
 30
0.0
 10
3189.065339997932
 20
156.8751497211684
 30
0.0
 10
3214.908996115367
 20
163.3679140877567
 30
0.0
 10
3229.267868425924
 20
163.7946566946478
 30
0.0
  0
SPLINE
  5
70116
330
70223
100
AcDbEntity
  8
Level 26
  6
Continuous
 62
     7
370
     0
100
AcDbSpline
210
0.0
220
0.0
230
1.0
 70
     9
 71
     3
 72
    19
 73
    15
 74
     0
 42
0.000000001
 43
0.0000000001
 40
0.0
 40
0.0
 40
0.0
 40
0.0
 40
0.0833333335273589
 40
0.1666666665890565
 40
0.2500000001164153
 40
0.3333333331781129
 40
0.4166666667054718
 40
0.4999999997671694
 40
0.5833333332945282
 40
0.6666666668218872
 40
0.7499999998835847
 40
0.8333333334109434
 40
0.9166666664726411
 40
1.0
 40
1.0
 40
1.0
 40
1.0
 10
3229.267868425924
 20
163.7946566946478
 30
0.0
 10
3243.672838090526
 20
163.2917122078166
 30
0.0
 10
3269.73214614436
 20
156.7633210520807
 30
0.0
 10
3300.28271842745
 20
126.4173888642087
 30
0.0
 10
3310.679065789125
 20
85.81166078412811
 30
0.0
 10
3300.153069787049
 20
45.10163963480105
 30
0.0
 10
3270.273236357075
 20
15.08082857489323
 30
0.0
 10
3229.400912372577
 20
4.323015836467369
 30
0.0
 10
3188.511777053507
 20
14.92920413567083
 30
0.0
 10
3158.413671306871
 20
45.00270769107721
 30
0.0
 10
3147.850926533166
 20
85.8088162454154
 30
0.0
 10
3158.282486456259
 20
126.527926142568
 30
0.0
 10
3189.065339997933
 20
156.8751497211684
 30
0.0
 10
3214.908996115367
 20
163.3679140877567
 30
0.0
 10
3229.267868425924
 20
163.7946566946478
 30
0.0
  0
SPLINE
  5
70117
330
70223
100
AcDbEntity
  8
Level 26
  6
Continuous
 62
     7
370
     0
100
AcDbSpline
210
0.0
220
0.0
230
1.0
 70
     9
 71
     3
 72
    19
 73
    15
 74
     0
 42
0.000000001
 43
0.0000000001
 40
0.0
 40
0.0
 40
0.0
 40
0.0
 40
0.0833333335273589
 40
0.1666666665890565
 40
0.2500000001164153
 40
0.3333333331781129
 40
0.4166666667054718
 40
0.4999999997671694
 40
0.5833333332945282
 40
0.6666666668218872
 40
0.7499999998835847
 40
0.8333333334109434
 40
0.9166666664726411
 40
1.0
 40
1.0
 40
1.0
 40
1.0
 10
3229.267868425924
 20
163.7946566946478
 30
0.0
 10
3243.672838090525
 20
163.2917122078166
 30
0.0
 10
3269.73214614436
 20
156.7633210520807
 30
0.0
 10
3300.28271842745
 20
126.4173888642087
 30
0.0
 10
3310.679065789125
 20
85.81166078412811
 30
0.0
 10
3300.153069787049
 20
45.10163963480105
 30
0.0
 10
3270.273236357074
 20
15.08082857489322
 30
0.0
 10
3229.400912372577
 20
4.323015836467369
 30
0.0
 10
3188.511777053506
 20
14.92920413567083
 30
0.0
 10
3158.413671306871
 20
45.0027076910772
 30
0.0
 10
3147.850926533166
 20
85.8088162454154
 30
0.0
 10
3158.282486456259
 20
126.527926142568
 30
0.0
 10
3189.065339997932
 20
156.8751497211684
 30
0.0
 10
3214.908996115367
 20
163.3679140877567
 30
0.0
 10
3229.267868425924
 20
163.7946566946478
 30
0.0
  0
SPLINE
  5
70118
330
70223
100
AcDbEntity
  8
Level 26
  6
Continuous
 62
     7
370
     0
100
AcDbSpline
210
0.0
220
0.0
230
1.0
 70
     9
 71
     3
 72
    19
 73
    15
 74
     0
 42
0.000000001
 43
0.0000000001
 40
0.0
 40
0.0
 40
0.0
 40
0.0
 40
0.0833333335273589
 40
0.1666666665890565
 40
0.2500000001164153
 40
0.3333333331781129
 40
0.4166666667054718
 40
0.4999999997671694
 40
0.5833333332945282
 40
0.6666666668218872
 40
0.7499999998835847
 40
0.8333333334109434
 40
0.9166666664726411
 40
1.0
 40
1.0
 40
1.0
 40
1.0
 10
3229.267868425924
 20
163.7946566946478
 30
0.0
 10
3243.672838090525
 20
163.2917122078166
 30
0.0
 10
3269.73214614436
 20
156.7633210520807
 30
0.0
 10
3300.28271842745
 20
126.4173888642087
 30
0.0
 10
3310.679065789125
 20
85.81166078412811
 30
0.0
 10
3300.153069787049
 20
45.10163963480105
 30
0.0
 10
3270.273236357074
 20
15.08082857489322
 30
0.0
 10
3229.400912372577
 20
4.323015836467369
 30
0.0
 10
3188.511777053506
 20
14.92920413567083
 30
0.0
 10
3158.413671306871
 20
45.0027076910772
 30
0.0
 10
3147.850926533166
 20
85.8088162454154
 30
0.0
 10
3158.282486456259
 20
126.527926142568
 30
0.0
 10
3189.065339997932
 20
156.8751497211684
 30
0.0
 10
3214.908996115367
 20
163.3679140877567
 30
0.0
 10
3229.267868425924
 20
163.7946566946478
 30
0.0
  0
SPLINE
  5
70119
330
70223
100
AcDbEntity
  8
Level 26
  6
Continuous
 62
     7
370
     0
100
AcDbSpline
210
0.0
220
0.0
230
1.0
 70
     9
 71
     3
 72
    19
 73
    15
 74
     0
 42
0.000000001
 43
0.0000000001
 40
0.0
 40
0.0
 40
0.0
 40
0.0
 40
0.0833333335273589
 40
0.1666666665890565
 40
0.2500000001164153
 40
0.3333333331781129
 40
0.4166666667054718
 40
0.4999999997671694
 40
0.5833333332945282
 40
0.6666666668218872
 40
0.7499999998835847
 40
0.8333333334109434
 40
0.9166666664726411
 40
1.0
 40
1.0
 40
1.0
 40
1.0
 10
3229.267868425924
 20
163.7946566946478
 30
0.0
 10
3243.672838090525
 20
163.2917122078166
 30
0.0
 10
3269.73214614436
 20
156.7633210520807
 30
0.0
 10
3300.28271842745
 20
126.4173888642087
 30
0.0
 10
3310.679065789125
 20
85.81166078412811
 30
0.0
 10
3300.153069787049
 20
45.10163963480105
 30
0.0
 10
3270.273236357074
 20
15.08082857489322
 30
0.0
 10
3229.400912372577
 20
4.323015836467369
 30
0.0
 10
3188.511777053506
 20
14.92920413567083
 30
0.0
 10
3158.413671306871
 20
45.0027076910772
 30
0.0
 10
3147.850926533166
 20
85.8088162454154
 30
0.0
 10
3158.282486456259
 20
126.527926142568
 30
0.0
 10
3189.065339997933
 20
156.8751497211684
 30
0.0
 10
3214.908996115367
 20
163.3679140877567
 30
0.0
 10
3229.267868425924
 20
163.7946566946478
 30
0.0
  0
SPLINE
  5
7011A
330
70223
100
AcDbEntity
  8
Level 26
  6
Continuous
 62
     7
370
     0
100
AcDbSpline
210
0.0
220
0.0
230
1.0
 70
     9
 71
     3
 72
    19
 73
    15
 74
     0
 42
0.000000001
 43
0.0000000001
 40
0.0
 40
0.0
 40
0.0
 40
0.0
 40
0.0833333335273589
 40
0.1666666665890565
 40
0.2500000001164153
 40
0.3333333331781129
 40
0.4166666667054718
 40
0.4999999997671694
 40
0.5833333332945282
 40
0.6666666668218872
 40
0.7499999998835847
 40
0.8333333334109434
 40
0.9166666664726411
 40
1.0
 40
1.0
 40
1.0
 40
1.0
 10
3229.267868425924
 20
163.7946566946478
 30
0.0
 10
3243.672838090525
 20
163.2917122078166
 30
0.0
 10
3269.73214614436
 20
156.7633210520807
 30
0.0
 10
3300.28271842745
 20
126.4173888642087
 30
0.0
 10
3310.679065789125
 20
85.81166078412811
 30
0.0
 10
3300.153069787049
 20
45.10163963480105
 30
0.0
 10
3270.273236357074
 20
15.08082857489322
 30
0.0
 10
3229.400912372577
 20
4.323015836467369
 30
0.0
 10
3188.511777053506
 20
14.92920413567083
 30
0.0
 10
3158.413671306871
 20
45.00270769107719
 30
0.0
 10
3147.850926533166
 20
85.8088162454154
 30
0.0
 10
3158.282486456259
 20
126.527926142568
 30
0.0
 10
3189.065339997933
 20
156.8751497211684
 30
0.0
 10
3214.908996115367
 20
163.3679140877567
 30
0.0
 10
3229.267868425924
 20
163.7946566946478
 30
0.0
  0
SPLINE
  5
7011B
330
70223
100
AcDbEntity
  8
Level 26
  6
Continuous
 62
     7
370
     0
100
AcDbSpline
210
0.0
220
0.0
230
1.0
 70
     9
 71
     3
 72
    19
 73
    15
 74
     0
 42
0.000000001
 43
0.0000000001
 40
0.0
 40
0.0
 40
0.0
 40
0.0
 40
0.0833333335273589
 40
0.1666666665890565
 40
0.2500000001164153
 40
0.3333333331781129
 40
0.4166666667054718
 40
0.4999999997671694
 40
0.5833333332945282
 40
0.6666666668218872
 40
0.7499999998835847
 40
0.8333333334109434
 40
0.9166666664726411
 40
1.0
 40
1.0
 40
1.0
 40
1.0
 10
3229.267868425924
 20
163.7946566946478
 30
0.0
 10
3243.672838090525
 20
163.2917122078166
 30
0.0
 10
3269.73214614436
 20
156.7633210520807
 30
0.0
 10
3300.28271842745
 20
126.4173888642087
 30
0.0
 10
3310.679065789125
 20
85.81166078412811
 30
0.0
 10
3300.153069787049
 20
45.10163963480105
 30
0.0
 10
3270.273236357074
 20
15.08082857489322
 30
0.0
 10
3229.400912372577
 20
4.323015836467369
 30
0.0
 10
3188.511777053506
 20
14.92920413567083
 30
0.0
 10
3158.413671306871
 20
45.0027076910772
 30
0.0
 10
3147.850926533166
 20
85.8088162454154
 30
0.0
 10
3158.282486456259
 20
126.527926142568
 30
0.0
 10
3189.065339997933
 20
156.8751497211684
 30
0.0
 10
3214.908996115367
 20
163.3679140877567
 30
0.0
 10
3229.267868425924
 20
163.7946566946478
 30
0.0
  0
SPLINE
  5
7011C
330
70223
100
AcDbEntity
  8
Level 26
  6
Continuous
 62
     7
370
     0
100
AcDbSpline
210
0.0
220
0.0
230
1.0
 70
     9
 71
     3
 72
    19
 73
    15
 74
     0
 42
0.000000001
 43
0.0000000001
 40
0.0
 40
0.0
 40
0.0
 40
0.0
 40
0.0833333335273589
 40
0.1666666665890565
 40
0.2500000001164153
 40
0.3333333331781129
 40
0.4166666667054718
 40
0.4999999997671694
 40
0.5833333332945282
 40
0.6666666668218872
 40
0.7499999998835847
 40
0.8333333334109434
 40
0.9166666664726411
 40
1.0
 40
1.0
 40
1.0
 40
1.0
 10
3229.267868425924
 20
163.7946566946478
 30
0.0
 10
3243.672838090525
 20
163.2917122078166
 30
0.0
 10
3269.73214614436
 20
156.7633210520807
 30
0.0
 10
3300.28271842745
 20
126.4173888642087
 30
0.0
 10
3310.679065789125
 20
85.81166078412811
 30
0.0
 10
3300.153069787049
 20
45.10163963480105
 30
0.0
 10
3270.273236357074
 20
15.08082857489322
 30
0.0
 10
3229.400912372577
 20
4.323015836467369
 30
0.0
 10
3188.511777053506
 20
14.92920413567083
 30
0.0
 10
3158.413671306871
 20
45.0027076910772
 30
0.0
 10
3147.850926533166
 20
85.8088162454154
 30
0.0
 10
3158.282486456259
 20
126.527926142568
 30
0.0
 10
3189.065339997932
 20
156.8751497211684
 30
0.0
 10
3214.908996115367
 20
163.3679140877567
 30
0.0
 10
3229.267868425924
 20
163.7946566946478
 30
0.0
  0
ENDBLK
  5
70225
330
70223
100
AcDbEntity
  8
0
 62
    98
370
     0
100
AcDbBlockEnd
  0
BLOCK
  5
70227
330
70226
100
AcDbEntity
  8
0
 62
    98
370
     0
100
AcDbBlockBegin
  2
From Bspline Surface_7
 70
     0
 10
0.0
 20
0.0
 30
0.0
  3
From Bspline Surface_7
  1

  0
SPLINE
  5
6FEDE
330
70226
100
AcDbEntity
  8
Level 26
  6
Continuous
 62
     7
370
     0
100
AcDbSpline
210
0.0
220
0.0
230
1.0
 70
     9
 71
     3
 72
    19
 73
    15
 74
     0
 42
0.000000001
 43
0.0000000001
 40
0.0
 40
0.0
 40
0.0
 40
0.0
 40
0.0833333335273589
 40
0.1666666665890565
 40
0.2500000001164153
 40
0.3333333331781129
 40
0.4166666667054718
 40
0.4999999997671694
 40
0.5833333332945282
 40
0.6666666668218872
 40
0.7499999998835847
 40
0.8333333334109434
 40
0.9166666664726411
 40
1.0
 40
1.0
 40
1.0
 40
1.0
 10
3229.267868425924
 20
163.7946566946478
 30
0.0
 10
3243.672838090525
 20
163.2917122078166
 30
0.0
 10
3269.73214614436
 20
156.7633210520807
 30
0.0
 10
3300.28271842745
 20
126.4173888642087
 30
0.0
 10
3310.679065789125
 20
85.81166078412811
 30
0.0
 10
3300.153069787049
 20
45.10163963480105
 30
0.0
 10
3270.273236357074
 20
15.08082857489322
 30
0.0
 10
3229.400912372577
 20
4.323015836467369
 30
0.0
 10
3188.511777053506
 20
14.92920413567083
 30
0.0
 10
3158.413671306871
 20
45.0027076910772
 30
0.0
 10
3147.850926533166
 20
85.8088162454154
 30
0.0
 10
3158.282486456259
 20
126.527926142568
 30
0.0
 10
3189.065339997932
 20
156.8751497211684
 30
0.0
 10
3214.908996115367
 20
163.3679140877567
 30
0.0
 10
3229.267868425924
 20
163.7946566946478
 30
0.0
  0
SPLINE
  5
70127
330
70226
100
AcDbEntity
  8
Level 26
  6
Continuous
 62
     7
370
     0
100
AcDbSpline
210
0.0
220
0.0
230
1.0
 70
     9
 71
     3
 72
    19
 73
    15
 74
     0
 42
0.000000001
 43
0.0000000001
 40
0.0
 40
0.0
 40
0.0
 40
0.0
 40
0.0833333335273589
 40
0.1666666665890565
 40
0.2500000001164153
 40
0.3333333331781129
 40
0.4166666667054718
 40
0.4999999997671694
 40
0.5833333332945282
 40
0.6666666668218872
 40
0.7499999998835847
 40
0.8333333334109434
 40
0.9166666664726411
 40
1.0
 40
1.0
 40
1.0
 40
1.0
 10
3229.267868425924
 20
163.7946566946478
 30
0.0
 10
3243.672838090525
 20
163.2917122078166
 30
0.0
 10
3269.73214614436
 20
156.7633210520807
 30
0.0
 10
3300.28271842745
 20
126.4173888642087
 30
0.0
 10
3310.679065789125
 20
85.81166078412811
 30
0.0
 10
3300.153069787049
 20
45.10163963480105
 30
0.0
 10
3270.273236357074
 20
15.08082857489322
 30
0.0
 10
3229.400912372577
 20
4.323015836467369
 30
0.0
 10
3188.511777053506
 20
14.92920413567083
 30
0.0
 10
3158.413671306871
 20
45.0027076910772
 30
0.0
 10
3147.850926533166
 20
85.8088162454154
 30
0.0
 10
3158.282486456259
 20
126.527926142568
 30
0.0
 10
3189.065339997932
 20
156.8751497211684
 30
0.0
 10
3214.908996115367
 20
163.3679140877567
 30
0.0
 10
3229.267868425924
 20
163.7946566946478
 30
0.0
  0
SPLINE
  5
70128
330
70226
100
AcDbEntity
  8
Level 26
  6
Continuous
 62
     7
370
     0
100
AcDbSpline
210
0.0
220
0.0
230
1.0
 70
     9
 71
     3
 72
    19
 73
    15
 74
     0
 42
0.000000001
 43
0.0000000001
 40
0.0
 40
0.0
 40
0.0
 40
0.0
 40
0.0833333335273589
 40
0.1666666665890565
 40
0.2500000001164153
 40
0.3333333331781129
 40
0.4166666667054718
 40
0.4999999997671694
 40
0.5833333332945282
 40
0.6666666668218872
 40
0.7499999998835847
 40
0.8333333334109434
 40
0.9166666664726411
 40
1.0
 40
1.0
 40
1.0
 40
1.0
 10
3229.267868425924
 20
163.7946566946478
 30
0.0
 10
3243.672838090525
 20
163.2917122078166
 30
0.0
 10
3269.73214614436
 20
156.7633210520807
 30
0.0
 10
3300.28271842745
 20
126.4173888642087
 30
0.0
 10
3310.679065789125
 20
85.81166078412811
 30
0.0
 10
3300.153069787049
 20
45.10163963480105
 30
0.0
 10
3270.273236357074
 20
15.08082857489322
 30
0.0
 10
3229.400912372577
 20
4.323015836467369
 30
0.0
 10
3188.511777053506
 20
14.92920413567083
 30
0.0
 10
3158.413671306871
 20
45.0027076910772
 30
0.0
 10
3147.850926533166
 20
85.8088162454154
 30
0.0
 10
3158.282486456259
 20
126.527926142568
 30
0.0
 10
3189.065339997932
 20
156.8751497211684
 30
0.0
 10
3214.908996115367
 20
163.3679140877567
 30
0.0
 10
3229.267868425924
 20
163.7946566946478
 30
0.0
  0
SPLINE
  5
70129
330
70226
100
AcDbEntity
  8
Level 26
  6
Continuous
 62
     7
370
     0
100
AcDbSpline
210
0.0
220
0.0
230
1.0
 70
     9
 71
     3
 72
    19
 73
    15
 74
     0
 42
0.000000001
 43
0.0000000001
 40
0.0
 40
0.0
 40
0.0
 40
0.0
 40
0.0833333335273589
 40
0.1666666665890565
 40
0.2500000001164153
 40
0.3333333331781129
 40
0.4166666667054718
 40
0.4999999997671694
 40
0.5833333332945282
 40
0.6666666668218872
 40
0.7499999998835847
 40
0.8333333334109434
 40
0.9166666664726411
 40
1.0
 40
1.0
 40
1.0
 40
1.0
 10
3229.267868425924
 20
163.7946566946478
 30
0.0
 10
3243.672838090526
 20
163.2917122078166
 30
0.0
 10
3269.73214614436
 20
156.7633210520807
 30
0.0
 10
3300.28271842745
 20
126.4173888642087
 30
0.0
 10
3310.679065789125
 20
85.81166078412811
 30
0.0
 10
3300.153069787049
 20
45.10163963480105
 30
0.0
 10
3270.273236357075
 20
15.08082857489323
 30
0.0
 10
3229.400912372577
 20
4.323015836467369
 30
0.0
 10
3188.511777053507
 20
14.92920413567083
 30
0.0
 10
3158.413671306871
 20
45.00270769107721
 30
0.0
 10
3147.850926533166
 20
85.8088162454154
 30
0.0
 10
3158.282486456259
 20
126.527926142568
 30
0.0
 10
3189.065339997933
 20
156.8751497211684
 30
0.0
 10
3214.908996115367
 20
163.3679140877567
 30
0.0
 10
3229.267868425924
 20
163.7946566946478
 30
0.0
  0
SPLINE
  5
7012A
330
70226
100
AcDbEntity
  8
Level 26
  6
Continuous
 62
     7
370
     0
100
AcDbSpline
210
0.0
220
0.0
230
1.0
 70
     9
 71
     3
 72
    19
 73
    15
 74
     0
 42
0.000000001
 43
0.0000000001
 40
0.0
 40
0.0
 40
0.0
 40
0.0
 40
0.0833333335273589
 40
0.1666666665890565
 40
0.2500000001164153
 40
0.3333333331781129
 40
0.4166666667054718
 40
0.4999999997671694
 40
0.5833333332945282
 40
0.6666666668218872
 40
0.7499999998835847
 40
0.8333333334109434
 40
0.9166666664726411
 40
1.0
 40
1.0
 40
1.0
 40
1.0
 10
3229.267868425924
 20
163.7946566946478
 30
0.0
 10
3243.672838090525
 20
163.2917122078166
 30
0.0
 10
3269.73214614436
 20
156.7633210520807
 30
0.0
 10
3300.28271842745
 20
126.4173888642087
 30
0.0
 10
3310.679065789125
 20
85.81166078412811
 30
0.0
 10
3300.153069787049
 20
45.10163963480105
 30
0.0
 10
3270.273236357074
 20
15.08082857489322
 30
0.0
 10
3229.400912372577
 20
4.323015836467369
 30
0.0
 10
3188.511777053506
 20
14.92920413567083
 30
0.0
 10
3158.413671306871
 20
45.0027076910772
 30
0.0
 10
3147.850926533166
 20
85.8088162454154
 30
0.0
 10
3158.282486456259
 20
126.527926142568
 30
0.0
 10
3189.065339997932
 20
156.8751497211684
 30
0.0
 10
3214.908996115367
 20
163.3679140877567
 30
0.0
 10
3229.267868425924
 20
163.7946566946478
 30
0.0
  0
SPLINE
  5
7012B
330
70226
100
AcDbEntity
  8
Level 26
  6
Continuous
 62
     7
370
     0
100
AcDbSpline
210
0.0
220
0.0
230
1.0
 70
     9
 71
     3
 72
    19
 73
    15
 74
     0
 42
0.000000001
 43
0.0000000001
 40
0.0
 40
0.0
 40
0.0
 40
0.0
 40
0.0833333335273589
 40
0.1666666665890565
 40
0.2500000001164153
 40
0.3333333331781129
 40
0.4166666667054718
 40
0.4999999997671694
 40
0.5833333332945282
 40
0.6666666668218872
 40
0.7499999998835847
 40
0.8333333334109434
 40
0.9166666664726411
 40
1.0
 40
1.0
 40
1.0
 40
1.0
 10
3229.267868425924
 20
163.7946566946478
 30
0.0
 10
3243.672838090525
 20
163.2917122078166
 30
0.0
 10
3269.73214614436
 20
156.7633210520807
 30
0.0
 10
3300.28271842745
 20
126.4173888642087
 30
0.0
 10
3310.679065789125
 20
85.81166078412811
 30
0.0
 10
3300.153069787049
 20
45.10163963480105
 30
0.0
 10
3270.273236357074
 20
15.08082857489322
 30
0.0
 10
3229.400912372577
 20
4.323015836467369
 30
0.0
 10
3188.511777053506
 20
14.92920413567083
 30
0.0
 10
3158.413671306871
 20
45.0027076910772
 30
0.0
 10
3147.850926533166
 20
85.8088162454154
 30
0.0
 10
3158.282486456259
 20
126.527926142568
 30
0.0
 10
3189.065339997932
 20
156.8751497211684
 30
0.0
 10
3214.908996115367
 20
163.3679140877567
 30
0.0
 10
3229.267868425924
 20
163.7946566946478
 30
0.0
  0
SPLINE
  5
7012C
330
70226
100
AcDbEntity
  8
Level 26
  6
Continuous
 62
     7
370
     0
100
AcDbSpline
210
0.0
220
0.0
230
1.0
 70
     9
 71
     3
 72
    19
 73
    15
 74
     0
 42
0.000000001
 43
0.0000000001
 40
0.0
 40
0.0
 40
0.0
 40
0.0
 40
0.0833333335273589
 40
0.1666666665890565
 40
0.2500000001164153
 40
0.3333333331781129
 40
0.4166666667054718
 40
0.4999999997671694
 40
0.5833333332945282
 40
0.6666666668218872
 40
0.7499999998835847
 40
0.8333333334109434
 40
0.9166666664726411
 40
1.0
 40
1.0
 40
1.0
 40
1.0
 10
3229.267868425924
 20
163.7946566946478
 30
0.0
 10
3243.672838090525
 20
163.2917122078166
 30
0.0
 10
3269.73214614436
 20
156.7633210520807
 30
0.0
 10
3300.28271842745
 20
126.4173888642087
 30
0.0
 10
3310.679065789125
 20
85.81166078412811
 30
0.0
 10
3300.153069787049
 20
45.10163963480105
 30
0.0
 10
3270.273236357074
 20
15.08082857489322
 30
0.0
 10
3229.400912372577
 20
4.323015836467369
 30
0.0
 10
3188.511777053506
 20
14.92920413567083
 30
0.0
 10
3158.413671306871
 20
45.0027076910772
 30
0.0
 10
3147.850926533166
 20
85.8088162454154
 30
0.0
 10
3158.282486456259
 20
126.527926142568
 30
0.0
 10
3189.065339997933
 20
156.8751497211684
 30
0.0
 10
3214.908996115367
 20
163.3679140877567
 30
0.0
 10
3229.267868425924
 20
163.7946566946478
 30
0.0
  0
SPLINE
  5
7012D
330
70226
100
AcDbEntity
  8
Level 26
  6
Continuous
 62
     7
370
     0
100
AcDbSpline
210
0.0
220
0.0
230
1.0
 70
     9
 71
     3
 72
    19
 73
    15
 74
     0
 42
0.000000001
 43
0.0000000001
 40
0.0
 40
0.0
 40
0.0
 40
0.0
 40
0.0833333335273589
 40
0.1666666665890565
 40
0.2500000001164153
 40
0.3333333331781129
 40
0.4166666667054718
 40
0.4999999997671694
 40
0.5833333332945282
 40
0.6666666668218872
 40
0.7499999998835847
 40
0.8333333334109434
 40
0.9166666664726411
 40
1.0
 40
1.0
 40
1.0
 40
1.0
 10
3229.267868425924
 20
163.7946566946478
 30
0.0
 10
3243.672838090525
 20
163.2917122078166
 30
0.0
 10
3269.73214614436
 20
156.7633210520807
 30
0.0
 10
3300.28271842745
 20
126.4173888642087
 30
0.0
 10
3310.679065789125
 20
85.81166078412811
 30
0.0
 10
3300.153069787049
 20
45.10163963480105
 30
0.0
 10
3270.273236357074
 20
15.08082857489322
 30
0.0
 10
3229.400912372577
 20
4.323015836467369
 30
0.0
 10
3188.511777053506
 20
14.92920413567083
 30
0.0
 10
3158.413671306871
 20
45.00270769107719
 30
0.0
 10
3147.850926533166
 20
85.8088162454154
 30
0.0
 10
3158.282486456259
 20
126.527926142568
 30
0.0
 10
3189.065339997933
 20
156.8751497211684
 30
0.0
 10
3214.908996115367
 20
163.3679140877567
 30
0.0
 10
3229.267868425924
 20
163.7946566946478
 30
0.0
  0
SPLINE
  5
7012E
330
70226
100
AcDbEntity
  8
Level 26
  6
Continuous
 62
     7
370
     0
100
AcDbSpline
210
0.0
220
0.0
230
1.0
 70
     9
 71
     3
 72
    19
 73
    15
 74
     0
 42
0.000000001
 43
0.0000000001
 40
0.0
 40
0.0
 40
0.0
 40
0.0
 40
0.0833333335273589
 40
0.1666666665890565
 40
0.2500000001164153
 40
0.3333333331781129
 40
0.4166666667054718
 40
0.4999999997671694
 40
0.5833333332945282
 40
0.6666666668218872
 40
0.7499999998835847
 40
0.8333333334109434
 40
0.9166666664726411
 40
1.0
 40
1.0
 40
1.0
 40
1.0
 10
3229.267868425924
 20
163.7946566946478
 30
0.0
 10
3243.672838090525
 20
163.2917122078166
 30
0.0
 10
3269.73214614436
 20
156.7633210520807
 30
0.0
 10
3300.28271842745
 20
126.4173888642087
 30
0.0
 10
3310.679065789125
 20
85.81166078412811
 30
0.0
 10
3300.153069787049
 20
45.10163963480105
 30
0.0
 10
3270.273236357074
 20
15.08082857489322
 30
0.0
 10
3229.400912372577
 20
4.323015836467369
 30
0.0
 10
3188.511777053506
 20
14.92920413567083
 30
0.0
 10
3158.413671306871
 20
45.0027076910772
 30
0.0
 10
3147.850926533166
 20
85.8088162454154
 30
0.0
 10
3158.282486456259
 20
126.527926142568
 30
0.0
 10
3189.065339997933
 20
156.8751497211684
 30
0.0
 10
3214.908996115367
 20
163.3679140877567
 30
0.0
 10
3229.267868425924
 20
163.7946566946478
 30
0.0
  0
SPLINE
  5
7012F
330
70226
100
AcDbEntity
  8
Level 26
  6
Continuous
 62
     7
370
     0
100
AcDbSpline
210
0.0
220
0.0
230
1.0
 70
     9
 71
     3
 72
    19
 73
    15
 74
     0
 42
0.000000001
 43
0.0000000001
 40
0.0
 40
0.0
 40
0.0
 40
0.0
 40
0.0833333335273589
 40
0.1666666665890565
 40
0.2500000001164153
 40
0.3333333331781129
 40
0.4166666667054718
 40
0.4999999997671694
 40
0.5833333332945282
 40
0.6666666668218872
 40
0.7499999998835847
 40
0.8333333334109434
 40
0.9166666664726411
 40
1.0
 40
1.0
 40
1.0
 40
1.0
 10
3229.267868425924
 20
163.7946566946478
 30
0.0
 10
3243.672838090525
 20
163.2917122078166
 30
0.0
 10
3269.73214614436
 20
156.7633210520807
 30
0.0
 10
3300.28271842745
 20
126.4173888642087
 30
0.0
 10
3310.679065789125
 20
85.81166078412811
 30
0.0
 10
3300.153069787049
 20
45.10163963480105
 30
0.0
 10
3270.273236357074
 20
15.08082857489322
 30
0.0
 10
3229.400912372577
 20
4.323015836467369
 30
0.0
 10
3188.511777053506
 20
14.92920413567083
 30
0.0
 10
3158.413671306871
 20
45.0027076910772
 30
0.0
 10
3147.850926533166
 20
85.8088162454154
 30
0.0
 10
3158.282486456259
 20
126.527926142568
 30
0.0
 10
3189.065339997932
 20
156.8751497211684
 30
0.0
 10
3214.908996115367
 20
163.3679140877567
 30
0.0
 10
3229.267868425924
 20
163.7946566946478
 30
0.0
  0
ENDBLK
  5
70228
330
70226
100
AcDbEntity
  8
0
 62
    98
370
     0
100
AcDbBlockEnd
  0
BLOCK
  5
7022A
330
70229
100
AcDbEntity
  8
0
 62
    98
370
     0
100
AcDbBlockBegin
  2
From Solid_22
 70
     0
 10
0.0
 20
0.0
 30
0.0
  3
From Solid_22
  1

  0
LINE
  5
6FEF0
330
70229
100
AcDbEntity
  8
Level 26
  6
Continuous
 62
    40
370
     0
100
AcDbLine
 10
3502.717868
 20
225.795634
 30
0.0
 11
3475.817868
 21
225.795634
 31
0.0
  0
LINE
  5
6FEF1
330
70229
100
AcDbEntity
  8
Level 26
  6
Continuous
 62
    40
370
     0
100
AcDbLine
 10
3502.717868
 20
225.795634
 30
0.0
 11
3475.817868
 21
225.795634
 31
0.0
  0
LINE
  5
6FEF2
330
70229
100
AcDbEntity
  8
Level 26
  6
Continuous
 62
    40
370
     0
100
AcDbLine
 10
3502.717868
 20
225.795634
 30
0.0
 11
3502.717868
 21
294.845439
 31
0.0
  0
LINE
  5
6FEF3
330
70229
100
AcDbEntity
  8
Level 26
  6
Continuous
 62
    40
370
     0
100
AcDbLine
 10
3489.267868
 20
225.795634
 30
0.0
 11
3489.267868
 21
308.295439
 31
0.0
  0
LINE
  5
6FEF4
330
70229
100
AcDbEntity
  8
Level 26
  6
Continuous
 62
    40
370
     0
100
AcDbLine
 10
3475.817868
 20
225.795634
 30
0.0
 11
3475.817868
 21
294.845439
 31
0.0
  0
LINE
  5
6FEF5
330
70229
100
AcDbEntity
  8
Level 26
  6
Continuous
 62
    40
370
     0
100
AcDbLine
 10
3489.267868
 20
225.795634
 30
0.0
 11
3489.267868
 21
281.395439
 31
0.0
  0
ENDBLK
  5
7022B
330
70229
100
AcDbEntity
  8
0
 62
    98
370
     0
100
AcDbBlockEnd
  0
BLOCK
  5
7022D
330
7022C
100
AcDbEntity
  8
0
 62
    98
370
     0
100
AcDbBlockBegin
  2
From Solid_23
 70
     0
 10
0.0
 20
0.0
 30
0.0
  3
From Solid_23
  1

  0
LINE
  5
6FEF7
330
7022C
100
AcDbEntity
  8
Level 26
  6
Continuous
 62
    40
370
     0
100
AcDbLine
 10
3502.717868
 20
-54.20632
 30
0.0
 11
3475.817868
 21
-54.20632
 31
0.0
  0
LINE
  5
6FEF8
330
7022C
100
AcDbEntity
  8
Level 26
  6
Continuous
 62
    40
370
     0
100
AcDbLine
 10
3502.717868
 20
-54.20632
 30
0.0
 11
3475.817868
 21
-54.20632
 31
0.0
  0
LINE
  5
6FEF9
330
7022C
100
AcDbEntity
  8
Level 26
  6
Continuous
 62
    40
370
     0
100
AcDbLine
 10
3502.717868
 20
-54.20632
 30
0.0
 11
3502.717868
 21
-123.255636
 31
0.0
  0
LINE
  5
6FEFA
330
7022C
100
AcDbEntity
  8
Level 26
  6
Continuous
 62
    40
370
     0
100
AcDbLine
 10
3489.267868
 20
-54.20632
 30
0.0
 11
3489.267868
 21
-136.705636
 31
0.0
  0
LINE
  5
6FEFB
330
7022C
100
AcDbEntity
  8
Level 26
  6
Continuous
 62
    40
370
     0
100
AcDbLine
 10
3475.817868
 20
-54.20632
 30
0.0
 11
3475.817868
 21
-123.255636
 31
0.0
  0
LINE
  5
6FEFC
330
7022C
100
AcDbEntity
  8
Level 26
  6
Continuous
 62
    40
370
     0
100
AcDbLine
 10
3489.267868
 20
-54.20632
 30
0.0
 11
3489.267868
 21
-109.805636
 31
0.0
  0
ENDBLK
  5
7022E
330
7022C
100
AcDbEntity
  8
0
 62
    98
370
     0
100
AcDbBlockEnd
  0
BLOCK
  5
70230
330
7022F
100
AcDbEntity
  8
0
 62
    98
370
     0
100
AcDbBlockBegin
  2
From Solid_24
 70
     0
 10
0.0
 20
0.0
 30
0.0
  3
From Solid_24
  1

  0
LINE
  5
6FEFE
330
7022F
100
AcDbEntity
  8
Level 26
  6
Continuous
 62
    40
370
     0
100
AcDbLine
 10
3884.617868
 20
175.819193
 30
0.0
 11
3857.717868
 21
175.819193
 31
0.0
  0
LINE
  5
6FEFF
330
7022F
100
AcDbEntity
  8
Level 26
  6
Continuous
 62
    40
370
     0
100
AcDbLine
 10
3884.617868
 20
175.819193
 30
0.0
 11
3857.717868
 21
175.819193
 31
0.0
  0
LINE
  5
6FF00
330
7022F
100
AcDbEntity
  8
Level 26
  6
Continuous
 62
    40
370
     0
100
AcDbLine
 10
3884.617868
 20
175.819193
 30
0.0
 11
3884.617868
 21
244.868998
 31
0.0
  0
LINE
  5
6FF01
330
7022F
100
AcDbEntity
  8
Level 26
  6
Continuous
 62
    40
370
     0
100
AcDbLine
 10
3871.167868
 20
175.819193
 30
0.0
 11
3871.167868
 21
258.318998
 31
0.0
  0
LINE
  5
6FF02
330
7022F
100
AcDbEntity
  8
Level 26
  6
Continuous
 62
    40
370
     0
100
AcDbLine
 10
3857.717868
 20
175.819193
 30
0.0
 11
3857.717868
 21
244.868998
 31
0.0
  0
LINE
  5
6FF03
330
7022F
100
AcDbEntity
  8
Level 26
  6
Continuous
 62
    40
370
     0
100
AcDbLine
 10
3871.167868
 20
175.819193
 30
0.0
 11
3871.167868
 21
231.418998
 31
0.0
  0
ENDBLK
  5
70231
330
7022F
100
AcDbEntity
  8
0
 62
    98
370
     0
100
AcDbBlockEnd
  0
BLOCK
  5
70233
330
70232
100
AcDbEntity
  8
0
 62
    98
370
     0
100
AcDbBlockBegin
  2
From Solid_25
 70
     0
 10
0.0
 20
0.0
 30
0.0
  3
From Solid_25
  1

  0
LINE
  5
6FF05
330
70232
100
AcDbEntity
  8
Level 26
  6
Continuous
 62
    40
370
     0
100
AcDbLine
 10
3884.617868
 20
-4.229879
 30
0.0
 11
3857.717868
 21
-4.229879
 31
0.0
  0
LINE
  5
6FF06
330
70232
100
AcDbEntity
  8
Level 26
  6
Continuous
 62
    40
370
     0
100
AcDbLine
 10
3884.617868
 20
-4.229879
 30
0.0
 11
3857.717868
 21
-4.229879
 31
0.0
  0
LINE
  5
6FF07
330
70232
100
AcDbEntity
  8
Level 26
  6
Continuous
 62
    40
370
     0
100
AcDbLine
 10
3884.617868
 20
-4.229879
 30
0.0
 11
3884.617868
 21
-73.279684
 31
0.0
  0
LINE
  5
6FF08
330
70232
100
AcDbEntity
  8
Level 26
  6
Continuous
 62
    40
370
     0
100
AcDbLine
 10
3871.167868
 20
-4.229879
 30
0.0
 11
3871.167868
 21
-86.729684
 31
0.0
  0
LINE
  5
6FF09
330
70232
100
AcDbEntity
  8
Level 26
  6
Continuous
 62
    40
370
     0
100
AcDbLine
 10
3857.717868
 20
-4.229879
 30
0.0
 11
3857.717868
 21
-73.279684
 31
0.0
  0
LINE
  5
6FF0A
330
70232
100
AcDbEntity
  8
Level 26
  6
Continuous
 62
    40
370
     0
100
AcDbLine
 10
3871.167868
 20
-4.229879
 30
0.0
 11
3871.167868
 21
-59.829684
 31
0.0
  0
ENDBLK
  5
70234
330
70232
100
AcDbEntity
  8
0
 62
    98
370
     0
100
AcDbBlockEnd
  0
ENDSEC
  0
SECTION
  2
ENTITIES
  0
INSERT
  5
6FD64
330
7013C
100
AcDbEntity
  8
Level 26
  6
Continuous
 62
   133
370
     0
100
AcDbBlockReference
  2
SE15
 10
3229.267868
 20
85.794657
 30
0.0
  0
LWPOLYLINE
  5
6FF23
330
7013C
100
AcDbEntity
  8
Level 15
  6
DGN Style 2
 62
     7
370
    13
100
AcDbPolyline
 90
       17
 70
   129
 43
0.0
 10
3489.267868
 20
1521.295438
 42
-0.032542
 10
3646.662273
 20
1511.040632
 10
4028.562234
 20
1461.064197
 42
-0.376595
 10
5084.167868
 20
258.318998
 10
5084.167868
 20
-86.729684
 42
-0.376595
 10
4028.562245
 20
-1289.474882
 10
3646.662273
 20
-1339.451318
 42
-0.032542
 10
3489.267777
 20
-1349.706124
 10
2969.267868
 20
-1349.706124
 42
-0.032542
 10
2811.873464
 20
-1339.451318
 10
2429.973502
 20
-1289.474883
 42
-0.376595
 10
1374.367868
 20
-86.729684
 10
1374.367868
 20
258.318998
 42
-0.376595
 10
2429.973491
 20
1461.064195
 10
2811.873464
 20
1511.040632
 42
-0.032542
 10
2969.267868
 20
1521.295438
 10
3489.267868
 20
1521.295438
  0
ENDSEC
  0
SECTION
  2
OBJECTS
  0
DICTIONARY
  5
70143
330
0
100
AcDbDictionary
281
     1
  3
ACAD_COLOR
350
70181
  3
ACAD_GROUP
350
7016E
  3
ACAD_LAYOUT
350
70150
  3
ACAD_MATERIAL
350
70145
  3
ACAD_MLEADERSTYLE
350
70184
  3
ACAD_MLINESTYLE
350
7016F
  3
ACAD_PLOTSETTINGS
350
70170
  3
ACAD_PLOTSTYLENAME
350
70142
  3
ACAD_SCALELIST
350
70182
  3
ACAD_TABLESTYLE
350
70183
  3
ACAD_VISUALSTYLE
350
70168
  3
ACDB_RECOMPOSE_DATA
350
70243
  3
AcDbVariableDictionary
350
70239
  0
DICTIONARY
  5
7015B
330
7015A
100
AcDbDictionary
280
     1
281
     1
  3
ACAD_LAYERFILTERS
360
701AE
  3
ACAD_LAYERSTATES
360
7015C
  3
ACLYDICTIONARY
360
701AF
  0
DICTIONARY
  5
7013F
330
7013E
100
AcDbDictionary
280
     1
281
     1
  3
ADSK_XREC_LAYER_RECONCILED
360
70140
  0
DICTIONARY
  5
70235
330
701B0
100
AcDbDictionary
280
     1
281
     1
  3
ACAD_SORTENTS
360
70236
  0
DICTIONARY
  5
70181
102
{ACAD_REACTORS
330
70143
102
}
330
70143
100
AcDbDictionary
281
     1
  0
DICTIONARY
  5
7016E
102
{ACAD_REACTORS
330
70143
102
}
330
70143
100
AcDbDictionary
281
     1
  0
DICTIONARY
  5
70150
102
{ACAD_REACTORS
330
70143
102
}
330
70143
100
AcDbDictionary
281
     1
  3
Layout1
350
70156
  3
Model
350
7014F
  0
DICTIONARY
  5
70145
102
{ACAD_REACTORS
330
70143
102
}
330
70143
100
AcDbDictionary
281
     1
  3
ByBlock
350
70179
  3
ByLayer
350
70171
  3
Global
350
70144
  0
DICTIONARY
  5
70184
102
{ACAD_REACTORS
330
70143
102
}
330
70143
100
AcDbDictionary
281
     1
  0
DICTIONARY
  5
7016F
102
{ACAD_REACTORS
330
70143
102
}
330
70143
100
AcDbDictionary
281
     1
  3
Standard
350
70185
  0
DICTIONARY
  5
70170
102
{ACAD_REACTORS
330
70143
102
}
330
70143
100
AcDbDictionary
281
     1
  0
ACDBDICTIONARYWDFLT
  5
70142
102
{ACAD_REACTORS
330
70143
102
}
330
70143
100
AcDbDictionary
281
     1
  3
Normal
350
70141
100
AcDbDictionaryWithDefault
340
70141
  0
DICTIONARY
  5
70182
102
{ACAD_REACTORS
330
70143
102
}
330
70143
100
AcDbDictionary
281
     1
  3
A0
350
7018A
  3
A1
350
7018B
  3
A2
350
7018C
  3
A3
350
7018D
  3
A4
350
7018E
  3
A5
350
7018F
  3
A6
350
70190
  3
A7
350
70191
  3
A8
350
70192
  3
A9
350
70193
  3
B0
350
70194
  3
B1
350
70195
  3
B2
350
70196
  3
B3
350
70197
  3
B4
350
70198
  3
B5
350
70199
  3
B6
350
7019A
  3
B7
350
7019B
  3
B8
350
7019C
  3
B9
350
7019D
  3
C0
350
7019E
  3
C1
350
7019F
  3
C2
350
701A0
  3
C3
350
701A1
  3
C4
350
701A2
  3
C5
350
701A3
  3
C6
350
701A4
  3
C7
350
701A5
  3
C8
350
701A6
  3
C9
350
701A7
  3
D0
350
701A8
  3
D1
350
701A9
  3
D2
350
701AA
  0
DICTIONARY
  5
70183
102
{ACAD_REACTORS
330
70143
102
}
330
70143
100
AcDbDictionary
281
     1
  3
Standard
350
70186
  0
DICTIONARY
  5
70168
102
{ACAD_REACTORS
330
70143
102
}
330
70143
100
AcDbDictionary
281
     1
  3
2dWireframe
350
70167
  3
Realistic
350
70188
  3
Wireframe
350
70189
  0
XRECORD
  5
70243
102
{ACAD_REACTORS
330
70143
102
}
330
70143
100
AcDbXrecord
280
     1
 90
        1
330
70186
  0
DICTIONARY
  5
70239
102
{ACAD_REACTORS
330
70143
102
}
330
70143
100
AcDbDictionary
281
     1
  3
CANNOSCALE
350
7023F
  3
CMLEADERSTYLE
350
7023B
  3
CTABLESTYLE
350
7023A
  3
CVIEWDETAILSTYLE
350
7023C
  3
CVIEWSECTIONSTYLE
350
7023D
  3
LAYEREVAL
350
70240
  3
LAYERNOTIFY
350
70241
  3
MSLTSCALE
350
7023E
  0
DICTIONARY
  5
701AE
102
{ACAD_REACTORS
330
7015B
102
}
330
7015B
100
AcDbDictionary
281
     1
  0
DICTIONARY
  5
7015C
102
{ACAD_REACTORS
330
7015B
102
}
330
7015B
100
AcDbDictionary
281
     1
  0
DICTIONARY
  5
701AF
102
{ACAD_REACTORS
330
7015B
102
}
330
7015B
100
AcDbDictionary
281
     1
  0
XRECORD
  5
70140
102
{ACAD_REACTORS
330
7013F
102
}
330
7013F
100
AcDbXrecord
280
     1
290
     1
  0
SORTENTSTABLE
  5
70236
102
{ACAD_REACTORS
330
70235
102
}
330
70235
100
AcDbSortentsTable
330
701B0
331
6FD79
  5
6FD79
331
6FD6D
  5
6FD6D
331
6FF8A
  5
6FE5D
331
6FD65
  5
6FD65
331
70022
  5
70022
331
6FFA6
  5
6FFA6
331
6FF9D
  5
6FF9A
331
6FD82
  5
6FD82
331
6FD76
  5
6FD76
331
70003
  5
70003
331
700A0
  5
700A0
331
6FD7B
  5
6FD7B
331
6FF91
  5
6FF8D
331
6FD6F
  5
6FD6F
331
6FF8C
  5
6FF88
331
6FD67
  5
6FD67
331
7009E
  5
7009E
331
6FF9F
  5
6FF9C
331
6FD84
  5
6FD84
331
6FD68
  5
6FD68
331
6FFA1
  5
6FF9E
331
6FF98
  5
6FF94
331
6FD7D
  5
6FD7D
331
6FF93
  5
6FF8F
331
6FD71
  5
6FD71
331
6FF8E
  5
6FF8A
331
6FFE4
  5
6FFE4
331
6FD86
  5
6FD86
331
6FD6A
  5
6FD6A
331
6FFA3
  5
6FFA0
331
6FF9A
  5
6FF97
331
6FD7F
  5
6FD7F
331
6FF95
  5
6FF91
331
6FD73
  5
6FD73
331
6FD88
  5
6FD88
331
6FD78
  5
6FD78
331
6FD6C
  5
6FD6C
331
70041
  5
70041
331
6FF89
  5
6FE54
331
6FFA5
  5
6FFA2
331
6FF9C
  5
6FF99
331
6FD81
  5
6FD81
331
6FF97
  5
6FF93
331
6FD75
  5
6FD75
331
6FD7A
  5
6FD7A
331
6FF90
  5
6FF8C
331
6FD6E
  5
6FD6E
331
6FF8B
  5
6FE62
331
6FD66
  5
6FD66
331
70060
  5
70060
331
6FF9E
  5
6FF9B
331
6FD83
  5
6FD83
331
6FD77
  5
6FD77
331
6FFC5
  5
6FFC5
331
700A1
  5
700A1
331
6FFA0
  5
6FF9D
331
6FD7C
  5
6FD7C
331
6FF92
  5
6FF8E
331
6FD70
  5
6FD70
331
6FF8D
  5
6FF89
331
7009F
  5
7009F
331
6FE62
  5
6FFA5
331
6FDF8
  5
6FF95
331
6FD85
  5
6FD85
331
6FD69
  5
6FD69
331
7007F
  5
7007F
331
6FFA2
  5
6FF9F
331
6FF99
  5
6FF96
331
6FD7E
  5
6FD7E
331
6FF94
  5
6FF90
331
6FD72
  5
6FD72
331
6FF8F
  5
6FF8B
331
6FD87
  5
6FD87
331
6FE54
  5
6FFA3
331
6FD6B
  5
6FD6B
331
6FF88
  5
6FDF8
331
6FE5D
  5
6FFA4
331
6FFA4
  5
6FFA1
331
6FF9B
  5
6FF98
331
6FD80
  5
6FD80
331
6FF96
  5
6FF92
331
6FD74
  5
6FD74
  0
LAYOUT
  5
70156
102
{ACAD_XDICTIONARY
360
70157
102
}
102
{ACAD_REACTORS
330
70150
102
}
330
70150
100
AcDbPlotSettings
  1

  2
none_device
  4
Letter_(8.50_x_11.00_Inches)
  6

 40
6.35
 41
6.35
 42
6.350006
 43
6.350006
 44
215.899994
 45
279.399994
 46
0.0
 47
0.0
 48
0.0
 49
0.0
140
0.0
141
0.0
142
1.0
143
1.0
 70
   688
 72
     0
 73
     1
 74
     5
  7

 75
    16
147
1.0
 76
     0
 77
     2
 78
   300
148
0.0
149
0.0
100
AcDbLayout
  1
Layout1
 70
     1
 71
     1
 10
-0.25
 20
-0.25
 11
10.75
 21
8.25
 12
0.0
 22
0.0
 32
0.0
 14
1.05
 24
0.8
 34
0.0
 15
9.45
 25
7.2
 35
0.0
146
0.0
 13
0.0
 23
0.0
 33
0.0
 16
1.0
 26
0.0
 36
0.0
 17
0.0
 27
1.0
 37
0.0
 76
     0
330
70153
1001
ACAD_PSEXT
1000
None
1000
None
1000
Not applicable
1000
The layout will not be plotted unless a new plotter configuration name is selected.
1070
     0
  0
LAYOUT
  5
7014F
102
{ACAD_XDICTIONARY
360
70151
102
}
102
{ACAD_REACTORS
330
70150
102
}
330
70150
100
AcDbPlotSettings
  1

  2
none_device
  4
ANSI_A_(8.50_x_11.00_Inches)
  6

 40
6.35
 41
19.049999
 42
6.350006
 43
19.049988
 44
215.899994
 45
279.399994
 46
0.0
 47
0.0
 48
0.0
 49
0.0
140
0.0
141
0.0
142
1.0
143
2.584895
 70
 11952
 72
     0
 73
     1
 74
     0
  7

 75
     0
147
0.386863
 76
     0
 77
     2
 78
   300
148
0.0
149
0.0
100
AcDbLayout
  1
Model
 70
     1
 71
     0
 10
0.0
 20
0.0
 11
12.0
 21
9.0
 12
0.0
 22
0.0
 32
0.0
 14
0.0
 24
0.0
 34
0.0
 15
0.0
 25
0.0
 35
0.0
146
0.0
 13
0.0
 23
0.0
 33
0.0
 16
1.0
 26
0.0
 36
0.0
 17
0.0
 27
1.0
 37
0.0
 76
     0
330
7013C
331
70166
  0
MATERIAL
  5
70179
102
{ACAD_XDICTIONARY
360
7017A
102
}
102
{ACAD_REACTORS
330
70145
102
}
330
70145
100
AcDbMaterial
  1
ByBlock
 72
     0
 43
0.020833
 43
0.0
 43
0.0
 43
0.0
 43
0.0
 43
0.020833
 43
0.0
 43
0.0
 43
0.0
 43
0.0
 43
1.0
 43
0.0
 43
0.0
 43
0.0
 43
0.0
 43
1.0
 77
     0
 47
0.020833
 47
0.0
 47
0.0
 47
0.0
 47
0.0
 47
0.020833
 47
0.0
 47
0.0
 47
0.0
 47
0.0
 47
1.0
 47
0.0
 47
0.0
 47
0.0
 47
0.0
 47
1.0
171
     0
 49
0.020833
 49
0.0
 49
0.0
 49
0.0
 49
0.0
 49
0.020833
 49
0.0
 49
0.0
 49
0.0
 49
0.0
 49
1.0
 49
0.0
 49
0.0
 49
0.0
 49
0.0
 49
1.0
175
     0
142
0.020833
142
0.0
142
0.0
142
0.0
142
0.0
142
0.020833
142
0.0
142
0.0
142
0.0
142
0.0
142
1.0
142
0.0
142
0.0
142
0.0
142
0.0
142
1.0
179
     0
144
0.020833
144
0.0
144
0.0
144
0.0
144
0.0
144
0.020833
144
0.0
144
0.0
144
0.0
144
0.0
144
1.0
144
0.0
144
0.0
144
0.0
144
0.0
144
1.0
147
0.020833
147
0.0
147
0.0
147
0.0
147
0.0
147
0.020833
147
0.0
147
0.0
147
0.0
147
0.0
147
1.0
147
0.0
147
0.0
147
0.0
147
0.0
147
1.0
  0
MATERIAL
  5
70171
102
{ACAD_XDICTIONARY
360
70172
102
}
102
{ACAD_REACTORS
330
70145
102
}
330
70145
100
AcDbMaterial
  1
ByLayer
 72
     0
 43
0.020833
 43
0.0
 43
0.0
 43
0.0
 43
0.0
 43
0.020833
 43
0.0
 43
0.0
 43
0.0
 43
0.0
 43
1.0
 43
0.0
 43
0.0
 43
0.0
 43
0.0
 43
1.0
 77
     0
 47
0.020833
 47
0.0
 47
0.0
 47
0.0
 47
0.0
 47
0.020833
 47
0.0
 47
0.0
 47
0.0
 47
0.0
 47
1.0
 47
0.0
 47
0.0
 47
0.0
 47
0.0
 47
1.0
171
     0
 49
0.020833
 49
0.0
 49
0.0
 49
0.0
 49
0.0
 49
0.020833
 49
0.0
 49
0.0
 49
0.0
 49
0.0
 49
1.0
 49
0.0
 49
0.0
 49
0.0
 49
0.0
 49
1.0
175
     0
142
0.020833
142
0.0
142
0.0
142
0.0
142
0.0
142
0.020833
142
0.0
142
0.0
142
0.0
142
0.0
142
1.0
142
0.0
142
0.0
142
0.0
142
0.0
142
1.0
179
     0
144
0.020833
144
0.0
144
0.0
144
0.0
144
0.0
144
0.020833
144
0.0
144
0.0
144
0.0
144
0.0
144
1.0
144
0.0
144
0.0
144
0.0
144
0.0
144
1.0
147
0.020833
147
0.0
147
0.0
147
0.0
147
0.0
147
0.020833
147
0.0
147
0.0
147
0.0
147
0.0
147
1.0
147
0.0
147
0.0
147
0.0
147
0.0
147
1.0
  0
MATERIAL
  5
70144
102
{ACAD_XDICTIONARY
360
70146
102
}
102
{ACAD_REACTORS
330
70145
102
}
330
70145
100
AcDbMaterial
  1
Global
 72
     0
 43
0.020833
 43
0.0
 43
0.0
 43
0.0
 43
0.0
 43
0.020833
 43
0.0
 43
0.0
 43
0.0
 43
0.0
 43
1.0
 43
0.0
 43
0.0
 43
0.0
 43
0.0
 43
1.0
 77
     0
 47
0.020833
 47
0.0
 47
0.0
 47
0.0
 47
0.0
 47
0.020833
 47
0.0
 47
0.0
 47
0.0
 47
0.0
 47
1.0
 47
0.0
 47
0.0
 47
0.0
 47
0.0
 47
1.0
171
     0
 49
0.020833
 49
0.0
 49
0.0
 49
0.0
 49
0.0
 49
0.020833
 49
0.0
 49
0.0
 49
0.0
 49
0.0
 49
1.0
 49
0.0
 49
0.0
 49
0.0
 49
0.0
 49
1.0
175
     0
142
0.020833
142
0.0
142
0.0
142
0.0
142
0.0
142
0.020833
142
0.0
142
0.0
142
0.0
142
0.0
142
1.0
142
0.0
142
0.0
142
0.0
142
0.0
142
1.0
179
     0
144
0.020833
144
0.0
144
0.0
144
0.0
144
0.0
144
0.020833
144
0.0
144
0.0
144
0.0
144
0.0
144
1.0
144
0.0
144
0.0
144
0.0
144
0.0
144
1.0
147
0.020833
147
0.0
147
0.0
147
0.0
147
0.0
147
0.020833
147
0.0
147
0.0
147
0.0
147
0.0
147
1.0
147
0.0
147
0.0
147
0.0
147
0.0
147
1.0
  0
MLINESTYLE
  5
70185
102
{ACAD_REACTORS
330
7016F
102
}
330
7016F
100
AcDbMlineStyle
  2
STANDARD
 70
     0
  3

 62
   256
 51
90.0
 52
90.0
 71
     2
 49
0.5
 62
   256
  6
BYLAYER
 49
-0.5
 62
   256
  6
BYLAYER
  0
ACDBPLACEHOLDER
  5
70141
102
{ACAD_REACTORS
330
70142
102
}
330
70142
  0
SCALE
  5
7018A
102
{ACAD_REACTORS
330
70182
102
}
330
70182
100
AcDbScale
 70
     0
300
1:1
140
1.0
141
1.0
290
     1
  0
SCALE
  5
7018B
102
{ACAD_REACTORS
330
70182
102
}
330
70182
100
AcDbScale
 70
     0
300
1:2
140
1.0
141
2.0
290
     0
  0
SCALE
  5
7018C
102
{ACAD_REACTORS
330
70182
102
}
330
70182
100
AcDbScale
 70
     0
300
1:4
140
1.0
141
4.0
290
     0
  0
SCALE
  5
7018D
102
{ACAD_REACTORS
330
70182
102
}
330
70182
100
AcDbScale
 70
     0
300
1:5
140
1.0
141
5.0
290
     0
  0
SCALE
  5
7018E
102
{ACAD_REACTORS
330
70182
102
}
330
70182
100
AcDbScale
 70
     0
300
1:8
140
1.0
141
8.0
290
     0
  0
SCALE
  5
7018F
102
{ACAD_REACTORS
330
70182
102
}
330
70182
100
AcDbScale
 70
     0
300
1:10
140
1.0
141
10.0
290
     0
  0
SCALE
  5
70190
102
{ACAD_REACTORS
330
70182
102
}
330
70182
100
AcDbScale
 70
     0
300
1:16
140
1.0
141
16.0
290
     0
  0
SCALE
  5
70191
102
{ACAD_REACTORS
330
70182
102
}
330
70182
100
AcDbScale
 70
     0
300
1:20
140
1.0
141
20.0
290
     0
  0
SCALE
  5
70192
102
{ACAD_REACTORS
330
70182
102
}
330
70182
100
AcDbScale
 70
     0
300
1:30
140
1.0
141
30.0
290
     0
  0
SCALE
  5
70193
102
{ACAD_REACTORS
330
70182
102
}
330
70182
100
AcDbScale
 70
     0
300
1:40
140
1.0
141
40.0
290
     0
  0
SCALE
  5
70194
102
{ACAD_REACTORS
330
70182
102
}
330
70182
100
AcDbScale
 70
     0
300
1:50
140
1.0
141
50.0
290
     0
  0
SCALE
  5
70195
102
{ACAD_REACTORS
330
70182
102
}
330
70182
100
AcDbScale
 70
     0
300
1:100
140
1.0
141
100.0
290
     0
  0
SCALE
  5
70196
102
{ACAD_REACTORS
330
70182
102
}
330
70182
100
AcDbScale
 70
     0
300
2:1
140
2.0
141
1.0
290
     0
  0
SCALE
  5
70197
102
{ACAD_REACTORS
330
70182
102
}
330
70182
100
AcDbScale
 70
     0
300
4:1
140
4.0
141
1.0
290
     0
  0
SCALE
  5
70198
102
{ACAD_REACTORS
330
70182
102
}
330
70182
100
AcDbScale
 70
     0
300
8:1
140
8.0
141
1.0
290
     0
  0
SCALE
  5
70199
102
{ACAD_REACTORS
330
70182
102
}
330
70182
100
AcDbScale
 70
     0
300
10:1
140
10.0
141
1.0
290
     0
  0
SCALE
  5
7019A
102
{ACAD_REACTORS
330
70182
102
}
330
70182
100
AcDbScale
 70
     0
300
100:1
140
100.0
141
1.0
290
     0
  0
SCALE
  5
7019B
102
{ACAD_REACTORS
330
70182
102
}
330
70182
100
AcDbScale
 70
     0
300
1/128" = 1'-0"
140
0.007813
141
12.0
290
     0
  0
SCALE
  5
7019C
102
{ACAD_REACTORS
330
70182
102
}
330
70182
100
AcDbScale
 70
     0
300
1/64" = 1'-0"
140
0.015625
141
12.0
290
     0
  0
SCALE
  5
7019D
102
{ACAD_REACTORS
330
70182
102
}
330
70182
100
AcDbScale
 70
     0
300
1/32" = 1'-0"
140
0.03125
141
12.0
290
     0
  0
SCALE
  5
7019E
102
{ACAD_REACTORS
330
70182
102
}
330
70182
100
AcDbScale
 70
     0
300
1/16" = 1'-0"
140
0.0625
141
12.0
290
     0
  0
SCALE
  5
7019F
102
{ACAD_REACTORS
330
70182
102
}
330
70182
100
AcDbScale
 70
     0
300
3/32" = 1'-0"
140
0.09375
141
12.0
290
     0
  0
SCALE
  5
701A0
102
{ACAD_REACTORS
330
70182
102
}
330
70182
100
AcDbScale
 70
     0
300
1/8" = 1'-0"
140
0.125
141
12.0
290
     0
  0
SCALE
  5
701A1
102
{ACAD_REACTORS
330
70182
102
}
330
70182
100
AcDbScale
 70
     0
300
3/16" = 1'-0"
140
0.1875
141
12.0
290
     0
  0
SCALE
  5
701A2
102
{ACAD_REACTORS
330
70182
102
}
330
70182
100
AcDbScale
 70
     0
300
1/4" = 1'-0"
140
0.25
141
12.0
290
     0
  0
SCALE
  5
701A3
102
{ACAD_REACTORS
330
70182
102
}
330
70182
100
AcDbScale
 70
     0
300
3/8" = 1'-0"
140
0.375
141
12.0
290
     0
  0
SCALE
  5
701A4
102
{ACAD_REACTORS
330
70182
102
}
330
70182
100
AcDbScale
 70
     0
300
1/2" = 1'-0"
140
0.5
141
12.0
290
     0
  0
SCALE
  5
701A5
102
{ACAD_REACTORS
330
70182
102
}
330
70182
100
AcDbScale
 70
     0
300
3/4" = 1'-0"
140
0.75
141
12.0
290
     0
  0
SCALE
  5
701A6
102
{ACAD_REACTORS
330
70182
102
}
330
70182
100
AcDbScale
 70
     0
300
1" = 1'-0"
140
1.0
141
12.0
290
     0
  0
SCALE
  5
701A7
102
{ACAD_REACTORS
330
70182
102
}
330
70182
100
AcDbScale
 70
     0
300
1-1/2" = 1'-0"
140
1.5
141
12.0
290
     0
  0
SCALE
  5
701A8
102
{ACAD_REACTORS
330
70182
102
}
330
70182
100
AcDbScale
 70
     0
300
3" = 1'-0"
140
3.0
141
12.0
290
     0
  0
SCALE
  5
701A9
102
{ACAD_REACTORS
330
70182
102
}
330
70182
100
AcDbScale
 70
     0
300
6" = 1'-0"
140
6.0
141
12.0
290
     0
  0
SCALE
  5
701AA
102
{ACAD_REACTORS
330
70182
102
}
330
70182
100
AcDbScale
 70
     0
300
1'-0" = 1'-0"
140
12.0
141
12.0
290
     0
  0
TABLESTYLE
  5
70186
102
{ACAD_XDICTIONARY
360
70187
102
}
102
{ACAD_REACTORS
330
70183
102
}
330
70183
100
AcDbTableStyle
280
     0
  3
Standard
 70
     0
 71
     0
 40
0.06
 41
0.06
280
     0
281
     0
  7
Standard
140
0.18
170
     2
 62
     0
 63
     7
283
     0
 90
        4
 91
        0
  1

274
    -2
284
     1
 64
     0
275
    -2
285
     1
 65
     0
276
    -2
286
     1
 66
     0
277
    -2
287
     1
 67
     0
278
    -2
288
     1
 68
     0
279
    -2
289
     1
 69
     0
  7
Standard
140
0.25
170
     5
 62
     0
 63
     7
283
     0
 90
        4
 91
        0
  1

274
    -2
284
     1
 64
     0
275
    -2
285
     1
 65
     0
276
    -2
286
     1
 66
     0
277
    -2
287
     1
 67
     0
278
    -2
288
     1
 68
     0
279
    -2
289
     1
 69
     0
  7
Standard
140
0.18
170
     5
 62
     0
 63
     7
283
     0
 90
        4
 91
        0
  1

274
    -2
284
     1
 64
     0
275
    -2
285
     1
 65
     0
276
    -2
286
     1
 66
     0
277
    -2
287
     1
 67
     0
278
    -2
288
     1
 68
     0
279
    -2
289
     1
 69
     0
  0
VISUALSTYLE
  5
70167
102
{ACAD_REACTORS
330
70168
102
}
330
70168
100
AcDbVisualStyle
  2
2dWireframe
 70
     4
177
     3
291
     0
 70
    58
 90
        0
176
     1
 90
        2
176
     1
 90
        0
176
     1
 90
        0
176
     1
 40
0.6
176
     1
 40
30.0
176
     1
 62
     7
420
 16777215
176
     1
 90
        1
176
     1
 90
        4
176
     1
 62
     7
176
     1
 62
   257
176
     1
 90
        1
176
     1
 90
        1
176
     1
 40
1.0
176
     1
 90
        0
176
     1
 62
   257
176
     1
 40
1.0
176
     1
 90
        1
176
     1
 90
        6
176
     1
 90
        2
176
     1
 62
     7
176
     1
 90
        5
176
     1
 90
        0
176
     1
 90
        0
176
     1
290
     0
176
     1
 90
        1
176
     1
 40
0.0
176
     1
 90
        0
176
     1
290
     1
176
     1
290
     1
176
     1
290
     0
176
     1
290
     0
176
     1
290
     0
176
     1
290
     0
176
     1
290
     0
176
     1
290
     0
176
     1
290
     0
176
     1
 90
       50
176
     1
 40
0.0
176
     1
 40
1.0
176
     1
 90
        0
176
     1
 62
    18
420
        0
176
     1
 90
       50
176
     1
 90
        3
176
     1
 62
     5
420
      255
176
     1
290
     0
176
     1
 90
       50
176
     1
 90
       50
176
     1
 90
       50
176
     1
290
     0
176
     1
 90
       50
176
     1
 62
   256
176
     0
 40
1.0
176
     0
 90
        2
176
     1
  1
strokes_ogs.tif
176
     1
290
     0
176
     1
 40
1.0
176
     1
 40
1.0
176
     1
  0
VISUALSTYLE
  5
70188
102
{ACAD_REACTORS
330
70168
102
}
330
70168
100
AcDbVisualStyle
  2
Realistic
 70
     8
177
     3
291
     0
 70
    58
 90
        2
176
     1
 90
        2
176
     1
 90
        0
176
     1
 90
        0
176
     1
 40
0.6
176
     1
 40
30.0
176
     1
 62
     7
420
 16777215
176
     1
 90
        1
176
     1
 90
        0
176
     1
 62
     7
176
     1
 62
   257
176
     1
 90
        1
176
     1
 90
        1
176
     1
 40
1.0
176
     1
 90
        8
176
     1
 62
     8
420
  7895160
176
     1
 40
1.0
176
     1
 90
        1
176
     1
 90
        6
176
     1
 90
        2
176
     1
 62
     7
176
     1
 90
        5
176
     1
 90
        0
176
     1
 90
        0
176
     1
290
     0
176
     1
 90
       13
176
     1
 40
0.0
176
     1
 90
        0
176
     1
290
     0
176
     1
290
     1
176
     1
290
     1
176
     1
290
     0
176
     1
290
     0
176
     1
290
     0
176
     1
290
     0
176
     1
290
     0
176
     1
290
     0
176
     1
 90
       50
176
     1
 40
0.0
176
     1
 40
1.0
176
     1
 90
        0
176
     1
 62
    18
420
        0
176
     1
 90
       50
176
     1
 90
        3
176
     1
 62
     5
420
      255
176
     1
290
     0
176
     1
 90
       50
176
     1
 90
       50
176
     1
 90
       50
176
     1
290
     0
176
     1
 90
       50
176
     1
 62
   256
176
     0
 40
1.0
176
     0
 90
        2
176
     1
  1
strokes_ogs.tif
176
     1
290
     0
176
     1
 40
1.0
176
     1
 40
1.0
176
     1
  0
VISUALSTYLE
  5
70189
102
{ACAD_REACTORS
330
70168
102
}
330
70168
100
AcDbVisualStyle
  2
Wireframe
 70
     5
177
     3
291
     0
 70
    58
 90
        0
176
     1
 90
        2
176
     1
 90
        0
176
     1
 90
        0
176
     1
 40
0.6
176
     1
 40
30.0
176
     1
 62
     7
420
 16777215
176
     1
 90
        1
176
     1
 90
        4
176
     1
 62
     7
176
     1
 62
   257
176
     1
 90
        1
176
     1
 90
        1
176
     1
 40
1.0
176
     1
 90
        0
176
     1
 62
   257
176
     1
 40
1.0
176
     1
 90
        1
176
     1
 90
        6
176
     1
 90
        2
176
     1
 62
     7
176
     1
 90
        3
176
     1
 90
        0
176
     1
 90
        0
176
     1
290
     0
176
     1
 90
        1
176
     1
 40
0.0
176
     1
 90
        0
176
     1
290
     0
176
     1
290
     1
176
     1
290
     1
176
     1
290
     0
176
     1
290
     0
176
     1
290
     0
176
     1
290
     0
176
     1
290
     0
176
     1
290
     0
176
     1
 90
       50
176
     1
 40
0.0
176
     1
 40
1.0
176
     1
 90
        0
176
     1
 62
    18
420
        0
176
     1
 90
       50
176
     1
 90
        3
176
     1
 62
     5
420
      255
176
     1
290
     0
176
     1
 90
       50
176
     1
 90
       50
176
     1
 90
       50
176
     1
290
     0
176
     1
 90
       50
176
     1
 62
   256
176
     0
 40
1.0
176
     0
 90
        2
176
     1
  1
strokes_ogs.tif
176
     1
290
     0
176
     1
 40
1.0
176
     1
 40
1.0
176
     1
  0
DICTIONARYVAR
  5
7023F
102
{ACAD_REACTORS
330
70239
102
}
330
70239
100
DictionaryVariables
280
     0
  1
1:1
  0
DICTIONARYVAR
  5
7023B
102
{ACAD_REACTORS
330
70239
102
}
330
70239
100
DictionaryVariables
280
     0
  1
STANDARD
  0
DICTIONARYVAR
  5
7023A
102
{ACAD_REACTORS
330
70239
102
}
330
70239
100
DictionaryVariables
280
     0
  1
STANDARD
  0
DICTIONARYVAR
  5
7023C
102
{ACAD_REACTORS
330
70239
102
}
330
70239
100
DictionaryVariables
280
     0
  1

  0
DICTIONARYVAR
  5
7023D
102
{ACAD_REACTORS
330
70239
102
}
330
70239
100
DictionaryVariables
280
     0
  1

  0
DICTIONARYVAR
  5
70240
102
{ACAD_REACTORS
330
70239
102
}
330
70239
100
DictionaryVariables
280
     0
  1
1
  0
DICTIONARYVAR
  5
70241
102
{ACAD_REACTORS
330
70239
102
}
330
70239
100
DictionaryVariables
280
     0
  1
15
  0
DICTIONARYVAR
  5
7023E
102
{ACAD_REACTORS
330
70239
102
}
330
70239
100
DictionaryVariables
280
     0
  1
0
  0
DICTIONARY
  5
70157
330
70156
100
AcDbDictionary
280
     1
281
     1
  0
DICTIONARY
  5
70151
330
7014F
100
AcDbDictionary
280
     1
281
     1
  0
DICTIONARY
  5
7017A
330
70179
100
AcDbDictionary
280
     1
281
     1
  3
BUMPTILE
360
7017B
  3
DIFFUSETILE
360
7017C
  3
OPACITYTILE
360
7017D
  3
REFLECTIONTILE
360
7017E
  3
REFRACTIONTILE
360
7017F
  3
SPECULARTILE
360
70180
  0
DICTIONARY
  5
70172
330
70171
100
AcDbDictionary
280
     1
281
     1
  3
BUMPTILE
360
70173
  3
DIFFUSETILE
360
70174
  3
OPACITYTILE
360
70175
  3
REFLECTIONTILE
360
70176
  3
REFRACTIONTILE
360
70177
  3
SPECULARTILE
360
70178
  0
DICTIONARY
  5
70146
330
70144
100
AcDbDictionary
280
     1
281
     1
  3
BUMPTILE
360
70147
  3
DIFFUSETILE
360
70148
  3
OPACITYTILE
360
70149
  3
REFLECTIONTILE
360
7014A
  3
REFRACTIONTILE
360
7014B
  3
SPECULARTILE
360
7014C
  0
DICTIONARY
  5
70187
330
70186
100
AcDbDictionary
280
     1
281
     1
  3
ACAD_ROUNDTRIP_2008_TABLESTYLE_CELLSTYLEMAP
360
70242
  0
XRECORD
  5
7017B
102
{ACAD_REACTORS
330
7017A
102
}
330
7017A
100
AcDbXrecord
280
     1
270
     1
271
     1
  0
XRECORD
  5
7017C
102
{ACAD_REACTORS
330
7017A
102
}
330
7017A
100
AcDbXrecord
280
     1
270
     1
271
     1
  0
XRECORD
  5
7017D
102
{ACAD_REACTORS
330
7017A
102
}
330
7017A
100
AcDbXrecord
280
     1
270
     1
271
     1
  0
XRECORD
  5
7017E
102
{ACAD_REACTORS
330
7017A
102
}
330
7017A
100
AcDbXrecord
280
     1
270
     1
271
     1
  0
XRECORD
  5
7017F
102
{ACAD_REACTORS
330
7017A
102
}
330
7017A
100
AcDbXrecord
280
     1
270
     1
271
     1
  0
XRECORD
  5
70180
102
{ACAD_REACTORS
330
7017A
102
}
330
7017A
100
AcDbXrecord
280
     1
270
     1
271
     1
  0
XRECORD
  5
70173
102
{ACAD_REACTORS
330
70172
102
}
330
70172
100
AcDbXrecord
280
     1
270
     1
271
     1
  0
XRECORD
  5
70174
102
{ACAD_REACTORS
330
70172
102
}
330
70172
100
AcDbXrecord
280
     1
270
     1
271
     1
  0
XRECORD
  5
70175
102
{ACAD_REACTORS
330
70172
102
}
330
70172
100
AcDbXrecord
280
     1
270
     1
271
     1
  0
XRECORD
  5
70176
102
{ACAD_REACTORS
330
70172
102
}
330
70172
100
AcDbXrecord
280
     1
270
     1
271
     1
  0
XRECORD
  5
70177
102
{ACAD_REACTORS
330
70172
102
}
330
70172
100
AcDbXrecord
280
     1
270
     1
271
     1
  0
XRECORD
  5
70178
102
{ACAD_REACTORS
330
70172
102
}
330
70172
100
AcDbXrecord
280
     1
270
     1
271
     1
  0
XRECORD
  5
70147
102
{ACAD_REACTORS
330
70146
102
}
330
70146
100
AcDbXrecord
280
     1
270
     1
271
     1
  0
XRECORD
  5
70148
102
{ACAD_REACTORS
330
70146
102
}
330
70146
100
AcDbXrecord
280
     1
270
     1
271
     1
  0
XRECORD
  5
70149
102
{ACAD_REACTORS
330
70146
102
}
330
70146
100
AcDbXrecord
280
     1
270
     1
271
     1
  0
XRECORD
  5
7014A
102
{ACAD_REACTORS
330
70146
102
}
330
70146
100
AcDbXrecord
280
     1
270
     1
271
     1
  0
XRECORD
  5
7014B
102
{ACAD_REACTORS
330
70146
102
}
330
70146
100
AcDbXrecord
280
     1
270
     1
271
     1
  0
XRECORD
  5
7014C
102
{ACAD_REACTORS
330
70146
102
}
330
70146
100
AcDbXrecord
280
     1
270
     1
271
     1
  0
CELLSTYLEMAP
  5
70242
102
{ACAD_REACTORS
330
70187
102
}
330
70187
100
AcDbCellStyleMap
 90
        3
300
CELLSTYLE
  1
TABLEFORMAT_BEGIN
 90
        5
170
     1
 91
        0
 92
    32768
 62
   257
 93
        1
300
CONTENTFORMAT
  1
CONTENTFORMAT_BEGIN
 90
        0
 91
        0
 92
        4
 93
        0
300

 40
0.0
140
1.0
 94
        5
 62
     0
340
7015E
144
0.25
309
CONTENTFORMAT_END
171
     0
 94
        6
 95
        1
302
GRIDFORMAT
  1
GRIDFORMAT_BEGIN
 90
        0
 91
        1
 62
     0
 92
       -2
340
0
 93
        0
 40
0.045
309
GRIDFORMAT_END
 95
        2
302
GRIDFORMAT
  1
GRIDFORMAT_BEGIN
 90
        0
 91
        1
 62
     0
 92
       -2
340
0
 93
        0
 40
0.045
309
GRIDFORMAT_END
 95
        4
302
GRIDFORMAT
  1
GRIDFORMAT_BEGIN
 90
        0
 91
        1
 62
     0
 92
       -2
340
0
 93
        0
 40
0.045
309
GRIDFORMAT_END
 95
        8
302
GRIDFORMAT
  1
GRIDFORMAT_BEGIN
 90
        0
 91
        1
 62
     0
 92
       -2
340
0
 93
        0
 40
0.045
309
GRIDFORMAT_END
 95
       16
302
GRIDFORMAT
  1
GRIDFORMAT_BEGIN
 90
        0
 91
        1
 62
     0
 92
       -2
340
0
 93
        0
 40
0.045
309
GRIDFORMAT_END
 95
       32
302
GRIDFORMAT
  1
GRIDFORMAT_BEGIN
 90
        0
 91
        1
 62
     0
 92
       -2
340
0
 93
        0
 40
0.045
309
GRIDFORMAT_END
309
TABLEFORMAT_END
  1
CELLSTYLE_BEGIN
 90
        1
 91
        1
300
_TITLE
309
CELLSTYLE_END
300
CELLSTYLE
  1
TABLEFORMAT_BEGIN
 90
        5
170
     1
 91
        0
 92
        0
 62
   257
 93
        1
300
CONTENTFORMAT
  1
CONTENTFORMAT_BEGIN
 90
        0
 91
        0
 92
        4
 93
        0
300

 40
0.0
140
1.0
 94
        5
 62
     0
340
7015E
144
0.18
309
CONTENTFORMAT_END
171
     0
 94
        6
 95
        1
302
GRIDFORMAT
  1
GRIDFORMAT_BEGIN
 90
        0
 91
        1
 62
     0
 92
       -2
340
0
 93
        0
 40
0.045
309
GRIDFORMAT_END
 95
        2
302
GRIDFORMAT
  1
GRIDFORMAT_BEGIN
 90
        0
 91
        1
 62
     0
 92
       -2
340
0
 93
        0
 40
0.045
309
GRIDFORMAT_END
 95
        4
302
GRIDFORMAT
  1
GRIDFORMAT_BEGIN
 90
        0
 91
        1
 62
     0
 92
       -2
340
0
 93
        0
 40
0.045
309
GRIDFORMAT_END
 95
        8
302
GRIDFORMAT
  1
GRIDFORMAT_BEGIN
 90
        0
 91
        1
 62
     0
 92
       -2
340
0
 93
        0
 40
0.045
309
GRIDFORMAT_END
 95
       16
302
GRIDFORMAT
  1
GRIDFORMAT_BEGIN
 90
        0
 91
        1
 62
     0
 92
       -2
340
0
 93
        0
 40
0.045
309
GRIDFORMAT_END
 95
       32
302
GRIDFORMAT
  1
GRIDFORMAT_BEGIN
 90
        0
 91
        1
 62
     0
 92
       -2
340
0
 93
        0
 40
0.045
309
GRIDFORMAT_END
309
TABLEFORMAT_END
  1
CELLSTYLE_BEGIN
 90
        2
 91
        1
300
_HEADER
309
CELLSTYLE_END
300
CELLSTYLE
  1
TABLEFORMAT_BEGIN
 90
        5
170
     1
 91
        0
 92
        0
 62
   257
 93
        1
300
CONTENTFORMAT
  1
CONTENTFORMAT_BEGIN
 90
        0
 91
        0
 92
        4
 93
        0
300

 40
0.0
140
1.0
 94
        2
 62
     0
340
7015E
144
0.18
309
CONTENTFORMAT_END
171
     0
 94
        6
 95
        1
302
GRIDFORMAT
  1
GRIDFORMAT_BEGIN
 90
        0
 91
        1
 62
     0
 92
       -2
340
0
 93
        0
 40
0.045
309
GRIDFORMAT_END
 95
        2
302
GRIDFORMAT
  1
GRIDFORMAT_BEGIN
 90
        0
 91
        1
 62
     0
 92
       -2
340
0
 93
        0
 40
0.045
309
GRIDFORMAT_END
 95
        4
302
GRIDFORMAT
  1
GRIDFORMAT_BEGIN
 90
        0
 91
        1
 62
     0
 92
       -2
340
0
 93
        0
 40
0.045
309
GRIDFORMAT_END
 95
        8
302
GRIDFORMAT
  1
GRIDFORMAT_BEGIN
 90
        0
 91
        1
 62
     0
 92
       -2
340
0
 93
        0
 40
0.045
309
GRIDFORMAT_END
 95
       16
302
GRIDFORMAT
  1
GRIDFORMAT_BEGIN
 90
        0
 91
        1
 62
     0
 92
       -2
340
0
 93
        0
 40
0.045
309
GRIDFORMAT_END
 95
       32
302
GRIDFORMAT
  1
GRIDFORMAT_BEGIN
 90
        0
 91
        1
 62
     0
 92
       -2
340
0
 93
        0
 40
0.045
309
GRIDFORMAT_END
309
TABLEFORMAT_END
  1
CELLSTYLE_BEGIN
 90
        3
 91
        2
300
_DATA
309
CELLSTYLE_END
  0
ENDSEC
  0
SECTION
  2
ACDSDATA
 70
     2
 71
     6
  0
ACDSSCHEMA
 90
        0
  1
AcDb_Thumbnail_Schema
  2
AcDbDs::ID
280
    10
 91
        8
  2
Thumbnail_Data
280
    15
 91
        0
101
ACDSRECORD
 95
        0
 90
        1
  2
AcDbDs::TreatedAsObjectData
280
     1
291
     1
101
ACDSRECORD
 95
        0
 90
        2
  2
AcDbDs::Legacy
280
     1
291
     1
101
ACDSRECORD
  1
AcDbDs::ID
 90
        3
  2
AcDs:Indexable
280
     1
291
     1
101
ACDSRECORD
  1
AcDbDs::ID
 90
        4
  2
AcDbDs::HandleAttribute
280
     7
282
     1
  0
ACDSSCHEMA
 90
        1
  1
AcDbDs::TreatedAsObjectDataSchema
  2
AcDbDs::TreatedAsObjectData
280
     1
 91
        0
  0
ACDSSCHEMA
 90
        2
  1
AcDbDs::LegacySchema
  2
AcDbDs::Legacy
280
     1
 91
        0
  0
ACDSSCHEMA
 90
        3
  1
AcDbDs::IndexedPropertySchema
  2
AcDs:Indexable
280
     1
 91
        0
  0
ACDSSCHEMA
 90
        4
  1
AcDbDs::HandleAttributeSchema
  2
AcDbDs::HandleAttribute
280
     7
 91
        1
284
     1
  0
ACDSRECORD
 90
        0
  2
AcDbDs::ID
280
    10
320
70156
  2
Thumbnail_Data
280
    15
 94
     1183
310
89504E470D0A1A0A0000000D4948445200000100000000C508030000008CFEDCE700000300504C5445FFFFFF000000FFFFFF0000000000000000000000000000000000000000000000000000330000660000990000CC0000FF0033000033330033660033990033CC0033FF0066000066330066660066990066CC0066FF0099
310
000099330099660099990099CC0099FF00CC0000CC3300CC6600CC9900CCCC00CCFF00FF0000FF3300FF6600FF9900FFCC00FFFF3300003300333300663300993300CC3300FF3333003333333333663333993333CC3333FF3366003366333366663366993366CC3366FF3399003399333399663399993399CC3399FF33CC00
310
33CC3333CC6633CC9933CCCC33CCFF33FF0033FF3333FF6633FF9933FFCC33FFFF6600006600336600666600996600CC6600FF6633006633336633666633996633CC6633FF6666006666336666666666996666CC6666FF6699006699336699666699996699CC6699FF66CC0066CC3366CC6666CC9966CCCC66CCFF66FF0066
310
FF3366FF6666FF9966FFCC66FFFF9900009900339900669900999900CC9900FF9933009933339933669933999933CC9933FF9966009966339966669966999966CC9966FF9999009999339999669999999999CC9999FF99CC0099CC3399CC6699CC9999CCCC99CCFF99FF0099FF3399FF6699FF9999FFCC99FFFFCC0000CC00
310
33CC0066CC0099CC00CCCC00FFCC3300CC3333CC3366CC3399CC33CCCC33FFCC6600CC6633CC6666CC6699CC66CCCC66FFCC9900CC9933CC9966CC9999CC99CCCC99FFCCCC00CCCC33CCCC66CCCC99CCCCCCCCCCFFCCFF00CCFF33CCFF66CCFF99CCFFCCCCFFFFFF0000FF0033FF0066FF0099FF00CCFF00FFFF3300FF3333
310
FF3366FF3399FF33CCFF33FFFF6600FF6633FF6666FF6699FF66CCFF66FFFF9900FF9933FF9966FF9999FF99CCFF99FFFFCC00FFCC33FFCC66FFCC99FFCCCCFFCCFFFFFF00FFFF33FFFF66FFFF99FFFFCCFFFFFF0000000D0D0D1A1A1A2828283535354343435050505D5D5D6B6B6B787878868686939393A1A1A1AEAEAEBB
310
BBBBC9C9C9D6D6D6E4E4E4F1F1F1FFFFFF000000000000000000000000000000000000000000000000000000000000790CAC0F0000015A4944415478DAEDD8410A8340100440FFFFCCF9C09EE61E104224896014844D579F64F420A587DE592A3A632CD5C101100F500500C0F36ACDF6D636BFCEEBAEF9E9177D0788FBF600
310
000000000000004D1000000000000000100F50FB4F4C9E8B5578FAFF0300000000000000000000000000000000B00BD069000D0000000000000000A009020000000000000000000000000000000052013A0DA001000000000000000000A8C2000000000000000000000000000000402A40FC420400000000000000002016C0
310
5900000000000000000000000000000000C803885F88000000000000000000C402380B0000000000000000000000000000000000E2003A0DA0010000000000000000344100000000000000000000000000000000C0E7C660F21C04080D0000000000000000C01F54DE73151900000000000000D0AFCDCFB6227CDDAB1C9CD7
310
5DF3D32FAA0902000000C00A109E658C110DF0000E6CC6FBCCF8EC2E0000000049454E44AE426082
  0
ACDSRECORD
 90
        0
  2
AcDbDs::ID
280
    10
320
7014F
  2
Thumbnail_Data
280
    15
 94
     1017
310
89504E470D0A1A0A0000000D4948445200000100000000890803000000F46416F000000300504C5445FEFCF0000000FFFFFF0000000000000000000000000000000000000000000000000000330000660000990000CC0000FF0033000033330033660033990033CC0033FF0066000066330066660066990066CC0066FF0099
310
000099330099660099990099CC0099FF00CC0000CC3300CC6600CC9900CCCC00CCFF00FF0000FF3300FF6600FF9900FFCC00FFFF3300003300333300663300993300CC3300FF3333003333333333663333993333CC3333FF3366003366333366663366993366CC3366FF3399003399333399663399993399CC3399FF33CC00
310
33CC3333CC6633CC9933CCCC33CCFF33FF0033FF3333FF6633FF9933FFCC33FFFF6600006600336600666600996600CC6600FF6633006633336633666633996633CC6633FF6666006666336666666666996666CC6666FF6699006699336699666699996699CC6699FF66CC0066CC3366CC6666CC9966CCCC66CCFF66FF0066
310
FF3366FF6666FF9966FFCC66FFFF9900009900339900669900999900CC9900FF9933009933339933669933999933CC9933FF9966009966339966669966999966CC9966FF9999009999339999669999999999CC9999FF99CC0099CC3399CC6699CC9999CCCC99CCFF99FF0099FF3399FF6699FF9999FFCC99FFFFCC0000CC00
310
33CC0066CC0099CC00CCCC00FFCC3300CC3333CC3366CC3399CC33CCCC33FFCC6600CC6633CC6666CC6699CC66CCCC66FFCC9900CC9933CC9966CC9999CC99CCCC99FFCCCC00CCCC33CCCC66CCCC99CCCCCCCCCCFFCCFF00CCFF33CCFF66CCFF99CCFFCCCCFFFFFF0000FF0033FF0066FF0099FF00CCFF00FFFF3300FF3333
310
FF3366FF3399FF33CCFF33FFFF6600FF6633FF6666FF6699FF66CCFF66FFFF9900FF9933FF9966FF9999FF99CCFF99FFFFCC00FFCC33FFCC66FFCC99FFCCCCFFCCFFFFFF00FFFF33FFFF66FFFF99FFFFCCFFFFFF0000000D0D0D1A1A1A2828283535354343435050505D5D5D6B6B6B787878868686939393A1A1A1AEAEAEBB
310
BBBBC9C9C9D6D6D6E4E4E4F1F1F1FFFFFF0000000000000000000000000000000000000000000000000000000000007C77BAA7000000B44944415478DAEDD0310100000C0220FBB7B48931760C22903E1701020408102040800001020408102040800001020408102040800001020408102040800001020408102040800001
310
020408102040800001020408102040800001020408102040800001020408102040800001020408102040800001020408102040800001020408102040800001020408102040800001020408102040800001020408102040800001020408102040800001020408102040C099016B33700943E05F3C0000000049454E44AE4260
310
82
  0
ENDSEC
  0
EOF
