  0
SECTION
  2
HEADER
  9
$ACADVER
  1
AC1027
  9
$ACADMAINTVER
 70
    55
  9
$DWGCODEPAGE
  3
ANSI_1252
  9
$AUTHOR
  1
WAEngineering1
  9
$LASTSAVEDBY
  1
WAMarketing2
  9
$REQUIREDVERSIONS
160
                 0
  9
$INSBASE
 10
0.0
 20
0.0
 30
0.0
  9
$EXTMIN
 10
1576.184
 20
-1412.027
 30
0.0
  9
$EXTMAX
 10
4384.085
 20
1458.976
 30
0.0
  9
$LIMMIN
 10
-5051.544341
 20
-8008.204341
  9
$LIMMAX
 10
11011.813341
 20
8055.153341
  9
$ORTHOMODE
 70
     0
  9
$REGENMODE
 70
     1
  9
$FILLMODE
 70
     1
  9
$QTEXTMODE
 70
     0
  9
$MIRRTEXT
 70
     0
  9
$LTSCALE
 40
1.0
  9
$ATTMODE
 70
     1
  9
$TEXTSIZE
 40
100.0
  9
$TRACEWID
 40
0.05
  9
$TEXTSTYLE
  7
Standard
  9
$CLAYER
  8
Level 8
  9
$CELTYPE
  6
Continuous
  9
$CECOLOR
 62
    98
  9
$CELTSCALE
 40
1.0
  9
$DISPSILH
 70
     0
  9
$DIMSCALE
 40
1.0
  9
$DIMASZ
 40
0.18
  9
$DIMEXO
 40
0.0625
  9
$DIMDLI
 40
0.38
  9
$DIMRND
 40
0.0
  9
$DIMDLE
 40
0.0
  9
$DIMEXE
 40
0.18
  9
$DIMTP
 40
0.0
  9
$DIMTM
 40
0.0
  9
$DIMTXT
 40
0.18
  9
$DIMCEN
 40
0.09
  9
$DIMTSZ
 40
0.0
  9
$DIMTOL
 70
     0
  9
$DIMLIM
 70
     0
  9
$DIMTIH
 70
     1
  9
$DIMTOH
 70
     1
  9
$DIMSE1
 70
     0
  9
$DIMSE2
 70
     0
  9
$DIMTAD
 70
     0
  9
$DIMZIN
 70
     0
  9
$DIMBLK
  1

  9
$DIMASO
 70
     1
  9
$DIMSHO
 70
     1
  9
$DIMPOST
  1

  9
$DIMAPOST
  1

  9
$DIMALT
 70
     0
  9
$DIMALTD
 70
     2
  9
$DIMALTF
 40
25.4
  9
$DIMLFAC
 40
1.0
  9
$DIMTOFL
 70
     0
  9
$DIMTVP
 40
0.0
  9
$DIMTIX
 70
     0
  9
$DIMSOXD
 70
     0
  9
$DIMSAH
 70
     0
  9
$DIMBLK1
  1

  9
$DIMBLK2
  1

  9
$DIMSTYLE
  2
Standard
  9
$DIMCLRD
 70
     0
  9
$DIMCLRE
 70
     0
  9
$DIMCLRT
 70
     0
  9
$DIMTFAC
 40
1.0
  9
$DIMGAP
 40
0.09
  9
$DIMJUST
 70
     0
  9
$DIMSD1
 70
     0
  9
$DIMSD2
 70
     0
  9
$DIMTOLJ
 70
     1
  9
$DIMTZIN
 70
     0
  9
$DIMALTZ
 70
     0
  9
$DIMALTTZ
 70
     0
  9
$DIMUPT
 70
     0
  9
$DIMDEC
 70
     4
  9
$DIMTDEC
 70
     4
  9
$DIMALTU
 70
     2
  9
$DIMALTTD
 70
     2
  9
$DIMTXSTY
  7
Standard
  9
$DIMAUNIT
 70
     0
  9
$DIMADEC
 70
     0
  9
$DIMALTRND
 40
0.0
  9
$DIMAZIN
 70
     0
  9
$DIMDSEP
 70
    46
  9
$DIMATFIT
 70
     3
  9
$DIMFRAC
 70
     0
  9
$DIMLDRBLK
  1

  9
$DIMLUNIT
 70
     2
  9
$DIMLWD
 70
    -2
  9
$DIMLWE
 70
    -2
  9
$DIMTMOVE
 70
     0
  9
$DIMFXL
 40
1.0
  9
$DIMFXLON
 70
     0
  9
$DIMJOGANG
 40
0.785398
  9
$DIMTFILL
 70
     0
  9
$DIMTFILLCLR
 70
     0
  9
$DIMARCSYM
 70
     0
  9
$DIMLTYPE
  6

  9
$DIMLTEX1
  6

  9
$DIMLTEX2
  6

  9
$DIMTXTDIRECTION
 70
     0
  9
$LUNITS
 70
     2
  9
$LUPREC
 70
     0
  9
$SKETCHINC
 40
0.1
  9
$FILLETRAD
 40
0.0
  9
$AUNITS
 70
     0
  9
$AUPREC
 70
     0
  9
$MENU
  1
.
  9
$ELEVATION
 40
0.0
  9
$PELEVATION
 40
0.0
  9
$THICKNESS
 40
0.0
  9
$LIMCHECK
 70
     0
  9
$CHAMFERA
 40
0.0
  9
$CHAMFERB
 40
0.0
  9
$CHAMFERC
 40
0.0
  9
$CHAMFERD
 40
0.0
  9
$SKPOLY
 70
     0
  9
$TDCREATE
 40
2454145.111357350
  9
$TDUCREATE
 40
2454144.778024017
  9
$TDUPDATE
 40
2455657.145108565
  9
$TDUUPDATE
 40
2455656.811775231
  9
$TDINDWG
 40
0.0262176852
  9
$TDUSRTIMER
 40
0.0262175000
  9
$USRTIMER
 70
     1
  9
$ANGBASE
 50
0.0
  9
$ANGDIR
 70
     0
  9
$PDMODE
 70
     0
  9
$PDSIZE
 40
0.0
  9
$PLINEWID
 40
0.0
  9
$SPLFRAME
 70
     0
  9
$SPLINETYPE
 70
     6
  9
$SPLINESEGS
 70
     8
  9
$HANDSEED
  5
70154
  9
$SURFTAB1
 70
     6
  9
$SURFTAB2
 70
     6
  9
$SURFTYPE
 70
     6
  9
$SURFU
 70
     6
  9
$SURFV
 70
     6
  9
$UCSBASE
  2

  9
$UCSNAME
  2

  9
$UCSORG
 10
0.0
 20
0.0
 30
0.0
  9
$UCSXDIR
 10
1.0
 20
0.0
 30
0.0
  9
$UCSYDIR
 10
0.0
 20
1.0
 30
0.0
  9
$UCSORTHOREF
  2

  9
$UCSORTHOVIEW
 70
     0
  9
$UCSORGTOP
 10
0.0
 20
0.0
 30
0.0
  9
$UCSORGBOTTOM
 10
0.0
 20
0.0
 30
0.0
  9
$UCSORGLEFT
 10
0.0
 20
0.0
 30
0.0
  9
$UCSORGRIGHT
 10
0.0
 20
0.0
 30
0.0
  9
$UCSORGFRONT
 10
0.0
 20
0.0
 30
0.0
  9
$UCSORGBACK
 10
0.0
 20
0.0
 30
0.0
  9
$PUCSBASE
  2

  9
$PUCSNAME
  2

  9
$PUCSORG
 10
0.0
 20
0.0
 30
0.0
  9
$PUCSXDIR
 10
1.0
 20
0.0
 30
0.0
  9
$PUCSYDIR
 10
0.0
 20
1.0
 30
0.0
  9
$PUCSORTHOREF
  2

  9
$PUCSORTHOVIEW
 70
     0
  9
$PUCSORGTOP
 10
0.0
 20
0.0
 30
0.0
  9
$PUCSORGBOTTOM
 10
0.0
 20
0.0
 30
0.0
  9
$PUCSORGLEFT
 10
0.0
 20
0.0
 30
0.0
  9
$PUCSORGRIGHT
 10
0.0
 20
0.0
 30
0.0
  9
$PUCSORGFRONT
 10
0.0
 20
0.0
 30
0.0
  9
$PUCSORGBACK
 10
0.0
 20
0.0
 30
0.0
  9
$USERI1
 70
     0
  9
$USERI2
 70
     0
  9
$USERI3
 70
     0
  9
$USERI4
 70
     0
  9
$USERI5
 70
     0
  9
$USERR1
 40
0.0
  9
$USERR2
 40
0.0
  9
$USERR3
 40
0.0
  9
$USERR4
 40
0.0
  9
$USERR5
 40
0.0
  9
$WORLDVIEW
 70
     1
  9
$SHADEDGE
 70
     3
  9
$SHADEDIF
 70
    70
  9
$TILEMODE
 70
     1
  9
$MAXACTVP
 70
    64
  9
$PINSBASE
 10
0.0
 20
0.0
 30
0.0
  9
$PLIMCHECK
 70
     0
  9
$PEXTMIN
 10
1.05
 20
0.8
 30
0.0
  9
$PEXTMAX
 10
9.45
 20
7.2
 30
0.0
  9
$PLIMMIN
 10
-0.25
 20
-0.25
  9
$PLIMMAX
 10
10.75
 20
8.25
  9
$UNITMODE
 70
     0
  9
$VISRETAIN
 70
     1
  9
$PLINEGEN
 70
     0
  9
$PSLTSCALE
 70
     0
  9
$TREEDEPTH
 70
  3020
  9
$CMLSTYLE
  2
Standard
  9
$CMLJUST
 70
     0
  9
$CMLSCALE
 40
1.0
  9
$PROXYGRAPHICS
 70
     1
  9
$MEASUREMENT
 70
     0
  9
$CELWEIGHT
370
     0
  9
$ENDCAPS
280
     0
  9
$JOINSTYLE
280
     0
  9
$LWDISPLAY
290
     1
  9
$INSUNITS
 70
     4
  9
$HYPERLINKBASE
  1

  9
$STYLESHEET
  1

  9
$XEDIT
290
     1
  9
$CEPSNTYPE
380
     0
  9
$PSTYLEMODE
290
     1
  9
$FINGERPRINTGUID
  2
{77B6366D-6226-40B6-8411-9D99E72A4D4A}
  9
$VERSIONGUID
  2
{5066CCA6-5121-4C7B-A04C-375F92FA871B}
  9
$EXTNAMES
290
     1
  9
$PSVPSCALE
 40
0.0
  9
$OLESTARTUP
290
     0
  9
$SORTENTS
280
   127
  9
$INDEXCTL
280
     0
  9
$HIDETEXT
280
     1
  9
$XCLIPFRAME
280
     0
  9
$HALOGAP
280
     0
  9
$OBSCOLOR
 70
   257
  9
$OBSLTYPE
280
     0
  9
$INTERSECTIONDISPLAY
280
     0
  9
$INTERSECTIONCOLOR
 70
   257
  9
$DIMASSOC
280
     1
  9
$PROJECTNAME
  1

  9
$CAMERADISPLAY
290
     0
  9
$LENSLENGTH
 40
50.0
  9
$CAMERAHEIGHT
 40
0.0
  9
$STEPSPERSEC
 40
2.0
  9
$STEPSIZE
 40
6.0
  9
$3DDWFPREC
 40
2.0
  9
$PSOLWIDTH
 40
0.25
  9
$PSOLHEIGHT
 40
4.0
  9
$LOFTANG1
 40
1.570796
  9
$LOFTANG2
 40
1.570796
  9
$LOFTMAG1
 40
0.0
  9
$LOFTMAG2
 40
0.0
  9
$LOFTPARAM
 70
     7
  9
$LOFTNORMALS
280
     1
  9
$LATITUDE
 40
37.795
  9
$LONGITUDE
 40
-122.394
  9
$NORTHDIRECTION
 40
0.0
  9
$TIMEZONE
 70
 -8000
  9
$LIGHTGLYPHDISPLAY
280
     1
  9
$TILEMODELIGHTSYNCH
280
     1
  9
$CMATERIAL
347
700B6
  9
$SOLIDHIST
280
     1
  9
$SHOWHIST
280
     1
  9
$DWFFRAME
280
     2
  9
$DGNFRAME
280
     0
  9
$REALWORLDSCALE
290
     1
  9
$INTERFERECOLOR
 62
     1
  9
$INTERFEREOBJVS
345
700CD
  9
$INTERFEREVPVS
346
700CE
  9
$CSHADOW
280
     0
  9
$SHADOWPLANELOCATION
 40
0.0
  0
ENDSEC
  0
SECTION
  2
CLASSES
  0
CLASS
  1
ACDBDICTIONARYWDFLT
  2
AcDbDictionaryWithDefault
  3
ObjectDBX Classes
 90
        0
 91
        1
280
     0
281
     0
  0
CLASS
  1
DICTIONARYVAR
  2
AcDbDictionaryVar
  3
ObjectDBX Classes
 90
        0
 91
        8
280
     0
281
     0
  0
CLASS
  1
TABLESTYLE
  2
AcDbTableStyle
  3
ObjectDBX Classes
 90
     4095
 91
        1
280
     0
281
     0
  0
CLASS
  1
MATERIAL
  2
AcDbMaterial
  3
ObjectDBX Classes
 90
     1153
 91
        3
280
     0
281
     0
  0
CLASS
  1
VISUALSTYLE
  2
AcDbVisualStyle
  3
ObjectDBX Classes
 90
     4095
 91
        3
280
     0
281
     0
  0
CLASS
  1
SCALE
  2
AcDbScale
  3
ObjectDBX Classes
 90
     1153
 91
       33
280
     0
281
     0
  0
CLASS
  1
MLEADERSTYLE
  2
AcDbMLeaderStyle
  3
ACDB_MLEADERSTYLE_CLASS
 90
     4095
 91
        0
280
     0
281
     0
  0
CLASS
  1
EXACXREFPANELOBJECT
  2
ExAcXREFPanelObject
  3
EXAC_ESW
 90
     1025
 91
        0
280
     1
281
     0
  0
CLASS
  1
NPOCOLLECTION
  2
AcDbImpNonPersistentObjectsCollection
  3
ObjectDBX Classes
 90
     1153
 91
        0
280
     0
281
     0
  0
CLASS
  1
CELLSTYLEMAP
  2
AcDbCellStyleMap
  3
ObjectDBX Classes
 90
     1152
 91
        1
280
     0
281
     0
  0
CLASS
  1
ACDBSECTIONVIEWSTYLE
  2
AcDbSectionViewStyle
  3
ObjectDBX Classes
 90
     1025
 91
        0
280
     0
281
     0
  0
CLASS
  1
ACDBDETAILVIEWSTYLE
  2
AcDbDetailViewStyle
  3
ObjectDBX Classes
 90
     1025
 91
        0
280
     0
281
     0
  0
CLASS
  1
SORTENTSTABLE
  2
AcDbSortentsTable
  3
ObjectDBX Classes
 90
        0
 91
        1
280
     0
281
     0
  0
ENDSEC
  0
SECTION
  2
TABLES
  0
TABLE
  2
VPORT
  5
700AA
330
0
100
AcDbSymbolTable
 70
     2
  0
VPORT
  5
4B
330
700AA
100
AcDbSymbolTableRecord
100
AcDbViewportTableRecord
  2
*ACTIVE
 70
     0
 10
0.0
 20
0.0
 11
1.0
 21
1.0
 12
2980.1345
 22
23.4745
 13
0.0
 23
0.0
 14
1.0
 24
1.0
 15
1.0
 25
1.0
 16
0.0
 26
0.0
 36
1.0
 17
0.0
 27
0.0
 37
0.0
 40
2985.84312
 41
2.090493
 42
50.0
 43
0.0
 44
0.0
 50
0.0
 51
0.0
 71
     0
 72
   100
 73
     1
 74
     0
 75
     0
 76
     0
 77
     0
 78
     1
281
     0
 65
     1
110
0.0
120
0.0
130
0.0
111
1.0
121
0.0
131
0.0
112
0.0
122
1.0
132
0.0
 79
     0
146
0.0
 60
     3
 61
    10
292
     0
282
     1
141
0.0
142
0.0
 63
     7
421
 16777215
  0
ENDTAB
  0
TABLE
  2
LTYPE
  5
700A5
330
0
100
AcDbSymbolTable
 70
     2
  0
LTYPE
  5
700A6
330
700A5
100
AcDbSymbolTableRecord
100
AcDbLinetypeTableRecord
  2
ByBlock
 70
     0
  3

 72
    65
 73
     0
 40
0.0
  0
LTYPE
  5
700A7
330
700A5
100
AcDbSymbolTableRecord
100
AcDbLinetypeTableRecord
  2
ByLayer
 70
     0
  3

 72
    65
 73
     0
 40
0.0
  0
LTYPE
  5
70092
330
700A5
100
AcDbSymbolTableRecord
100
AcDbLinetypeTableRecord
  2
Continuous
 70
     0
  3
Solid line
 72
    65
 73
     0
 40
0.0
  0
LTYPE
  5
70147
330
700A5
100
AcDbSymbolTableRecord
100
AcDbLinetypeTableRecord
  2
DGN Style 2
 70
     0
  3
Dgn Style 2
 72
    65
 73
     2
 40
62.418828
 49
37.451297
 74
     0
 49
-24.967531
 74
     0
  0
ENDTAB
  0
TABLE
  2
LAYER
  5
7009F
102
{ACAD_XDICTIONARY
360
700A0
102
}
330
0
100
AcDbSymbolTable
 70
    65
  0
LAYER
  5
70083
102
{ACAD_XDICTIONARY
360
70084
102
}
330
7009F
100
AcDbSymbolTableRecord
100
AcDbLayerTableRecord
  2
0
 70
     0
 62
     7
  6
Continuous
370
    -3
390
70086
347
70089
348
0
1001
AcCmTransparency
1071
 33554687
  0
LAYER
  5
7
330
7009F
100
AcDbSymbolTableRecord
100
AcDbLayerTableRecord
  2
Level 1
 70
     0
 62
     7
  6
Continuous
370
     0
390
70086
347
70089
348
0
1001
AcCmTransparency
1071
 33554687
  0
LAYER
  5
8
330
7009F
100
AcDbSymbolTableRecord
100
AcDbLayerTableRecord
  2
Level 2
 70
     0
 62
     7
  6
Continuous
370
     0
390
70086
347
70089
348
0
1001
AcCmTransparency
1071
 33554687
  0
LAYER
  5
9
330
7009F
100
AcDbSymbolTableRecord
100
AcDbLayerTableRecord
  2
Level 3
 70
     0
 62
     7
  6
Continuous
370
     0
390
70086
347
70089
348
0
1001
AcCmTransparency
1071
 33554687
  0
LAYER
  5
A
330
7009F
100
AcDbSymbolTableRecord
100
AcDbLayerTableRecord
  2
Level 4
 70
     0
 62
     7
  6
Continuous
370
     0
390
70086
347
70089
348
0
1001
AcCmTransparency
1071
 33554687
  0
LAYER
  5
B
330
7009F
100
AcDbSymbolTableRecord
100
AcDbLayerTableRecord
  2
Level 5
 70
     0
 62
     7
  6
Continuous
370
     0
390
70086
347
70089
348
0
1001
AcCmTransparency
1071
 33554687
  0
LAYER
  5
C
330
7009F
100
AcDbSymbolTableRecord
100
AcDbLayerTableRecord
  2
Level 6
 70
     0
 62
     7
  6
Continuous
370
     0
390
70086
347
70089
348
0
1001
AcCmTransparency
1071
 33554687
  0
LAYER
  5
D
330
7009F
100
AcDbSymbolTableRecord
100
AcDbLayerTableRecord
  2
Level 7
 70
     0
 62
     7
  6
Continuous
370
     0
390
70086
347
70089
348
0
1001
AcCmTransparency
1071
 33554687
  0
LAYER
  5
E
330
7009F
100
AcDbSymbolTableRecord
100
AcDbLayerTableRecord
  2
Level 8
 70
     0
 62
     7
  6
Continuous
370
     0
390
70086
347
70089
348
0
1001
AcCmTransparency
1071
 33554687
  0
LAYER
  5
F
330
7009F
100
AcDbSymbolTableRecord
100
AcDbLayerTableRecord
  2
Level 9
 70
     0
 62
     7
  6
Continuous
370
     0
390
70086
347
70089
348
0
1001
AcCmTransparency
1071
 33554687
  0
LAYER
  5
10
330
7009F
100
AcDbSymbolTableRecord
100
AcDbLayerTableRecord
  2
Level 10
 70
     0
 62
     7
  6
Continuous
370
     0
390
70086
347
70089
348
0
1001
AcCmTransparency
1071
 33554687
  0
LAYER
  5
11
330
7009F
100
AcDbSymbolTableRecord
100
AcDbLayerTableRecord
  2
Level 11
 70
     0
 62
     7
  6
Continuous
370
     0
390
70086
347
70089
348
0
1001
AcCmTransparency
1071
 33554687
  0
LAYER
  5
12
330
7009F
100
AcDbSymbolTableRecord
100
AcDbLayerTableRecord
  2
Level 12
 70
     0
 62
     7
  6
Continuous
370
     0
390
70086
347
70089
348
0
1001
AcCmTransparency
1071
 33554687
  0
LAYER
  5
13
330
7009F
100
AcDbSymbolTableRecord
100
AcDbLayerTableRecord
  2
Level 13
 70
     0
 62
     7
  6
Continuous
370
     0
390
70086
347
70089
348
0
1001
AcCmTransparency
1071
 33554687
  0
LAYER
  5
14
330
7009F
100
AcDbSymbolTableRecord
100
AcDbLayerTableRecord
  2
Level 14
 70
     0
 62
     7
  6
Continuous
370
     0
390
70086
347
70089
348
0
1001
AcCmTransparency
1071
 33554687
  0
LAYER
  5
15
330
7009F
100
AcDbSymbolTableRecord
100
AcDbLayerTableRecord
  2
Level 15
 70
     0
 62
     7
  6
Continuous
370
     0
390
70086
347
70089
348
0
1001
AcCmTransparency
1071
 33554687
  0
LAYER
  5
16
330
7009F
100
AcDbSymbolTableRecord
100
AcDbLayerTableRecord
  2
Level 16
 70
     0
 62
     7
  6
Continuous
370
     0
390
70086
347
70089
348
0
1001
AcCmTransparency
1071
 33554687
  0
LAYER
  5
17
330
7009F
100
AcDbSymbolTableRecord
100
AcDbLayerTableRecord
  2
Level 17
 70
     0
 62
     7
  6
Continuous
370
     0
390
70086
347
70089
348
0
1001
AcCmTransparency
1071
 33554687
  0
LAYER
  5
18
330
7009F
100
AcDbSymbolTableRecord
100
AcDbLayerTableRecord
  2
Level 18
 70
     0
 62
     7
  6
Continuous
370
     0
390
70086
347
70089
348
0
1001
AcCmTransparency
1071
 33554687
  0
LAYER
  5
19
330
7009F
100
AcDbSymbolTableRecord
100
AcDbLayerTableRecord
  2
Level 19
 70
     0
 62
     7
  6
Continuous
370
     0
390
70086
347
70089
348
0
1001
AcCmTransparency
1071
 33554687
  0
LAYER
  5
1A
330
7009F
100
AcDbSymbolTableRecord
100
AcDbLayerTableRecord
  2
Level 20
 70
     0
 62
     7
  6
Continuous
370
     0
390
70086
347
70089
348
0
1001
AcCmTransparency
1071
 33554687
  0
LAYER
  5
1B
330
7009F
100
AcDbSymbolTableRecord
100
AcDbLayerTableRecord
  2
Level 21
 70
     0
 62
     7
  6
Continuous
370
     0
390
70086
347
70089
348
0
1001
AcCmTransparency
1071
 33554687
  0
LAYER
  5
1C
330
7009F
100
AcDbSymbolTableRecord
100
AcDbLayerTableRecord
  2
Level 22
 70
     0
 62
     7
  6
Continuous
370
     0
390
70086
347
70089
348
0
1001
AcCmTransparency
1071
 33554687
  0
LAYER
  5
1D
330
7009F
100
AcDbSymbolTableRecord
100
AcDbLayerTableRecord
  2
Level 23
 70
     0
 62
     7
  6
Continuous
370
     0
390
70086
347
70089
348
0
1001
AcCmTransparency
1071
 33554687
  0
LAYER
  5
1E
330
7009F
100
AcDbSymbolTableRecord
100
AcDbLayerTableRecord
  2
Level 24
 70
     0
 62
     7
  6
Continuous
370
     0
390
70086
347
70089
348
0
1001
AcCmTransparency
1071
 33554687
  0
LAYER
  5
1F
330
7009F
100
AcDbSymbolTableRecord
100
AcDbLayerTableRecord
  2
Level 25
 70
     0
 62
     7
  6
Continuous
370
     0
390
70086
347
70089
348
0
1001
AcCmTransparency
1071
 33554687
  0
LAYER
  5
20
330
7009F
100
AcDbSymbolTableRecord
100
AcDbLayerTableRecord
  2
Level 26
 70
     0
 62
     7
  6
Continuous
370
     0
390
70086
347
70089
348
0
1001
AcCmTransparency
1071
 33554687
  0
LAYER
  5
21
330
7009F
100
AcDbSymbolTableRecord
100
AcDbLayerTableRecord
  2
Level 27
 70
     0
 62
     7
  6
Continuous
370
     0
390
70086
347
70089
348
0
1001
AcCmTransparency
1071
 33554687
  0
LAYER
  5
22
330
7009F
100
AcDbSymbolTableRecord
100
AcDbLayerTableRecord
  2
Level 28
 70
     0
 62
     7
  6
Continuous
370
     0
390
70086
347
70089
348
0
1001
AcCmTransparency
1071
 33554687
  0
LAYER
  5
23
330
7009F
100
AcDbSymbolTableRecord
100
AcDbLayerTableRecord
  2
Level 29
 70
     0
 62
     7
  6
Continuous
370
     0
390
70086
347
70089
348
0
1001
AcCmTransparency
1071
 33554687
  0
LAYER
  5
24
330
7009F
100
AcDbSymbolTableRecord
100
AcDbLayerTableRecord
  2
Level 30
 70
     0
 62
     7
  6
Continuous
370
     0
390
70086
347
70089
348
0
1001
AcCmTransparency
1071
 33554687
  0
LAYER
  5
25
330
7009F
100
AcDbSymbolTableRecord
100
AcDbLayerTableRecord
  2
Level 31
 70
     0
 62
     7
  6
Continuous
370
     0
390
70086
347
70089
348
0
1001
AcCmTransparency
1071
 33554687
  0
LAYER
  5
26
330
7009F
100
AcDbSymbolTableRecord
100
AcDbLayerTableRecord
  2
Level 32
 70
     0
 62
     7
  6
Continuous
370
     0
390
70086
347
70089
348
0
1001
AcCmTransparency
1071
 33554687
  0
LAYER
  5
27
330
7009F
100
AcDbSymbolTableRecord
100
AcDbLayerTableRecord
  2
Level 33
 70
     0
 62
     7
  6
Continuous
370
     0
390
70086
347
70089
348
0
1001
AcCmTransparency
1071
 33554687
  0
LAYER
  5
28
330
7009F
100
AcDbSymbolTableRecord
100
AcDbLayerTableRecord
  2
Level 34
 70
     0
 62
     7
  6
Continuous
370
     0
390
70086
347
70089
348
0
1001
AcCmTransparency
1071
 33554687
  0
LAYER
  5
29
330
7009F
100
AcDbSymbolTableRecord
100
AcDbLayerTableRecord
  2
Level 35
 70
     0
 62
     7
  6
Continuous
370
     0
390
70086
347
70089
348
0
1001
AcCmTransparency
1071
 33554687
  0
LAYER
  5
2A
330
7009F
100
AcDbSymbolTableRecord
100
AcDbLayerTableRecord
  2
Level 36
 70
     0
 62
     7
  6
Continuous
370
     0
390
70086
347
70089
348
0
1001
AcCmTransparency
1071
 33554687
  0
LAYER
  5
2B
330
7009F
100
AcDbSymbolTableRecord
100
AcDbLayerTableRecord
  2
Level 37
 70
     0
 62
     7
  6
Continuous
370
     0
390
70086
347
70089
348
0
1001
AcCmTransparency
1071
 33554687
  0
LAYER
  5
2C
330
7009F
100
AcDbSymbolTableRecord
100
AcDbLayerTableRecord
  2
Level 38
 70
     0
 62
     7
  6
Continuous
370
     0
390
70086
347
70089
348
0
1001
AcCmTransparency
1071
 33554687
  0
LAYER
  5
2D
330
7009F
100
AcDbSymbolTableRecord
100
AcDbLayerTableRecord
  2
Level 39
 70
     0
 62
     7
  6
Continuous
370
     0
390
70086
347
70089
348
0
1001
AcCmTransparency
1071
 33554687
  0
LAYER
  5
2E
330
7009F
100
AcDbSymbolTableRecord
100
AcDbLayerTableRecord
  2
Level 40
 70
     0
 62
     7
  6
Continuous
370
     0
390
70086
347
70089
348
0
1001
AcCmTransparency
1071
 33554687
  0
LAYER
  5
2F
330
7009F
100
AcDbSymbolTableRecord
100
AcDbLayerTableRecord
  2
Level 41
 70
     0
 62
     7
  6
Continuous
370
     0
390
70086
347
70089
348
0
1001
AcCmTransparency
1071
 33554687
  0
LAYER
  5
30
330
7009F
100
AcDbSymbolTableRecord
100
AcDbLayerTableRecord
  2
Level 42
 70
     0
 62
     7
  6
Continuous
370
     0
390
70086
347
70089
348
0
1001
AcCmTransparency
1071
 33554687
  0
LAYER
  5
31
330
7009F
100
AcDbSymbolTableRecord
100
AcDbLayerTableRecord
  2
Level 43
 70
     0
 62
     7
  6
Continuous
370
     0
390
70086
347
70089
348
0
1001
AcCmTransparency
1071
 33554687
  0
LAYER
  5
32
330
7009F
100
AcDbSymbolTableRecord
100
AcDbLayerTableRecord
  2
Level 44
 70
     0
 62
     7
  6
Continuous
370
     0
390
70086
347
70089
348
0
1001
AcCmTransparency
1071
 33554687
  0
LAYER
  5
33
330
7009F
100
AcDbSymbolTableRecord
100
AcDbLayerTableRecord
  2
Level 45
 70
     0
 62
     7
  6
Continuous
370
     0
390
70086
347
70089
348
0
1001
AcCmTransparency
1071
 33554687
  0
LAYER
  5
34
330
7009F
100
AcDbSymbolTableRecord
100
AcDbLayerTableRecord
  2
Level 46
 70
     0
 62
     7
  6
Continuous
370
     0
390
70086
347
70089
348
0
1001
AcCmTransparency
1071
 33554687
  0
LAYER
  5
35
330
7009F
100
AcDbSymbolTableRecord
100
AcDbLayerTableRecord
  2
Level 47
 70
     0
 62
     7
  6
Continuous
370
     0
390
70086
347
70089
348
0
1001
AcCmTransparency
1071
 33554687
  0
LAYER
  5
36
330
7009F
100
AcDbSymbolTableRecord
100
AcDbLayerTableRecord
  2
Level 48
 70
     0
 62
     7
  6
Continuous
370
     0
390
70086
347
70089
348
0
1001
AcCmTransparency
1071
 33554687
  0
LAYER
  5
37
330
7009F
100
AcDbSymbolTableRecord
100
AcDbLayerTableRecord
  2
Level 49
 70
     0
 62
     7
  6
Continuous
370
     0
390
70086
347
70089
348
0
1001
AcCmTransparency
1071
 33554687
  0
LAYER
  5
38
330
7009F
100
AcDbSymbolTableRecord
100
AcDbLayerTableRecord
  2
Level 50
 70
     0
 62
     7
  6
Continuous
370
     0
390
70086
347
70089
348
0
1001
AcCmTransparency
1071
 33554687
  0
LAYER
  5
39
330
7009F
100
AcDbSymbolTableRecord
100
AcDbLayerTableRecord
  2
Level 51
 70
     0
 62
     7
  6
Continuous
370
     0
390
70086
347
70089
348
0
1001
AcCmTransparency
1071
 33554687
  0
LAYER
  5
3A
330
7009F
100
AcDbSymbolTableRecord
100
AcDbLayerTableRecord
  2
Level 52
 70
     0
 62
     7
  6
Continuous
370
     0
390
70086
347
70089
348
0
1001
AcCmTransparency
1071
 33554687
  0
LAYER
  5
3B
330
7009F
100
AcDbSymbolTableRecord
100
AcDbLayerTableRecord
  2
Level 53
 70
     0
 62
     7
  6
Continuous
370
     0
390
70086
347
70089
348
0
1001
AcCmTransparency
1071
 33554687
  0
LAYER
  5
3C
330
7009F
100
AcDbSymbolTableRecord
100
AcDbLayerTableRecord
  2
Level 54
 70
     0
 62
     7
  6
Continuous
370
     0
390
70086
347
70089
348
0
1001
AcCmTransparency
1071
 33554687
  0
LAYER
  5
3D
330
7009F
100
AcDbSymbolTableRecord
100
AcDbLayerTableRecord
  2
Level 55
 70
     0
 62
     7
  6
Continuous
370
     0
390
70086
347
70089
348
0
1001
AcCmTransparency
1071
 33554687
  0
LAYER
  5
3E
330
7009F
100
AcDbSymbolTableRecord
100
AcDbLayerTableRecord
  2
Level 56
 70
     0
 62
     7
  6
Continuous
370
     0
390
70086
347
70089
348
0
1001
AcCmTransparency
1071
 33554687
  0
LAYER
  5
3F
330
7009F
100
AcDbSymbolTableRecord
100
AcDbLayerTableRecord
  2
Level 57
 70
     0
 62
     7
  6
Continuous
370
     0
390
70086
347
70089
348
0
1001
AcCmTransparency
1071
 33554687
  0
LAYER
  5
40
330
7009F
100
AcDbSymbolTableRecord
100
AcDbLayerTableRecord
  2
Level 58
 70
     0
 62
     7
  6
Continuous
370
     0
390
70086
347
70089
348
0
1001
AcCmTransparency
1071
 33554687
  0
LAYER
  5
41
330
7009F
100
AcDbSymbolTableRecord
100
AcDbLayerTableRecord
  2
Level 59
 70
     0
 62
     7
  6
Continuous
370
     0
390
70086
347
70089
348
0
1001
AcCmTransparency
1071
 33554687
  0
LAYER
  5
42
330
7009F
100
AcDbSymbolTableRecord
100
AcDbLayerTableRecord
  2
Level 60
 70
     0
 62
     7
  6
Continuous
370
     0
390
70086
347
70089
348
0
1001
AcCmTransparency
1071
 33554687
  0
LAYER
  5
43
330
7009F
100
AcDbSymbolTableRecord
100
AcDbLayerTableRecord
  2
Level 61
 70
     0
 62
     7
  6
Continuous
370
     0
390
70086
347
70089
348
0
1001
AcCmTransparency
1071
 33554687
  0
LAYER
  5
44
330
7009F
100
AcDbSymbolTableRecord
100
AcDbLayerTableRecord
  2
Level 62
 70
     0
 62
     7
  6
Continuous
370
     0
390
70086
347
70089
348
0
1001
AcCmTransparency
1071
 33554687
  0
LAYER
  5
45
330
7009F
100
AcDbSymbolTableRecord
100
AcDbLayerTableRecord
  2
Level 63
 70
     0
 62
     7
  6
Continuous
370
     0
390
70086
347
70089
348
0
1001
AcCmTransparency
1071
 33554687
  0
LAYER
  5
50CA0
330
7009F
100
AcDbSymbolTableRecord
100
AcDbLayerTableRecord
  2
25
 70
     0
 62
     7
  6
Continuous
370
     0
390
70086
347
70089
348
0
1001
AcCmTransparency
1071
 33554687
  0
ENDTAB
  0
TABLE
  2
STYLE
  5
700A2
330
0
100
AcDbSymbolTable
 70
     1
  0
STYLE
  5
700A3
330
700A2
100
AcDbSymbolTableRecord
100
AcDbTextStyleTableRecord
  2
Standard
 70
     0
 40
0.0
 41
1.0
 50
0.0
 71
     0
 42
100.0
  3
txt
  4

  0
ENDTAB
  0
TABLE
  2
VIEW
  5
700A8
330
0
100
AcDbSymbolTable
 70
     0
  0
ENDTAB
  0
TABLE
  2
UCS
  5
700A9
330
0
100
AcDbSymbolTable
 70
     0
  0
ENDTAB
  0
TABLE
  2
APPID
  5
700AE
330
0
100
AcDbSymbolTable
 70
     3
  0
APPID
  5
700AF
330
700AE
100
AcDbSymbolTableRecord
100
AcDbRegAppTableRecord
  2
ACAD
 70
     0
  0
APPID
  5
7009E
330
700AE
100
AcDbSymbolTableRecord
100
AcDbRegAppTableRecord
  2
ACAD_PSEXT
 70
     0
  0
APPID
  5
700F2
330
700AE
100
AcDbSymbolTableRecord
100
AcDbRegAppTableRecord
  2
AcCmTransparency
 70
     0
  0
ENDTAB
  0
TABLE
  2
DIMSTYLE
  5
700B0
330
0
100
AcDbSymbolTable
 70
     1
100
AcDbDimStyleTable
 71
     1
340
700B1
  0
DIMSTYLE
105
700B1
330
700B0
100
AcDbSymbolTableRecord
100
AcDbDimStyleTableRecord
  2
Standard
 70
     0
340
700A3
  0
ENDTAB
  0
TABLE
  2
BLOCK_RECORD
  5
70080
330
0
100
AcDbSymbolTable
 70
    26
  0
BLOCK_RECORD
  5
70081
330
70080
100
AcDbSymbolTableRecord
100
AcDbBlockTableRecord
  2
*Model_Space
340
70094
 70
     0
280
     1
281
     0
  0
BLOCK_RECORD
  5
70098
330
70080
100
AcDbSymbolTableRecord
100
AcDbBlockTableRecord
  2
*Paper_Space
340
7009B
 70
     0
280
     1
281
     0
  0
BLOCK_RECORD
  5
700F5
102
{ACAD_XDICTIONARY
360
70145
102
}
330
70080
100
AcDbSymbolTableRecord
100
AcDbBlockTableRecord
  2
SE14
340
0
102
{BLKREFS
331
6FD64
102
}
 70
     0
280
     1
281
     0
  0
BLOCK_RECORD
  5
700F8
330
70080
100
AcDbSymbolTableRecord
100
AcDbBlockTableRecord
  2
From Solid
340
0
102
{BLKREFS
331
6FEDE
102
}
 70
     0
280
     1
281
     0
  0
BLOCK_RECORD
  5
700FB
330
70080
100
AcDbSymbolTableRecord
100
AcDbBlockTableRecord
  2
From Solid_1
340
0
102
{BLKREFS
331
6FEDF
102
}
 70
     0
280
     1
281
     0
  0
BLOCK_RECORD
  5
700FE
330
70080
100
AcDbSymbolTableRecord
100
AcDbBlockTableRecord
  2
From Solid_2
340
0
102
{BLKREFS
331
6FEE0
102
}
 70
     0
280
     1
281
     0
  0
BLOCK_RECORD
  5
70101
330
70080
100
AcDbSymbolTableRecord
100
AcDbBlockTableRecord
  2
From Solid_3
340
0
102
{BLKREFS
331
6FEE1
102
}
 70
     0
280
     1
281
     0
  0
BLOCK_RECORD
  5
70104
330
70080
100
AcDbSymbolTableRecord
100
AcDbBlockTableRecord
  2
From Solid_4
340
0
102
{BLKREFS
331
6FEE2
102
}
 70
     0
280
     1
281
     0
  0
BLOCK_RECORD
  5
70107
330
70080
100
AcDbSymbolTableRecord
100
AcDbBlockTableRecord
  2
From Solid_5
340
0
102
{BLKREFS
331
6FEE3
102
}
 70
     0
280
     1
281
     0
  0
BLOCK_RECORD
  5
7010A
330
70080
100
AcDbSymbolTableRecord
100
AcDbBlockTableRecord
  2
From Solid_6
340
0
102
{BLKREFS
331
6FEE4
102
}
 70
     0
280
     1
281
     0
  0
BLOCK_RECORD
  5
7010D
330
70080
100
AcDbSymbolTableRecord
100
AcDbBlockTableRecord
  2
From Solid_7
340
0
102
{BLKREFS
331
6FEE5
102
}
 70
     0
280
     1
281
     0
  0
BLOCK_RECORD
  5
70110
330
70080
100
AcDbSymbolTableRecord
100
AcDbBlockTableRecord
  2
From Solid_8
340
0
102
{BLKREFS
331
6FEE6
102
}
 70
     0
280
     1
281
     0
  0
BLOCK_RECORD
  5
70113
330
70080
100
AcDbSymbolTableRecord
100
AcDbBlockTableRecord
  2
From Solid_9
340
0
102
{BLKREFS
331
6FEE7
102
}
 70
     0
280
     1
281
     0
  0
BLOCK_RECORD
  5
70117
330
70080
100
AcDbSymbolTableRecord
100
AcDbBlockTableRecord
  2
From Solid_10
340
0
102
{BLKREFS
331
6FEE8
102
}
 70
     0
280
     1
281
     0
  0
BLOCK_RECORD
  5
7011B
330
70080
100
AcDbSymbolTableRecord
100
AcDbBlockTableRecord
  2
From Solid_11
340
0
102
{BLKREFS
331
6FEE9
102
}
 70
     0
280
     1
281
     0
  0
BLOCK_RECORD
  5
7011E
330
70080
100
AcDbSymbolTableRecord
100
AcDbBlockTableRecord
  2
From Solid_12
340
0
102
{BLKREFS
331
6FEEA
102
}
 70
     0
280
     1
281
     0
  0
BLOCK_RECORD
  5
70121
330
70080
100
AcDbSymbolTableRecord
100
AcDbBlockTableRecord
  2
From Surface
340
0
102
{BLKREFS
331
6FEEB
102
}
 70
     0
280
     1
281
     0
  0
BLOCK_RECORD
  5
70124
330
70080
100
AcDbSymbolTableRecord
100
AcDbBlockTableRecord
  2
From Surface_1
340
0
102
{BLKREFS
331
6FEEC
102
}
 70
     0
280
     1
281
     0
  0
BLOCK_RECORD
  5
70127
330
70080
100
AcDbSymbolTableRecord
100
AcDbBlockTableRecord
  2
From Surface_2
340
0
102
{BLKREFS
331
6FEED
102
}
 70
     0
280
     1
281
     0
  0
BLOCK_RECORD
  5
7012A
330
70080
100
AcDbSymbolTableRecord
100
AcDbBlockTableRecord
  2
From Surface_3
340
0
102
{BLKREFS
331
6FEEE
102
}
 70
     0
280
     1
281
     0
  0
BLOCK_RECORD
  5
7012D
330
70080
100
AcDbSymbolTableRecord
100
AcDbBlockTableRecord
  2
From Bspline Surface
340
0
102
{BLKREFS
331
6FEEF
102
}
 70
     0
280
     1
281
     0
  0
BLOCK_RECORD
  5
70130
330
70080
100
AcDbSymbolTableRecord
100
AcDbBlockTableRecord
  2
From Bspline Surface_1
340
0
102
{BLKREFS
331
6FF0E
102
}
 70
     0
280
     1
281
     0
  0
BLOCK_RECORD
  5
70133
330
70080
100
AcDbSymbolTableRecord
100
AcDbBlockTableRecord
  2
From Bspline Surface_2
340
0
102
{BLKREFS
331
6FF2D
102
}
 70
     0
280
     1
281
     0
  0
BLOCK_RECORD
  5
70136
330
70080
100
AcDbSymbolTableRecord
100
AcDbBlockTableRecord
  2
From Bspline Surface_3
340
0
102
{BLKREFS
331
6FF4C
102
}
 70
     0
280
     1
281
     0
  0
BLOCK_RECORD
  5
70139
330
70080
100
AcDbSymbolTableRecord
100
AcDbBlockTableRecord
  2
From Bspline Surface_4
340
0
102
{BLKREFS
331
6FF6B
102
}
 70
     0
280
     1
281
     0
  0
BLOCK_RECORD
  5
7013C
330
70080
100
AcDbSymbolTableRecord
100
AcDbBlockTableRecord
  2
From Bspline Surface_5
340
0
102
{BLKREFS
331
6FF8A
102
}
 70
     0
280
     1
281
     0
  0
BLOCK_RECORD
  5
7013F
330
70080
100
AcDbSymbolTableRecord
100
AcDbBlockTableRecord
  2
From Bspline Surface_6
340
0
102
{BLKREFS
331
6FFA9
102
}
 70
     0
280
     1
281
     0
  0
BLOCK_RECORD
  5
70142
330
70080
100
AcDbSymbolTableRecord
100
AcDbBlockTableRecord
  2
From Bspline Surface_7
340
0
102
{BLKREFS
331
6FFC8
102
}
 70
     0
280
     1
281
     0
  0
ENDTAB
  0
ENDSEC
  0
SECTION
  2
BLOCKS
  0
BLOCK
  5
70082
330
70081
100
AcDbEntity
  8
0
100
AcDbBlockBegin
  2
*Model_Space
 70
     0
 10
0.0
 20
0.0
 30
0.0
  3
*Model_Space
  1

  0
ENDBLK
  5
70093
330
70081
100
AcDbEntity
  8
0
100
AcDbBlockEnd
  0
BLOCK
  5
70099
330
70098
100
AcDbEntity
 67
     1
  8
0
100
AcDbBlockBegin
  2
*Paper_Space
 70
     0
 10
0.0
 20
0.0
 30
0.0
  3
*Paper_Space
  1

  0
ENDBLK
  5
7009A
330
70098
100
AcDbEntity
 67
     1
  8
0
100
AcDbBlockEnd
  0
BLOCK
  5
700F6
330
700F5
100
AcDbEntity
  8
0
 62
    98
370
     0
100
AcDbBlockBegin
  2
SE14
 70
     0
 10
0.0
 20
0.0
 30
0.0
  3
SE14
  1

  0
LWPOLYLINE
  5
6FD65
330
700F5
100
AcDbEntity
  8
Level 26
  6
Continuous
 62
    40
370
     0
100
AcDbPolyline
 90
        5
 70
   129
 43
0.0
 10
-181.9
 20
-57.5
 10
-181.9
 20
-32.5
 10
200.0
 20
-32.5
 10
200.0
 20
-57.5
 10
-181.9
 20
-57.5
  0
LWPOLYLINE
  5
6FD66
330
700F5
100
AcDbEntity
  8
Level 26
  6
Continuous
 62
    40
370
     0
100
AcDbPolyline
 90
        5
 70
   129
 43
0.0
 10
-181.9
 20
-32.5
 10
-181.9
 20
-32.5
 10
200.0
 20
-32.5
 10
200.0
 20
-32.5
 10
-181.9
 20
-32.5
  0
LWPOLYLINE
  5
6FD67
330
700F5
100
AcDbEntity
  8
Level 26
  6
Continuous
 62
    40
370
     0
100
AcDbPolyline
 90
        5
 70
   129
 43
0.0
 10
-181.9
 20
-32.5
 10
-181.9
 20
-57.5
 10
200.0
 20
-57.5
 10
200.0
 20
-32.5
 10
-181.9
 20
-32.5
  0
LWPOLYLINE
  5
6FD68
330
700F5
100
AcDbEntity
  8
Level 26
  6
Continuous
 62
    40
370
     0
100
AcDbPolyline
 90
        5
 70
   129
 43
0.0
 10
-181.9
 20
-57.5
 10
-181.9
 20
-57.5
 10
200.0
 20
-57.5
 10
200.0
 20
-57.5
 10
-181.9
 20
-57.5
  0
LWPOLYLINE
  5
6FD69
330
700F5
100
AcDbEntity
  8
Level 26
  6
Continuous
 62
    40
370
     0
100
AcDbPolyline
 90
        5
 70
   129
 43
0.0
 10
-181.9
 20
57.5
 10
-181.9
 20
57.5
 10
200.0
 20
57.5
 10
200.0
 20
57.5
 10
-181.9
 20
57.5
  0
LWPOLYLINE
  5
6FD6A
330
700F5
100
AcDbEntity
  8
Level 26
  6
Continuous
 62
    40
370
     0
100
AcDbPolyline
 90
        5
 70
   129
 43
0.0
 10
-181.9
 20
32.5
 10
-181.9
 20
57.5
 10
200.0
 20
57.5
 10
200.0
 20
32.5
 10
-181.9
 20
32.5
  0
LWPOLYLINE
  5
6FD6B
330
700F5
100
AcDbEntity
  8
Level 26
  6
Continuous
 62
    40
370
     0
100
AcDbPolyline
 90
        5
 70
   129
 43
0.0
 10
-181.9
 20
32.5
 10
-181.9
 20
32.5
 10
200.0
 20
32.5
 10
200.0
 20
32.5
 10
-181.9
 20
32.5
  0
LWPOLYLINE
  5
6FD6C
330
700F5
100
AcDbEntity
  8
Level 26
  6
Continuous
 62
    40
370
     0
100
AcDbPolyline
 90
        5
 70
   129
 43
0.0
 10
-181.9
 20
57.5
 10
-181.9
 20
32.5
 10
200.0
 20
32.5
 10
200.0
 20
57.5
 10
-181.9
 20
57.5
  0
LWPOLYLINE
  5
6FD6D
330
700F5
100
AcDbEntity
  8
Level 26
  6
Continuous
 62
    20
370
     0
100
AcDbPolyline
 90
        5
 70
   129
 43
0.0
 10
150.0
 20
-80.0
 10
150.0
 20
80.0
 10
150.0
 20
80.0
 10
150.0
 20
-80.0
 10
150.0
 20
-80.0
  0
LWPOLYLINE
  5
6FD6E
330
700F5
100
AcDbEntity
  8
Level 26
  6
Continuous
 62
    20
370
     0
100
AcDbPolyline
 90
        5
 70
   129
 43
0.0
 10
130.0
 20
100.0
 10
-120.0
 20
100.0
 10
-120.0
 20
100.0
 10
130.0
 20
100.0
 10
130.0
 20
100.0
  0
LWPOLYLINE
  5
6FD6F
330
700F5
100
AcDbEntity
  8
Level 26
  6
Continuous
 62
    20
370
     0
100
AcDbPolyline
 90
        5
 70
   129
 43
0.0
 10
-140.0
 20
80.0
 10
-140.0
 20
-80.0
 10
-140.0
 20
-80.0
 10
-140.0
 20
80.0
 10
-140.0
 20
80.0
  0
LWPOLYLINE
  5
6FD70
330
700F5
100
AcDbEntity
  8
Level 26
  6
Continuous
 62
    20
370
     0
100
AcDbPolyline
 90
        5
 70
   129
 43
0.0
 10
-120.0
 20
-100.0
 10
130.0
 20
-100.0
 10
130.0
 20
-100.0
 10
-120.0
 20
-100.0
 10
-120.0
 20
-100.0
  0
INSERT
  5
6FEDE
330
700F5
100
AcDbEntity
  8
Level 26
  6
Continuous
 62
    40
370
     0
100
AcDbBlockReference
  2
From Solid
 10
-2971.08474
 20
-23.474591
 30
0.0
  0
INSERT
  5
6FEDF
330
700F5
100
AcDbEntity
  8
Level 26
  6
Continuous
 62
    40
370
     0
100
AcDbBlockReference
  2
From Solid_1
 10
-2971.08474
 20
-23.474591
 30
0.0
  0
INSERT
  5
6FEE0
330
700F5
100
AcDbEntity
  8
Level 26
  6
Continuous
 62
    40
370
     0
100
AcDbBlockReference
  2
From Solid_2
 10
-2971.08474
 20
-23.474591
 30
0.0
  0
INSERT
  5
6FEE1
330
700F5
100
AcDbEntity
  8
Level 26
  6
Continuous
 62
    40
370
     0
100
AcDbBlockReference
  2
From Solid_3
 10
-2971.08474
 20
-23.474591
 30
0.0
  0
INSERT
  5
6FEE2
330
700F5
100
AcDbEntity
  8
Level 26
  6
Continuous
 62
    40
370
     0
100
AcDbBlockReference
  2
From Solid_4
 10
-2971.08474
 20
-23.474591
 30
0.0
  0
INSERT
  5
6FEE3
330
700F5
100
AcDbEntity
  8
Level 26
  6
Continuous
 62
    40
370
     0
100
AcDbBlockReference
  2
From Solid_5
 10
-2971.08474
 20
-23.474591
 30
0.0
  0
INSERT
  5
6FEE4
330
700F5
100
AcDbEntity
  8
Level 26
  6
Continuous
 62
    40
370
     0
100
AcDbBlockReference
  2
From Solid_6
 10
-2971.08474
 20
-23.474591
 30
0.0
  0
INSERT
  5
6FEE5
330
700F5
100
AcDbEntity
  8
Level 26
  6
Continuous
 62
    40
370
     0
100
AcDbBlockReference
  2
From Solid_7
 10
-2971.08474
 20
-23.474591
 30
0.0
  0
INSERT
  5
6FEE6
330
700F5
100
AcDbEntity
  8
Level 26
  6
Continuous
 62
    40
370
     0
100
AcDbBlockReference
  2
From Solid_8
 10
-2971.08474
 20
-23.474591
 30
0.0
  0
INSERT
  5
6FEE7
330
700F5
100
AcDbEntity
  8
Level 26
  6
Continuous
 62
    40
370
     0
100
AcDbBlockReference
  2
From Solid_9
 10
-2971.08474
 20
-23.474591
 30
0.0
  0
INSERT
  5
6FEE8
330
700F5
100
AcDbEntity
  8
Level 26
  6
Continuous
 62
    40
370
     0
100
AcDbBlockReference
  2
From Solid_10
 10
-2971.08474
 20
-23.474591
 30
0.0
  0
INSERT
  5
6FEE9
330
700F5
100
AcDbEntity
  8
Level 26
  6
Continuous
 62
    40
370
     0
100
AcDbBlockReference
  2
From Solid_11
 10
-2971.08474
 20
-23.474591
 30
0.0
  0
INSERT
  5
6FEEA
330
700F5
100
AcDbEntity
  8
Level 26
  6
Continuous
 62
    40
370
     0
100
AcDbBlockReference
  2
From Solid_12
 10
-2971.08474
 20
-23.474591
 30
0.0
  0
INSERT
  5
6FEEB
330
700F5
100
AcDbEntity
  8
Level 26
  6
Continuous
 62
    20
370
     0
100
AcDbBlockReference
  2
From Surface
 10
-2971.08474
 20
-23.474591
 30
0.0
  0
INSERT
  5
6FEEC
330
700F5
100
AcDbEntity
  8
Level 26
  6
Continuous
 62
    20
370
     0
100
AcDbBlockReference
  2
From Surface_1
 10
-2971.08474
 20
-23.474591
 30
0.0
  0
INSERT
  5
6FEED
330
700F5
100
AcDbEntity
  8
Level 26
  6
Continuous
 62
    20
370
     0
100
AcDbBlockReference
  2
From Surface_2
 10
-2971.08474
 20
-23.474591
 30
0.0
  0
INSERT
  5
6FEEE
330
700F5
100
AcDbEntity
  8
Level 26
  6
Continuous
 62
    20
370
     0
100
AcDbBlockReference
  2
From Surface_3
 10
-2971.08474
 20
-23.474591
 30
0.0
  0
LWPOLYLINE
  5
6FDE0
330
700F5
100
AcDbEntity
  8
Level 26
  6
Continuous
 62
    20
370
     0
100
AcDbPolyline
 90
        9
 70
   129
 43
0.0
 10
-140.0
 20
80.0
 10
-140.0
 20
-80.0
 42
0.414214
 10
-120.0
 20
-100.0
 10
130.0
 20
-100.0
 42
0.414214
 10
150.0
 20
-80.0
 10
150.0
 20
80.0
 42
0.414214
 10
130.0
 20
100.0
 10
-120.0
 20
100.0
 42
0.414214
 10
-140.0
 20
80.0
  0
INSERT
  5
6FEEF
330
700F5
100
AcDbEntity
  8
Level 25
  6
Continuous
 62
     7
370
     0
100
AcDbBlockReference
  2
From Bspline Surface
 10
-2971.08474
 20
-23.474591
 30
0.0
  0
INSERT
  5
6FF0E
330
700F5
100
AcDbEntity
  8
Level 26
  6
Continuous
 62
     7
370
     0
100
AcDbBlockReference
  2
From Bspline Surface_1
 10
-2971.08474
 20
-23.474591
 30
0.0
  0
INSERT
  5
6FF2D
330
700F5
100
AcDbEntity
  8
Level 26
  6
Continuous
 62
     7
370
     0
100
AcDbBlockReference
  2
From Bspline Surface_2
 10
-2971.08474
 20
-23.474591
 30
0.0
  0
INSERT
  5
6FF4C
330
700F5
100
AcDbEntity
  8
Level 26
  6
Continuous
 62
     7
370
     0
100
AcDbBlockReference
  2
From Bspline Surface_3
 10
-2971.08474
 20
-23.474591
 30
0.0
  0
INSERT
  5
6FF6B
330
700F5
100
AcDbEntity
  8
Level 26
  6
Continuous
 62
     7
370
     0
100
AcDbBlockReference
  2
From Bspline Surface_4
 10
-2971.08474
 20
-23.474591
 30
0.0
  0
INSERT
  5
6FF8A
330
700F5
100
AcDbEntity
  8
Level 26
  6
Continuous
 62
     7
370
     0
100
AcDbBlockReference
  2
From Bspline Surface_5
 10
-2971.08474
 20
-23.474591
 30
0.0
  0
INSERT
  5
6FFA9
330
700F5
100
AcDbEntity
  8
Level 26
  6
Continuous
 62
     7
370
     0
100
AcDbBlockReference
  2
From Bspline Surface_6
 10
-2971.08474
 20
-23.474591
 30
0.0
  0
INSERT
  5
6FFC8
330
700F5
100
AcDbEntity
  8
Level 26
  6
Continuous
 62
     7
370
     0
100
AcDbBlockReference
  2
From Bspline Surface_7
 10
-2971.08474
 20
-23.474591
 30
0.0
  0
ENDBLK
  5
700F7
330
700F5
100
AcDbEntity
  8
0
 62
    98
370
     0
100
AcDbBlockEnd
  0
BLOCK
  5
700F9
330
700F8
100
AcDbEntity
  8
0
 62
    98
370
     0
100
AcDbBlockBegin
  2
From Solid
 70
     0
 10
0.0
 20
0.0
 30
0.0
  3
From Solid
  1

  0
LINE
  5
6FD72
330
700F8
100
AcDbEntity
  8
Level 26
  6
Continuous
 62
    40
370
     0
100
AcDbLine
 10
3157.63474
 20
163.475567
 30
0.0
 11
3184.53474
 21
163.475567
 31
0.0
  0
LINE
  5
6FD73
330
700F8
100
AcDbEntity
  8
Level 26
  6
Continuous
 62
    40
370
     0
100
AcDbLine
 10
3157.63474
 20
-116.526386
 30
0.0
 11
3184.53474
 21
-116.526386
 31
0.0
  0
LINE
  5
6FD74
330
700F8
100
AcDbEntity
  8
Level 26
  6
Continuous
 62
    40
370
     0
100
AcDbLine
 10
3171.08474
 20
163.475567
 30
0.0
 11
3171.08474
 21
-116.526386
 31
0.0
  0
LINE
  5
6FD75
330
700F8
100
AcDbEntity
  8
Level 26
  6
Continuous
 62
    40
370
     0
100
AcDbLine
 10
3157.63474
 20
163.475567
 30
0.0
 11
3157.63474
 21
-116.526386
 31
0.0
  0
LINE
  5
6FD76
330
700F8
100
AcDbEntity
  8
Level 26
  6
Continuous
 62
    40
370
     0
100
AcDbLine
 10
3171.08474
 20
163.475567
 30
0.0
 11
3171.08474
 21
-116.526386
 31
0.0
  0
LINE
  5
6FD77
330
700F8
100
AcDbEntity
  8
Level 26
  6
Continuous
 62
    40
370
     0
100
AcDbLine
 10
3184.53474
 20
163.475567
 30
0.0
 11
3184.53474
 21
-116.526386
 31
0.0
  0
ENDBLK
  5
700FA
330
700F8
100
AcDbEntity
  8
0
 62
    98
370
     0
100
AcDbBlockEnd
  0
BLOCK
  5
700FC
330
700FB
100
AcDbEntity
  8
0
 62
    98
370
     0
100
AcDbBlockBegin
  2
From Solid_1
 70
     0
 10
0.0
 20
0.0
 30
0.0
  3
From Solid_1
  1

  0
LINE
  5
6FD79
330
700FB
100
AcDbEntity
  8
Level 26
  6
Continuous
 62
    40
370
     0
100
AcDbLine
 10
3157.63474
 20
163.475567
 30
0.0
 11
3184.53474
 21
163.475567
 31
0.0
  0
LINE
  5
6FD7A
330
700FB
100
AcDbEntity
  8
Level 26
  6
Continuous
 62
    40
370
     0
100
AcDbLine
 10
3157.63474
 20
-116.526386
 30
0.0
 11
3184.53474
 21
-116.526386
 31
0.0
  0
LINE
  5
6FD7B
330
700FB
100
AcDbEntity
  8
Level 26
  6
Continuous
 62
    40
370
     0
100
AcDbLine
 10
3171.08474
 20
163.475567
 30
0.0
 11
3171.08474
 21
-116.526386
 31
0.0
  0
LINE
  5
6FD7C
330
700FB
100
AcDbEntity
  8
Level 26
  6
Continuous
 62
    40
370
     0
100
AcDbLine
 10
3157.63474
 20
163.475567
 30
0.0
 11
3157.63474
 21
-116.526386
 31
0.0
  0
LINE
  5
6FD7D
330
700FB
100
AcDbEntity
  8
Level 26
  6
Continuous
 62
    40
370
     0
100
AcDbLine
 10
3171.08474
 20
163.475567
 30
0.0
 11
3171.08474
 21
-116.526386
 31
0.0
  0
LINE
  5
6FD7E
330
700FB
100
AcDbEntity
  8
Level 26
  6
Continuous
 62
    40
370
     0
100
AcDbLine
 10
3184.53474
 20
163.475567
 30
0.0
 11
3184.53474
 21
-116.526386
 31
0.0
  0
ENDBLK
  5
700FD
330
700FB
100
AcDbEntity
  8
0
 62
    98
370
     0
100
AcDbBlockEnd
  0
BLOCK
  5
700FF
330
700FE
100
AcDbEntity
  8
0
 62
    98
370
     0
100
AcDbBlockBegin
  2
From Solid_2
 70
     0
 10
0.0
 20
0.0
 30
0.0
  3
From Solid_2
  1

  0
CIRCLE
  5
6FD80
330
700FE
100
AcDbEntity
  8
Level 26
  6
Continuous
 62
    40
370
     0
100
AcDbCircle
 10
3171.08474
 20
165.02464
 30
0.0
 40
13.45
  0
CIRCLE
  5
6FD81
330
700FE
100
AcDbEntity
  8
Level 26
  6
Continuous
 62
    40
370
     0
100
AcDbCircle
 10
3171.08474
 20
165.02464
 30
0.0
 40
13.45
  0
POINT
  5
6FD82
330
700FE
100
AcDbEntity
  8
Level 26
  6
Continuous
 62
    40
370
     0
100
AcDbPoint
 10
3184.53474
 20
165.02464
 30
0.0
  0
POINT
  5
6FD83
330
700FE
100
AcDbEntity
  8
Level 26
  6
Continuous
 62
    40
370
     0
100
AcDbPoint
 10
3171.08474
 20
178.47464
 30
0.0
  0
POINT
  5
6FD84
330
700FE
100
AcDbEntity
  8
Level 26
  6
Continuous
 62
    40
370
     0
100
AcDbPoint
 10
3157.63474
 20
165.02464
 30
0.0
  0
POINT
  5
6FD85
330
700FE
100
AcDbEntity
  8
Level 26
  6
Continuous
 62
    40
370
     0
100
AcDbPoint
 10
3171.08474
 20
151.57464
 30
0.0
  0
ENDBLK
  5
70100
330
700FE
100
AcDbEntity
  8
0
 62
    98
370
     0
100
AcDbBlockEnd
  0
BLOCK
  5
70102
330
70101
100
AcDbEntity
  8
0
 62
    98
370
     0
100
AcDbBlockBegin
  2
From Solid_3
 70
     0
 10
0.0
 20
0.0
 30
0.0
  3
From Solid_3
  1

  0
CIRCLE
  5
6FD87
330
70101
100
AcDbEntity
  8
Level 26
  6
Continuous
 62
    40
370
     0
100
AcDbCircle
 10
3171.08474
 20
-118.075458
 30
0.0
 40
13.45
  0
CIRCLE
  5
6FD88
330
70101
100
AcDbEntity
  8
Level 26
  6
Continuous
 62
    40
370
     0
100
AcDbCircle
 10
3171.08474
 20
-118.075458
 30
0.0
 40
13.45
  0
POINT
  5
6FD89
330
70101
100
AcDbEntity
  8
Level 26
  6
Continuous
 62
    40
370
     0
100
AcDbPoint
 10
3157.63474
 20
-118.075458
 30
0.0
  0
POINT
  5
6FD8A
330
70101
100
AcDbEntity
  8
Level 26
  6
Continuous
 62
    40
370
     0
100
AcDbPoint
 10
3171.08474
 20
-104.625458
 30
0.0
  0
POINT
  5
6FD8B
330
70101
100
AcDbEntity
  8
Level 26
  6
Continuous
 62
    40
370
     0
100
AcDbPoint
 10
3184.53474
 20
-118.075458
 30
0.0
  0
POINT
  5
6FD8C
330
70101
100
AcDbEntity
  8
Level 26
  6
Continuous
 62
    40
370
     0
100
AcDbPoint
 10
3171.08474
 20
-131.525458
 30
0.0
  0
ENDBLK
  5
70103
330
70101
100
AcDbEntity
  8
0
 62
    98
370
     0
100
AcDbBlockEnd
  0
BLOCK
  5
70105
330
70104
100
AcDbEntity
  8
0
 62
    98
370
     0
100
AcDbBlockBegin
  2
From Solid_4
 70
     0
 10
0.0
 20
0.0
 30
0.0
  3
From Solid_4
  1

  0
LINE
  5
6FD8E
330
70104
100
AcDbEntity
  8
Level 26
  6
Continuous
 62
    40
370
     0
100
AcDbLine
 10
3157.63474
 20
-48.075458
 30
0.0
 11
3184.53474
 21
-48.075458
 31
0.0
  0
LINE
  5
6FD8F
330
70104
100
AcDbEntity
  8
Level 26
  6
Continuous
 62
    40
370
     0
100
AcDbLine
 10
3157.63474
 20
95.02464
 30
0.0
 11
3184.53474
 21
95.02464
 31
0.0
  0
LINE
  5
6FD90
330
70104
100
AcDbEntity
  8
Level 26
  6
Continuous
 62
    40
370
     0
100
AcDbLine
 10
3171.08474
 20
-48.075458
 30
0.0
 11
3171.08474
 21
95.02464
 31
0.0
  0
LINE
  5
6FD91
330
70104
100
AcDbEntity
  8
Level 26
  6
Continuous
 62
    40
370
     0
100
AcDbLine
 10
3157.63474
 20
-48.075458
 30
0.0
 11
3157.63474
 21
95.02464
 31
0.0
  0
LINE
  5
6FD92
330
70104
100
AcDbEntity
  8
Level 26
  6
Continuous
 62
    40
370
     0
100
AcDbLine
 10
3171.08474
 20
-48.075458
 30
0.0
 11
3171.08474
 21
95.02464
 31
0.0
  0
LINE
  5
6FD93
330
70104
100
AcDbEntity
  8
Level 26
  6
Continuous
 62
    40
370
     0
100
AcDbLine
 10
3184.53474
 20
-48.075458
 30
0.0
 11
3184.53474
 21
95.02464
 31
0.0
  0
ENDBLK
  5
70106
330
70104
100
AcDbEntity
  8
0
 62
    98
370
     0
100
AcDbBlockEnd
  0
BLOCK
  5
70108
330
70107
100
AcDbEntity
  8
0
 62
    98
370
     0
100
AcDbBlockBegin
  2
From Solid_5
 70
     0
 10
0.0
 20
0.0
 30
0.0
  3
From Solid_5
  1

  0
LINE
  5
6FD95
330
70107
100
AcDbEntity
  8
Level 26
  6
Continuous
 62
    40
370
     0
100
AcDbLine
 10
2775.73474
 20
-66.549945
 30
0.0
 11
2802.63474
 21
-66.549945
 31
0.0
  0
LINE
  5
6FD96
330
70107
100
AcDbEntity
  8
Level 26
  6
Continuous
 62
    40
370
     0
100
AcDbLine
 10
2775.73474
 20
113.499127
 30
0.0
 11
2802.63474
 21
113.499127
 31
0.0
  0
LINE
  5
6FD97
330
70107
100
AcDbEntity
  8
Level 26
  6
Continuous
 62
    40
370
     0
100
AcDbLine
 10
2789.18474
 20
-66.549945
 30
0.0
 11
2789.18474
 21
113.499127
 31
0.0
  0
LINE
  5
6FD98
330
70107
100
AcDbEntity
  8
Level 26
  6
Continuous
 62
    40
370
     0
100
AcDbLine
 10
2775.73474
 20
-66.549945
 30
0.0
 11
2775.73474
 21
113.499127
 31
0.0
  0
LINE
  5
6FD99
330
70107
100
AcDbEntity
  8
Level 26
  6
Continuous
 62
    40
370
     0
100
AcDbLine
 10
2789.18474
 20
-66.549945
 30
0.0
 11
2789.18474
 21
113.499127
 31
0.0
  0
LINE
  5
6FD9A
330
70107
100
AcDbEntity
  8
Level 26
  6
Continuous
 62
    40
370
     0
100
AcDbLine
 10
2802.63474
 20
-66.549945
 30
0.0
 11
2802.63474
 21
113.499127
 31
0.0
  0
ENDBLK
  5
70109
330
70107
100
AcDbEntity
  8
0
 62
    98
370
     0
100
AcDbBlockEnd
  0
BLOCK
  5
7010B
330
7010A
100
AcDbEntity
  8
0
 62
    98
370
     0
100
AcDbBlockBegin
  2
From Solid_6
 70
     0
 10
0.0
 20
0.0
 30
0.0
  3
From Solid_6
  1

  0
LINE
  5
6FD9C
330
7010A
100
AcDbEntity
  8
Level 26
  6
Continuous
 62
    40
370
     0
100
AcDbLine
 10
2775.73474
 20
-66.549945
 30
0.0
 11
2802.63474
 21
-66.549945
 31
0.0
  0
LINE
  5
6FD9D
330
7010A
100
AcDbEntity
  8
Level 26
  6
Continuous
 62
    40
370
     0
100
AcDbLine
 10
2775.73474
 20
113.499127
 30
0.0
 11
2802.63474
 21
113.499127
 31
0.0
  0
LINE
  5
6FD9E
330
7010A
100
AcDbEntity
  8
Level 26
  6
Continuous
 62
    40
370
     0
100
AcDbLine
 10
2789.18474
 20
-66.549945
 30
0.0
 11
2789.18474
 21
113.499127
 31
0.0
  0
LINE
  5
6FD9F
330
7010A
100
AcDbEntity
  8
Level 26
  6
Continuous
 62
    40
370
     0
100
AcDbLine
 10
2775.73474
 20
-66.549945
 30
0.0
 11
2775.73474
 21
113.499127
 31
0.0
  0
LINE
  5
6FDA0
330
7010A
100
AcDbEntity
  8
Level 26
  6
Continuous
 62
    40
370
     0
100
AcDbLine
 10
2789.18474
 20
-66.549945
 30
0.0
 11
2789.18474
 21
113.499127
 31
0.0
  0
LINE
  5
6FDA1
330
7010A
100
AcDbEntity
  8
Level 26
  6
Continuous
 62
    40
370
     0
100
AcDbLine
 10
2802.63474
 20
-66.549945
 30
0.0
 11
2802.63474
 21
113.499127
 31
0.0
  0
ENDBLK
  5
7010C
330
7010A
100
AcDbEntity
  8
0
 62
    98
370
     0
100
AcDbBlockEnd
  0
BLOCK
  5
7010E
330
7010D
100
AcDbEntity
  8
0
 62
    98
370
     0
100
AcDbBlockBegin
  2
From Solid_7
 70
     0
 10
0.0
 20
0.0
 30
0.0
  3
From Solid_7
  1

  0
LINE
  5
6FDA3
330
7010D
100
AcDbEntity
  8
Level 26
  6
Continuous
 62
    40
370
     0
100
AcDbLine
 10
3184.53474
 20
163.475567
 30
0.0
 11
3157.63474
 21
163.475567
 31
0.0
  0
LINE
  5
6FDA4
330
7010D
100
AcDbEntity
  8
Level 26
  6
Continuous
 62
    40
370
     0
100
AcDbLine
 10
3184.53474
 20
163.475567
 30
0.0
 11
3157.63474
 21
163.475567
 31
0.0
  0
LINE
  5
6FDA5
330
7010D
100
AcDbEntity
  8
Level 26
  6
Continuous
 62
    40
370
     0
100
AcDbLine
 10
3184.53474
 20
163.475567
 30
0.0
 11
3184.53474
 21
232.525372
 31
0.0
  0
LINE
  5
6FDA6
330
7010D
100
AcDbEntity
  8
Level 26
  6
Continuous
 62
    40
370
     0
100
AcDbLine
 10
3171.08474
 20
163.475567
 30
0.0
 11
3171.08474
 21
245.975372
 31
0.0
  0
LINE
  5
6FDA7
330
7010D
100
AcDbEntity
  8
Level 26
  6
Continuous
 62
    40
370
     0
100
AcDbLine
 10
3157.63474
 20
163.475567
 30
0.0
 11
3157.63474
 21
232.525372
 31
0.0
  0
LINE
  5
6FDA8
330
7010D
100
AcDbEntity
  8
Level 26
  6
Continuous
 62
    40
370
     0
100
AcDbLine
 10
3171.08474
 20
163.475567
 30
0.0
 11
3171.08474
 21
219.075372
 31
0.0
  0
ENDBLK
  5
7010F
330
7010D
100
AcDbEntity
  8
0
 62
    98
370
     0
100
AcDbBlockEnd
  0
BLOCK
  5
70111
330
70110
100
AcDbEntity
  8
0
 62
    98
370
     0
100
AcDbBlockBegin
  2
From Solid_8
 70
     0
 10
0.0
 20
0.0
 30
0.0
  3
From Solid_8
  1

  0
LINE
  5
6FDAA
330
70110
100
AcDbEntity
  8
Level 26
  6
Continuous
 62
    40
370
     0
100
AcDbLine
 10
3184.53474
 20
-116.526386
 30
0.0
 11
3157.63474
 21
-116.526386
 31
0.0
  0
LINE
  5
6FDAB
330
70110
100
AcDbEntity
  8
Level 26
  6
Continuous
 62
    40
370
     0
100
AcDbLine
 10
3184.53474
 20
-116.526386
 30
0.0
 11
3157.63474
 21
-116.526386
 31
0.0
  0
LINE
  5
6FDAC
330
70110
100
AcDbEntity
  8
Level 26
  6
Continuous
 62
    40
370
     0
100
AcDbLine
 10
3184.53474
 20
-116.526386
 30
0.0
 11
3184.53474
 21
-185.575702
 31
0.0
  0
LINE
  5
6FDAD
330
70110
100
AcDbEntity
  8
Level 26
  6
Continuous
 62
    40
370
     0
100
AcDbLine
 10
3171.08474
 20
-116.526386
 30
0.0
 11
3171.08474
 21
-199.025702
 31
0.0
  0
LINE
  5
6FDAE
330
70110
100
AcDbEntity
  8
Level 26
  6
Continuous
 62
    40
370
     0
100
AcDbLine
 10
3157.63474
 20
-116.526386
 30
0.0
 11
3157.63474
 21
-185.575702
 31
0.0
  0
LINE
  5
6FDAF
330
70110
100
AcDbEntity
  8
Level 26
  6
Continuous
 62
    40
370
     0
100
AcDbLine
 10
3171.08474
 20
-116.526386
 30
0.0
 11
3171.08474
 21
-172.125702
 31
0.0
  0
ENDBLK
  5
70112
330
70110
100
AcDbEntity
  8
0
 62
    98
370
     0
100
AcDbBlockEnd
  0
BLOCK
  5
70114
330
70113
100
AcDbEntity
  8
0
 62
    98
370
     0
100
AcDbBlockBegin
  2
From Solid_9
 70
     0
 10
0.0
 20
0.0
 30
0.0
  3
From Solid_9
  1

  0
LWPOLYLINE
  5
70116
330
70113
100
AcDbEntity
  8
Level 26
  6
Continuous
 62
    40
370
     0
100
AcDbPolyline
 90
        2
 70
   128
 43
0.0
 10
3157.63474
 20
-48.075459
 10
3184.53474
 20
-48.075459
  0
CIRCLE
  5
6FDB2
330
70113
100
AcDbEntity
  8
Level 26
  6
Continuous
 62
    40
370
     0
100
AcDbCircle
 10
3171.08474
 20
-118.075458
 30
0.0
 40
13.45
  0
LINE
  5
6FDB3
330
70113
100
AcDbEntity
  8
Level 26
  6
Continuous
 62
    40
370
     0
100
AcDbLine
 10
3184.53474
 20
-118.075458
 30
0.0
 11
3184.53474
 21
-48.075459
 31
0.0
  0
LINE
  5
6FDB4
330
70113
100
AcDbEntity
  8
Level 26
  6
Continuous
 62
    40
370
     0
100
AcDbLine
 10
3171.08474
 20
-131.525458
 30
0.0
 11
3171.08474
 21
-48.075404
 31
0.0
  0
LINE
  5
6FDB5
330
70113
100
AcDbEntity
  8
Level 26
  6
Continuous
 62
    40
370
     0
100
AcDbLine
 10
3157.63474
 20
-118.075458
 30
0.0
 11
3157.63474
 21
-48.075459
 31
0.0
  0
LINE
  5
6FDB6
330
70113
100
AcDbEntity
  8
Level 26
  6
Continuous
 62
    40
370
     0
100
AcDbLine
 10
3171.08474
 20
-104.625458
 30
0.0
 11
3171.08474
 21
-48.075514
 31
0.0
  0
ENDBLK
  5
70115
330
70113
100
AcDbEntity
  8
0
 62
    98
370
     0
100
AcDbBlockEnd
  0
BLOCK
  5
70118
330
70117
100
AcDbEntity
  8
0
 62
    98
370
     0
100
AcDbBlockBegin
  2
From Solid_10
 70
     0
 10
0.0
 20
0.0
 30
0.0
  3
From Solid_10
  1

  0
CIRCLE
  5
6FDB8
330
70117
100
AcDbEntity
  8
Level 26
  6
Continuous
 62
    40
370
     0
100
AcDbCircle
 10
3171.08474
 20
165.02464
 30
0.0
 40
13.45
  0
LWPOLYLINE
  5
7011A
330
70117
100
AcDbEntity
  8
Level 26
  6
Continuous
 62
    40
370
     0
100
AcDbPolyline
 90
        2
 70
   128
 43
0.0
 10
3157.63474
 20
95.024641
 10
3184.53474
 20
95.024641
  0
LINE
  5
6FDBA
330
70117
100
AcDbEntity
  8
Level 26
  6
Continuous
 62
    40
370
     0
100
AcDbLine
 10
3184.53474
 20
95.024641
 30
0.0
 11
3184.53474
 21
165.02464
 31
0.0
  0
LINE
  5
6FDBB
330
70117
100
AcDbEntity
  8
Level 26
  6
Continuous
 62
    40
370
     0
100
AcDbLine
 10
3171.08474
 20
95.024587
 30
0.0
 11
3171.08474
 21
178.47464
 31
0.0
  0
LINE
  5
6FDBC
330
70117
100
AcDbEntity
  8
Level 26
  6
Continuous
 62
    40
370
     0
100
AcDbLine
 10
3157.63474
 20
95.024641
 30
0.0
 11
3157.63474
 21
165.02464
 31
0.0
  0
LINE
  5
6FDBD
330
70117
100
AcDbEntity
  8
Level 26
  6
Continuous
 62
    40
370
     0
100
AcDbLine
 10
3171.08474
 20
95.024696
 30
0.0
 11
3171.08474
 21
151.57464
 31
0.0
  0
ENDBLK
  5
70119
330
70117
100
AcDbEntity
  8
0
 62
    98
370
     0
100
AcDbBlockEnd
  0
BLOCK
  5
7011C
330
7011B
100
AcDbEntity
  8
0
 62
    98
370
     0
100
AcDbBlockBegin
  2
From Solid_11
 70
     0
 10
0.0
 20
0.0
 30
0.0
  3
From Solid_11
  1

  0
LINE
  5
6FDBF
330
7011B
100
AcDbEntity
  8
Level 26
  6
Continuous
 62
    40
370
     0
100
AcDbLine
 10
2802.63474
 20
113.499127
 30
0.0
 11
2775.73474
 21
113.499127
 31
0.0
  0
LINE
  5
6FDC0
330
7011B
100
AcDbEntity
  8
Level 26
  6
Continuous
 62
    40
370
     0
100
AcDbLine
 10
2802.63474
 20
113.499127
 30
0.0
 11
2775.73474
 21
113.499127
 31
0.0
  0
LINE
  5
6FDC1
330
7011B
100
AcDbEntity
  8
Level 26
  6
Continuous
 62
    40
370
     0
100
AcDbLine
 10
2802.63474
 20
113.499127
 30
0.0
 11
2802.63474
 21
182.548932
 31
0.0
  0
LINE
  5
6FDC2
330
7011B
100
AcDbEntity
  8
Level 26
  6
Continuous
 62
    40
370
     0
100
AcDbLine
 10
2789.18474
 20
113.499127
 30
0.0
 11
2789.18474
 21
195.998932
 31
0.0
  0
LINE
  5
6FDC3
330
7011B
100
AcDbEntity
  8
Level 26
  6
Continuous
 62
    40
370
     0
100
AcDbLine
 10
2775.73474
 20
113.499127
 30
0.0
 11
2775.73474
 21
182.548932
 31
0.0
  0
LINE
  5
6FDC4
330
7011B
100
AcDbEntity
  8
Level 26
  6
Continuous
 62
    40
370
     0
100
AcDbLine
 10
2789.18474
 20
113.499127
 30
0.0
 11
2789.18474
 21
169.098932
 31
0.0
  0
ENDBLK
  5
7011D
330
7011B
100
AcDbEntity
  8
0
 62
    98
370
     0
100
AcDbBlockEnd
  0
BLOCK
  5
7011F
330
7011E
100
AcDbEntity
  8
0
 62
    98
370
     0
100
AcDbBlockBegin
  2
From Solid_12
 70
     0
 10
0.0
 20
0.0
 30
0.0
  3
From Solid_12
  1

  0
LINE
  5
6FDC6
330
7011E
100
AcDbEntity
  8
Level 26
  6
Continuous
 62
    40
370
     0
100
AcDbLine
 10
2802.63474
 20
-66.549945
 30
0.0
 11
2775.73474
 21
-66.549945
 31
0.0
  0
LINE
  5
6FDC7
330
7011E
100
AcDbEntity
  8
Level 26
  6
Continuous
 62
    40
370
     0
100
AcDbLine
 10
2802.63474
 20
-66.549945
 30
0.0
 11
2775.73474
 21
-66.549945
 31
0.0
  0
LINE
  5
6FDC8
330
7011E
100
AcDbEntity
  8
Level 26
  6
Continuous
 62
    40
370
     0
100
AcDbLine
 10
2802.63474
 20
-66.549945
 30
0.0
 11
2802.63474
 21
-135.59975
 31
0.0
  0
LINE
  5
6FDC9
330
7011E
100
AcDbEntity
  8
Level 26
  6
Continuous
 62
    40
370
     0
100
AcDbLine
 10
2789.18474
 20
-66.549945
 30
0.0
 11
2789.18474
 21
-149.04975
 31
0.0
  0
LINE
  5
6FDCA
330
7011E
100
AcDbEntity
  8
Level 26
  6
Continuous
 62
    40
370
     0
100
AcDbLine
 10
2775.73474
 20
-66.549945
 30
0.0
 11
2775.73474
 21
-135.59975
 31
0.0
  0
LINE
  5
6FDCB
330
7011E
100
AcDbEntity
  8
Level 26
  6
Continuous
 62
    40
370
     0
100
AcDbLine
 10
2789.18474
 20
-66.549945
 30
0.0
 11
2789.18474
 21
-122.14975
 31
0.0
  0
ENDBLK
  5
70120
330
7011E
100
AcDbEntity
  8
0
 62
    98
370
     0
100
AcDbBlockEnd
  0
BLOCK
  5
70122
330
70121
100
AcDbEntity
  8
0
 62
    98
370
     0
100
AcDbBlockBegin
  2
From Surface
 70
     0
 10
0.0
 20
0.0
 30
0.0
  3
From Surface
  1

  0
ARC
  5
6FDCD
330
70121
100
AcDbEntity
  8
Level 26
  6
Continuous
 62
    20
370
     0
100
AcDbCircle
 10
-3101.084741
 20
-56.52541
 30
0.0
 40
19.99999871533727
210
0.0
220
0.0
230
-1.0
100
AcDbArc
 50
179.999996
 51
270.000004
  0
ARC
  5
6FDCE
330
70121
100
AcDbEntity
  8
Level 26
  6
Continuous
 62
    20
370
     0
100
AcDbCircle
 10
-3101.084741
 20
-56.52541
 30
0.0
 40
19.99999871533727
210
0.0
220
0.0
230
-1.0
100
AcDbArc
 50
179.999996
 51
270.000004
  0
POINT
  5
6FDCF
330
70121
100
AcDbEntity
  8
Level 26
  6
Continuous
 62
    20
370
     0
100
AcDbPoint
 10
3121.08474
 20
-56.525409
 30
0.0
  0
POINT
  5
6FDD0
330
70121
100
AcDbEntity
  8
Level 26
  6
Continuous
 62
    20
370
     0
100
AcDbPoint
 10
3101.08474
 20
-76.525409
 30
0.0
  0
ENDBLK
  5
70123
330
70121
100
AcDbEntity
  8
0
 62
    98
370
     0
100
AcDbBlockEnd
  0
BLOCK
  5
70125
330
70124
100
AcDbEntity
  8
0
 62
    98
370
     0
100
AcDbBlockBegin
  2
From Surface_1
 70
     0
 10
0.0
 20
0.0
 30
0.0
  3
From Surface_1
  1

  0
ARC
  5
6FDD2
330
70124
100
AcDbEntity
  8
Level 26
  6
Continuous
 62
    20
370
     0
100
AcDbCircle
 10
-3101.084741
 20
103.474593
 30
0.0
 40
19.99999871533724
210
0.0
220
0.0
230
-1.0
100
AcDbArc
 50
89.999996
 51
180.000004
  0
ARC
  5
6FDD3
330
70124
100
AcDbEntity
  8
Level 26
  6
Continuous
 62
    20
370
     0
100
AcDbCircle
 10
-3101.084741
 20
103.474593
 30
0.0
 40
19.99999871533725
210
0.0
220
0.0
230
-1.0
100
AcDbArc
 50
89.999996
 51
180.000004
  0
POINT
  5
6FDD4
330
70124
100
AcDbEntity
  8
Level 26
  6
Continuous
 62
    20
370
     0
100
AcDbPoint
 10
3101.08474
 20
123.474591
 30
0.0
  0
POINT
  5
6FDD5
330
70124
100
AcDbEntity
  8
Level 26
  6
Continuous
 62
    20
370
     0
100
AcDbPoint
 10
3121.08474
 20
103.474591
 30
0.0
  0
ENDBLK
  5
70126
330
70124
100
AcDbEntity
  8
0
 62
    98
370
     0
100
AcDbBlockEnd
  0
BLOCK
  5
70128
330
70127
100
AcDbEntity
  8
0
 62
    98
370
     0
100
AcDbBlockBegin
  2
From Surface_2
 70
     0
 10
0.0
 20
0.0
 30
0.0
  3
From Surface_2
  1

  0
ARC
  5
6FDD7
330
70127
100
AcDbEntity
  8
Level 26
  6
Continuous
 62
    20
370
     0
100
AcDbCircle
 10
-2851.084739
 20
103.474593
 30
0.0
 40
19.99999871533723
210
0.0
220
0.0
230
-1.0
100
AcDbArc
 50
359.999996
 51
90.000004
  0
ARC
  5
6FDD8
330
70127
100
AcDbEntity
  8
Level 26
  6
Continuous
 62
    20
370
     0
100
AcDbCircle
 10
-2851.084739
 20
103.474593
 30
0.0
 40
19.99999871533724
210
0.0
220
0.0
230
-1.0
100
AcDbArc
 50
359.999996
 51
90.000004
  0
POINT
  5
6FDD9
330
70127
100
AcDbEntity
  8
Level 26
  6
Continuous
 62
    20
370
     0
100
AcDbPoint
 10
2831.08474
 20
103.474591
 30
0.0
  0
POINT
  5
6FDDA
330
70127
100
AcDbEntity
  8
Level 26
  6
Continuous
 62
    20
370
     0
100
AcDbPoint
 10
2851.08474
 20
123.474591
 30
0.0
  0
ENDBLK
  5
70129
330
70127
100
AcDbEntity
  8
0
 62
    98
370
     0
100
AcDbBlockEnd
  0
BLOCK
  5
7012B
330
7012A
100
AcDbEntity
  8
0
 62
    98
370
     0
100
AcDbBlockBegin
  2
From Surface_3
 70
     0
 10
0.0
 20
0.0
 30
0.0
  3
From Surface_3
  1

  0
ARC
  5
6FDDC
330
7012A
100
AcDbEntity
  8
Level 26
  6
Continuous
 62
    20
370
     0
100
AcDbCircle
 10
-2851.084739
 20
-56.52541
 30
0.0
 40
19.99999871533723
210
0.0
220
0.0
230
-1.0
100
AcDbArc
 50
269.999996
 51
0.000004
  0
ARC
  5
6FDDD
330
7012A
100
AcDbEntity
  8
Level 26
  6
Continuous
 62
    20
370
     0
100
AcDbCircle
 10
-2851.084739
 20
-56.52541
 30
0.0
 40
19.99999871533723
210
0.0
220
0.0
230
-1.0
100
AcDbArc
 50
269.999996
 51
0.000004
  0
POINT
  5
6FDDE
330
7012A
100
AcDbEntity
  8
Level 26
  6
Continuous
 62
    20
370
     0
100
AcDbPoint
 10
2851.08474
 20
-76.525409
 30
0.0
  0
POINT
  5
6FDDF
330
7012A
100
AcDbEntity
  8
Level 26
  6
Continuous
 62
    20
370
     0
100
AcDbPoint
 10
2831.08474
 20
-56.525409
 30
0.0
  0
ENDBLK
  5
7012C
330
7012A
100
AcDbEntity
  8
0
 62
    98
370
     0
100
AcDbBlockEnd
  0
BLOCK
  5
7012E
330
7012D
100
AcDbEntity
  8
0
 62
    98
370
     0
100
AcDbBlockBegin
  2
From Bspline Surface
 70
     0
 10
0.0
 20
0.0
 30
0.0
  3
From Bspline Surface
  1

  0
SPLINE
  5
6FDE9
330
7012D
100
AcDbEntity
  8
Level 25
  6
Continuous
 62
     7
370
     0
100
AcDbSpline
210
0.0
220
0.0
230
1.0
 70
     9
 71
     3
 72
    19
 73
    15
 74
     0
 42
0.000000001
 43
0.0000000001
 40
0.0
 40
0.0
 40
0.0
 40
0.0
 40
0.0833333335273589
 40
0.1666666665890565
 40
0.2500000001164153
 40
0.3333333331781129
 40
0.4166666667054718
 40
0.4999999997671694
 40
0.5833333332945282
 40
0.6666666668218872
 40
0.7499999998835847
 40
0.8333333334109434
 40
0.9166666664726411
 40
1.0
 40
1.0
 40
1.0
 40
1.0
 10
2971.084740170984
 20
-41.52540874619968
 30
0.0
 10
2959.067376848129
 20
-41.08424269498962
 30
0.0
 10
2937.287884706645
 20
-35.63417256345485
 30
0.0
 10
2911.893370622353
 20
-10.33875589424497
 30
0.0
 10
2903.244860902207
 20
23.45954309559237
 30
0.0
 10
2912.001681392334
 20
57.35007048595462
 30
0.0
 10
2936.837779478824
 20
82.35900691589938
 30
0.0
 10
2970.925531302305
 20
91.37281504603029
 30
0.0
 10
3005.035886049459
 20
82.53944198777046
 30
0.0
 10
3030.131795592597
 20
57.46628265063249
 30
0.0
 10
3038.931135049978
 20
23.46294603147298
 30
0.0
 10
3030.242039679636
 20
-10.46884171229361
 30
0.0
 10
3004.570539176081
 20
-35.76716920641881
 30
0.0
 10
2983.047596856063
 20
-41.17450295683844
 30
0.0
 10
2971.084740170984
 20
-41.52540874619968
 30
0.0
  0
SPLINE
  5
6FFE7
330
7012D
100
AcDbEntity
  8
Level 25
  6
Continuous
 62
     7
370
     0
100
AcDbSpline
210
0.0
220
0.0
230
1.0
 70
     9
 71
     3
 72
    19
 73
    15
 74
     0
 42
0.000000001
 43
0.0000000001
 40
0.0
 40
0.0
 40
0.0
 40
0.0
 40
0.0833333335273589
 40
0.1666666665890565
 40
0.2500000001164153
 40
0.3333333331781129
 40
0.4166666667054718
 40
0.4999999997671694
 40
0.5833333332945282
 40
0.6666666668218872
 40
0.7499999998835847
 40
0.8333333334109434
 40
0.9166666664726411
 40
1.0
 40
1.0
 40
1.0
 40
1.0
 10
2971.084740170984
 20
-41.52540874619968
 30
0.0
 10
2959.067376848128
 20
-41.08424269498962
 30
0.0
 10
2937.287884706644
 20
-35.63417256345485
 30
0.0
 10
2911.893370622352
 20
-10.33875589424497
 30
0.0
 10
2903.244860902207
 20
23.45954309559237
 30
0.0
 10
2912.001681392334
 20
57.35007048595462
 30
0.0
 10
2936.837779478823
 20
82.35900691589938
 30
0.0
 10
2970.925531302305
 20
91.37281504603029
 30
0.0
 10
3005.035886049459
 20
82.53944198777046
 30
0.0
 10
3030.131795592597
 20
57.46628265063249
 30
0.0
 10
3038.931135049978
 20
23.46294603147298
 30
0.0
 10
3030.242039679636
 20
-10.46884171229361
 30
0.0
 10
3004.57053917608
 20
-35.76716920641881
 30
0.0
 10
2983.047596856063
 20
-41.17450295683843
 30
0.0
 10
2971.084740170984
 20
-41.52540874619968
 30
0.0
  0
SPLINE
  5
6FFE8
330
7012D
100
AcDbEntity
  8
Level 25
  6
Continuous
 62
     7
370
     0
100
AcDbSpline
210
0.0
220
0.0
230
1.0
 70
     9
 71
     3
 72
    19
 73
    15
 74
     0
 42
0.000000001
 43
0.0000000001
 40
0.0
 40
0.0
 40
0.0
 40
0.0
 40
0.0833333335273589
 40
0.1666666665890565
 40
0.2500000001164153
 40
0.3333333331781129
 40
0.4166666667054718
 40
0.4999999997671694
 40
0.5833333332945282
 40
0.6666666668218872
 40
0.7499999998835847
 40
0.8333333334109434
 40
0.9166666664726411
 40
1.0
 40
1.0
 40
1.0
 40
1.0
 10
2971.084740170984
 20
-41.52540874619968
 30
0.0
 10
2959.067376848128
 20
-41.08424269498962
 30
0.0
 10
2937.287884706645
 20
-35.63417256345485
 30
0.0
 10
2911.893370622353
 20
-10.33875589424497
 30
0.0
 10
2903.244860902207
 20
23.45954309559237
 30
0.0
 10
2912.001681392334
 20
57.35007048595462
 30
0.0
 10
2936.837779478824
 20
82.35900691589938
 30
0.0
 10
2970.925531302305
 20
91.37281504603029
 30
0.0
 10
3005.035886049459
 20
82.53944198777046
 30
0.0
 10
3030.131795592597
 20
57.46628265063249
 30
0.0
 10
3038.931135049978
 20
23.46294603147298
 30
0.0
 10
3030.242039679636
 20
-10.46884171229361
 30
0.0
 10
3004.570539176081
 20
-35.76716920641881
 30
0.0
 10
2983.047596856063
 20
-41.17450295683844
 30
0.0
 10
2971.084740170984
 20
-41.52540874619968
 30
0.0
  0
SPLINE
  5
6FFE9
330
7012D
100
AcDbEntity
  8
Level 25
  6
Continuous
 62
     7
370
     0
100
AcDbSpline
210
0.0
220
0.0
230
1.0
 70
     9
 71
     3
 72
    19
 73
    15
 74
     0
 42
0.000000001
 43
0.0000000001
 40
0.0
 40
0.0
 40
0.0
 40
0.0
 40
0.0833333335273589
 40
0.1666666665890565
 40
0.2500000001164153
 40
0.3333333331781129
 40
0.4166666667054718
 40
0.4999999997671694
 40
0.5833333332945282
 40
0.6666666668218872
 40
0.7499999998835847
 40
0.8333333334109434
 40
0.9166666664726411
 40
1.0
 40
1.0
 40
1.0
 40
1.0
 10
2971.084740170984
 20
-41.52540874619968
 30
0.0
 10
2959.067376848129
 20
-41.08424269498963
 30
0.0
 10
2937.287884706645
 20
-35.63417256345485
 30
0.0
 10
2911.893370622353
 20
-10.33875589424497
 30
0.0
 10
2903.244860902207
 20
23.45954309559237
 30
0.0
 10
2912.001681392334
 20
57.35007048595463
 30
0.0
 10
2936.837779478824
 20
82.35900691589938
 30
0.0
 10
2970.925531302305
 20
91.37281504603029
 30
0.0
 10
3005.035886049459
 20
82.53944198777046
 30
0.0
 10
3030.131795592597
 20
57.46628265063249
 30
0.0
 10
3038.931135049979
 20
23.46294603147298
 30
0.0
 10
3030.242039679637
 20
-10.46884171229361
 30
0.0
 10
3004.570539176081
 20
-35.76716920641882
 30
0.0
 10
2983.047596856063
 20
-41.17450295683844
 30
0.0
 10
2971.084740170984
 20
-41.52540874619968
 30
0.0
  0
SPLINE
  5
6FFEA
330
7012D
100
AcDbEntity
  8
Level 25
  6
Continuous
 62
     7
370
     0
100
AcDbSpline
210
0.0
220
0.0
230
1.0
 70
     9
 71
     3
 72
    19
 73
    15
 74
     0
 42
0.000000001
 43
0.0000000001
 40
0.0
 40
0.0
 40
0.0
 40
0.0
 40
0.0833333335273589
 40
0.1666666665890565
 40
0.2500000001164153
 40
0.3333333331781129
 40
0.4166666667054718
 40
0.4999999997671694
 40
0.5833333332945282
 40
0.6666666668218872
 40
0.7499999998835847
 40
0.8333333334109434
 40
0.9166666664726411
 40
1.0
 40
1.0
 40
1.0
 40
1.0
 10
2971.084740170984
 20
-41.52540874619968
 30
0.0
 10
2959.067376848129
 20
-41.08424269498962
 30
0.0
 10
2937.287884706645
 20
-35.63417256345485
 30
0.0
 10
2911.893370622353
 20
-10.33875589424497
 30
0.0
 10
2903.244860902207
 20
23.45954309559237
 30
0.0
 10
2912.001681392334
 20
57.35007048595462
 30
0.0
 10
2936.837779478824
 20
82.35900691589938
 30
0.0
 10
2970.925531302305
 20
91.37281504603029
 30
0.0
 10
3005.035886049459
 20
82.53944198777046
 30
0.0
 10
3030.131795592597
 20
57.46628265063249
 30
0.0
 10
3038.931135049978
 20
23.46294603147298
 30
0.0
 10
3030.242039679636
 20
-10.46884171229361
 30
0.0
 10
3004.570539176081
 20
-35.76716920641881
 30
0.0
 10
2983.047596856063
 20
-41.17450295683844
 30
0.0
 10
2971.084740170984
 20
-41.52540874619968
 30
0.0
  0
SPLINE
  5
6FFEB
330
7012D
100
AcDbEntity
  8
Level 25
  6
Continuous
 62
     7
370
     0
100
AcDbSpline
210
0.0
220
0.0
230
1.0
 70
     9
 71
     3
 72
    19
 73
    15
 74
     0
 42
0.000000001
 43
0.0000000001
 40
0.0
 40
0.0
 40
0.0
 40
0.0
 40
0.0833333335273589
 40
0.1666666665890565
 40
0.2500000001164153
 40
0.3333333331781129
 40
0.4166666667054718
 40
0.4999999997671694
 40
0.5833333332945282
 40
0.6666666668218872
 40
0.7499999998835847
 40
0.8333333334109434
 40
0.9166666664726411
 40
1.0
 40
1.0
 40
1.0
 40
1.0
 10
2971.084740170984
 20
-41.52540874619968
 30
0.0
 10
2959.067376848129
 20
-41.08424269498962
 30
0.0
 10
2937.287884706645
 20
-35.63417256345485
 30
0.0
 10
2911.893370622353
 20
-10.33875589424497
 30
0.0
 10
2903.244860902207
 20
23.45954309559237
 30
0.0
 10
2912.001681392334
 20
57.35007048595462
 30
0.0
 10
2936.837779478824
 20
82.35900691589938
 30
0.0
 10
2970.925531302305
 20
91.37281504603029
 30
0.0
 10
3005.035886049459
 20
82.53944198777046
 30
0.0
 10
3030.131795592597
 20
57.46628265063249
 30
0.0
 10
3038.931135049978
 20
23.46294603147298
 30
0.0
 10
3030.242039679636
 20
-10.46884171229361
 30
0.0
 10
3004.570539176081
 20
-35.76716920641881
 30
0.0
 10
2983.047596856063
 20
-41.17450295683844
 30
0.0
 10
2971.084740170984
 20
-41.52540874619968
 30
0.0
  0
SPLINE
  5
6FFEC
330
7012D
100
AcDbEntity
  8
Level 25
  6
Continuous
 62
     7
370
     0
100
AcDbSpline
210
0.0
220
0.0
230
1.0
 70
     9
 71
     3
 72
    19
 73
    15
 74
     0
 42
0.000000001
 43
0.0000000001
 40
0.0
 40
0.0
 40
0.0
 40
0.0
 40
0.0833333335273589
 40
0.1666666665890565
 40
0.2500000001164153
 40
0.3333333331781129
 40
0.4166666667054718
 40
0.4999999997671694
 40
0.5833333332945282
 40
0.6666666668218872
 40
0.7499999998835847
 40
0.8333333334109434
 40
0.9166666664726411
 40
1.0
 40
1.0
 40
1.0
 40
1.0
 10
2971.084740170984
 20
-41.52540874619968
 30
0.0
 10
2959.067376848129
 20
-41.08424269498962
 30
0.0
 10
2937.287884706645
 20
-35.63417256345485
 30
0.0
 10
2911.893370622353
 20
-10.33875589424497
 30
0.0
 10
2903.244860902207
 20
23.45954309559237
 30
0.0
 10
2912.001681392334
 20
57.35007048595463
 30
0.0
 10
2936.837779478824
 20
82.35900691589938
 30
0.0
 10
2970.925531302305
 20
91.37281504603029
 30
0.0
 10
3005.035886049459
 20
82.53944198777046
 30
0.0
 10
3030.131795592597
 20
57.46628265063249
 30
0.0
 10
3038.931135049978
 20
23.46294603147298
 30
0.0
 10
3030.242039679636
 20
-10.46884171229361
 30
0.0
 10
3004.570539176081
 20
-35.76716920641881
 30
0.0
 10
2983.047596856063
 20
-41.17450295683844
 30
0.0
 10
2971.084740170984
 20
-41.52540874619968
 30
0.0
  0
SPLINE
  5
6FFED
330
7012D
100
AcDbEntity
  8
Level 25
  6
Continuous
 62
     7
370
     0
100
AcDbSpline
210
0.0
220
0.0
230
1.0
 70
     9
 71
     3
 72
    19
 73
    15
 74
     0
 42
0.000000001
 43
0.0000000001
 40
0.0
 40
0.0
 40
0.0
 40
0.0
 40
0.0833333335273589
 40
0.1666666665890565
 40
0.2500000001164153
 40
0.3333333331781129
 40
0.4166666667054718
 40
0.4999999997671694
 40
0.5833333332945282
 40
0.6666666668218872
 40
0.7499999998835847
 40
0.8333333334109434
 40
0.9166666664726411
 40
1.0
 40
1.0
 40
1.0
 40
1.0
 10
2971.084740170984
 20
-41.52540874619968
 30
0.0
 10
2959.067376848129
 20
-41.08424269498962
 30
0.0
 10
2937.287884706645
 20
-35.63417256345485
 30
0.0
 10
2911.893370622353
 20
-10.33875589424497
 30
0.0
 10
2903.244860902207
 20
23.45954309559237
 30
0.0
 10
2912.001681392334
 20
57.35007048595462
 30
0.0
 10
2936.837779478824
 20
82.35900691589938
 30
0.0
 10
2970.925531302305
 20
91.37281504603029
 30
0.0
 10
3005.035886049459
 20
82.53944198777046
 30
0.0
 10
3030.131795592597
 20
57.46628265063249
 30
0.0
 10
3038.931135049978
 20
23.46294603147297
 30
0.0
 10
3030.242039679636
 20
-10.46884171229361
 30
0.0
 10
3004.570539176081
 20
-35.76716920641881
 30
0.0
 10
2983.047596856063
 20
-41.17450295683844
 30
0.0
 10
2971.084740170984
 20
-41.52540874619968
 30
0.0
  0
SPLINE
  5
6FFEE
330
7012D
100
AcDbEntity
  8
Level 25
  6
Continuous
 62
     7
370
     0
100
AcDbSpline
210
0.0
220
0.0
230
1.0
 70
     9
 71
     3
 72
    19
 73
    15
 74
     0
 42
0.000000001
 43
0.0000000001
 40
0.0
 40
0.0
 40
0.0
 40
0.0
 40
0.0833333335273589
 40
0.1666666665890565
 40
0.2500000001164153
 40
0.3333333331781129
 40
0.4166666667054718
 40
0.4999999997671694
 40
0.5833333332945282
 40
0.6666666668218872
 40
0.7499999998835847
 40
0.8333333334109434
 40
0.9166666664726411
 40
1.0
 40
1.0
 40
1.0
 40
1.0
 10
2971.084740170984
 20
-41.52540874619968
 30
0.0
 10
2959.067376848129
 20
-41.08424269498962
 30
0.0
 10
2937.287884706645
 20
-35.63417256345485
 30
0.0
 10
2911.893370622353
 20
-10.33875589424497
 30
0.0
 10
2903.244860902207
 20
23.45954309559237
 30
0.0
 10
2912.001681392334
 20
57.35007048595462
 30
0.0
 10
2936.837779478824
 20
82.35900691589938
 30
0.0
 10
2970.925531302305
 20
91.37281504603029
 30
0.0
 10
3005.035886049459
 20
82.53944198777046
 30
0.0
 10
3030.131795592597
 20
57.46628265063249
 30
0.0
 10
3038.931135049978
 20
23.46294603147297
 30
0.0
 10
3030.242039679636
 20
-10.46884171229361
 30
0.0
 10
3004.570539176081
 20
-35.76716920641881
 30
0.0
 10
2983.047596856063
 20
-41.17450295683844
 30
0.0
 10
2971.084740170984
 20
-41.52540874619968
 30
0.0
  0
SPLINE
  5
6FFEF
330
7012D
100
AcDbEntity
  8
Level 25
  6
Continuous
 62
     7
370
     0
100
AcDbSpline
210
0.0
220
0.0
230
1.0
 70
     9
 71
     3
 72
    19
 73
    15
 74
     0
 42
0.000000001
 43
0.0000000001
 40
0.0
 40
0.0
 40
0.0
 40
0.0
 40
0.0833333335273589
 40
0.1666666665890565
 40
0.2500000001164153
 40
0.3333333331781129
 40
0.4166666667054718
 40
0.4999999997671694
 40
0.5833333332945282
 40
0.6666666668218872
 40
0.7499999998835847
 40
0.8333333334109434
 40
0.9166666664726411
 40
1.0
 40
1.0
 40
1.0
 40
1.0
 10
2971.084740170984
 20
-41.52540874619968
 30
0.0
 10
2959.067376848129
 20
-41.08424269498962
 30
0.0
 10
2937.287884706645
 20
-35.63417256345485
 30
0.0
 10
2911.893370622353
 20
-10.33875589424497
 30
0.0
 10
2903.244860902207
 20
23.45954309559237
 30
0.0
 10
2912.001681392334
 20
57.35007048595462
 30
0.0
 10
2936.837779478824
 20
82.35900691589938
 30
0.0
 10
2970.925531302305
 20
91.37281504603029
 30
0.0
 10
3005.035886049459
 20
82.53944198777046
 30
0.0
 10
3030.131795592597
 20
57.46628265063249
 30
0.0
 10
3038.931135049978
 20
23.46294603147298
 30
0.0
 10
3030.242039679636
 20
-10.46884171229361
 30
0.0
 10
3004.570539176081
 20
-35.76716920641881
 30
0.0
 10
2983.047596856063
 20
-41.17450295683844
 30
0.0
 10
2971.084740170984
 20
-41.52540874619968
 30
0.0
  0
ENDBLK
  5
7012F
330
7012D
100
AcDbEntity
  8
0
 62
    98
370
     0
100
AcDbBlockEnd
  0
BLOCK
  5
70131
330
70130
100
AcDbEntity
  8
0
 62
    98
370
     0
100
AcDbBlockBegin
  2
From Bspline Surface_1
 70
     0
 10
0.0
 20
0.0
 30
0.0
  3
From Bspline Surface_1
  1

  0
SPLINE
  5
6FDFA
330
70130
100
AcDbEntity
  8
Level 26
  6
Continuous
 62
     7
370
     0
100
AcDbSpline
210
0.0
220
0.0
230
1.0
 70
     9
 71
     3
 72
    19
 73
    15
 74
     0
 42
0.000000001
 43
0.0000000001
 40
0.0
 40
0.0
 40
0.0
 40
0.0
 40
0.0833333335273589
 40
0.1666666665890565
 40
0.2500000001164153
 40
0.3333333331781129
 40
0.4166666667054718
 40
0.4999999997671694
 40
0.5833333332945282
 40
0.6666666668218872
 40
0.7499999998835847
 40
0.8333333334109434
 40
0.9166666664726411
 40
1.0
 40
1.0
 40
1.0
 40
1.0
 10
2971.084740170984
 20
-41.52540874619968
 30
0.0
 10
2959.067376848129
 20
-41.08424269498962
 30
0.0
 10
2937.287884706645
 20
-35.63417256345485
 30
0.0
 10
2911.893370622353
 20
-10.33875589424497
 30
0.0
 10
2903.244860902207
 20
23.45954309559237
 30
0.0
 10
2912.001681392334
 20
57.35007048595462
 30
0.0
 10
2936.837779478824
 20
82.35900691589938
 30
0.0
 10
2970.925531302305
 20
91.37281504603029
 30
0.0
 10
3005.035886049459
 20
82.53944198777046
 30
0.0
 10
3030.131795592597
 20
57.46628265063249
 30
0.0
 10
3038.931135049978
 20
23.46294603147298
 30
0.0
 10
3030.242039679636
 20
-10.46884171229361
 30
0.0
 10
3004.570539176081
 20
-35.76716920641881
 30
0.0
 10
2983.047596856063
 20
-41.17450295683844
 30
0.0
 10
2971.084740170984
 20
-41.52540874619968
 30
0.0
  0
SPLINE
  5
6FFFA
330
70130
100
AcDbEntity
  8
Level 26
  6
Continuous
 62
     7
370
     0
100
AcDbSpline
210
0.0
220
0.0
230
1.0
 70
     9
 71
     3
 72
    19
 73
    15
 74
     0
 42
0.000000001
 43
0.0000000001
 40
0.0
 40
0.0
 40
0.0
 40
0.0
 40
0.0833333335273589
 40
0.1666666665890565
 40
0.2500000001164153
 40
0.3333333331781129
 40
0.4166666667054718
 40
0.4999999997671694
 40
0.5833333332945282
 40
0.6666666668218872
 40
0.7499999998835847
 40
0.8333333334109434
 40
0.9166666664726411
 40
1.0
 40
1.0
 40
1.0
 40
1.0
 10
2971.084740170984
 20
-41.52540874619968
 30
0.0
 10
2959.067376848128
 20
-41.08424269498962
 30
0.0
 10
2937.287884706644
 20
-35.63417256345485
 30
0.0
 10
2911.893370622352
 20
-10.33875589424497
 30
0.0
 10
2903.244860902207
 20
23.45954309559237
 30
0.0
 10
2912.001681392334
 20
57.35007048595462
 30
0.0
 10
2936.837779478823
 20
82.35900691589938
 30
0.0
 10
2970.925531302305
 20
91.37281504603029
 30
0.0
 10
3005.035886049459
 20
82.53944198777046
 30
0.0
 10
3030.131795592597
 20
57.46628265063249
 30
0.0
 10
3038.931135049978
 20
23.46294603147298
 30
0.0
 10
3030.242039679636
 20
-10.46884171229361
 30
0.0
 10
3004.57053917608
 20
-35.76716920641881
 30
0.0
 10
2983.047596856063
 20
-41.17450295683843
 30
0.0
 10
2971.084740170984
 20
-41.52540874619968
 30
0.0
  0
SPLINE
  5
6FFFB
330
70130
100
AcDbEntity
  8
Level 26
  6
Continuous
 62
     7
370
     0
100
AcDbSpline
210
0.0
220
0.0
230
1.0
 70
     9
 71
     3
 72
    19
 73
    15
 74
     0
 42
0.000000001
 43
0.0000000001
 40
0.0
 40
0.0
 40
0.0
 40
0.0
 40
0.0833333335273589
 40
0.1666666665890565
 40
0.2500000001164153
 40
0.3333333331781129
 40
0.4166666667054718
 40
0.4999999997671694
 40
0.5833333332945282
 40
0.6666666668218872
 40
0.7499999998835847
 40
0.8333333334109434
 40
0.9166666664726411
 40
1.0
 40
1.0
 40
1.0
 40
1.0
 10
2971.084740170984
 20
-41.52540874619968
 30
0.0
 10
2959.067376848128
 20
-41.08424269498962
 30
0.0
 10
2937.287884706645
 20
-35.63417256345485
 30
0.0
 10
2911.893370622353
 20
-10.33875589424497
 30
0.0
 10
2903.244860902207
 20
23.45954309559237
 30
0.0
 10
2912.001681392334
 20
57.35007048595462
 30
0.0
 10
2936.837779478824
 20
82.35900691589938
 30
0.0
 10
2970.925531302305
 20
91.37281504603029
 30
0.0
 10
3005.035886049459
 20
82.53944198777046
 30
0.0
 10
3030.131795592597
 20
57.46628265063249
 30
0.0
 10
3038.931135049978
 20
23.46294603147298
 30
0.0
 10
3030.242039679636
 20
-10.46884171229361
 30
0.0
 10
3004.570539176081
 20
-35.76716920641881
 30
0.0
 10
2983.047596856063
 20
-41.17450295683844
 30
0.0
 10
2971.084740170984
 20
-41.52540874619968
 30
0.0
  0
SPLINE
  5
6FFFC
330
70130
100
AcDbEntity
  8
Level 26
  6
Continuous
 62
     7
370
     0
100
AcDbSpline
210
0.0
220
0.0
230
1.0
 70
     9
 71
     3
 72
    19
 73
    15
 74
     0
 42
0.000000001
 43
0.0000000001
 40
0.0
 40
0.0
 40
0.0
 40
0.0
 40
0.0833333335273589
 40
0.1666666665890565
 40
0.2500000001164153
 40
0.3333333331781129
 40
0.4166666667054718
 40
0.4999999997671694
 40
0.5833333332945282
 40
0.6666666668218872
 40
0.7499999998835847
 40
0.8333333334109434
 40
0.9166666664726411
 40
1.0
 40
1.0
 40
1.0
 40
1.0
 10
2971.084740170984
 20
-41.52540874619968
 30
0.0
 10
2959.067376848129
 20
-41.08424269498963
 30
0.0
 10
2937.287884706645
 20
-35.63417256345485
 30
0.0
 10
2911.893370622353
 20
-10.33875589424497
 30
0.0
 10
2903.244860902207
 20
23.45954309559237
 30
0.0
 10
2912.001681392334
 20
57.35007048595463
 30
0.0
 10
2936.837779478824
 20
82.35900691589938
 30
0.0
 10
2970.925531302305
 20
91.37281504603029
 30
0.0
 10
3005.035886049459
 20
82.53944198777046
 30
0.0
 10
3030.131795592597
 20
57.46628265063249
 30
0.0
 10
3038.931135049979
 20
23.46294603147298
 30
0.0
 10
3030.242039679637
 20
-10.46884171229361
 30
0.0
 10
3004.570539176081
 20
-35.76716920641882
 30
0.0
 10
2983.047596856063
 20
-41.17450295683844
 30
0.0
 10
2971.084740170984
 20
-41.52540874619968
 30
0.0
  0
SPLINE
  5
6FFFD
330
70130
100
AcDbEntity
  8
Level 26
  6
Continuous
 62
     7
370
     0
100
AcDbSpline
210
0.0
220
0.0
230
1.0
 70
     9
 71
     3
 72
    19
 73
    15
 74
     0
 42
0.000000001
 43
0.0000000001
 40
0.0
 40
0.0
 40
0.0
 40
0.0
 40
0.0833333335273589
 40
0.1666666665890565
 40
0.2500000001164153
 40
0.3333333331781129
 40
0.4166666667054718
 40
0.4999999997671694
 40
0.5833333332945282
 40
0.6666666668218872
 40
0.7499999998835847
 40
0.8333333334109434
 40
0.9166666664726411
 40
1.0
 40
1.0
 40
1.0
 40
1.0
 10
2971.084740170984
 20
-41.52540874619968
 30
0.0
 10
2959.067376848129
 20
-41.08424269498962
 30
0.0
 10
2937.287884706645
 20
-35.63417256345485
 30
0.0
 10
2911.893370622353
 20
-10.33875589424497
 30
0.0
 10
2903.244860902207
 20
23.45954309559237
 30
0.0
 10
2912.001681392334
 20
57.35007048595462
 30
0.0
 10
2936.837779478824
 20
82.35900691589938
 30
0.0
 10
2970.925531302305
 20
91.37281504603029
 30
0.0
 10
3005.035886049459
 20
82.53944198777046
 30
0.0
 10
3030.131795592597
 20
57.46628265063249
 30
0.0
 10
3038.931135049978
 20
23.46294603147298
 30
0.0
 10
3030.242039679636
 20
-10.46884171229361
 30
0.0
 10
3004.570539176081
 20
-35.76716920641881
 30
0.0
 10
2983.047596856063
 20
-41.17450295683844
 30
0.0
 10
2971.084740170984
 20
-41.52540874619968
 30
0.0
  0
SPLINE
  5
6FFFE
330
70130
100
AcDbEntity
  8
Level 26
  6
Continuous
 62
     7
370
     0
100
AcDbSpline
210
0.0
220
0.0
230
1.0
 70
     9
 71
     3
 72
    19
 73
    15
 74
     0
 42
0.000000001
 43
0.0000000001
 40
0.0
 40
0.0
 40
0.0
 40
0.0
 40
0.0833333335273589
 40
0.1666666665890565
 40
0.2500000001164153
 40
0.3333333331781129
 40
0.4166666667054718
 40
0.4999999997671694
 40
0.5833333332945282
 40
0.6666666668218872
 40
0.7499999998835847
 40
0.8333333334109434
 40
0.9166666664726411
 40
1.0
 40
1.0
 40
1.0
 40
1.0
 10
2971.084740170984
 20
-41.52540874619968
 30
0.0
 10
2959.067376848129
 20
-41.08424269498962
 30
0.0
 10
2937.287884706645
 20
-35.63417256345485
 30
0.0
 10
2911.893370622353
 20
-10.33875589424497
 30
0.0
 10
2903.244860902207
 20
23.45954309559237
 30
0.0
 10
2912.001681392334
 20
57.35007048595462
 30
0.0
 10
2936.837779478824
 20
82.35900691589938
 30
0.0
 10
2970.925531302305
 20
91.37281504603029
 30
0.0
 10
3005.035886049459
 20
82.53944198777046
 30
0.0
 10
3030.131795592597
 20
57.46628265063249
 30
0.0
 10
3038.931135049978
 20
23.46294603147298
 30
0.0
 10
3030.242039679636
 20
-10.46884171229361
 30
0.0
 10
3004.570539176081
 20
-35.76716920641881
 30
0.0
 10
2983.047596856063
 20
-41.17450295683844
 30
0.0
 10
2971.084740170984
 20
-41.52540874619968
 30
0.0
  0
SPLINE
  5
6FFFF
330
70130
100
AcDbEntity
  8
Level 26
  6
Continuous
 62
     7
370
     0
100
AcDbSpline
210
0.0
220
0.0
230
1.0
 70
     9
 71
     3
 72
    19
 73
    15
 74
     0
 42
0.000000001
 43
0.0000000001
 40
0.0
 40
0.0
 40
0.0
 40
0.0
 40
0.0833333335273589
 40
0.1666666665890565
 40
0.2500000001164153
 40
0.3333333331781129
 40
0.4166666667054718
 40
0.4999999997671694
 40
0.5833333332945282
 40
0.6666666668218872
 40
0.7499999998835847
 40
0.8333333334109434
 40
0.9166666664726411
 40
1.0
 40
1.0
 40
1.0
 40
1.0
 10
2971.084740170984
 20
-41.52540874619968
 30
0.0
 10
2959.067376848129
 20
-41.08424269498962
 30
0.0
 10
2937.287884706645
 20
-35.63417256345485
 30
0.0
 10
2911.893370622353
 20
-10.33875589424497
 30
0.0
 10
2903.244860902207
 20
23.45954309559237
 30
0.0
 10
2912.001681392334
 20
57.35007048595463
 30
0.0
 10
2936.837779478824
 20
82.35900691589938
 30
0.0
 10
2970.925531302305
 20
91.37281504603029
 30
0.0
 10
3005.035886049459
 20
82.53944198777046
 30
0.0
 10
3030.131795592597
 20
57.46628265063249
 30
0.0
 10
3038.931135049978
 20
23.46294603147298
 30
0.0
 10
3030.242039679636
 20
-10.46884171229361
 30
0.0
 10
3004.570539176081
 20
-35.76716920641881
 30
0.0
 10
2983.047596856063
 20
-41.17450295683844
 30
0.0
 10
2971.084740170984
 20
-41.52540874619968
 30
0.0
  0
SPLINE
  5
70000
330
70130
100
AcDbEntity
  8
Level 26
  6
Continuous
 62
     7
370
     0
100
AcDbSpline
210
0.0
220
0.0
230
1.0
 70
     9
 71
     3
 72
    19
 73
    15
 74
     0
 42
0.000000001
 43
0.0000000001
 40
0.0
 40
0.0
 40
0.0
 40
0.0
 40
0.0833333335273589
 40
0.1666666665890565
 40
0.2500000001164153
 40
0.3333333331781129
 40
0.4166666667054718
 40
0.4999999997671694
 40
0.5833333332945282
 40
0.6666666668218872
 40
0.7499999998835847
 40
0.8333333334109434
 40
0.9166666664726411
 40
1.0
 40
1.0
 40
1.0
 40
1.0
 10
2971.084740170984
 20
-41.52540874619968
 30
0.0
 10
2959.067376848129
 20
-41.08424269498962
 30
0.0
 10
2937.287884706645
 20
-35.63417256345485
 30
0.0
 10
2911.893370622353
 20
-10.33875589424497
 30
0.0
 10
2903.244860902207
 20
23.45954309559237
 30
0.0
 10
2912.001681392334
 20
57.35007048595462
 30
0.0
 10
2936.837779478824
 20
82.35900691589938
 30
0.0
 10
2970.925531302305
 20
91.37281504603029
 30
0.0
 10
3005.035886049459
 20
82.53944198777046
 30
0.0
 10
3030.131795592597
 20
57.46628265063249
 30
0.0
 10
3038.931135049978
 20
23.46294603147297
 30
0.0
 10
3030.242039679636
 20
-10.46884171229361
 30
0.0
 10
3004.570539176081
 20
-35.76716920641881
 30
0.0
 10
2983.047596856063
 20
-41.17450295683844
 30
0.0
 10
2971.084740170984
 20
-41.52540874619968
 30
0.0
  0
SPLINE
  5
70001
330
70130
100
AcDbEntity
  8
Level 26
  6
Continuous
 62
     7
370
     0
100
AcDbSpline
210
0.0
220
0.0
230
1.0
 70
     9
 71
     3
 72
    19
 73
    15
 74
     0
 42
0.000000001
 43
0.0000000001
 40
0.0
 40
0.0
 40
0.0
 40
0.0
 40
0.0833333335273589
 40
0.1666666665890565
 40
0.2500000001164153
 40
0.3333333331781129
 40
0.4166666667054718
 40
0.4999999997671694
 40
0.5833333332945282
 40
0.6666666668218872
 40
0.7499999998835847
 40
0.8333333334109434
 40
0.9166666664726411
 40
1.0
 40
1.0
 40
1.0
 40
1.0
 10
2971.084740170984
 20
-41.52540874619968
 30
0.0
 10
2959.067376848129
 20
-41.08424269498962
 30
0.0
 10
2937.287884706645
 20
-35.63417256345485
 30
0.0
 10
2911.893370622353
 20
-10.33875589424497
 30
0.0
 10
2903.244860902207
 20
23.45954309559237
 30
0.0
 10
2912.001681392334
 20
57.35007048595462
 30
0.0
 10
2936.837779478824
 20
82.35900691589938
 30
0.0
 10
2970.925531302305
 20
91.37281504603029
 30
0.0
 10
3005.035886049459
 20
82.53944198777046
 30
0.0
 10
3030.131795592597
 20
57.46628265063249
 30
0.0
 10
3038.931135049978
 20
23.46294603147297
 30
0.0
 10
3030.242039679636
 20
-10.46884171229361
 30
0.0
 10
3004.570539176081
 20
-35.76716920641881
 30
0.0
 10
2983.047596856063
 20
-41.17450295683844
 30
0.0
 10
2971.084740170984
 20
-41.52540874619968
 30
0.0
  0
SPLINE
  5
70002
330
70130
100
AcDbEntity
  8
Level 26
  6
Continuous
 62
     7
370
     0
100
AcDbSpline
210
0.0
220
0.0
230
1.0
 70
     9
 71
     3
 72
    19
 73
    15
 74
     0
 42
0.000000001
 43
0.0000000001
 40
0.0
 40
0.0
 40
0.0
 40
0.0
 40
0.0833333335273589
 40
0.1666666665890565
 40
0.2500000001164153
 40
0.3333333331781129
 40
0.4166666667054718
 40
0.4999999997671694
 40
0.5833333332945282
 40
0.6666666668218872
 40
0.7499999998835847
 40
0.8333333334109434
 40
0.9166666664726411
 40
1.0
 40
1.0
 40
1.0
 40
1.0
 10
2971.084740170984
 20
-41.52540874619968
 30
0.0
 10
2959.067376848129
 20
-41.08424269498962
 30
0.0
 10
2937.287884706645
 20
-35.63417256345485
 30
0.0
 10
2911.893370622353
 20
-10.33875589424497
 30
0.0
 10
2903.244860902207
 20
23.45954309559237
 30
0.0
 10
2912.001681392334
 20
57.35007048595462
 30
0.0
 10
2936.837779478824
 20
82.35900691589938
 30
0.0
 10
2970.925531302305
 20
91.37281504603029
 30
0.0
 10
3005.035886049459
 20
82.53944198777046
 30
0.0
 10
3030.131795592597
 20
57.46628265063249
 30
0.0
 10
3038.931135049978
 20
23.46294603147298
 30
0.0
 10
3030.242039679636
 20
-10.46884171229361
 30
0.0
 10
3004.570539176081
 20
-35.76716920641881
 30
0.0
 10
2983.047596856063
 20
-41.17450295683844
 30
0.0
 10
2971.084740170984
 20
-41.52540874619968
 30
0.0
  0
ENDBLK
  5
70132
330
70130
100
AcDbEntity
  8
0
 62
    98
370
     0
100
AcDbBlockEnd
  0
BLOCK
  5
70134
330
70133
100
AcDbEntity
  8
0
 62
    98
370
     0
100
AcDbBlockBegin
  2
From Bspline Surface_2
 70
     0
 10
0.0
 20
0.0
 30
0.0
  3
From Bspline Surface_2
  1

  0
SPLINE
  5
6FE0B
330
70133
100
AcDbEntity
  8
Level 26
  6
Continuous
 62
     7
370
     0
100
AcDbSpline
210
0.0
220
0.0
230
1.0
 70
     9
 71
     3
 72
    19
 73
    15
 74
     0
 42
0.000000001
 43
0.0000000001
 40
0.0
 40
0.0
 40
0.0
 40
0.0
 40
0.0833333335273589
 40
0.1666666665890565
 40
0.2500000001164153
 40
0.3333333331781129
 40
0.4166666667054718
 40
0.4999999997671694
 40
0.5833333332945282
 40
0.6666666668218872
 40
0.7499999998835847
 40
0.8333333334109434
 40
0.9166666664726411
 40
1.0
 40
1.0
 40
1.0
 40
1.0
 10
2971.084740170984
 20
-41.52540874619968
 30
0.0
 10
2959.067376848129
 20
-41.08424269498962
 30
0.0
 10
2937.287884706645
 20
-35.63417256345485
 30
0.0
 10
2911.893370622353
 20
-10.33875589424497
 30
0.0
 10
2903.244860902207
 20
23.45954309559237
 30
0.0
 10
2912.001681392334
 20
57.35007048595462
 30
0.0
 10
2936.837779478824
 20
82.35900691589938
 30
0.0
 10
2970.925531302305
 20
91.37281504603029
 30
0.0
 10
3005.035886049459
 20
82.53944198777046
 30
0.0
 10
3030.131795592597
 20
57.46628265063249
 30
0.0
 10
3038.931135049978
 20
23.46294603147298
 30
0.0
 10
3030.242039679636
 20
-10.46884171229361
 30
0.0
 10
3004.570539176081
 20
-35.76716920641881
 30
0.0
 10
2983.047596856063
 20
-41.17450295683844
 30
0.0
 10
2971.084740170984
 20
-41.52540874619968
 30
0.0
  0
SPLINE
  5
7000D
330
70133
100
AcDbEntity
  8
Level 26
  6
Continuous
 62
     7
370
     0
100
AcDbSpline
210
0.0
220
0.0
230
1.0
 70
     9
 71
     3
 72
    19
 73
    15
 74
     0
 42
0.000000001
 43
0.0000000001
 40
0.0
 40
0.0
 40
0.0
 40
0.0
 40
0.0833333335273589
 40
0.1666666665890565
 40
0.2500000001164153
 40
0.3333333331781129
 40
0.4166666667054718
 40
0.4999999997671694
 40
0.5833333332945282
 40
0.6666666668218872
 40
0.7499999998835847
 40
0.8333333334109434
 40
0.9166666664726411
 40
1.0
 40
1.0
 40
1.0
 40
1.0
 10
2971.084740170984
 20
-41.52540874619968
 30
0.0
 10
2959.067376848128
 20
-41.08424269498962
 30
0.0
 10
2937.287884706644
 20
-35.63417256345485
 30
0.0
 10
2911.893370622352
 20
-10.33875589424497
 30
0.0
 10
2903.244860902207
 20
23.45954309559237
 30
0.0
 10
2912.001681392334
 20
57.35007048595462
 30
0.0
 10
2936.837779478823
 20
82.35900691589938
 30
0.0
 10
2970.925531302305
 20
91.37281504603029
 30
0.0
 10
3005.035886049459
 20
82.53944198777046
 30
0.0
 10
3030.131795592597
 20
57.46628265063249
 30
0.0
 10
3038.931135049978
 20
23.46294603147298
 30
0.0
 10
3030.242039679636
 20
-10.46884171229361
 30
0.0
 10
3004.57053917608
 20
-35.76716920641881
 30
0.0
 10
2983.047596856063
 20
-41.17450295683843
 30
0.0
 10
2971.084740170984
 20
-41.52540874619968
 30
0.0
  0
SPLINE
  5
7000E
330
70133
100
AcDbEntity
  8
Level 26
  6
Continuous
 62
     7
370
     0
100
AcDbSpline
210
0.0
220
0.0
230
1.0
 70
     9
 71
     3
 72
    19
 73
    15
 74
     0
 42
0.000000001
 43
0.0000000001
 40
0.0
 40
0.0
 40
0.0
 40
0.0
 40
0.0833333335273589
 40
0.1666666665890565
 40
0.2500000001164153
 40
0.3333333331781129
 40
0.4166666667054718
 40
0.4999999997671694
 40
0.5833333332945282
 40
0.6666666668218872
 40
0.7499999998835847
 40
0.8333333334109434
 40
0.9166666664726411
 40
1.0
 40
1.0
 40
1.0
 40
1.0
 10
2971.084740170984
 20
-41.52540874619968
 30
0.0
 10
2959.067376848128
 20
-41.08424269498962
 30
0.0
 10
2937.287884706645
 20
-35.63417256345485
 30
0.0
 10
2911.893370622353
 20
-10.33875589424497
 30
0.0
 10
2903.244860902207
 20
23.45954309559237
 30
0.0
 10
2912.001681392334
 20
57.35007048595462
 30
0.0
 10
2936.837779478824
 20
82.35900691589938
 30
0.0
 10
2970.925531302305
 20
91.37281504603029
 30
0.0
 10
3005.035886049459
 20
82.53944198777046
 30
0.0
 10
3030.131795592597
 20
57.46628265063249
 30
0.0
 10
3038.931135049978
 20
23.46294603147298
 30
0.0
 10
3030.242039679636
 20
-10.46884171229361
 30
0.0
 10
3004.570539176081
 20
-35.76716920641881
 30
0.0
 10
2983.047596856063
 20
-41.17450295683844
 30
0.0
 10
2971.084740170984
 20
-41.52540874619968
 30
0.0
  0
SPLINE
  5
7000F
330
70133
100
AcDbEntity
  8
Level 26
  6
Continuous
 62
     7
370
     0
100
AcDbSpline
210
0.0
220
0.0
230
1.0
 70
     9
 71
     3
 72
    19
 73
    15
 74
     0
 42
0.000000001
 43
0.0000000001
 40
0.0
 40
0.0
 40
0.0
 40
0.0
 40
0.0833333335273589
 40
0.1666666665890565
 40
0.2500000001164153
 40
0.3333333331781129
 40
0.4166666667054718
 40
0.4999999997671694
 40
0.5833333332945282
 40
0.6666666668218872
 40
0.7499999998835847
 40
0.8333333334109434
 40
0.9166666664726411
 40
1.0
 40
1.0
 40
1.0
 40
1.0
 10
2971.084740170984
 20
-41.52540874619968
 30
0.0
 10
2959.067376848129
 20
-41.08424269498963
 30
0.0
 10
2937.287884706645
 20
-35.63417256345485
 30
0.0
 10
2911.893370622353
 20
-10.33875589424497
 30
0.0
 10
2903.244860902207
 20
23.45954309559237
 30
0.0
 10
2912.001681392334
 20
57.35007048595463
 30
0.0
 10
2936.837779478824
 20
82.35900691589938
 30
0.0
 10
2970.925531302305
 20
91.37281504603029
 30
0.0
 10
3005.035886049459
 20
82.53944198777046
 30
0.0
 10
3030.131795592597
 20
57.46628265063249
 30
0.0
 10
3038.931135049979
 20
23.46294603147298
 30
0.0
 10
3030.242039679637
 20
-10.46884171229361
 30
0.0
 10
3004.570539176081
 20
-35.76716920641882
 30
0.0
 10
2983.047596856063
 20
-41.17450295683844
 30
0.0
 10
2971.084740170984
 20
-41.52540874619968
 30
0.0
  0
SPLINE
  5
70010
330
70133
100
AcDbEntity
  8
Level 26
  6
Continuous
 62
     7
370
     0
100
AcDbSpline
210
0.0
220
0.0
230
1.0
 70
     9
 71
     3
 72
    19
 73
    15
 74
     0
 42
0.000000001
 43
0.0000000001
 40
0.0
 40
0.0
 40
0.0
 40
0.0
 40
0.0833333335273589
 40
0.1666666665890565
 40
0.2500000001164153
 40
0.3333333331781129
 40
0.4166666667054718
 40
0.4999999997671694
 40
0.5833333332945282
 40
0.6666666668218872
 40
0.7499999998835847
 40
0.8333333334109434
 40
0.9166666664726411
 40
1.0
 40
1.0
 40
1.0
 40
1.0
 10
2971.084740170984
 20
-41.52540874619968
 30
0.0
 10
2959.067376848129
 20
-41.08424269498962
 30
0.0
 10
2937.287884706645
 20
-35.63417256345485
 30
0.0
 10
2911.893370622353
 20
-10.33875589424497
 30
0.0
 10
2903.244860902207
 20
23.45954309559237
 30
0.0
 10
2912.001681392334
 20
57.35007048595462
 30
0.0
 10
2936.837779478824
 20
82.35900691589938
 30
0.0
 10
2970.925531302305
 20
91.37281504603029
 30
0.0
 10
3005.035886049459
 20
82.53944198777046
 30
0.0
 10
3030.131795592597
 20
57.46628265063249
 30
0.0
 10
3038.931135049978
 20
23.46294603147298
 30
0.0
 10
3030.242039679636
 20
-10.46884171229361
 30
0.0
 10
3004.570539176081
 20
-35.76716920641881
 30
0.0
 10
2983.047596856063
 20
-41.17450295683844
 30
0.0
 10
2971.084740170984
 20
-41.52540874619968
 30
0.0
  0
SPLINE
  5
70011
330
70133
100
AcDbEntity
  8
Level 26
  6
Continuous
 62
     7
370
     0
100
AcDbSpline
210
0.0
220
0.0
230
1.0
 70
     9
 71
     3
 72
    19
 73
    15
 74
     0
 42
0.000000001
 43
0.0000000001
 40
0.0
 40
0.0
 40
0.0
 40
0.0
 40
0.0833333335273589
 40
0.1666666665890565
 40
0.2500000001164153
 40
0.3333333331781129
 40
0.4166666667054718
 40
0.4999999997671694
 40
0.5833333332945282
 40
0.6666666668218872
 40
0.7499999998835847
 40
0.8333333334109434
 40
0.9166666664726411
 40
1.0
 40
1.0
 40
1.0
 40
1.0
 10
2971.084740170984
 20
-41.52540874619968
 30
0.0
 10
2959.067376848129
 20
-41.08424269498962
 30
0.0
 10
2937.287884706645
 20
-35.63417256345485
 30
0.0
 10
2911.893370622353
 20
-10.33875589424497
 30
0.0
 10
2903.244860902207
 20
23.45954309559237
 30
0.0
 10
2912.001681392334
 20
57.35007048595462
 30
0.0
 10
2936.837779478824
 20
82.35900691589938
 30
0.0
 10
2970.925531302305
 20
91.37281504603029
 30
0.0
 10
3005.035886049459
 20
82.53944198777046
 30
0.0
 10
3030.131795592597
 20
57.46628265063249
 30
0.0
 10
3038.931135049978
 20
23.46294603147298
 30
0.0
 10
3030.242039679636
 20
-10.46884171229361
 30
0.0
 10
3004.570539176081
 20
-35.76716920641881
 30
0.0
 10
2983.047596856063
 20
-41.17450295683844
 30
0.0
 10
2971.084740170984
 20
-41.52540874619968
 30
0.0
  0
SPLINE
  5
70012
330
70133
100
AcDbEntity
  8
Level 26
  6
Continuous
 62
     7
370
     0
100
AcDbSpline
210
0.0
220
0.0
230
1.0
 70
     9
 71
     3
 72
    19
 73
    15
 74
     0
 42
0.000000001
 43
0.0000000001
 40
0.0
 40
0.0
 40
0.0
 40
0.0
 40
0.0833333335273589
 40
0.1666666665890565
 40
0.2500000001164153
 40
0.3333333331781129
 40
0.4166666667054718
 40
0.4999999997671694
 40
0.5833333332945282
 40
0.6666666668218872
 40
0.7499999998835847
 40
0.8333333334109434
 40
0.9166666664726411
 40
1.0
 40
1.0
 40
1.0
 40
1.0
 10
2971.084740170984
 20
-41.52540874619968
 30
0.0
 10
2959.067376848129
 20
-41.08424269498962
 30
0.0
 10
2937.287884706645
 20
-35.63417256345485
 30
0.0
 10
2911.893370622353
 20
-10.33875589424497
 30
0.0
 10
2903.244860902207
 20
23.45954309559237
 30
0.0
 10
2912.001681392334
 20
57.35007048595463
 30
0.0
 10
2936.837779478824
 20
82.35900691589938
 30
0.0
 10
2970.925531302305
 20
91.37281504603029
 30
0.0
 10
3005.035886049459
 20
82.53944198777046
 30
0.0
 10
3030.131795592597
 20
57.46628265063249
 30
0.0
 10
3038.931135049978
 20
23.46294603147298
 30
0.0
 10
3030.242039679636
 20
-10.46884171229361
 30
0.0
 10
3004.570539176081
 20
-35.76716920641881
 30
0.0
 10
2983.047596856063
 20
-41.17450295683844
 30
0.0
 10
2971.084740170984
 20
-41.52540874619968
 30
0.0
  0
SPLINE
  5
70013
330
70133
100
AcDbEntity
  8
Level 26
  6
Continuous
 62
     7
370
     0
100
AcDbSpline
210
0.0
220
0.0
230
1.0
 70
     9
 71
     3
 72
    19
 73
    15
 74
     0
 42
0.000000001
 43
0.0000000001
 40
0.0
 40
0.0
 40
0.0
 40
0.0
 40
0.0833333335273589
 40
0.1666666665890565
 40
0.2500000001164153
 40
0.3333333331781129
 40
0.4166666667054718
 40
0.4999999997671694
 40
0.5833333332945282
 40
0.6666666668218872
 40
0.7499999998835847
 40
0.8333333334109434
 40
0.9166666664726411
 40
1.0
 40
1.0
 40
1.0
 40
1.0
 10
2971.084740170984
 20
-41.52540874619968
 30
0.0
 10
2959.067376848129
 20
-41.08424269498962
 30
0.0
 10
2937.287884706645
 20
-35.63417256345485
 30
0.0
 10
2911.893370622353
 20
-10.33875589424497
 30
0.0
 10
2903.244860902207
 20
23.45954309559237
 30
0.0
 10
2912.001681392334
 20
57.35007048595462
 30
0.0
 10
2936.837779478824
 20
82.35900691589938
 30
0.0
 10
2970.925531302305
 20
91.37281504603029
 30
0.0
 10
3005.035886049459
 20
82.53944198777046
 30
0.0
 10
3030.131795592597
 20
57.46628265063249
 30
0.0
 10
3038.931135049978
 20
23.46294603147297
 30
0.0
 10
3030.242039679636
 20
-10.46884171229361
 30
0.0
 10
3004.570539176081
 20
-35.76716920641881
 30
0.0
 10
2983.047596856063
 20
-41.17450295683844
 30
0.0
 10
2971.084740170984
 20
-41.52540874619968
 30
0.0
  0
SPLINE
  5
70014
330
70133
100
AcDbEntity
  8
Level 26
  6
Continuous
 62
     7
370
     0
100
AcDbSpline
210
0.0
220
0.0
230
1.0
 70
     9
 71
     3
 72
    19
 73
    15
 74
     0
 42
0.000000001
 43
0.0000000001
 40
0.0
 40
0.0
 40
0.0
 40
0.0
 40
0.0833333335273589
 40
0.1666666665890565
 40
0.2500000001164153
 40
0.3333333331781129
 40
0.4166666667054718
 40
0.4999999997671694
 40
0.5833333332945282
 40
0.6666666668218872
 40
0.7499999998835847
 40
0.8333333334109434
 40
0.9166666664726411
 40
1.0
 40
1.0
 40
1.0
 40
1.0
 10
2971.084740170984
 20
-41.52540874619968
 30
0.0
 10
2959.067376848129
 20
-41.08424269498962
 30
0.0
 10
2937.287884706645
 20
-35.63417256345485
 30
0.0
 10
2911.893370622353
 20
-10.33875589424497
 30
0.0
 10
2903.244860902207
 20
23.45954309559237
 30
0.0
 10
2912.001681392334
 20
57.35007048595462
 30
0.0
 10
2936.837779478824
 20
82.35900691589938
 30
0.0
 10
2970.925531302305
 20
91.37281504603029
 30
0.0
 10
3005.035886049459
 20
82.53944198777046
 30
0.0
 10
3030.131795592597
 20
57.46628265063249
 30
0.0
 10
3038.931135049978
 20
23.46294603147297
 30
0.0
 10
3030.242039679636
 20
-10.46884171229361
 30
0.0
 10
3004.570539176081
 20
-35.76716920641881
 30
0.0
 10
2983.047596856063
 20
-41.17450295683844
 30
0.0
 10
2971.084740170984
 20
-41.52540874619968
 30
0.0
  0
SPLINE
  5
70015
330
70133
100
AcDbEntity
  8
Level 26
  6
Continuous
 62
     7
370
     0
100
AcDbSpline
210
0.0
220
0.0
230
1.0
 70
     9
 71
     3
 72
    19
 73
    15
 74
     0
 42
0.000000001
 43
0.0000000001
 40
0.0
 40
0.0
 40
0.0
 40
0.0
 40
0.0833333335273589
 40
0.1666666665890565
 40
0.2500000001164153
 40
0.3333333331781129
 40
0.4166666667054718
 40
0.4999999997671694
 40
0.5833333332945282
 40
0.6666666668218872
 40
0.7499999998835847
 40
0.8333333334109434
 40
0.9166666664726411
 40
1.0
 40
1.0
 40
1.0
 40
1.0
 10
2971.084740170984
 20
-41.52540874619968
 30
0.0
 10
2959.067376848129
 20
-41.08424269498962
 30
0.0
 10
2937.287884706645
 20
-35.63417256345485
 30
0.0
 10
2911.893370622353
 20
-10.33875589424497
 30
0.0
 10
2903.244860902207
 20
23.45954309559237
 30
0.0
 10
2912.001681392334
 20
57.35007048595462
 30
0.0
 10
2936.837779478824
 20
82.35900691589938
 30
0.0
 10
2970.925531302305
 20
91.37281504603029
 30
0.0
 10
3005.035886049459
 20
82.53944198777046
 30
0.0
 10
3030.131795592597
 20
57.46628265063249
 30
0.0
 10
3038.931135049978
 20
23.46294603147298
 30
0.0
 10
3030.242039679636
 20
-10.46884171229361
 30
0.0
 10
3004.570539176081
 20
-35.76716920641881
 30
0.0
 10
2983.047596856063
 20
-41.17450295683844
 30
0.0
 10
2971.084740170984
 20
-41.52540874619968
 30
0.0
  0
ENDBLK
  5
70135
330
70133
100
AcDbEntity
  8
0
 62
    98
370
     0
100
AcDbBlockEnd
  0
BLOCK
  5
70137
330
70136
100
AcDbEntity
  8
0
 62
    98
370
     0
100
AcDbBlockBegin
  2
From Bspline Surface_3
 70
     0
 10
0.0
 20
0.0
 30
0.0
  3
From Bspline Surface_3
  1

  0
SPLINE
  5
6FE1C
330
70136
100
AcDbEntity
  8
Level 26
  6
Continuous
 62
     7
370
     0
100
AcDbSpline
210
0.0
220
0.0
230
1.0
 70
     9
 71
     3
 72
    19
 73
    15
 74
     0
 42
0.000000001
 43
0.0000000001
 40
0.0
 40
0.0
 40
0.0
 40
0.0
 40
0.0833333335273589
 40
0.1666666665890565
 40
0.2500000001164153
 40
0.3333333331781129
 40
0.4166666667054718
 40
0.4999999997671694
 40
0.5833333332945282
 40
0.6666666668218872
 40
0.7499999998835847
 40
0.8333333334109434
 40
0.9166666664726411
 40
1.0
 40
1.0
 40
1.0
 40
1.0
 10
2971.084740170984
 20
-41.52540874619968
 30
0.0
 10
2959.067376848129
 20
-41.08424269498962
 30
0.0
 10
2937.287884706645
 20
-35.63417256345485
 30
0.0
 10
2911.893370622353
 20
-10.33875589424497
 30
0.0
 10
2903.244860902207
 20
23.45954309559237
 30
0.0
 10
2912.001681392334
 20
57.35007048595462
 30
0.0
 10
2936.837779478824
 20
82.35900691589938
 30
0.0
 10
2970.925531302305
 20
91.37281504603029
 30
0.0
 10
3005.035886049459
 20
82.53944198777046
 30
0.0
 10
3030.131795592597
 20
57.46628265063249
 30
0.0
 10
3038.931135049978
 20
23.46294603147298
 30
0.0
 10
3030.242039679636
 20
-10.46884171229361
 30
0.0
 10
3004.570539176081
 20
-35.76716920641881
 30
0.0
 10
2983.047596856063
 20
-41.17450295683844
 30
0.0
 10
2971.084740170984
 20
-41.52540874619968
 30
0.0
  0
SPLINE
  5
70020
330
70136
100
AcDbEntity
  8
Level 26
  6
Continuous
 62
     7
370
     0
100
AcDbSpline
210
0.0
220
0.0
230
1.0
 70
     9
 71
     3
 72
    19
 73
    15
 74
     0
 42
0.000000001
 43
0.0000000001
 40
0.0
 40
0.0
 40
0.0
 40
0.0
 40
0.0833333335273589
 40
0.1666666665890565
 40
0.2500000001164153
 40
0.3333333331781129
 40
0.4166666667054718
 40
0.4999999997671694
 40
0.5833333332945282
 40
0.6666666668218872
 40
0.7499999998835847
 40
0.8333333334109434
 40
0.9166666664726411
 40
1.0
 40
1.0
 40
1.0
 40
1.0
 10
2971.084740170984
 20
-41.52540874619968
 30
0.0
 10
2959.067376848128
 20
-41.08424269498962
 30
0.0
 10
2937.287884706644
 20
-35.63417256345485
 30
0.0
 10
2911.893370622352
 20
-10.33875589424497
 30
0.0
 10
2903.244860902207
 20
23.45954309559237
 30
0.0
 10
2912.001681392334
 20
57.35007048595462
 30
0.0
 10
2936.837779478823
 20
82.35900691589938
 30
0.0
 10
2970.925531302305
 20
91.37281504603029
 30
0.0
 10
3005.035886049459
 20
82.53944198777046
 30
0.0
 10
3030.131795592597
 20
57.46628265063249
 30
0.0
 10
3038.931135049978
 20
23.46294603147298
 30
0.0
 10
3030.242039679636
 20
-10.46884171229361
 30
0.0
 10
3004.57053917608
 20
-35.76716920641881
 30
0.0
 10
2983.047596856063
 20
-41.17450295683843
 30
0.0
 10
2971.084740170984
 20
-41.52540874619968
 30
0.0
  0
SPLINE
  5
70021
330
70136
100
AcDbEntity
  8
Level 26
  6
Continuous
 62
     7
370
     0
100
AcDbSpline
210
0.0
220
0.0
230
1.0
 70
     9
 71
     3
 72
    19
 73
    15
 74
     0
 42
0.000000001
 43
0.0000000001
 40
0.0
 40
0.0
 40
0.0
 40
0.0
 40
0.0833333335273589
 40
0.1666666665890565
 40
0.2500000001164153
 40
0.3333333331781129
 40
0.4166666667054718
 40
0.4999999997671694
 40
0.5833333332945282
 40
0.6666666668218872
 40
0.7499999998835847
 40
0.8333333334109434
 40
0.9166666664726411
 40
1.0
 40
1.0
 40
1.0
 40
1.0
 10
2971.084740170984
 20
-41.52540874619968
 30
0.0
 10
2959.067376848128
 20
-41.08424269498962
 30
0.0
 10
2937.287884706645
 20
-35.63417256345485
 30
0.0
 10
2911.893370622353
 20
-10.33875589424497
 30
0.0
 10
2903.244860902207
 20
23.45954309559237
 30
0.0
 10
2912.001681392334
 20
57.35007048595462
 30
0.0
 10
2936.837779478824
 20
82.35900691589938
 30
0.0
 10
2970.925531302305
 20
91.37281504603029
 30
0.0
 10
3005.035886049459
 20
82.53944198777046
 30
0.0
 10
3030.131795592597
 20
57.46628265063249
 30
0.0
 10
3038.931135049978
 20
23.46294603147298
 30
0.0
 10
3030.242039679636
 20
-10.46884171229361
 30
0.0
 10
3004.570539176081
 20
-35.76716920641881
 30
0.0
 10
2983.047596856063
 20
-41.17450295683844
 30
0.0
 10
2971.084740170984
 20
-41.52540874619968
 30
0.0
  0
SPLINE
  5
70022
330
70136
100
AcDbEntity
  8
Level 26
  6
Continuous
 62
     7
370
     0
100
AcDbSpline
210
0.0
220
0.0
230
1.0
 70
     9
 71
     3
 72
    19
 73
    15
 74
     0
 42
0.000000001
 43
0.0000000001
 40
0.0
 40
0.0
 40
0.0
 40
0.0
 40
0.0833333335273589
 40
0.1666666665890565
 40
0.2500000001164153
 40
0.3333333331781129
 40
0.4166666667054718
 40
0.4999999997671694
 40
0.5833333332945282
 40
0.6666666668218872
 40
0.7499999998835847
 40
0.8333333334109434
 40
0.9166666664726411
 40
1.0
 40
1.0
 40
1.0
 40
1.0
 10
2971.084740170984
 20
-41.52540874619968
 30
0.0
 10
2959.067376848129
 20
-41.08424269498963
 30
0.0
 10
2937.287884706645
 20
-35.63417256345485
 30
0.0
 10
2911.893370622353
 20
-10.33875589424497
 30
0.0
 10
2903.244860902207
 20
23.45954309559237
 30
0.0
 10
2912.001681392334
 20
57.35007048595463
 30
0.0
 10
2936.837779478824
 20
82.35900691589938
 30
0.0
 10
2970.925531302305
 20
91.37281504603029
 30
0.0
 10
3005.035886049459
 20
82.53944198777046
 30
0.0
 10
3030.131795592597
 20
57.46628265063249
 30
0.0
 10
3038.931135049979
 20
23.46294603147298
 30
0.0
 10
3030.242039679637
 20
-10.46884171229361
 30
0.0
 10
3004.570539176081
 20
-35.76716920641882
 30
0.0
 10
2983.047596856063
 20
-41.17450295683844
 30
0.0
 10
2971.084740170984
 20
-41.52540874619968
 30
0.0
  0
SPLINE
  5
70023
330
70136
100
AcDbEntity
  8
Level 26
  6
Continuous
 62
     7
370
     0
100
AcDbSpline
210
0.0
220
0.0
230
1.0
 70
     9
 71
     3
 72
    19
 73
    15
 74
     0
 42
0.000000001
 43
0.0000000001
 40
0.0
 40
0.0
 40
0.0
 40
0.0
 40
0.0833333335273589
 40
0.1666666665890565
 40
0.2500000001164153
 40
0.3333333331781129
 40
0.4166666667054718
 40
0.4999999997671694
 40
0.5833333332945282
 40
0.6666666668218872
 40
0.7499999998835847
 40
0.8333333334109434
 40
0.9166666664726411
 40
1.0
 40
1.0
 40
1.0
 40
1.0
 10
2971.084740170984
 20
-41.52540874619968
 30
0.0
 10
2959.067376848129
 20
-41.08424269498962
 30
0.0
 10
2937.287884706645
 20
-35.63417256345485
 30
0.0
 10
2911.893370622353
 20
-10.33875589424497
 30
0.0
 10
2903.244860902207
 20
23.45954309559237
 30
0.0
 10
2912.001681392334
 20
57.35007048595462
 30
0.0
 10
2936.837779478824
 20
82.35900691589938
 30
0.0
 10
2970.925531302305
 20
91.37281504603029
 30
0.0
 10
3005.035886049459
 20
82.53944198777046
 30
0.0
 10
3030.131795592597
 20
57.46628265063249
 30
0.0
 10
3038.931135049978
 20
23.46294603147298
 30
0.0
 10
3030.242039679636
 20
-10.46884171229361
 30
0.0
 10
3004.570539176081
 20
-35.76716920641881
 30
0.0
 10
2983.047596856063
 20
-41.17450295683844
 30
0.0
 10
2971.084740170984
 20
-41.52540874619968
 30
0.0
  0
SPLINE
  5
70024
330
70136
100
AcDbEntity
  8
Level 26
  6
Continuous
 62
     7
370
     0
100
AcDbSpline
210
0.0
220
0.0
230
1.0
 70
     9
 71
     3
 72
    19
 73
    15
 74
     0
 42
0.000000001
 43
0.0000000001
 40
0.0
 40
0.0
 40
0.0
 40
0.0
 40
0.0833333335273589
 40
0.1666666665890565
 40
0.2500000001164153
 40
0.3333333331781129
 40
0.4166666667054718
 40
0.4999999997671694
 40
0.5833333332945282
 40
0.6666666668218872
 40
0.7499999998835847
 40
0.8333333334109434
 40
0.9166666664726411
 40
1.0
 40
1.0
 40
1.0
 40
1.0
 10
2971.084740170984
 20
-41.52540874619968
 30
0.0
 10
2959.067376848129
 20
-41.08424269498962
 30
0.0
 10
2937.287884706645
 20
-35.63417256345485
 30
0.0
 10
2911.893370622353
 20
-10.33875589424497
 30
0.0
 10
2903.244860902207
 20
23.45954309559237
 30
0.0
 10
2912.001681392334
 20
57.35007048595462
 30
0.0
 10
2936.837779478824
 20
82.35900691589938
 30
0.0
 10
2970.925531302305
 20
91.37281504603029
 30
0.0
 10
3005.035886049459
 20
82.53944198777046
 30
0.0
 10
3030.131795592597
 20
57.46628265063249
 30
0.0
 10
3038.931135049978
 20
23.46294603147298
 30
0.0
 10
3030.242039679636
 20
-10.46884171229361
 30
0.0
 10
3004.570539176081
 20
-35.76716920641881
 30
0.0
 10
2983.047596856063
 20
-41.17450295683844
 30
0.0
 10
2971.084740170984
 20
-41.52540874619968
 30
0.0
  0
SPLINE
  5
70025
330
70136
100
AcDbEntity
  8
Level 26
  6
Continuous
 62
     7
370
     0
100
AcDbSpline
210
0.0
220
0.0
230
1.0
 70
     9
 71
     3
 72
    19
 73
    15
 74
     0
 42
0.000000001
 43
0.0000000001
 40
0.0
 40
0.0
 40
0.0
 40
0.0
 40
0.0833333335273589
 40
0.1666666665890565
 40
0.2500000001164153
 40
0.3333333331781129
 40
0.4166666667054718
 40
0.4999999997671694
 40
0.5833333332945282
 40
0.6666666668218872
 40
0.7499999998835847
 40
0.8333333334109434
 40
0.9166666664726411
 40
1.0
 40
1.0
 40
1.0
 40
1.0
 10
2971.084740170984
 20
-41.52540874619968
 30
0.0
 10
2959.067376848129
 20
-41.08424269498962
 30
0.0
 10
2937.287884706645
 20
-35.63417256345485
 30
0.0
 10
2911.893370622353
 20
-10.33875589424497
 30
0.0
 10
2903.244860902207
 20
23.45954309559237
 30
0.0
 10
2912.001681392334
 20
57.35007048595463
 30
0.0
 10
2936.837779478824
 20
82.35900691589938
 30
0.0
 10
2970.925531302305
 20
91.37281504603029
 30
0.0
 10
3005.035886049459
 20
82.53944198777046
 30
0.0
 10
3030.131795592597
 20
57.46628265063249
 30
0.0
 10
3038.931135049978
 20
23.46294603147298
 30
0.0
 10
3030.242039679636
 20
-10.46884171229361
 30
0.0
 10
3004.570539176081
 20
-35.76716920641881
 30
0.0
 10
2983.047596856063
 20
-41.17450295683844
 30
0.0
 10
2971.084740170984
 20
-41.52540874619968
 30
0.0
  0
SPLINE
  5
70026
330
70136
100
AcDbEntity
  8
Level 26
  6
Continuous
 62
     7
370
     0
100
AcDbSpline
210
0.0
220
0.0
230
1.0
 70
     9
 71
     3
 72
    19
 73
    15
 74
     0
 42
0.000000001
 43
0.0000000001
 40
0.0
 40
0.0
 40
0.0
 40
0.0
 40
0.0833333335273589
 40
0.1666666665890565
 40
0.2500000001164153
 40
0.3333333331781129
 40
0.4166666667054718
 40
0.4999999997671694
 40
0.5833333332945282
 40
0.6666666668218872
 40
0.7499999998835847
 40
0.8333333334109434
 40
0.9166666664726411
 40
1.0
 40
1.0
 40
1.0
 40
1.0
 10
2971.084740170984
 20
-41.52540874619968
 30
0.0
 10
2959.067376848129
 20
-41.08424269498962
 30
0.0
 10
2937.287884706645
 20
-35.63417256345485
 30
0.0
 10
2911.893370622353
 20
-10.33875589424497
 30
0.0
 10
2903.244860902207
 20
23.45954309559237
 30
0.0
 10
2912.001681392334
 20
57.35007048595462
 30
0.0
 10
2936.837779478824
 20
82.35900691589938
 30
0.0
 10
2970.925531302305
 20
91.37281504603029
 30
0.0
 10
3005.035886049459
 20
82.53944198777046
 30
0.0
 10
3030.131795592597
 20
57.46628265063249
 30
0.0
 10
3038.931135049978
 20
23.46294603147297
 30
0.0
 10
3030.242039679636
 20
-10.46884171229361
 30
0.0
 10
3004.570539176081
 20
-35.76716920641881
 30
0.0
 10
2983.047596856063
 20
-41.17450295683844
 30
0.0
 10
2971.084740170984
 20
-41.52540874619968
 30
0.0
  0
SPLINE
  5
70027
330
70136
100
AcDbEntity
  8
Level 26
  6
Continuous
 62
     7
370
     0
100
AcDbSpline
210
0.0
220
0.0
230
1.0
 70
     9
 71
     3
 72
    19
 73
    15
 74
     0
 42
0.000000001
 43
0.0000000001
 40
0.0
 40
0.0
 40
0.0
 40
0.0
 40
0.0833333335273589
 40
0.1666666665890565
 40
0.2500000001164153
 40
0.3333333331781129
 40
0.4166666667054718
 40
0.4999999997671694
 40
0.5833333332945282
 40
0.6666666668218872
 40
0.7499999998835847
 40
0.8333333334109434
 40
0.9166666664726411
 40
1.0
 40
1.0
 40
1.0
 40
1.0
 10
2971.084740170984
 20
-41.52540874619968
 30
0.0
 10
2959.067376848129
 20
-41.08424269498962
 30
0.0
 10
2937.287884706645
 20
-35.63417256345485
 30
0.0
 10
2911.893370622353
 20
-10.33875589424497
 30
0.0
 10
2903.244860902207
 20
23.45954309559237
 30
0.0
 10
2912.001681392334
 20
57.35007048595462
 30
0.0
 10
2936.837779478824
 20
82.35900691589938
 30
0.0
 10
2970.925531302305
 20
91.37281504603029
 30
0.0
 10
3005.035886049459
 20
82.53944198777046
 30
0.0
 10
3030.131795592597
 20
57.46628265063249
 30
0.0
 10
3038.931135049978
 20
23.46294603147297
 30
0.0
 10
3030.242039679636
 20
-10.46884171229361
 30
0.0
 10
3004.570539176081
 20
-35.76716920641881
 30
0.0
 10
2983.047596856063
 20
-41.17450295683844
 30
0.0
 10
2971.084740170984
 20
-41.52540874619968
 30
0.0
  0
SPLINE
  5
70028
330
70136
100
AcDbEntity
  8
Level 26
  6
Continuous
 62
     7
370
     0
100
AcDbSpline
210
0.0
220
0.0
230
1.0
 70
     9
 71
     3
 72
    19
 73
    15
 74
     0
 42
0.000000001
 43
0.0000000001
 40
0.0
 40
0.0
 40
0.0
 40
0.0
 40
0.0833333335273589
 40
0.1666666665890565
 40
0.2500000001164153
 40
0.3333333331781129
 40
0.4166666667054718
 40
0.4999999997671694
 40
0.5833333332945282
 40
0.6666666668218872
 40
0.7499999998835847
 40
0.8333333334109434
 40
0.9166666664726411
 40
1.0
 40
1.0
 40
1.0
 40
1.0
 10
2971.084740170984
 20
-41.52540874619968
 30
0.0
 10
2959.067376848129
 20
-41.08424269498962
 30
0.0
 10
2937.287884706645
 20
-35.63417256345485
 30
0.0
 10
2911.893370622353
 20
-10.33875589424497
 30
0.0
 10
2903.244860902207
 20
23.45954309559237
 30
0.0
 10
2912.001681392334
 20
57.35007048595462
 30
0.0
 10
2936.837779478824
 20
82.35900691589938
 30
0.0
 10
2970.925531302305
 20
91.37281504603029
 30
0.0
 10
3005.035886049459
 20
82.53944198777046
 30
0.0
 10
3030.131795592597
 20
57.46628265063249
 30
0.0
 10
3038.931135049978
 20
23.46294603147298
 30
0.0
 10
3030.242039679636
 20
-10.46884171229361
 30
0.0
 10
3004.570539176081
 20
-35.76716920641881
 30
0.0
 10
2983.047596856063
 20
-41.17450295683844
 30
0.0
 10
2971.084740170984
 20
-41.52540874619968
 30
0.0
  0
ENDBLK
  5
70138
330
70136
100
AcDbEntity
  8
0
 62
    98
370
     0
100
AcDbBlockEnd
  0
BLOCK
  5
7013A
330
70139
100
AcDbEntity
  8
0
 62
    98
370
     0
100
AcDbBlockBegin
  2
From Bspline Surface_4
 70
     0
 10
0.0
 20
0.0
 30
0.0
  3
From Bspline Surface_4
  1

  0
SPLINE
  5
6FE2D
330
70139
100
AcDbEntity
  8
Level 26
  6
Continuous
 62
     7
370
     0
100
AcDbSpline
210
0.0
220
0.0
230
1.0
 70
     9
 71
     3
 72
    19
 73
    15
 74
     0
 42
0.000000001
 43
0.0000000001
 40
0.0
 40
0.0
 40
0.0
 40
0.0
 40
0.0833333335273589
 40
0.1666666665890565
 40
0.2500000001164153
 40
0.3333333331781129
 40
0.4166666667054718
 40
0.4999999997671694
 40
0.5833333332945282
 40
0.6666666668218872
 40
0.7499999998835847
 40
0.8333333334109434
 40
0.9166666664726411
 40
1.0
 40
1.0
 40
1.0
 40
1.0
 10
2971.084740170984
 20
-41.52540874619968
 30
0.0
 10
2959.067376848129
 20
-41.08424269498962
 30
0.0
 10
2937.287884706645
 20
-35.63417256345485
 30
0.0
 10
2911.893370622353
 20
-10.33875589424497
 30
0.0
 10
2903.244860902207
 20
23.45954309559237
 30
0.0
 10
2912.001681392334
 20
57.35007048595462
 30
0.0
 10
2936.837779478824
 20
82.35900691589938
 30
0.0
 10
2970.925531302305
 20
91.37281504603029
 30
0.0
 10
3005.035886049459
 20
82.53944198777046
 30
0.0
 10
3030.131795592597
 20
57.46628265063249
 30
0.0
 10
3038.931135049978
 20
23.46294603147298
 30
0.0
 10
3030.242039679636
 20
-10.46884171229361
 30
0.0
 10
3004.570539176081
 20
-35.76716920641881
 30
0.0
 10
2983.047596856063
 20
-41.17450295683844
 30
0.0
 10
2971.084740170984
 20
-41.52540874619968
 30
0.0
  0
SPLINE
  5
70033
330
70139
100
AcDbEntity
  8
Level 26
  6
Continuous
 62
     7
370
     0
100
AcDbSpline
210
0.0
220
0.0
230
1.0
 70
     9
 71
     3
 72
    19
 73
    15
 74
     0
 42
0.000000001
 43
0.0000000001
 40
0.0
 40
0.0
 40
0.0
 40
0.0
 40
0.0833333335273589
 40
0.1666666665890565
 40
0.2500000001164153
 40
0.3333333331781129
 40
0.4166666667054718
 40
0.4999999997671694
 40
0.5833333332945282
 40
0.6666666668218872
 40
0.7499999998835847
 40
0.8333333334109434
 40
0.9166666664726411
 40
1.0
 40
1.0
 40
1.0
 40
1.0
 10
2971.084740170984
 20
-41.52540874619968
 30
0.0
 10
2959.067376848128
 20
-41.08424269498962
 30
0.0
 10
2937.287884706644
 20
-35.63417256345485
 30
0.0
 10
2911.893370622352
 20
-10.33875589424497
 30
0.0
 10
2903.244860902207
 20
23.45954309559237
 30
0.0
 10
2912.001681392334
 20
57.35007048595462
 30
0.0
 10
2936.837779478823
 20
82.35900691589938
 30
0.0
 10
2970.925531302305
 20
91.37281504603029
 30
0.0
 10
3005.035886049459
 20
82.53944198777046
 30
0.0
 10
3030.131795592597
 20
57.46628265063249
 30
0.0
 10
3038.931135049978
 20
23.46294603147298
 30
0.0
 10
3030.242039679636
 20
-10.46884171229361
 30
0.0
 10
3004.57053917608
 20
-35.76716920641881
 30
0.0
 10
2983.047596856063
 20
-41.17450295683843
 30
0.0
 10
2971.084740170984
 20
-41.52540874619968
 30
0.0
  0
SPLINE
  5
70034
330
70139
100
AcDbEntity
  8
Level 26
  6
Continuous
 62
     7
370
     0
100
AcDbSpline
210
0.0
220
0.0
230
1.0
 70
     9
 71
     3
 72
    19
 73
    15
 74
     0
 42
0.000000001
 43
0.0000000001
 40
0.0
 40
0.0
 40
0.0
 40
0.0
 40
0.0833333335273589
 40
0.1666666665890565
 40
0.2500000001164153
 40
0.3333333331781129
 40
0.4166666667054718
 40
0.4999999997671694
 40
0.5833333332945282
 40
0.6666666668218872
 40
0.7499999998835847
 40
0.8333333334109434
 40
0.9166666664726411
 40
1.0
 40
1.0
 40
1.0
 40
1.0
 10
2971.084740170984
 20
-41.52540874619968
 30
0.0
 10
2959.067376848128
 20
-41.08424269498962
 30
0.0
 10
2937.287884706645
 20
-35.63417256345485
 30
0.0
 10
2911.893370622353
 20
-10.33875589424497
 30
0.0
 10
2903.244860902207
 20
23.45954309559237
 30
0.0
 10
2912.001681392334
 20
57.35007048595462
 30
0.0
 10
2936.837779478824
 20
82.35900691589938
 30
0.0
 10
2970.925531302305
 20
91.37281504603029
 30
0.0
 10
3005.035886049459
 20
82.53944198777046
 30
0.0
 10
3030.131795592597
 20
57.46628265063249
 30
0.0
 10
3038.931135049978
 20
23.46294603147298
 30
0.0
 10
3030.242039679636
 20
-10.46884171229361
 30
0.0
 10
3004.570539176081
 20
-35.76716920641881
 30
0.0
 10
2983.047596856063
 20
-41.17450295683844
 30
0.0
 10
2971.084740170984
 20
-41.52540874619968
 30
0.0
  0
SPLINE
  5
70035
330
70139
100
AcDbEntity
  8
Level 26
  6
Continuous
 62
     7
370
     0
100
AcDbSpline
210
0.0
220
0.0
230
1.0
 70
     9
 71
     3
 72
    19
 73
    15
 74
     0
 42
0.000000001
 43
0.0000000001
 40
0.0
 40
0.0
 40
0.0
 40
0.0
 40
0.0833333335273589
 40
0.1666666665890565
 40
0.2500000001164153
 40
0.3333333331781129
 40
0.4166666667054718
 40
0.4999999997671694
 40
0.5833333332945282
 40
0.6666666668218872
 40
0.7499999998835847
 40
0.8333333334109434
 40
0.9166666664726411
 40
1.0
 40
1.0
 40
1.0
 40
1.0
 10
2971.084740170984
 20
-41.52540874619968
 30
0.0
 10
2959.067376848129
 20
-41.08424269498963
 30
0.0
 10
2937.287884706645
 20
-35.63417256345485
 30
0.0
 10
2911.893370622353
 20
-10.33875589424497
 30
0.0
 10
2903.244860902207
 20
23.45954309559237
 30
0.0
 10
2912.001681392334
 20
57.35007048595463
 30
0.0
 10
2936.837779478824
 20
82.35900691589938
 30
0.0
 10
2970.925531302305
 20
91.37281504603029
 30
0.0
 10
3005.035886049459
 20
82.53944198777046
 30
0.0
 10
3030.131795592597
 20
57.46628265063249
 30
0.0
 10
3038.931135049979
 20
23.46294603147298
 30
0.0
 10
3030.242039679637
 20
-10.46884171229361
 30
0.0
 10
3004.570539176081
 20
-35.76716920641882
 30
0.0
 10
2983.047596856063
 20
-41.17450295683844
 30
0.0
 10
2971.084740170984
 20
-41.52540874619968
 30
0.0
  0
SPLINE
  5
70036
330
70139
100
AcDbEntity
  8
Level 26
  6
Continuous
 62
     7
370
     0
100
AcDbSpline
210
0.0
220
0.0
230
1.0
 70
     9
 71
     3
 72
    19
 73
    15
 74
     0
 42
0.000000001
 43
0.0000000001
 40
0.0
 40
0.0
 40
0.0
 40
0.0
 40
0.0833333335273589
 40
0.1666666665890565
 40
0.2500000001164153
 40
0.3333333331781129
 40
0.4166666667054718
 40
0.4999999997671694
 40
0.5833333332945282
 40
0.6666666668218872
 40
0.7499999998835847
 40
0.8333333334109434
 40
0.9166666664726411
 40
1.0
 40
1.0
 40
1.0
 40
1.0
 10
2971.084740170984
 20
-41.52540874619968
 30
0.0
 10
2959.067376848129
 20
-41.08424269498962
 30
0.0
 10
2937.287884706645
 20
-35.63417256345485
 30
0.0
 10
2911.893370622353
 20
-10.33875589424497
 30
0.0
 10
2903.244860902207
 20
23.45954309559237
 30
0.0
 10
2912.001681392334
 20
57.35007048595462
 30
0.0
 10
2936.837779478824
 20
82.35900691589938
 30
0.0
 10
2970.925531302305
 20
91.37281504603029
 30
0.0
 10
3005.035886049459
 20
82.53944198777046
 30
0.0
 10
3030.131795592597
 20
57.46628265063249
 30
0.0
 10
3038.931135049978
 20
23.46294603147298
 30
0.0
 10
3030.242039679636
 20
-10.46884171229361
 30
0.0
 10
3004.570539176081
 20
-35.76716920641881
 30
0.0
 10
2983.047596856063
 20
-41.17450295683844
 30
0.0
 10
2971.084740170984
 20
-41.52540874619968
 30
0.0
  0
SPLINE
  5
70037
330
70139
100
AcDbEntity
  8
Level 26
  6
Continuous
 62
     7
370
     0
100
AcDbSpline
210
0.0
220
0.0
230
1.0
 70
     9
 71
     3
 72
    19
 73
    15
 74
     0
 42
0.000000001
 43
0.0000000001
 40
0.0
 40
0.0
 40
0.0
 40
0.0
 40
0.0833333335273589
 40
0.1666666665890565
 40
0.2500000001164153
 40
0.3333333331781129
 40
0.4166666667054718
 40
0.4999999997671694
 40
0.5833333332945282
 40
0.6666666668218872
 40
0.7499999998835847
 40
0.8333333334109434
 40
0.9166666664726411
 40
1.0
 40
1.0
 40
1.0
 40
1.0
 10
2971.084740170984
 20
-41.52540874619968
 30
0.0
 10
2959.067376848129
 20
-41.08424269498962
 30
0.0
 10
2937.287884706645
 20
-35.63417256345485
 30
0.0
 10
2911.893370622353
 20
-10.33875589424497
 30
0.0
 10
2903.244860902207
 20
23.45954309559237
 30
0.0
 10
2912.001681392334
 20
57.35007048595462
 30
0.0
 10
2936.837779478824
 20
82.35900691589938
 30
0.0
 10
2970.925531302305
 20
91.37281504603029
 30
0.0
 10
3005.035886049459
 20
82.53944198777046
 30
0.0
 10
3030.131795592597
 20
57.46628265063249
 30
0.0
 10
3038.931135049978
 20
23.46294603147298
 30
0.0
 10
3030.242039679636
 20
-10.46884171229361
 30
0.0
 10
3004.570539176081
 20
-35.76716920641881
 30
0.0
 10
2983.047596856063
 20
-41.17450295683844
 30
0.0
 10
2971.084740170984
 20
-41.52540874619968
 30
0.0
  0
SPLINE
  5
70038
330
70139
100
AcDbEntity
  8
Level 26
  6
Continuous
 62
     7
370
     0
100
AcDbSpline
210
0.0
220
0.0
230
1.0
 70
     9
 71
     3
 72
    19
 73
    15
 74
     0
 42
0.000000001
 43
0.0000000001
 40
0.0
 40
0.0
 40
0.0
 40
0.0
 40
0.0833333335273589
 40
0.1666666665890565
 40
0.2500000001164153
 40
0.3333333331781129
 40
0.4166666667054718
 40
0.4999999997671694
 40
0.5833333332945282
 40
0.6666666668218872
 40
0.7499999998835847
 40
0.8333333334109434
 40
0.9166666664726411
 40
1.0
 40
1.0
 40
1.0
 40
1.0
 10
2971.084740170984
 20
-41.52540874619968
 30
0.0
 10
2959.067376848129
 20
-41.08424269498962
 30
0.0
 10
2937.287884706645
 20
-35.63417256345485
 30
0.0
 10
2911.893370622353
 20
-10.33875589424497
 30
0.0
 10
2903.244860902207
 20
23.45954309559237
 30
0.0
 10
2912.001681392334
 20
57.35007048595463
 30
0.0
 10
2936.837779478824
 20
82.35900691589938
 30
0.0
 10
2970.925531302305
 20
91.37281504603029
 30
0.0
 10
3005.035886049459
 20
82.53944198777046
 30
0.0
 10
3030.131795592597
 20
57.46628265063249
 30
0.0
 10
3038.931135049978
 20
23.46294603147298
 30
0.0
 10
3030.242039679636
 20
-10.46884171229361
 30
0.0
 10
3004.570539176081
 20
-35.76716920641881
 30
0.0
 10
2983.047596856063
 20
-41.17450295683844
 30
0.0
 10
2971.084740170984
 20
-41.52540874619968
 30
0.0
  0
SPLINE
  5
70039
330
70139
100
AcDbEntity
  8
Level 26
  6
Continuous
 62
     7
370
     0
100
AcDbSpline
210
0.0
220
0.0
230
1.0
 70
     9
 71
     3
 72
    19
 73
    15
 74
     0
 42
0.000000001
 43
0.0000000001
 40
0.0
 40
0.0
 40
0.0
 40
0.0
 40
0.0833333335273589
 40
0.1666666665890565
 40
0.2500000001164153
 40
0.3333333331781129
 40
0.4166666667054718
 40
0.4999999997671694
 40
0.5833333332945282
 40
0.6666666668218872
 40
0.7499999998835847
 40
0.8333333334109434
 40
0.9166666664726411
 40
1.0
 40
1.0
 40
1.0
 40
1.0
 10
2971.084740170984
 20
-41.52540874619968
 30
0.0
 10
2959.067376848129
 20
-41.08424269498962
 30
0.0
 10
2937.287884706645
 20
-35.63417256345485
 30
0.0
 10
2911.893370622353
 20
-10.33875589424497
 30
0.0
 10
2903.244860902207
 20
23.45954309559237
 30
0.0
 10
2912.001681392334
 20
57.35007048595462
 30
0.0
 10
2936.837779478824
 20
82.35900691589938
 30
0.0
 10
2970.925531302305
 20
91.37281504603029
 30
0.0
 10
3005.035886049459
 20
82.53944198777046
 30
0.0
 10
3030.131795592597
 20
57.46628265063249
 30
0.0
 10
3038.931135049978
 20
23.46294603147297
 30
0.0
 10
3030.242039679636
 20
-10.46884171229361
 30
0.0
 10
3004.570539176081
 20
-35.76716920641881
 30
0.0
 10
2983.047596856063
 20
-41.17450295683844
 30
0.0
 10
2971.084740170984
 20
-41.52540874619968
 30
0.0
  0
SPLINE
  5
7003A
330
70139
100
AcDbEntity
  8
Level 26
  6
Continuous
 62
     7
370
     0
100
AcDbSpline
210
0.0
220
0.0
230
1.0
 70
     9
 71
     3
 72
    19
 73
    15
 74
     0
 42
0.000000001
 43
0.0000000001
 40
0.0
 40
0.0
 40
0.0
 40
0.0
 40
0.0833333335273589
 40
0.1666666665890565
 40
0.2500000001164153
 40
0.3333333331781129
 40
0.4166666667054718
 40
0.4999999997671694
 40
0.5833333332945282
 40
0.6666666668218872
 40
0.7499999998835847
 40
0.8333333334109434
 40
0.9166666664726411
 40
1.0
 40
1.0
 40
1.0
 40
1.0
 10
2971.084740170984
 20
-41.52540874619968
 30
0.0
 10
2959.067376848129
 20
-41.08424269498962
 30
0.0
 10
2937.287884706645
 20
-35.63417256345485
 30
0.0
 10
2911.893370622353
 20
-10.33875589424497
 30
0.0
 10
2903.244860902207
 20
23.45954309559237
 30
0.0
 10
2912.001681392334
 20
57.35007048595462
 30
0.0
 10
2936.837779478824
 20
82.35900691589938
 30
0.0
 10
2970.925531302305
 20
91.37281504603029
 30
0.0
 10
3005.035886049459
 20
82.53944198777046
 30
0.0
 10
3030.131795592597
 20
57.46628265063249
 30
0.0
 10
3038.931135049978
 20
23.46294603147297
 30
0.0
 10
3030.242039679636
 20
-10.46884171229361
 30
0.0
 10
3004.570539176081
 20
-35.76716920641881
 30
0.0
 10
2983.047596856063
 20
-41.17450295683844
 30
0.0
 10
2971.084740170984
 20
-41.52540874619968
 30
0.0
  0
SPLINE
  5
7003B
330
70139
100
AcDbEntity
  8
Level 26
  6
Continuous
 62
     7
370
     0
100
AcDbSpline
210
0.0
220
0.0
230
1.0
 70
     9
 71
     3
 72
    19
 73
    15
 74
     0
 42
0.000000001
 43
0.0000000001
 40
0.0
 40
0.0
 40
0.0
 40
0.0
 40
0.0833333335273589
 40
0.1666666665890565
 40
0.2500000001164153
 40
0.3333333331781129
 40
0.4166666667054718
 40
0.4999999997671694
 40
0.5833333332945282
 40
0.6666666668218872
 40
0.7499999998835847
 40
0.8333333334109434
 40
0.9166666664726411
 40
1.0
 40
1.0
 40
1.0
 40
1.0
 10
2971.084740170984
 20
-41.52540874619968
 30
0.0
 10
2959.067376848129
 20
-41.08424269498962
 30
0.0
 10
2937.287884706645
 20
-35.63417256345485
 30
0.0
 10
2911.893370622353
 20
-10.33875589424497
 30
0.0
 10
2903.244860902207
 20
23.45954309559237
 30
0.0
 10
2912.001681392334
 20
57.35007048595462
 30
0.0
 10
2936.837779478824
 20
82.35900691589938
 30
0.0
 10
2970.925531302305
 20
91.37281504603029
 30
0.0
 10
3005.035886049459
 20
82.53944198777046
 30
0.0
 10
3030.131795592597
 20
57.46628265063249
 30
0.0
 10
3038.931135049978
 20
23.46294603147298
 30
0.0
 10
3030.242039679636
 20
-10.46884171229361
 30
0.0
 10
3004.570539176081
 20
-35.76716920641881
 30
0.0
 10
2983.047596856063
 20
-41.17450295683844
 30
0.0
 10
2971.084740170984
 20
-41.52540874619968
 30
0.0
  0
ENDBLK
  5
7013B
330
70139
100
AcDbEntity
  8
0
 62
    98
370
     0
100
AcDbBlockEnd
  0
BLOCK
  5
7013D
330
7013C
100
AcDbEntity
  8
0
 62
    98
370
     0
100
AcDbBlockBegin
  2
From Bspline Surface_5
 70
     0
 10
0.0
 20
0.0
 30
0.0
  3
From Bspline Surface_5
  1

  0
SPLINE
  5
6FE3E
330
7013C
100
AcDbEntity
  8
Level 26
  6
Continuous
 62
     7
370
     0
100
AcDbSpline
210
0.0
220
0.0
230
1.0
 70
     9
 71
     3
 72
    19
 73
    15
 74
     0
 42
0.000000001
 43
0.0000000001
 40
0.0
 40
0.0
 40
0.0
 40
0.0
 40
0.0833333335273589
 40
0.1666666665890565
 40
0.2500000001164153
 40
0.3333333331781129
 40
0.4166666667054718
 40
0.4999999997671694
 40
0.5833333332945282
 40
0.6666666668218872
 40
0.7499999998835847
 40
0.8333333334109434
 40
0.9166666664726411
 40
1.0
 40
1.0
 40
1.0
 40
1.0
 10
2971.084740170984
 20
-41.52540874619968
 30
0.0
 10
2959.067376848129
 20
-41.08424269498962
 30
0.0
 10
2937.287884706645
 20
-35.63417256345485
 30
0.0
 10
2911.893370622353
 20
-10.33875589424497
 30
0.0
 10
2903.244860902207
 20
23.45954309559237
 30
0.0
 10
2912.001681392334
 20
57.35007048595462
 30
0.0
 10
2936.837779478824
 20
82.35900691589938
 30
0.0
 10
2970.925531302305
 20
91.37281504603029
 30
0.0
 10
3005.035886049459
 20
82.53944198777046
 30
0.0
 10
3030.131795592597
 20
57.46628265063249
 30
0.0
 10
3038.931135049978
 20
23.46294603147298
 30
0.0
 10
3030.242039679636
 20
-10.46884171229361
 30
0.0
 10
3004.570539176081
 20
-35.76716920641881
 30
0.0
 10
2983.047596856063
 20
-41.17450295683844
 30
0.0
 10
2971.084740170984
 20
-41.52540874619968
 30
0.0
  0
SPLINE
  5
70046
330
7013C
100
AcDbEntity
  8
Level 26
  6
Continuous
 62
     7
370
     0
100
AcDbSpline
210
0.0
220
0.0
230
1.0
 70
     9
 71
     3
 72
    19
 73
    15
 74
     0
 42
0.000000001
 43
0.0000000001
 40
0.0
 40
0.0
 40
0.0
 40
0.0
 40
0.0833333335273589
 40
0.1666666665890565
 40
0.2500000001164153
 40
0.3333333331781129
 40
0.4166666667054718
 40
0.4999999997671694
 40
0.5833333332945282
 40
0.6666666668218872
 40
0.7499999998835847
 40
0.8333333334109434
 40
0.9166666664726411
 40
1.0
 40
1.0
 40
1.0
 40
1.0
 10
2971.084740170984
 20
-41.52540874619968
 30
0.0
 10
2959.067376848128
 20
-41.08424269498962
 30
0.0
 10
2937.287884706644
 20
-35.63417256345485
 30
0.0
 10
2911.893370622352
 20
-10.33875589424497
 30
0.0
 10
2903.244860902207
 20
23.45954309559237
 30
0.0
 10
2912.001681392334
 20
57.35007048595462
 30
0.0
 10
2936.837779478823
 20
82.35900691589938
 30
0.0
 10
2970.925531302305
 20
91.37281504603029
 30
0.0
 10
3005.035886049459
 20
82.53944198777046
 30
0.0
 10
3030.131795592597
 20
57.46628265063249
 30
0.0
 10
3038.931135049978
 20
23.46294603147298
 30
0.0
 10
3030.242039679636
 20
-10.46884171229361
 30
0.0
 10
3004.57053917608
 20
-35.76716920641881
 30
0.0
 10
2983.047596856063
 20
-41.17450295683843
 30
0.0
 10
2971.084740170984
 20
-41.52540874619968
 30
0.0
  0
SPLINE
  5
70047
330
7013C
100
AcDbEntity
  8
Level 26
  6
Continuous
 62
     7
370
     0
100
AcDbSpline
210
0.0
220
0.0
230
1.0
 70
     9
 71
     3
 72
    19
 73
    15
 74
     0
 42
0.000000001
 43
0.0000000001
 40
0.0
 40
0.0
 40
0.0
 40
0.0
 40
0.0833333335273589
 40
0.1666666665890565
 40
0.2500000001164153
 40
0.3333333331781129
 40
0.4166666667054718
 40
0.4999999997671694
 40
0.5833333332945282
 40
0.6666666668218872
 40
0.7499999998835847
 40
0.8333333334109434
 40
0.9166666664726411
 40
1.0
 40
1.0
 40
1.0
 40
1.0
 10
2971.084740170984
 20
-41.52540874619968
 30
0.0
 10
2959.067376848128
 20
-41.08424269498962
 30
0.0
 10
2937.287884706645
 20
-35.63417256345485
 30
0.0
 10
2911.893370622353
 20
-10.33875589424497
 30
0.0
 10
2903.244860902207
 20
23.45954309559237
 30
0.0
 10
2912.001681392334
 20
57.35007048595462
 30
0.0
 10
2936.837779478824
 20
82.35900691589938
 30
0.0
 10
2970.925531302305
 20
91.37281504603029
 30
0.0
 10
3005.035886049459
 20
82.53944198777046
 30
0.0
 10
3030.131795592597
 20
57.46628265063249
 30
0.0
 10
3038.931135049978
 20
23.46294603147298
 30
0.0
 10
3030.242039679636
 20
-10.46884171229361
 30
0.0
 10
3004.570539176081
 20
-35.76716920641881
 30
0.0
 10
2983.047596856063
 20
-41.17450295683844
 30
0.0
 10
2971.084740170984
 20
-41.52540874619968
 30
0.0
  0
SPLINE
  5
70048
330
7013C
100
AcDbEntity
  8
Level 26
  6
Continuous
 62
     7
370
     0
100
AcDbSpline
210
0.0
220
0.0
230
1.0
 70
     9
 71
     3
 72
    19
 73
    15
 74
     0
 42
0.000000001
 43
0.0000000001
 40
0.0
 40
0.0
 40
0.0
 40
0.0
 40
0.0833333335273589
 40
0.1666666665890565
 40
0.2500000001164153
 40
0.3333333331781129
 40
0.4166666667054718
 40
0.4999999997671694
 40
0.5833333332945282
 40
0.6666666668218872
 40
0.7499999998835847
 40
0.8333333334109434
 40
0.9166666664726411
 40
1.0
 40
1.0
 40
1.0
 40
1.0
 10
2971.084740170984
 20
-41.52540874619968
 30
0.0
 10
2959.067376848129
 20
-41.08424269498963
 30
0.0
 10
2937.287884706645
 20
-35.63417256345485
 30
0.0
 10
2911.893370622353
 20
-10.33875589424497
 30
0.0
 10
2903.244860902207
 20
23.45954309559237
 30
0.0
 10
2912.001681392334
 20
57.35007048595463
 30
0.0
 10
2936.837779478824
 20
82.35900691589938
 30
0.0
 10
2970.925531302305
 20
91.37281504603029
 30
0.0
 10
3005.035886049459
 20
82.53944198777046
 30
0.0
 10
3030.131795592597
 20
57.46628265063249
 30
0.0
 10
3038.931135049979
 20
23.46294603147298
 30
0.0
 10
3030.242039679637
 20
-10.46884171229361
 30
0.0
 10
3004.570539176081
 20
-35.76716920641882
 30
0.0
 10
2983.047596856063
 20
-41.17450295683844
 30
0.0
 10
2971.084740170984
 20
-41.52540874619968
 30
0.0
  0
SPLINE
  5
70049
330
7013C
100
AcDbEntity
  8
Level 26
  6
Continuous
 62
     7
370
     0
100
AcDbSpline
210
0.0
220
0.0
230
1.0
 70
     9
 71
     3
 72
    19
 73
    15
 74
     0
 42
0.000000001
 43
0.0000000001
 40
0.0
 40
0.0
 40
0.0
 40
0.0
 40
0.0833333335273589
 40
0.1666666665890565
 40
0.2500000001164153
 40
0.3333333331781129
 40
0.4166666667054718
 40
0.4999999997671694
 40
0.5833333332945282
 40
0.6666666668218872
 40
0.7499999998835847
 40
0.8333333334109434
 40
0.9166666664726411
 40
1.0
 40
1.0
 40
1.0
 40
1.0
 10
2971.084740170984
 20
-41.52540874619968
 30
0.0
 10
2959.067376848129
 20
-41.08424269498962
 30
0.0
 10
2937.287884706645
 20
-35.63417256345485
 30
0.0
 10
2911.893370622353
 20
-10.33875589424497
 30
0.0
 10
2903.244860902207
 20
23.45954309559237
 30
0.0
 10
2912.001681392334
 20
57.35007048595462
 30
0.0
 10
2936.837779478824
 20
82.35900691589938
 30
0.0
 10
2970.925531302305
 20
91.37281504603029
 30
0.0
 10
3005.035886049459
 20
82.53944198777046
 30
0.0
 10
3030.131795592597
 20
57.46628265063249
 30
0.0
 10
3038.931135049978
 20
23.46294603147298
 30
0.0
 10
3030.242039679636
 20
-10.46884171229361
 30
0.0
 10
3004.570539176081
 20
-35.76716920641881
 30
0.0
 10
2983.047596856063
 20
-41.17450295683844
 30
0.0
 10
2971.084740170984
 20
-41.52540874619968
 30
0.0
  0
SPLINE
  5
7004A
330
7013C
100
AcDbEntity
  8
Level 26
  6
Continuous
 62
     7
370
     0
100
AcDbSpline
210
0.0
220
0.0
230
1.0
 70
     9
 71
     3
 72
    19
 73
    15
 74
     0
 42
0.000000001
 43
0.0000000001
 40
0.0
 40
0.0
 40
0.0
 40
0.0
 40
0.0833333335273589
 40
0.1666666665890565
 40
0.2500000001164153
 40
0.3333333331781129
 40
0.4166666667054718
 40
0.4999999997671694
 40
0.5833333332945282
 40
0.6666666668218872
 40
0.7499999998835847
 40
0.8333333334109434
 40
0.9166666664726411
 40
1.0
 40
1.0
 40
1.0
 40
1.0
 10
2971.084740170984
 20
-41.52540874619968
 30
0.0
 10
2959.067376848129
 20
-41.08424269498962
 30
0.0
 10
2937.287884706645
 20
-35.63417256345485
 30
0.0
 10
2911.893370622353
 20
-10.33875589424497
 30
0.0
 10
2903.244860902207
 20
23.45954309559237
 30
0.0
 10
2912.001681392334
 20
57.35007048595462
 30
0.0
 10
2936.837779478824
 20
82.35900691589938
 30
0.0
 10
2970.925531302305
 20
91.37281504603029
 30
0.0
 10
3005.035886049459
 20
82.53944198777046
 30
0.0
 10
3030.131795592597
 20
57.46628265063249
 30
0.0
 10
3038.931135049978
 20
23.46294603147298
 30
0.0
 10
3030.242039679636
 20
-10.46884171229361
 30
0.0
 10
3004.570539176081
 20
-35.76716920641881
 30
0.0
 10
2983.047596856063
 20
-41.17450295683844
 30
0.0
 10
2971.084740170984
 20
-41.52540874619968
 30
0.0
  0
SPLINE
  5
7004B
330
7013C
100
AcDbEntity
  8
Level 26
  6
Continuous
 62
     7
370
     0
100
AcDbSpline
210
0.0
220
0.0
230
1.0
 70
     9
 71
     3
 72
    19
 73
    15
 74
     0
 42
0.000000001
 43
0.0000000001
 40
0.0
 40
0.0
 40
0.0
 40
0.0
 40
0.0833333335273589
 40
0.1666666665890565
 40
0.2500000001164153
 40
0.3333333331781129
 40
0.4166666667054718
 40
0.4999999997671694
 40
0.5833333332945282
 40
0.6666666668218872
 40
0.7499999998835847
 40
0.8333333334109434
 40
0.9166666664726411
 40
1.0
 40
1.0
 40
1.0
 40
1.0
 10
2971.084740170984
 20
-41.52540874619968
 30
0.0
 10
2959.067376848129
 20
-41.08424269498962
 30
0.0
 10
2937.287884706645
 20
-35.63417256345485
 30
0.0
 10
2911.893370622353
 20
-10.33875589424497
 30
0.0
 10
2903.244860902207
 20
23.45954309559237
 30
0.0
 10
2912.001681392334
 20
57.35007048595463
 30
0.0
 10
2936.837779478824
 20
82.35900691589938
 30
0.0
 10
2970.925531302305
 20
91.37281504603029
 30
0.0
 10
3005.035886049459
 20
82.53944198777046
 30
0.0
 10
3030.131795592597
 20
57.46628265063249
 30
0.0
 10
3038.931135049978
 20
23.46294603147298
 30
0.0
 10
3030.242039679636
 20
-10.46884171229361
 30
0.0
 10
3004.570539176081
 20
-35.76716920641881
 30
0.0
 10
2983.047596856063
 20
-41.17450295683844
 30
0.0
 10
2971.084740170984
 20
-41.52540874619968
 30
0.0
  0
SPLINE
  5
7004C
330
7013C
100
AcDbEntity
  8
Level 26
  6
Continuous
 62
     7
370
     0
100
AcDbSpline
210
0.0
220
0.0
230
1.0
 70
     9
 71
     3
 72
    19
 73
    15
 74
     0
 42
0.000000001
 43
0.0000000001
 40
0.0
 40
0.0
 40
0.0
 40
0.0
 40
0.0833333335273589
 40
0.1666666665890565
 40
0.2500000001164153
 40
0.3333333331781129
 40
0.4166666667054718
 40
0.4999999997671694
 40
0.5833333332945282
 40
0.6666666668218872
 40
0.7499999998835847
 40
0.8333333334109434
 40
0.9166666664726411
 40
1.0
 40
1.0
 40
1.0
 40
1.0
 10
2971.084740170984
 20
-41.52540874619968
 30
0.0
 10
2959.067376848129
 20
-41.08424269498962
 30
0.0
 10
2937.287884706645
 20
-35.63417256345485
 30
0.0
 10
2911.893370622353
 20
-10.33875589424497
 30
0.0
 10
2903.244860902207
 20
23.45954309559237
 30
0.0
 10
2912.001681392334
 20
57.35007048595462
 30
0.0
 10
2936.837779478824
 20
82.35900691589938
 30
0.0
 10
2970.925531302305
 20
91.37281504603029
 30
0.0
 10
3005.035886049459
 20
82.53944198777046
 30
0.0
 10
3030.131795592597
 20
57.46628265063249
 30
0.0
 10
3038.931135049978
 20
23.46294603147297
 30
0.0
 10
3030.242039679636
 20
-10.46884171229361
 30
0.0
 10
3004.570539176081
 20
-35.76716920641881
 30
0.0
 10
2983.047596856063
 20
-41.17450295683844
 30
0.0
 10
2971.084740170984
 20
-41.52540874619968
 30
0.0
  0
SPLINE
  5
7004D
330
7013C
100
AcDbEntity
  8
Level 26
  6
Continuous
 62
     7
370
     0
100
AcDbSpline
210
0.0
220
0.0
230
1.0
 70
     9
 71
     3
 72
    19
 73
    15
 74
     0
 42
0.000000001
 43
0.0000000001
 40
0.0
 40
0.0
 40
0.0
 40
0.0
 40
0.0833333335273589
 40
0.1666666665890565
 40
0.2500000001164153
 40
0.3333333331781129
 40
0.4166666667054718
 40
0.4999999997671694
 40
0.5833333332945282
 40
0.6666666668218872
 40
0.7499999998835847
 40
0.8333333334109434
 40
0.9166666664726411
 40
1.0
 40
1.0
 40
1.0
 40
1.0
 10
2971.084740170984
 20
-41.52540874619968
 30
0.0
 10
2959.067376848129
 20
-41.08424269498962
 30
0.0
 10
2937.287884706645
 20
-35.63417256345485
 30
0.0
 10
2911.893370622353
 20
-10.33875589424497
 30
0.0
 10
2903.244860902207
 20
23.45954309559237
 30
0.0
 10
2912.001681392334
 20
57.35007048595462
 30
0.0
 10
2936.837779478824
 20
82.35900691589938
 30
0.0
 10
2970.925531302305
 20
91.37281504603029
 30
0.0
 10
3005.035886049459
 20
82.53944198777046
 30
0.0
 10
3030.131795592597
 20
57.46628265063249
 30
0.0
 10
3038.931135049978
 20
23.46294603147297
 30
0.0
 10
3030.242039679636
 20
-10.46884171229361
 30
0.0
 10
3004.570539176081
 20
-35.76716920641881
 30
0.0
 10
2983.047596856063
 20
-41.17450295683844
 30
0.0
 10
2971.084740170984
 20
-41.52540874619968
 30
0.0
  0
SPLINE
  5
7004E
330
7013C
100
AcDbEntity
  8
Level 26
  6
Continuous
 62
     7
370
     0
100
AcDbSpline
210
0.0
220
0.0
230
1.0
 70
     9
 71
     3
 72
    19
 73
    15
 74
     0
 42
0.000000001
 43
0.0000000001
 40
0.0
 40
0.0
 40
0.0
 40
0.0
 40
0.0833333335273589
 40
0.1666666665890565
 40
0.2500000001164153
 40
0.3333333331781129
 40
0.4166666667054718
 40
0.4999999997671694
 40
0.5833333332945282
 40
0.6666666668218872
 40
0.7499999998835847
 40
0.8333333334109434
 40
0.9166666664726411
 40
1.0
 40
1.0
 40
1.0
 40
1.0
 10
2971.084740170984
 20
-41.52540874619968
 30
0.0
 10
2959.067376848129
 20
-41.08424269498962
 30
0.0
 10
2937.287884706645
 20
-35.63417256345485
 30
0.0
 10
2911.893370622353
 20
-10.33875589424497
 30
0.0
 10
2903.244860902207
 20
23.45954309559237
 30
0.0
 10
2912.001681392334
 20
57.35007048595462
 30
0.0
 10
2936.837779478824
 20
82.35900691589938
 30
0.0
 10
2970.925531302305
 20
91.37281504603029
 30
0.0
 10
3005.035886049459
 20
82.53944198777046
 30
0.0
 10
3030.131795592597
 20
57.46628265063249
 30
0.0
 10
3038.931135049978
 20
23.46294603147298
 30
0.0
 10
3030.242039679636
 20
-10.46884171229361
 30
0.0
 10
3004.570539176081
 20
-35.76716920641881
 30
0.0
 10
2983.047596856063
 20
-41.17450295683844
 30
0.0
 10
2971.084740170984
 20
-41.52540874619968
 30
0.0
  0
ENDBLK
  5
7013E
330
7013C
100
AcDbEntity
  8
0
 62
    98
370
     0
100
AcDbBlockEnd
  0
BLOCK
  5
70140
330
7013F
100
AcDbEntity
  8
0
 62
    98
370
     0
100
AcDbBlockBegin
  2
From Bspline Surface_6
 70
     0
 10
0.0
 20
0.0
 30
0.0
  3
From Bspline Surface_6
  1

  0
SPLINE
  5
6FE4F
330
7013F
100
AcDbEntity
  8
Level 26
  6
Continuous
 62
     7
370
     0
100
AcDbSpline
210
0.0
220
0.0
230
1.0
 70
     9
 71
     3
 72
    19
 73
    15
 74
     0
 42
0.000000001
 43
0.0000000001
 40
0.0
 40
0.0
 40
0.0
 40
0.0
 40
0.0833333335273589
 40
0.1666666665890565
 40
0.2500000001164153
 40
0.3333333331781129
 40
0.4166666667054718
 40
0.4999999997671694
 40
0.5833333332945282
 40
0.6666666668218872
 40
0.7499999998835847
 40
0.8333333334109434
 40
0.9166666664726411
 40
1.0
 40
1.0
 40
1.0
 40
1.0
 10
2971.084740170984
 20
-41.52540874619968
 30
0.0
 10
2959.067376848129
 20
-41.08424269498962
 30
0.0
 10
2937.287884706645
 20
-35.63417256345485
 30
0.0
 10
2911.893370622353
 20
-10.33875589424497
 30
0.0
 10
2903.244860902207
 20
23.45954309559237
 30
0.0
 10
2912.001681392334
 20
57.35007048595462
 30
0.0
 10
2936.837779478824
 20
82.35900691589938
 30
0.0
 10
2970.925531302305
 20
91.37281504603029
 30
0.0
 10
3005.035886049459
 20
82.53944198777046
 30
0.0
 10
3030.131795592597
 20
57.46628265063249
 30
0.0
 10
3038.931135049978
 20
23.46294603147298
 30
0.0
 10
3030.242039679636
 20
-10.46884171229361
 30
0.0
 10
3004.570539176081
 20
-35.76716920641881
 30
0.0
 10
2983.047596856063
 20
-41.17450295683844
 30
0.0
 10
2971.084740170984
 20
-41.52540874619968
 30
0.0
  0
SPLINE
  5
70059
330
7013F
100
AcDbEntity
  8
Level 26
  6
Continuous
 62
     7
370
     0
100
AcDbSpline
210
0.0
220
0.0
230
1.0
 70
     9
 71
     3
 72
    19
 73
    15
 74
     0
 42
0.000000001
 43
0.0000000001
 40
0.0
 40
0.0
 40
0.0
 40
0.0
 40
0.0833333335273589
 40
0.1666666665890565
 40
0.2500000001164153
 40
0.3333333331781129
 40
0.4166666667054718
 40
0.4999999997671694
 40
0.5833333332945282
 40
0.6666666668218872
 40
0.7499999998835847
 40
0.8333333334109434
 40
0.9166666664726411
 40
1.0
 40
1.0
 40
1.0
 40
1.0
 10
2971.084740170984
 20
-41.52540874619968
 30
0.0
 10
2959.067376848128
 20
-41.08424269498962
 30
0.0
 10
2937.287884706644
 20
-35.63417256345485
 30
0.0
 10
2911.893370622352
 20
-10.33875589424497
 30
0.0
 10
2903.244860902207
 20
23.45954309559237
 30
0.0
 10
2912.001681392334
 20
57.35007048595462
 30
0.0
 10
2936.837779478823
 20
82.35900691589938
 30
0.0
 10
2970.925531302305
 20
91.37281504603029
 30
0.0
 10
3005.035886049459
 20
82.53944198777046
 30
0.0
 10
3030.131795592597
 20
57.46628265063249
 30
0.0
 10
3038.931135049978
 20
23.46294603147298
 30
0.0
 10
3030.242039679636
 20
-10.46884171229361
 30
0.0
 10
3004.57053917608
 20
-35.76716920641881
 30
0.0
 10
2983.047596856063
 20
-41.17450295683843
 30
0.0
 10
2971.084740170984
 20
-41.52540874619968
 30
0.0
  0
SPLINE
  5
7005A
330
7013F
100
AcDbEntity
  8
Level 26
  6
Continuous
 62
     7
370
     0
100
AcDbSpline
210
0.0
220
0.0
230
1.0
 70
     9
 71
     3
 72
    19
 73
    15
 74
     0
 42
0.000000001
 43
0.0000000001
 40
0.0
 40
0.0
 40
0.0
 40
0.0
 40
0.0833333335273589
 40
0.1666666665890565
 40
0.2500000001164153
 40
0.3333333331781129
 40
0.4166666667054718
 40
0.4999999997671694
 40
0.5833333332945282
 40
0.6666666668218872
 40
0.7499999998835847
 40
0.8333333334109434
 40
0.9166666664726411
 40
1.0
 40
1.0
 40
1.0
 40
1.0
 10
2971.084740170984
 20
-41.52540874619968
 30
0.0
 10
2959.067376848128
 20
-41.08424269498962
 30
0.0
 10
2937.287884706645
 20
-35.63417256345485
 30
0.0
 10
2911.893370622353
 20
-10.33875589424497
 30
0.0
 10
2903.244860902207
 20
23.45954309559237
 30
0.0
 10
2912.001681392334
 20
57.35007048595462
 30
0.0
 10
2936.837779478824
 20
82.35900691589938
 30
0.0
 10
2970.925531302305
 20
91.37281504603029
 30
0.0
 10
3005.035886049459
 20
82.53944198777046
 30
0.0
 10
3030.131795592597
 20
57.46628265063249
 30
0.0
 10
3038.931135049978
 20
23.46294603147298
 30
0.0
 10
3030.242039679636
 20
-10.46884171229361
 30
0.0
 10
3004.570539176081
 20
-35.76716920641881
 30
0.0
 10
2983.047596856063
 20
-41.17450295683844
 30
0.0
 10
2971.084740170984
 20
-41.52540874619968
 30
0.0
  0
SPLINE
  5
7005B
330
7013F
100
AcDbEntity
  8
Level 26
  6
Continuous
 62
     7
370
     0
100
AcDbSpline
210
0.0
220
0.0
230
1.0
 70
     9
 71
     3
 72
    19
 73
    15
 74
     0
 42
0.000000001
 43
0.0000000001
 40
0.0
 40
0.0
 40
0.0
 40
0.0
 40
0.0833333335273589
 40
0.1666666665890565
 40
0.2500000001164153
 40
0.3333333331781129
 40
0.4166666667054718
 40
0.4999999997671694
 40
0.5833333332945282
 40
0.6666666668218872
 40
0.7499999998835847
 40
0.8333333334109434
 40
0.9166666664726411
 40
1.0
 40
1.0
 40
1.0
 40
1.0
 10
2971.084740170984
 20
-41.52540874619968
 30
0.0
 10
2959.067376848129
 20
-41.08424269498963
 30
0.0
 10
2937.287884706645
 20
-35.63417256345485
 30
0.0
 10
2911.893370622353
 20
-10.33875589424497
 30
0.0
 10
2903.244860902207
 20
23.45954309559237
 30
0.0
 10
2912.001681392334
 20
57.35007048595463
 30
0.0
 10
2936.837779478824
 20
82.35900691589938
 30
0.0
 10
2970.925531302305
 20
91.37281504603029
 30
0.0
 10
3005.035886049459
 20
82.53944198777046
 30
0.0
 10
3030.131795592597
 20
57.46628265063249
 30
0.0
 10
3038.931135049979
 20
23.46294603147298
 30
0.0
 10
3030.242039679637
 20
-10.46884171229361
 30
0.0
 10
3004.570539176081
 20
-35.76716920641882
 30
0.0
 10
2983.047596856063
 20
-41.17450295683844
 30
0.0
 10
2971.084740170984
 20
-41.52540874619968
 30
0.0
  0
SPLINE
  5
7005C
330
7013F
100
AcDbEntity
  8
Level 26
  6
Continuous
 62
     7
370
     0
100
AcDbSpline
210
0.0
220
0.0
230
1.0
 70
     9
 71
     3
 72
    19
 73
    15
 74
     0
 42
0.000000001
 43
0.0000000001
 40
0.0
 40
0.0
 40
0.0
 40
0.0
 40
0.0833333335273589
 40
0.1666666665890565
 40
0.2500000001164153
 40
0.3333333331781129
 40
0.4166666667054718
 40
0.4999999997671694
 40
0.5833333332945282
 40
0.6666666668218872
 40
0.7499999998835847
 40
0.8333333334109434
 40
0.9166666664726411
 40
1.0
 40
1.0
 40
1.0
 40
1.0
 10
2971.084740170984
 20
-41.52540874619968
 30
0.0
 10
2959.067376848129
 20
-41.08424269498962
 30
0.0
 10
2937.287884706645
 20
-35.63417256345485
 30
0.0
 10
2911.893370622353
 20
-10.33875589424497
 30
0.0
 10
2903.244860902207
 20
23.45954309559237
 30
0.0
 10
2912.001681392334
 20
57.35007048595462
 30
0.0
 10
2936.837779478824
 20
82.35900691589938
 30
0.0
 10
2970.925531302305
 20
91.37281504603029
 30
0.0
 10
3005.035886049459
 20
82.53944198777046
 30
0.0
 10
3030.131795592597
 20
57.46628265063249
 30
0.0
 10
3038.931135049978
 20
23.46294603147298
 30
0.0
 10
3030.242039679636
 20
-10.46884171229361
 30
0.0
 10
3004.570539176081
 20
-35.76716920641881
 30
0.0
 10
2983.047596856063
 20
-41.17450295683844
 30
0.0
 10
2971.084740170984
 20
-41.52540874619968
 30
0.0
  0
SPLINE
  5
7005D
330
7013F
100
AcDbEntity
  8
Level 26
  6
Continuous
 62
     7
370
     0
100
AcDbSpline
210
0.0
220
0.0
230
1.0
 70
     9
 71
     3
 72
    19
 73
    15
 74
     0
 42
0.000000001
 43
0.0000000001
 40
0.0
 40
0.0
 40
0.0
 40
0.0
 40
0.0833333335273589
 40
0.1666666665890565
 40
0.2500000001164153
 40
0.3333333331781129
 40
0.4166666667054718
 40
0.4999999997671694
 40
0.5833333332945282
 40
0.6666666668218872
 40
0.7499999998835847
 40
0.8333333334109434
 40
0.9166666664726411
 40
1.0
 40
1.0
 40
1.0
 40
1.0
 10
2971.084740170984
 20
-41.52540874619968
 30
0.0
 10
2959.067376848129
 20
-41.08424269498962
 30
0.0
 10
2937.287884706645
 20
-35.63417256345485
 30
0.0
 10
2911.893370622353
 20
-10.33875589424497
 30
0.0
 10
2903.244860902207
 20
23.45954309559237
 30
0.0
 10
2912.001681392334
 20
57.35007048595462
 30
0.0
 10
2936.837779478824
 20
82.35900691589938
 30
0.0
 10
2970.925531302305
 20
91.37281504603029
 30
0.0
 10
3005.035886049459
 20
82.53944198777046
 30
0.0
 10
3030.131795592597
 20
57.46628265063249
 30
0.0
 10
3038.931135049978
 20
23.46294603147298
 30
0.0
 10
3030.242039679636
 20
-10.46884171229361
 30
0.0
 10
3004.570539176081
 20
-35.76716920641881
 30
0.0
 10
2983.047596856063
 20
-41.17450295683844
 30
0.0
 10
2971.084740170984
 20
-41.52540874619968
 30
0.0
  0
SPLINE
  5
7005E
330
7013F
100
AcDbEntity
  8
Level 26
  6
Continuous
 62
     7
370
     0
100
AcDbSpline
210
0.0
220
0.0
230
1.0
 70
     9
 71
     3
 72
    19
 73
    15
 74
     0
 42
0.000000001
 43
0.0000000001
 40
0.0
 40
0.0
 40
0.0
 40
0.0
 40
0.0833333335273589
 40
0.1666666665890565
 40
0.2500000001164153
 40
0.3333333331781129
 40
0.4166666667054718
 40
0.4999999997671694
 40
0.5833333332945282
 40
0.6666666668218872
 40
0.7499999998835847
 40
0.8333333334109434
 40
0.9166666664726411
 40
1.0
 40
1.0
 40
1.0
 40
1.0
 10
2971.084740170984
 20
-41.52540874619968
 30
0.0
 10
2959.067376848129
 20
-41.08424269498962
 30
0.0
 10
2937.287884706645
 20
-35.63417256345485
 30
0.0
 10
2911.893370622353
 20
-10.33875589424497
 30
0.0
 10
2903.244860902207
 20
23.45954309559237
 30
0.0
 10
2912.001681392334
 20
57.35007048595463
 30
0.0
 10
2936.837779478824
 20
82.35900691589938
 30
0.0
 10
2970.925531302305
 20
91.37281504603029
 30
0.0
 10
3005.035886049459
 20
82.53944198777046
 30
0.0
 10
3030.131795592597
 20
57.46628265063249
 30
0.0
 10
3038.931135049978
 20
23.46294603147298
 30
0.0
 10
3030.242039679636
 20
-10.46884171229361
 30
0.0
 10
3004.570539176081
 20
-35.76716920641881
 30
0.0
 10
2983.047596856063
 20
-41.17450295683844
 30
0.0
 10
2971.084740170984
 20
-41.52540874619968
 30
0.0
  0
SPLINE
  5
7005F
330
7013F
100
AcDbEntity
  8
Level 26
  6
Continuous
 62
     7
370
     0
100
AcDbSpline
210
0.0
220
0.0
230
1.0
 70
     9
 71
     3
 72
    19
 73
    15
 74
     0
 42
0.000000001
 43
0.0000000001
 40
0.0
 40
0.0
 40
0.0
 40
0.0
 40
0.0833333335273589
 40
0.1666666665890565
 40
0.2500000001164153
 40
0.3333333331781129
 40
0.4166666667054718
 40
0.4999999997671694
 40
0.5833333332945282
 40
0.6666666668218872
 40
0.7499999998835847
 40
0.8333333334109434
 40
0.9166666664726411
 40
1.0
 40
1.0
 40
1.0
 40
1.0
 10
2971.084740170984
 20
-41.52540874619968
 30
0.0
 10
2959.067376848129
 20
-41.08424269498962
 30
0.0
 10
2937.287884706645
 20
-35.63417256345485
 30
0.0
 10
2911.893370622353
 20
-10.33875589424497
 30
0.0
 10
2903.244860902207
 20
23.45954309559237
 30
0.0
 10
2912.001681392334
 20
57.35007048595462
 30
0.0
 10
2936.837779478824
 20
82.35900691589938
 30
0.0
 10
2970.925531302305
 20
91.37281504603029
 30
0.0
 10
3005.035886049459
 20
82.53944198777046
 30
0.0
 10
3030.131795592597
 20
57.46628265063249
 30
0.0
 10
3038.931135049978
 20
23.46294603147297
 30
0.0
 10
3030.242039679636
 20
-10.46884171229361
 30
0.0
 10
3004.570539176081
 20
-35.76716920641881
 30
0.0
 10
2983.047596856063
 20
-41.17450295683844
 30
0.0
 10
2971.084740170984
 20
-41.52540874619968
 30
0.0
  0
SPLINE
  5
70060
330
7013F
100
AcDbEntity
  8
Level 26
  6
Continuous
 62
     7
370
     0
100
AcDbSpline
210
0.0
220
0.0
230
1.0
 70
     9
 71
     3
 72
    19
 73
    15
 74
     0
 42
0.000000001
 43
0.0000000001
 40
0.0
 40
0.0
 40
0.0
 40
0.0
 40
0.0833333335273589
 40
0.1666666665890565
 40
0.2500000001164153
 40
0.3333333331781129
 40
0.4166666667054718
 40
0.4999999997671694
 40
0.5833333332945282
 40
0.6666666668218872
 40
0.7499999998835847
 40
0.8333333334109434
 40
0.9166666664726411
 40
1.0
 40
1.0
 40
1.0
 40
1.0
 10
2971.084740170984
 20
-41.52540874619968
 30
0.0
 10
2959.067376848129
 20
-41.08424269498962
 30
0.0
 10
2937.287884706645
 20
-35.63417256345485
 30
0.0
 10
2911.893370622353
 20
-10.33875589424497
 30
0.0
 10
2903.244860902207
 20
23.45954309559237
 30
0.0
 10
2912.001681392334
 20
57.35007048595462
 30
0.0
 10
2936.837779478824
 20
82.35900691589938
 30
0.0
 10
2970.925531302305
 20
91.37281504603029
 30
0.0
 10
3005.035886049459
 20
82.53944198777046
 30
0.0
 10
3030.131795592597
 20
57.46628265063249
 30
0.0
 10
3038.931135049978
 20
23.46294603147297
 30
0.0
 10
3030.242039679636
 20
-10.46884171229361
 30
0.0
 10
3004.570539176081
 20
-35.76716920641881
 30
0.0
 10
2983.047596856063
 20
-41.17450295683844
 30
0.0
 10
2971.084740170984
 20
-41.52540874619968
 30
0.0
  0
SPLINE
  5
70061
330
7013F
100
AcDbEntity
  8
Level 26
  6
Continuous
 62
     7
370
     0
100
AcDbSpline
210
0.0
220
0.0
230
1.0
 70
     9
 71
     3
 72
    19
 73
    15
 74
     0
 42
0.000000001
 43
0.0000000001
 40
0.0
 40
0.0
 40
0.0
 40
0.0
 40
0.0833333335273589
 40
0.1666666665890565
 40
0.2500000001164153
 40
0.3333333331781129
 40
0.4166666667054718
 40
0.4999999997671694
 40
0.5833333332945282
 40
0.6666666668218872
 40
0.7499999998835847
 40
0.8333333334109434
 40
0.9166666664726411
 40
1.0
 40
1.0
 40
1.0
 40
1.0
 10
2971.084740170984
 20
-41.52540874619968
 30
0.0
 10
2959.067376848129
 20
-41.08424269498962
 30
0.0
 10
2937.287884706645
 20
-35.63417256345485
 30
0.0
 10
2911.893370622353
 20
-10.33875589424497
 30
0.0
 10
2903.244860902207
 20
23.45954309559237
 30
0.0
 10
2912.001681392334
 20
57.35007048595462
 30
0.0
 10
2936.837779478824
 20
82.35900691589938
 30
0.0
 10
2970.925531302305
 20
91.37281504603029
 30
0.0
 10
3005.035886049459
 20
82.53944198777046
 30
0.0
 10
3030.131795592597
 20
57.46628265063249
 30
0.0
 10
3038.931135049978
 20
23.46294603147298
 30
0.0
 10
3030.242039679636
 20
-10.46884171229361
 30
0.0
 10
3004.570539176081
 20
-35.76716920641881
 30
0.0
 10
2983.047596856063
 20
-41.17450295683844
 30
0.0
 10
2971.084740170984
 20
-41.52540874619968
 30
0.0
  0
ENDBLK
  5
70141
330
7013F
100
AcDbEntity
  8
0
 62
    98
370
     0
100
AcDbBlockEnd
  0
BLOCK
  5
70143
330
70142
100
AcDbEntity
  8
0
 62
    98
370
     0
100
AcDbBlockBegin
  2
From Bspline Surface_7
 70
     0
 10
0.0
 20
0.0
 30
0.0
  3
From Bspline Surface_7
  1

  0
SPLINE
  5
6FE60
330
70142
100
AcDbEntity
  8
Level 26
  6
Continuous
 62
     7
370
     0
100
AcDbSpline
210
0.0
220
0.0
230
1.0
 70
     9
 71
     3
 72
    19
 73
    15
 74
     0
 42
0.000000001
 43
0.0000000001
 40
0.0
 40
0.0
 40
0.0
 40
0.0
 40
0.0833333335273589
 40
0.1666666665890565
 40
0.2500000001164153
 40
0.3333333331781129
 40
0.4166666667054718
 40
0.4999999997671694
 40
0.5833333332945282
 40
0.6666666668218872
 40
0.7499999998835847
 40
0.8333333334109434
 40
0.9166666664726411
 40
1.0
 40
1.0
 40
1.0
 40
1.0
 10
2971.084740170984
 20
-41.52540874619968
 30
0.0
 10
2959.067376848129
 20
-41.08424269498962
 30
0.0
 10
2937.287884706645
 20
-35.63417256345485
 30
0.0
 10
2911.893370622353
 20
-10.33875589424497
 30
0.0
 10
2903.244860902207
 20
23.45954309559237
 30
0.0
 10
2912.001681392334
 20
57.35007048595462
 30
0.0
 10
2936.837779478824
 20
82.35900691589938
 30
0.0
 10
2970.925531302305
 20
91.37281504603029
 30
0.0
 10
3005.035886049459
 20
82.53944198777046
 30
0.0
 10
3030.131795592597
 20
57.46628265063249
 30
0.0
 10
3038.931135049978
 20
23.46294603147298
 30
0.0
 10
3030.242039679636
 20
-10.46884171229361
 30
0.0
 10
3004.570539176081
 20
-35.76716920641881
 30
0.0
 10
2983.047596856063
 20
-41.17450295683844
 30
0.0
 10
2971.084740170984
 20
-41.52540874619968
 30
0.0
  0
SPLINE
  5
7006C
330
70142
100
AcDbEntity
  8
Level 26
  6
Continuous
 62
     7
370
     0
100
AcDbSpline
210
0.0
220
0.0
230
1.0
 70
     9
 71
     3
 72
    19
 73
    15
 74
     0
 42
0.000000001
 43
0.0000000001
 40
0.0
 40
0.0
 40
0.0
 40
0.0
 40
0.0833333335273589
 40
0.1666666665890565
 40
0.2500000001164153
 40
0.3333333331781129
 40
0.4166666667054718
 40
0.4999999997671694
 40
0.5833333332945282
 40
0.6666666668218872
 40
0.7499999998835847
 40
0.8333333334109434
 40
0.9166666664726411
 40
1.0
 40
1.0
 40
1.0
 40
1.0
 10
2971.084740170984
 20
-41.52540874619968
 30
0.0
 10
2959.067376848128
 20
-41.08424269498962
 30
0.0
 10
2937.287884706644
 20
-35.63417256345485
 30
0.0
 10
2911.893370622352
 20
-10.33875589424497
 30
0.0
 10
2903.244860902207
 20
23.45954309559237
 30
0.0
 10
2912.001681392334
 20
57.35007048595462
 30
0.0
 10
2936.837779478823
 20
82.35900691589938
 30
0.0
 10
2970.925531302305
 20
91.37281504603029
 30
0.0
 10
3005.035886049459
 20
82.53944198777046
 30
0.0
 10
3030.131795592597
 20
57.46628265063249
 30
0.0
 10
3038.931135049978
 20
23.46294603147298
 30
0.0
 10
3030.242039679636
 20
-10.46884171229361
 30
0.0
 10
3004.57053917608
 20
-35.76716920641881
 30
0.0
 10
2983.047596856063
 20
-41.17450295683843
 30
0.0
 10
2971.084740170984
 20
-41.52540874619968
 30
0.0
  0
SPLINE
  5
7006D
330
70142
100
AcDbEntity
  8
Level 26
  6
Continuous
 62
     7
370
     0
100
AcDbSpline
210
0.0
220
0.0
230
1.0
 70
     9
 71
     3
 72
    19
 73
    15
 74
     0
 42
0.000000001
 43
0.0000000001
 40
0.0
 40
0.0
 40
0.0
 40
0.0
 40
0.0833333335273589
 40
0.1666666665890565
 40
0.2500000001164153
 40
0.3333333331781129
 40
0.4166666667054718
 40
0.4999999997671694
 40
0.5833333332945282
 40
0.6666666668218872
 40
0.7499999998835847
 40
0.8333333334109434
 40
0.9166666664726411
 40
1.0
 40
1.0
 40
1.0
 40
1.0
 10
2971.084740170984
 20
-41.52540874619968
 30
0.0
 10
2959.067376848128
 20
-41.08424269498962
 30
0.0
 10
2937.287884706645
 20
-35.63417256345485
 30
0.0
 10
2911.893370622353
 20
-10.33875589424497
 30
0.0
 10
2903.244860902207
 20
23.45954309559237
 30
0.0
 10
2912.001681392334
 20
57.35007048595462
 30
0.0
 10
2936.837779478824
 20
82.35900691589938
 30
0.0
 10
2970.925531302305
 20
91.37281504603029
 30
0.0
 10
3005.035886049459
 20
82.53944198777046
 30
0.0
 10
3030.131795592597
 20
57.46628265063249
 30
0.0
 10
3038.931135049978
 20
23.46294603147298
 30
0.0
 10
3030.242039679636
 20
-10.46884171229361
 30
0.0
 10
3004.570539176081
 20
-35.76716920641881
 30
0.0
 10
2983.047596856063
 20
-41.17450295683844
 30
0.0
 10
2971.084740170984
 20
-41.52540874619968
 30
0.0
  0
SPLINE
  5
7006E
330
70142
100
AcDbEntity
  8
Level 26
  6
Continuous
 62
     7
370
     0
100
AcDbSpline
210
0.0
220
0.0
230
1.0
 70
     9
 71
     3
 72
    19
 73
    15
 74
     0
 42
0.000000001
 43
0.0000000001
 40
0.0
 40
0.0
 40
0.0
 40
0.0
 40
0.0833333335273589
 40
0.1666666665890565
 40
0.2500000001164153
 40
0.3333333331781129
 40
0.4166666667054718
 40
0.4999999997671694
 40
0.5833333332945282
 40
0.6666666668218872
 40
0.7499999998835847
 40
0.8333333334109434
 40
0.9166666664726411
 40
1.0
 40
1.0
 40
1.0
 40
1.0
 10
2971.084740170984
 20
-41.52540874619968
 30
0.0
 10
2959.067376848129
 20
-41.08424269498963
 30
0.0
 10
2937.287884706645
 20
-35.63417256345485
 30
0.0
 10
2911.893370622353
 20
-10.33875589424497
 30
0.0
 10
2903.244860902207
 20
23.45954309559237
 30
0.0
 10
2912.001681392334
 20
57.35007048595463
 30
0.0
 10
2936.837779478824
 20
82.35900691589938
 30
0.0
 10
2970.925531302305
 20
91.37281504603029
 30
0.0
 10
3005.035886049459
 20
82.53944198777046
 30
0.0
 10
3030.131795592597
 20
57.46628265063249
 30
0.0
 10
3038.931135049979
 20
23.46294603147298
 30
0.0
 10
3030.242039679637
 20
-10.46884171229361
 30
0.0
 10
3004.570539176081
 20
-35.76716920641882
 30
0.0
 10
2983.047596856063
 20
-41.17450295683844
 30
0.0
 10
2971.084740170984
 20
-41.52540874619968
 30
0.0
  0
SPLINE
  5
7006F
330
70142
100
AcDbEntity
  8
Level 26
  6
Continuous
 62
     7
370
     0
100
AcDbSpline
210
0.0
220
0.0
230
1.0
 70
     9
 71
     3
 72
    19
 73
    15
 74
     0
 42
0.000000001
 43
0.0000000001
 40
0.0
 40
0.0
 40
0.0
 40
0.0
 40
0.0833333335273589
 40
0.1666666665890565
 40
0.2500000001164153
 40
0.3333333331781129
 40
0.4166666667054718
 40
0.4999999997671694
 40
0.5833333332945282
 40
0.6666666668218872
 40
0.7499999998835847
 40
0.8333333334109434
 40
0.9166666664726411
 40
1.0
 40
1.0
 40
1.0
 40
1.0
 10
2971.084740170984
 20
-41.52540874619968
 30
0.0
 10
2959.067376848129
 20
-41.08424269498962
 30
0.0
 10
2937.287884706645
 20
-35.63417256345485
 30
0.0
 10
2911.893370622353
 20
-10.33875589424497
 30
0.0
 10
2903.244860902207
 20
23.45954309559237
 30
0.0
 10
2912.001681392334
 20
57.35007048595462
 30
0.0
 10
2936.837779478824
 20
82.35900691589938
 30
0.0
 10
2970.925531302305
 20
91.37281504603029
 30
0.0
 10
3005.035886049459
 20
82.53944198777046
 30
0.0
 10
3030.131795592597
 20
57.46628265063249
 30
0.0
 10
3038.931135049978
 20
23.46294603147298
 30
0.0
 10
3030.242039679636
 20
-10.46884171229361
 30
0.0
 10
3004.570539176081
 20
-35.76716920641881
 30
0.0
 10
2983.047596856063
 20
-41.17450295683844
 30
0.0
 10
2971.084740170984
 20
-41.52540874619968
 30
0.0
  0
SPLINE
  5
70070
330
70142
100
AcDbEntity
  8
Level 26
  6
Continuous
 62
     7
370
     0
100
AcDbSpline
210
0.0
220
0.0
230
1.0
 70
     9
 71
     3
 72
    19
 73
    15
 74
     0
 42
0.000000001
 43
0.0000000001
 40
0.0
 40
0.0
 40
0.0
 40
0.0
 40
0.0833333335273589
 40
0.1666666665890565
 40
0.2500000001164153
 40
0.3333333331781129
 40
0.4166666667054718
 40
0.4999999997671694
 40
0.5833333332945282
 40
0.6666666668218872
 40
0.7499999998835847
 40
0.8333333334109434
 40
0.9166666664726411
 40
1.0
 40
1.0
 40
1.0
 40
1.0
 10
2971.084740170984
 20
-41.52540874619968
 30
0.0
 10
2959.067376848129
 20
-41.08424269498962
 30
0.0
 10
2937.287884706645
 20
-35.63417256345485
 30
0.0
 10
2911.893370622353
 20
-10.33875589424497
 30
0.0
 10
2903.244860902207
 20
23.45954309559237
 30
0.0
 10
2912.001681392334
 20
57.35007048595462
 30
0.0
 10
2936.837779478824
 20
82.35900691589938
 30
0.0
 10
2970.925531302305
 20
91.37281504603029
 30
0.0
 10
3005.035886049459
 20
82.53944198777046
 30
0.0
 10
3030.131795592597
 20
57.46628265063249
 30
0.0
 10
3038.931135049978
 20
23.46294603147298
 30
0.0
 10
3030.242039679636
 20
-10.46884171229361
 30
0.0
 10
3004.570539176081
 20
-35.76716920641881
 30
0.0
 10
2983.047596856063
 20
-41.17450295683844
 30
0.0
 10
2971.084740170984
 20
-41.52540874619968
 30
0.0
  0
SPLINE
  5
70071
330
70142
100
AcDbEntity
  8
Level 26
  6
Continuous
 62
     7
370
     0
100
AcDbSpline
210
0.0
220
0.0
230
1.0
 70
     9
 71
     3
 72
    19
 73
    15
 74
     0
 42
0.000000001
 43
0.0000000001
 40
0.0
 40
0.0
 40
0.0
 40
0.0
 40
0.0833333335273589
 40
0.1666666665890565
 40
0.2500000001164153
 40
0.3333333331781129
 40
0.4166666667054718
 40
0.4999999997671694
 40
0.5833333332945282
 40
0.6666666668218872
 40
0.7499999998835847
 40
0.8333333334109434
 40
0.9166666664726411
 40
1.0
 40
1.0
 40
1.0
 40
1.0
 10
2971.084740170984
 20
-41.52540874619968
 30
0.0
 10
2959.067376848129
 20
-41.08424269498962
 30
0.0
 10
2937.287884706645
 20
-35.63417256345485
 30
0.0
 10
2911.893370622353
 20
-10.33875589424497
 30
0.0
 10
2903.244860902207
 20
23.45954309559237
 30
0.0
 10
2912.001681392334
 20
57.35007048595463
 30
0.0
 10
2936.837779478824
 20
82.35900691589938
 30
0.0
 10
2970.925531302305
 20
91.37281504603029
 30
0.0
 10
3005.035886049459
 20
82.53944198777046
 30
0.0
 10
3030.131795592597
 20
57.46628265063249
 30
0.0
 10
3038.931135049978
 20
23.46294603147298
 30
0.0
 10
3030.242039679636
 20
-10.46884171229361
 30
0.0
 10
3004.570539176081
 20
-35.76716920641881
 30
0.0
 10
2983.047596856063
 20
-41.17450295683844
 30
0.0
 10
2971.084740170984
 20
-41.52540874619968
 30
0.0
  0
SPLINE
  5
70072
330
70142
100
AcDbEntity
  8
Level 26
  6
Continuous
 62
     7
370
     0
100
AcDbSpline
210
0.0
220
0.0
230
1.0
 70
     9
 71
     3
 72
    19
 73
    15
 74
     0
 42
0.000000001
 43
0.0000000001
 40
0.0
 40
0.0
 40
0.0
 40
0.0
 40
0.0833333335273589
 40
0.1666666665890565
 40
0.2500000001164153
 40
0.3333333331781129
 40
0.4166666667054718
 40
0.4999999997671694
 40
0.5833333332945282
 40
0.6666666668218872
 40
0.7499999998835847
 40
0.8333333334109434
 40
0.9166666664726411
 40
1.0
 40
1.0
 40
1.0
 40
1.0
 10
2971.084740170984
 20
-41.52540874619968
 30
0.0
 10
2959.067376848129
 20
-41.08424269498962
 30
0.0
 10
2937.287884706645
 20
-35.63417256345485
 30
0.0
 10
2911.893370622353
 20
-10.33875589424497
 30
0.0
 10
2903.244860902207
 20
23.45954309559237
 30
0.0
 10
2912.001681392334
 20
57.35007048595462
 30
0.0
 10
2936.837779478824
 20
82.35900691589938
 30
0.0
 10
2970.925531302305
 20
91.37281504603029
 30
0.0
 10
3005.035886049459
 20
82.53944198777046
 30
0.0
 10
3030.131795592597
 20
57.46628265063249
 30
0.0
 10
3038.931135049978
 20
23.46294603147297
 30
0.0
 10
3030.242039679636
 20
-10.46884171229361
 30
0.0
 10
3004.570539176081
 20
-35.76716920641881
 30
0.0
 10
2983.047596856063
 20
-41.17450295683844
 30
0.0
 10
2971.084740170984
 20
-41.52540874619968
 30
0.0
  0
SPLINE
  5
70073
330
70142
100
AcDbEntity
  8
Level 26
  6
Continuous
 62
     7
370
     0
100
AcDbSpline
210
0.0
220
0.0
230
1.0
 70
     9
 71
     3
 72
    19
 73
    15
 74
     0
 42
0.000000001
 43
0.0000000001
 40
0.0
 40
0.0
 40
0.0
 40
0.0
 40
0.0833333335273589
 40
0.1666666665890565
 40
0.2500000001164153
 40
0.3333333331781129
 40
0.4166666667054718
 40
0.4999999997671694
 40
0.5833333332945282
 40
0.6666666668218872
 40
0.7499999998835847
 40
0.8333333334109434
 40
0.9166666664726411
 40
1.0
 40
1.0
 40
1.0
 40
1.0
 10
2971.084740170984
 20
-41.52540874619968
 30
0.0
 10
2959.067376848129
 20
-41.08424269498962
 30
0.0
 10
2937.287884706645
 20
-35.63417256345485
 30
0.0
 10
2911.893370622353
 20
-10.33875589424497
 30
0.0
 10
2903.244860902207
 20
23.45954309559237
 30
0.0
 10
2912.001681392334
 20
57.35007048595462
 30
0.0
 10
2936.837779478824
 20
82.35900691589938
 30
0.0
 10
2970.925531302305
 20
91.37281504603029
 30
0.0
 10
3005.035886049459
 20
82.53944198777046
 30
0.0
 10
3030.131795592597
 20
57.46628265063249
 30
0.0
 10
3038.931135049978
 20
23.46294603147297
 30
0.0
 10
3030.242039679636
 20
-10.46884171229361
 30
0.0
 10
3004.570539176081
 20
-35.76716920641881
 30
0.0
 10
2983.047596856063
 20
-41.17450295683844
 30
0.0
 10
2971.084740170984
 20
-41.52540874619968
 30
0.0
  0
SPLINE
  5
70074
330
70142
100
AcDbEntity
  8
Level 26
  6
Continuous
 62
     7
370
     0
100
AcDbSpline
210
0.0
220
0.0
230
1.0
 70
     9
 71
     3
 72
    19
 73
    15
 74
     0
 42
0.000000001
 43
0.0000000001
 40
0.0
 40
0.0
 40
0.0
 40
0.0
 40
0.0833333335273589
 40
0.1666666665890565
 40
0.2500000001164153
 40
0.3333333331781129
 40
0.4166666667054718
 40
0.4999999997671694
 40
0.5833333332945282
 40
0.6666666668218872
 40
0.7499999998835847
 40
0.8333333334109434
 40
0.9166666664726411
 40
1.0
 40
1.0
 40
1.0
 40
1.0
 10
2971.084740170984
 20
-41.52540874619968
 30
0.0
 10
2959.067376848129
 20
-41.08424269498962
 30
0.0
 10
2937.287884706645
 20
-35.63417256345485
 30
0.0
 10
2911.893370622353
 20
-10.33875589424497
 30
0.0
 10
2903.244860902207
 20
23.45954309559237
 30
0.0
 10
2912.001681392334
 20
57.35007048595462
 30
0.0
 10
2936.837779478824
 20
82.35900691589938
 30
0.0
 10
2970.925531302305
 20
91.37281504603029
 30
0.0
 10
3005.035886049459
 20
82.53944198777046
 30
0.0
 10
3030.131795592597
 20
57.46628265063249
 30
0.0
 10
3038.931135049978
 20
23.46294603147298
 30
0.0
 10
3030.242039679636
 20
-10.46884171229361
 30
0.0
 10
3004.570539176081
 20
-35.76716920641881
 30
0.0
 10
2983.047596856063
 20
-41.17450295683844
 30
0.0
 10
2971.084740170984
 20
-41.52540874619968
 30
0.0
  0
ENDBLK
  5
70144
330
70142
100
AcDbEntity
  8
0
 62
    98
370
     0
100
AcDbBlockEnd
  0
ENDSEC
  0
SECTION
  2
ENTITIES
  0
INSERT
  5
6FD64
330
70081
100
AcDbEntity
  8
Level 26
  6
Continuous
 62
    40
370
     0
100
AcDbBlockReference
  2
SE14
 10
2971.08474
 20
23.474591
 30
0.0
  0
LWPOLYLINE
  5
6FE7C
330
70081
100
AcDbEntity
  8
Level 15
  6
DGN Style 2
 62
     7
370
    13
100
AcDbPolyline
 90
        9
 70
   129
 43
0.0
 10
2631.790374
 20
1398.744131
 42
0.376595
 10
1576.18474
 20
195.998932
 10
1576.18474
 20
-149.04975
 42
0.376595
 10
2631.790363
 20
-1351.794947
 10
3013.690336
 20
-1401.771384
 42
0.45286
 10
4384.08474
 20
-199.02619
 10
4384.08474
 20
245.975372
 42
0.45286
 10
3013.690336
 20
1448.720566
 10
2631.790374
 20
1398.744131
  0
ENDSEC
  0
SECTION
  2
OBJECTS
  0
DICTIONARY
  5
70088
330
0
100
AcDbDictionary
281
     1
  3
ACAD_COLOR
350
700C6
  3
ACAD_GROUP
350
700B3
  3
ACAD_LAYOUT
350
70095
  3
ACAD_MATERIAL
350
7008A
  3
ACAD_MLEADERSTYLE
350
700C9
  3
ACAD_MLINESTYLE
350
700B4
  3
ACAD_PLOTSETTINGS
350
700B5
  3
ACAD_PLOTSTYLENAME
350
70087
  3
ACAD_SCALELIST
350
700C7
  3
ACAD_TABLESTYLE
350
700C8
  3
ACAD_VISUALSTYLE
350
700AD
  3
ACDB_RECOMPOSE_DATA
350
70153
  3
AcDbVariableDictionary
350
70149
  0
DICTIONARY
  5
700A0
330
7009F
100
AcDbDictionary
280
     1
281
     1
  3
ACAD_LAYERFILTERS
360
700F3
  3
ACAD_LAYERSTATES
360
700A1
  3
ACLYDICTIONARY
360
700F4
  0
DICTIONARY
  5
70084
330
70083
100
AcDbDictionary
280
     1
281
     1
  3
ADSK_XREC_LAYER_RECONCILED
360
70085
  0
DICTIONARY
  5
70145
330
700F5
100
AcDbDictionary
280
     1
281
     1
  3
ACAD_SORTENTS
360
70146
  0
DICTIONARY
  5
700C6
102
{ACAD_REACTORS
330
70088
102
}
330
70088
100
AcDbDictionary
281
     1
  0
DICTIONARY
  5
700B3
102
{ACAD_REACTORS
330
70088
102
}
330
70088
100
AcDbDictionary
281
     1
  0
DICTIONARY
  5
70095
102
{ACAD_REACTORS
330
70088
102
}
330
70088
100
AcDbDictionary
281
     1
  3
Layout1
350
7009B
  3
Model
350
70094
  0
DICTIONARY
  5
7008A
102
{ACAD_REACTORS
330
70088
102
}
330
70088
100
AcDbDictionary
281
     1
  3
ByBlock
350
700BE
  3
ByLayer
350
700B6
  3
Global
350
70089
  0
DICTIONARY
  5
700C9
102
{ACAD_REACTORS
330
70088
102
}
330
70088
100
AcDbDictionary
281
     1
  0
DICTIONARY
  5
700B4
102
{ACAD_REACTORS
330
70088
102
}
330
70088
100
AcDbDictionary
281
     1
  3
Standard
350
700CA
  0
DICTIONARY
  5
700B5
102
{ACAD_REACTORS
330
70088
102
}
330
70088
100
AcDbDictionary
281
     1
  0
ACDBDICTIONARYWDFLT
  5
70087
102
{ACAD_REACTORS
330
70088
102
}
330
70088
100
AcDbDictionary
281
     1
  3
Normal
350
70086
100
AcDbDictionaryWithDefault
340
70086
  0
DICTIONARY
  5
700C7
102
{ACAD_REACTORS
330
70088
102
}
330
70088
100
AcDbDictionary
281
     1
  3
A0
350
700CF
  3
A1
350
700D0
  3
A2
350
700D1
  3
A3
350
700D2
  3
A4
350
700D3
  3
A5
350
700D4
  3
A6
350
700D5
  3
A7
350
700D6
  3
A8
350
700D7
  3
A9
350
700D8
  3
B0
350
700D9
  3
B1
350
700DA
  3
B2
350
700DB
  3
B3
350
700DC
  3
B4
350
700DD
  3
B5
350
700DE
  3
B6
350
700DF
  3
B7
350
700E0
  3
B8
350
700E1
  3
B9
350
700E2
  3
C0
350
700E3
  3
C1
350
700E4
  3
C2
350
700E5
  3
C3
350
700E6
  3
C4
350
700E7
  3
C5
350
700E8
  3
C6
350
700E9
  3
C7
350
700EA
  3
C8
350
700EB
  3
C9
350
700EC
  3
D0
350
700ED
  3
D1
350
700EE
  3
D2
350
700EF
  0
DICTIONARY
  5
700C8
102
{ACAD_REACTORS
330
70088
102
}
330
70088
100
AcDbDictionary
281
     1
  3
Standard
350
700CB
  0
DICTIONARY
  5
700AD
102
{ACAD_REACTORS
330
70088
102
}
330
70088
100
AcDbDictionary
281
     1
  3
2dWireframe
350
700AC
  3
Realistic
350
700CD
  3
Wireframe
350
700CE
  0
XRECORD
  5
70153
102
{ACAD_REACTORS
330
70088
102
}
330
70088
100
AcDbXrecord
280
     1
 90
        1
330
700CB
  0
DICTIONARY
  5
70149
102
{ACAD_REACTORS
330
70088
102
}
330
70088
100
AcDbDictionary
281
     1
  3
CANNOSCALE
350
7014F
  3
CMLEADERSTYLE
350
7014B
  3
CTABLESTYLE
350
7014A
  3
CVIEWDETAILSTYLE
350
7014C
  3
CVIEWSECTIONSTYLE
350
7014D
  3
LAYEREVAL
350
70150
  3
LAYERNOTIFY
350
70151
  3
MSLTSCALE
350
7014E
  0
DICTIONARY
  5
700F3
102
{ACAD_REACTORS
330
700A0
102
}
330
700A0
100
AcDbDictionary
281
     1
  0
DICTIONARY
  5
700A1
102
{ACAD_REACTORS
330
700A0
102
}
330
700A0
100
AcDbDictionary
281
     1
  0
DICTIONARY
  5
700F4
102
{ACAD_REACTORS
330
700A0
102
}
330
700A0
100
AcDbDictionary
281
     1
  0
XRECORD
  5
70085
102
{ACAD_REACTORS
330
70084
102
}
330
70084
100
AcDbXrecord
280
     1
290
     1
  0
SORTENTSTABLE
  5
70146
102
{ACAD_REACTORS
330
70145
102
}
330
70145
100
AcDbSortentsTable
330
700F5
331
6FF6B
  5
6FF6B
331
6FD65
  5
6FD65
331
6FEE7
  5
6FEE6
331
6FF0E
  5
6FF0E
331
6FEE5
  5
6FEE4
331
6FD70
  5
6FD70
331
6FEE3
  5
6FEE2
331
6FD6E
  5
6FD6E
331
6FEEE
  5
6FEED
331
6FEE1
  5
6FEE0
331
6FEDF
  5
6FEDE
331
6FD6C
  5
6FD6C
331
6FEEC
  5
6FEEB
331
6FD6A
  5
6FD6A
331
6FEEA
  5
6FEE9
331
6FD68
  5
6FD68
331
6FFC8
  5
6FFC8
331
6FEE8
  5
6FEE7
331
6FD66
  5
6FD66
331
6FFA9
  5
6FFA9
331
6FDE0
  5
6FEEE
331
6FF2D
  5
6FF2D
331
6FEE6
  5
6FEE5
331
6FEE4
  5
6FEE3
331
6FD6F
  5
6FD6F
331
6FEEF
  5
6FEEF
331
6FF4C
  5
6FF4C
331
6FEE2
  5
6FEE1
331
6FD6D
  5
6FD6D
331
6FEED
  5
6FEEC
331
6FEE0
  5
6FEDF
331
6FEDE
  5
6FDE0
331
6FD6B
  5
6FD6B
331
6FEEB
  5
6FEEA
331
6FD69
  5
6FD69
331
6FF8A
  5
6FF8A
331
6FEE9
  5
6FEE8
331
6FD67
  5
6FD67
  0
LAYOUT
  5
7009B
102
{ACAD_XDICTIONARY
360
7009C
102
}
102
{ACAD_REACTORS
330
70095
102
}
330
70095
100
AcDbPlotSettings
  1

  2
none_device
  4
Letter_(8.50_x_11.00_Inches)
  6

 40
6.35
 41
6.35
 42
6.350006
 43
6.350006
 44
215.899994
 45
279.399994
 46
0.0
 47
0.0
 48
0.0
 49
0.0
140
0.0
141
0.0
142
1.0
143
1.0
 70
   688
 72
     0
 73
     1
 74
     5
  7

 75
    16
147
1.0
 76
     0
 77
     2
 78
   300
148
0.0
149
0.0
100
AcDbLayout
  1
Layout1
 70
     1
 71
     1
 10
-0.25
 20
-0.25
 11
10.75
 21
8.25
 12
0.0
 22
0.0
 32
0.0
 14
1.05
 24
0.8
 34
0.0
 15
9.45
 25
7.2
 35
0.0
146
0.0
 13
0.0
 23
0.0
 33
0.0
 16
1.0
 26
0.0
 36
0.0
 17
0.0
 27
1.0
 37
0.0
 76
     0
330
70098
1001
ACAD_PSEXT
1000
None
1000
None
1000
Not applicable
1000
The layout will not be plotted unless a new plotter configuration name is selected.
1070
     0
  0
LAYOUT
  5
70094
102
{ACAD_XDICTIONARY
360
70096
102
}
102
{ACAD_REACTORS
330
70095
102
}
330
70095
100
AcDbPlotSettings
  1

  2
none_device
  4
ANSI_A_(8.50_x_11.00_Inches)
  6

 40
6.35
 41
19.049999
 42
6.350006
 43
19.049988
 44
215.899994
 45
279.399994
 46
0.0
 47
0.0
 48
0.0
 49
0.0
140
0.0
141
0.0
142
1.0
143
2.584895
 70
 11952
 72
     0
 73
     1
 74
     0
  7

 75
     0
147
0.386863
 76
     0
 77
     2
 78
   300
148
0.0
149
0.0
100
AcDbLayout
  1
Model
 70
     1
 71
     0
 10
0.0
 20
0.0
 11
12.0
 21
9.0
 12
0.0
 22
0.0
 32
0.0
 14
0.0
 24
0.0
 34
0.0
 15
0.0
 25
0.0
 35
0.0
146
0.0
 13
0.0
 23
0.0
 33
0.0
 16
1.0
 26
0.0
 36
0.0
 17
0.0
 27
1.0
 37
0.0
 76
     0
330
70081
331
700AB
  0
MATERIAL
  5
700BE
102
{ACAD_XDICTIONARY
360
700BF
102
}
102
{ACAD_REACTORS
330
7008A
102
}
330
7008A
100
AcDbMaterial
  1
ByBlock
 72
     0
 43
0.020833
 43
0.0
 43
0.0
 43
0.0
 43
0.0
 43
0.020833
 43
0.0
 43
0.0
 43
0.0
 43
0.0
 43
1.0
 43
0.0
 43
0.0
 43
0.0
 43
0.0
 43
1.0
 77
     0
 47
0.020833
 47
0.0
 47
0.0
 47
0.0
 47
0.0
 47
0.020833
 47
0.0
 47
0.0
 47
0.0
 47
0.0
 47
1.0
 47
0.0
 47
0.0
 47
0.0
 47
0.0
 47
1.0
171
     0
 49
0.020833
 49
0.0
 49
0.0
 49
0.0
 49
0.0
 49
0.020833
 49
0.0
 49
0.0
 49
0.0
 49
0.0
 49
1.0
 49
0.0
 49
0.0
 49
0.0
 49
0.0
 49
1.0
175
     0
142
0.020833
142
0.0
142
0.0
142
0.0
142
0.0
142
0.020833
142
0.0
142
0.0
142
0.0
142
0.0
142
1.0
142
0.0
142
0.0
142
0.0
142
0.0
142
1.0
179
     0
144
0.020833
144
0.0
144
0.0
144
0.0
144
0.0
144
0.020833
144
0.0
144
0.0
144
0.0
144
0.0
144
1.0
144
0.0
144
0.0
144
0.0
144
0.0
144
1.0
147
0.020833
147
0.0
147
0.0
147
0.0
147
0.0
147
0.020833
147
0.0
147
0.0
147
0.0
147
0.0
147
1.0
147
0.0
147
0.0
147
0.0
147
0.0
147
1.0
  0
MATERIAL
  5
700B6
102
{ACAD_XDICTIONARY
360
700B7
102
}
102
{ACAD_REACTORS
330
7008A
102
}
330
7008A
100
AcDbMaterial
  1
ByLayer
 72
     0
 43
0.020833
 43
0.0
 43
0.0
 43
0.0
 43
0.0
 43
0.020833
 43
0.0
 43
0.0
 43
0.0
 43
0.0
 43
1.0
 43
0.0
 43
0.0
 43
0.0
 43
0.0
 43
1.0
 77
     0
 47
0.020833
 47
0.0
 47
0.0
 47
0.0
 47
0.0
 47
0.020833
 47
0.0
 47
0.0
 47
0.0
 47
0.0
 47
1.0
 47
0.0
 47
0.0
 47
0.0
 47
0.0
 47
1.0
171
     0
 49
0.020833
 49
0.0
 49
0.0
 49
0.0
 49
0.0
 49
0.020833
 49
0.0
 49
0.0
 49
0.0
 49
0.0
 49
1.0
 49
0.0
 49
0.0
 49
0.0
 49
0.0
 49
1.0
175
     0
142
0.020833
142
0.0
142
0.0
142
0.0
142
0.0
142
0.020833
142
0.0
142
0.0
142
0.0
142
0.0
142
1.0
142
0.0
142
0.0
142
0.0
142
0.0
142
1.0
179
     0
144
0.020833
144
0.0
144
0.0
144
0.0
144
0.0
144
0.020833
144
0.0
144
0.0
144
0.0
144
0.0
144
1.0
144
0.0
144
0.0
144
0.0
144
0.0
144
1.0
147
0.020833
147
0.0
147
0.0
147
0.0
147
0.0
147
0.020833
147
0.0
147
0.0
147
0.0
147
0.0
147
1.0
147
0.0
147
0.0
147
0.0
147
0.0
147
1.0
  0
MATERIAL
  5
70089
102
{ACAD_XDICTIONARY
360
7008B
102
}
102
{ACAD_REACTORS
330
7008A
102
}
330
7008A
100
AcDbMaterial
  1
Global
 72
     0
 43
0.020833
 43
0.0
 43
0.0
 43
0.0
 43
0.0
 43
0.020833
 43
0.0
 43
0.0
 43
0.0
 43
0.0
 43
1.0
 43
0.0
 43
0.0
 43
0.0
 43
0.0
 43
1.0
 77
     0
 47
0.020833
 47
0.0
 47
0.0
 47
0.0
 47
0.0
 47
0.020833
 47
0.0
 47
0.0
 47
0.0
 47
0.0
 47
1.0
 47
0.0
 47
0.0
 47
0.0
 47
0.0
 47
1.0
171
     0
 49
0.020833
 49
0.0
 49
0.0
 49
0.0
 49
0.0
 49
0.020833
 49
0.0
 49
0.0
 49
0.0
 49
0.0
 49
1.0
 49
0.0
 49
0.0
 49
0.0
 49
0.0
 49
1.0
175
     0
142
0.020833
142
0.0
142
0.0
142
0.0
142
0.0
142
0.020833
142
0.0
142
0.0
142
0.0
142
0.0
142
1.0
142
0.0
142
0.0
142
0.0
142
0.0
142
1.0
179
     0
144
0.020833
144
0.0
144
0.0
144
0.0
144
0.0
144
0.020833
144
0.0
144
0.0
144
0.0
144
0.0
144
1.0
144
0.0
144
0.0
144
0.0
144
0.0
144
1.0
147
0.020833
147
0.0
147
0.0
147
0.0
147
0.0
147
0.020833
147
0.0
147
0.0
147
0.0
147
0.0
147
1.0
147
0.0
147
0.0
147
0.0
147
0.0
147
1.0
  0
MLINESTYLE
  5
700CA
102
{ACAD_REACTORS
330
700B4
102
}
330
700B4
100
AcDbMlineStyle
  2
STANDARD
 70
     0
  3

 62
   256
 51
90.0
 52
90.0
 71
     2
 49
0.5
 62
   256
  6
BYLAYER
 49
-0.5
 62
   256
  6
BYLAYER
  0
ACDBPLACEHOLDER
  5
70086
102
{ACAD_REACTORS
330
70087
102
}
330
70087
  0
SCALE
  5
700CF
102
{ACAD_REACTORS
330
700C7
102
}
330
700C7
100
AcDbScale
 70
     0
300
1:1
140
1.0
141
1.0
290
     1
  0
SCALE
  5
700D0
102
{ACAD_REACTORS
330
700C7
102
}
330
700C7
100
AcDbScale
 70
     0
300
1:2
140
1.0
141
2.0
290
     0
  0
SCALE
  5
700D1
102
{ACAD_REACTORS
330
700C7
102
}
330
700C7
100
AcDbScale
 70
     0
300
1:4
140
1.0
141
4.0
290
     0
  0
SCALE
  5
700D2
102
{ACAD_REACTORS
330
700C7
102
}
330
700C7
100
AcDbScale
 70
     0
300
1:5
140
1.0
141
5.0
290
     0
  0
SCALE
  5
700D3
102
{ACAD_REACTORS
330
700C7
102
}
330
700C7
100
AcDbScale
 70
     0
300
1:8
140
1.0
141
8.0
290
     0
  0
SCALE
  5
700D4
102
{ACAD_REACTORS
330
700C7
102
}
330
700C7
100
AcDbScale
 70
     0
300
1:10
140
1.0
141
10.0
290
     0
  0
SCALE
  5
700D5
102
{ACAD_REACTORS
330
700C7
102
}
330
700C7
100
AcDbScale
 70
     0
300
1:16
140
1.0
141
16.0
290
     0
  0
SCALE
  5
700D6
102
{ACAD_REACTORS
330
700C7
102
}
330
700C7
100
AcDbScale
 70
     0
300
1:20
140
1.0
141
20.0
290
     0
  0
SCALE
  5
700D7
102
{ACAD_REACTORS
330
700C7
102
}
330
700C7
100
AcDbScale
 70
     0
300
1:30
140
1.0
141
30.0
290
     0
  0
SCALE
  5
700D8
102
{ACAD_REACTORS
330
700C7
102
}
330
700C7
100
AcDbScale
 70
     0
300
1:40
140
1.0
141
40.0
290
     0
  0
SCALE
  5
700D9
102
{ACAD_REACTORS
330
700C7
102
}
330
700C7
100
AcDbScale
 70
     0
300
1:50
140
1.0
141
50.0
290
     0
  0
SCALE
  5
700DA
102
{ACAD_REACTORS
330
700C7
102
}
330
700C7
100
AcDbScale
 70
     0
300
1:100
140
1.0
141
100.0
290
     0
  0
SCALE
  5
700DB
102
{ACAD_REACTORS
330
700C7
102
}
330
700C7
100
AcDbScale
 70
     0
300
2:1
140
2.0
141
1.0
290
     0
  0
SCALE
  5
700DC
102
{ACAD_REACTORS
330
700C7
102
}
330
700C7
100
AcDbScale
 70
     0
300
4:1
140
4.0
141
1.0
290
     0
  0
SCALE
  5
700DD
102
{ACAD_REACTORS
330
700C7
102
}
330
700C7
100
AcDbScale
 70
     0
300
8:1
140
8.0
141
1.0
290
     0
  0
SCALE
  5
700DE
102
{ACAD_REACTORS
330
700C7
102
}
330
700C7
100
AcDbScale
 70
     0
300
10:1
140
10.0
141
1.0
290
     0
  0
SCALE
  5
700DF
102
{ACAD_REACTORS
330
700C7
102
}
330
700C7
100
AcDbScale
 70
     0
300
100:1
140
100.0
141
1.0
290
     0
  0
SCALE
  5
700E0
102
{ACAD_REACTORS
330
700C7
102
}
330
700C7
100
AcDbScale
 70
     0
300
1/128" = 1'-0"
140
0.007813
141
12.0
290
     0
  0
SCALE
  5
700E1
102
{ACAD_REACTORS
330
700C7
102
}
330
700C7
100
AcDbScale
 70
     0
300
1/64" = 1'-0"
140
0.015625
141
12.0
290
     0
  0
SCALE
  5
700E2
102
{ACAD_REACTORS
330
700C7
102
}
330
700C7
100
AcDbScale
 70
     0
300
1/32" = 1'-0"
140
0.03125
141
12.0
290
     0
  0
SCALE
  5
700E3
102
{ACAD_REACTORS
330
700C7
102
}
330
700C7
100
AcDbScale
 70
     0
300
1/16" = 1'-0"
140
0.0625
141
12.0
290
     0
  0
SCALE
  5
700E4
102
{ACAD_REACTORS
330
700C7
102
}
330
700C7
100
AcDbScale
 70
     0
300
3/32" = 1'-0"
140
0.09375
141
12.0
290
     0
  0
SCALE
  5
700E5
102
{ACAD_REACTORS
330
700C7
102
}
330
700C7
100
AcDbScale
 70
     0
300
1/8" = 1'-0"
140
0.125
141
12.0
290
     0
  0
SCALE
  5
700E6
102
{ACAD_REACTORS
330
700C7
102
}
330
700C7
100
AcDbScale
 70
     0
300
3/16" = 1'-0"
140
0.1875
141
12.0
290
     0
  0
SCALE
  5
700E7
102
{ACAD_REACTORS
330
700C7
102
}
330
700C7
100
AcDbScale
 70
     0
300
1/4" = 1'-0"
140
0.25
141
12.0
290
     0
  0
SCALE
  5
700E8
102
{ACAD_REACTORS
330
700C7
102
}
330
700C7
100
AcDbScale
 70
     0
300
3/8" = 1'-0"
140
0.375
141
12.0
290
     0
  0
SCALE
  5
700E9
102
{ACAD_REACTORS
330
700C7
102
}
330
700C7
100
AcDbScale
 70
     0
300
1/2" = 1'-0"
140
0.5
141
12.0
290
     0
  0
SCALE
  5
700EA
102
{ACAD_REACTORS
330
700C7
102
}
330
700C7
100
AcDbScale
 70
     0
300
3/4" = 1'-0"
140
0.75
141
12.0
290
     0
  0
SCALE
  5
700EB
102
{ACAD_REACTORS
330
700C7
102
}
330
700C7
100
AcDbScale
 70
     0
300
1" = 1'-0"
140
1.0
141
12.0
290
     0
  0
SCALE
  5
700EC
102
{ACAD_REACTORS
330
700C7
102
}
330
700C7
100
AcDbScale
 70
     0
300
1-1/2" = 1'-0"
140
1.5
141
12.0
290
     0
  0
SCALE
  5
700ED
102
{ACAD_REACTORS
330
700C7
102
}
330
700C7
100
AcDbScale
 70
     0
300
3" = 1'-0"
140
3.0
141
12.0
290
     0
  0
SCALE
  5
700EE
102
{ACAD_REACTORS
330
700C7
102
}
330
700C7
100
AcDbScale
 70
     0
300
6" = 1'-0"
140
6.0
141
12.0
290
     0
  0
SCALE
  5
700EF
102
{ACAD_REACTORS
330
700C7
102
}
330
700C7
100
AcDbScale
 70
     0
300
1'-0" = 1'-0"
140
12.0
141
12.0
290
     0
  0
TABLESTYLE
  5
700CB
102
{ACAD_XDICTIONARY
360
700CC
102
}
102
{ACAD_REACTORS
330
700C8
102
}
330
700C8
100
AcDbTableStyle
280
     0
  3
Standard
 70
     0
 71
     0
 40
0.06
 41
0.06
280
     0
281
     0
  7
Standard
140
0.18
170
     2
 62
     0
 63
     7
283
     0
 90
        4
 91
        0
  1

274
    -2
284
     1
 64
     0
275
    -2
285
     1
 65
     0
276
    -2
286
     1
 66
     0
277
    -2
287
     1
 67
     0
278
    -2
288
     1
 68
     0
279
    -2
289
     1
 69
     0
  7
Standard
140
0.25
170
     5
 62
     0
 63
     7
283
     0
 90
        4
 91
        0
  1

274
    -2
284
     1
 64
     0
275
    -2
285
     1
 65
     0
276
    -2
286
     1
 66
     0
277
    -2
287
     1
 67
     0
278
    -2
288
     1
 68
     0
279
    -2
289
     1
 69
     0
  7
Standard
140
0.18
170
     5
 62
     0
 63
     7
283
     0
 90
        4
 91
        0
  1

274
    -2
284
     1
 64
     0
275
    -2
285
     1
 65
     0
276
    -2
286
     1
 66
     0
277
    -2
287
     1
 67
     0
278
    -2
288
     1
 68
     0
279
    -2
289
     1
 69
     0
  0
VISUALSTYLE
  5
700AC
102
{ACAD_REACTORS
330
700AD
102
}
330
700AD
100
AcDbVisualStyle
  2
2dWireframe
 70
     4
177
     3
291
     0
 70
    58
 90
        0
176
     1
 90
        2
176
     1
 90
        0
176
     1
 90
        0
176
     1
 40
0.6
176
     1
 40
30.0
176
     1
 62
     7
420
 16777215
176
     1
 90
        1
176
     1
 90
        4
176
     1
 62
     7
176
     1
 62
   257
176
     1
 90
        1
176
     1
 90
        1
176
     1
 40
1.0
176
     1
 90
        0
176
     1
 62
   257
176
     1
 40
1.0
176
     1
 90
        1
176
     1
 90
        6
176
     1
 90
        2
176
     1
 62
     7
176
     1
 90
        5
176
     1
 90
        0
176
     1
 90
        0
176
     1
290
     0
176
     1
 90
        1
176
     1
 40
0.0
176
     1
 90
        0
176
     1
290
     1
176
     1
290
     1
176
     1
290
     0
176
     1
290
     0
176
     1
290
     0
176
     1
290
     0
176
     1
290
     0
176
     1
290
     0
176
     1
290
     0
176
     1
 90
       50
176
     1
 40
0.0
176
     1
 40
1.0
176
     1
 90
        0
176
     1
 62
    18
420
        0
176
     1
 90
       50
176
     1
 90
        3
176
     1
 62
     5
420
      255
176
     1
290
     0
176
     1
 90
       50
176
     1
 90
       50
176
     1
 90
       50
176
     1
290
     0
176
     1
 90
       50
176
     1
 62
   256
176
     0
 40
1.0
176
     0
 90
        2
176
     1
  1
strokes_ogs.tif
176
     1
290
     0
176
     1
 40
1.0
176
     1
 40
1.0
176
     1
  0
VISUALSTYLE
  5
700CD
102
{ACAD_REACTORS
330
700AD
102
}
330
700AD
100
AcDbVisualStyle
  2
Realistic
 70
     8
177
     3
291
     0
 70
    58
 90
        2
176
     1
 90
        2
176
     1
 90
        0
176
     1
 90
        0
176
     1
 40
0.6
176
     1
 40
30.0
176
     1
 62
     7
420
 16777215
176
     1
 90
        1
176
     1
 90
        0
176
     1
 62
     7
176
     1
 62
   257
176
     1
 90
        1
176
     1
 90
        1
176
     1
 40
1.0
176
     1
 90
        8
176
     1
 62
     8
420
  7895160
176
     1
 40
1.0
176
     1
 90
        1
176
     1
 90
        6
176
     1
 90
        2
176
     1
 62
     7
176
     1
 90
        5
176
     1
 90
        0
176
     1
 90
        0
176
     1
290
     0
176
     1
 90
       13
176
     1
 40
0.0
176
     1
 90
        0
176
     1
290
     0
176
     1
290
     1
176
     1
290
     1
176
     1
290
     0
176
     1
290
     0
176
     1
290
     0
176
     1
290
     0
176
     1
290
     0
176
     1
290
     0
176
     1
 90
       50
176
     1
 40
0.0
176
     1
 40
1.0
176
     1
 90
        0
176
     1
 62
    18
420
        0
176
     1
 90
       50
176
     1
 90
        3
176
     1
 62
     5
420
      255
176
     1
290
     0
176
     1
 90
       50
176
     1
 90
       50
176
     1
 90
       50
176
     1
290
     0
176
     1
 90
       50
176
     1
 62
   256
176
     0
 40
1.0
176
     0
 90
        2
176
     1
  1
strokes_ogs.tif
176
     1
290
     0
176
     1
 40
1.0
176
     1
 40
1.0
176
     1
  0
VISUALSTYLE
  5
700CE
102
{ACAD_REACTORS
330
700AD
102
}
330
700AD
100
AcDbVisualStyle
  2
Wireframe
 70
     5
177
     3
291
     0
 70
    58
 90
        0
176
     1
 90
        2
176
     1
 90
        0
176
     1
 90
        0
176
     1
 40
0.6
176
     1
 40
30.0
176
     1
 62
     7
420
 16777215
176
     1
 90
        1
176
     1
 90
        4
176
     1
 62
     7
176
     1
 62
   257
176
     1
 90
        1
176
     1
 90
        1
176
     1
 40
1.0
176
     1
 90
        0
176
     1
 62
   257
176
     1
 40
1.0
176
     1
 90
        1
176
     1
 90
        6
176
     1
 90
        2
176
     1
 62
     7
176
     1
 90
        3
176
     1
 90
        0
176
     1
 90
        0
176
     1
290
     0
176
     1
 90
        1
176
     1
 40
0.0
176
     1
 90
        0
176
     1
290
     0
176
     1
290
     1
176
     1
290
     1
176
     1
290
     0
176
     1
290
     0
176
     1
290
     0
176
     1
290
     0
176
     1
290
     0
176
     1
290
     0
176
     1
 90
       50
176
     1
 40
0.0
176
     1
 40
1.0
176
     1
 90
        0
176
     1
 62
    18
420
        0
176
     1
 90
       50
176
     1
 90
        3
176
     1
 62
     5
420
      255
176
     1
290
     0
176
     1
 90
       50
176
     1
 90
       50
176
     1
 90
       50
176
     1
290
     0
176
     1
 90
       50
176
     1
 62
   256
176
     0
 40
1.0
176
     0
 90
        2
176
     1
  1
strokes_ogs.tif
176
     1
290
     0
176
     1
 40
1.0
176
     1
 40
1.0
176
     1
  0
DICTIONARYVAR
  5
7014F
102
{ACAD_REACTORS
330
70149
102
}
330
70149
100
DictionaryVariables
280
     0
  1
1:1
  0
DICTIONARYVAR
  5
7014B
102
{ACAD_REACTORS
330
70149
102
}
330
70149
100
DictionaryVariables
280
     0
  1
STANDARD
  0
DICTIONARYVAR
  5
7014A
102
{ACAD_REACTORS
330
70149
102
}
330
70149
100
DictionaryVariables
280
     0
  1
STANDARD
  0
DICTIONARYVAR
  5
7014C
102
{ACAD_REACTORS
330
70149
102
}
330
70149
100
DictionaryVariables
280
     0
  1

  0
DICTIONARYVAR
  5
7014D
102
{ACAD_REACTORS
330
70149
102
}
330
70149
100
DictionaryVariables
280
     0
  1

  0
DICTIONARYVAR
  5
70150
102
{ACAD_REACTORS
330
70149
102
}
330
70149
100
DictionaryVariables
280
     0
  1
1
  0
DICTIONARYVAR
  5
70151
102
{ACAD_REACTORS
330
70149
102
}
330
70149
100
DictionaryVariables
280
     0
  1
15
  0
DICTIONARYVAR
  5
7014E
102
{ACAD_REACTORS
330
70149
102
}
330
70149
100
DictionaryVariables
280
     0
  1
0
  0
DICTIONARY
  5
7009C
330
7009B
100
AcDbDictionary
280
     1
281
     1
  0
DICTIONARY
  5
70096
330
70094
100
AcDbDictionary
280
     1
281
     1
  0
DICTIONARY
  5
700BF
330
700BE
100
AcDbDictionary
280
     1
281
     1
  3
BUMPTILE
360
700C0
  3
DIFFUSETILE
360
700C1
  3
OPACITYTILE
360
700C2
  3
REFLECTIONTILE
360
700C3
  3
REFRACTIONTILE
360
700C4
  3
SPECULARTILE
360
700C5
  0
DICTIONARY
  5
700B7
330
700B6
100
AcDbDictionary
280
     1
281
     1
  3
BUMPTILE
360
700B8
  3
DIFFUSETILE
360
700B9
  3
OPACITYTILE
360
700BA
  3
REFLECTIONTILE
360
700BB
  3
REFRACTIONTILE
360
700BC
  3
SPECULARTILE
360
700BD
  0
DICTIONARY
  5
7008B
330
70089
100
AcDbDictionary
280
     1
281
     1
  3
BUMPTILE
360
7008C
  3
DIFFUSETILE
360
7008D
  3
OPACITYTILE
360
7008E
  3
REFLECTIONTILE
360
7008F
  3
REFRACTIONTILE
360
70090
  3
SPECULARTILE
360
70091
  0
DICTIONARY
  5
700CC
330
700CB
100
AcDbDictionary
280
     1
281
     1
  3
ACAD_ROUNDTRIP_2008_TABLESTYLE_CELLSTYLEMAP
360
70152
  0
XRECORD
  5
700C0
102
{ACAD_REACTORS
330
700BF
102
}
330
700BF
100
AcDbXrecord
280
     1
270
     1
271
     1
  0
XRECORD
  5
700C1
102
{ACAD_REACTORS
330
700BF
102
}
330
700BF
100
AcDbXrecord
280
     1
270
     1
271
     1
  0
XRECORD
  5
700C2
102
{ACAD_REACTORS
330
700BF
102
}
330
700BF
100
AcDbXrecord
280
     1
270
     1
271
     1
  0
XRECORD
  5
700C3
102
{ACAD_REACTORS
330
700BF
102
}
330
700BF
100
AcDbXrecord
280
     1
270
     1
271
     1
  0
XRECORD
  5
700C4
102
{ACAD_REACTORS
330
700BF
102
}
330
700BF
100
AcDbXrecord
280
     1
270
     1
271
     1
  0
XRECORD
  5
700C5
102
{ACAD_REACTORS
330
700BF
102
}
330
700BF
100
AcDbXrecord
280
     1
270
     1
271
     1
  0
XRECORD
  5
700B8
102
{ACAD_REACTORS
330
700B7
102
}
330
700B7
100
AcDbXrecord
280
     1
270
     1
271
     1
  0
XRECORD
  5
700B9
102
{ACAD_REACTORS
330
700B7
102
}
330
700B7
100
AcDbXrecord
280
     1
270
     1
271
     1
  0
XRECORD
  5
700BA
102
{ACAD_REACTORS
330
700B7
102
}
330
700B7
100
AcDbXrecord
280
     1
270
     1
271
     1
  0
XRECORD
  5
700BB
102
{ACAD_REACTORS
330
700B7
102
}
330
700B7
100
AcDbXrecord
280
     1
270
     1
271
     1
  0
XRECORD
  5
700BC
102
{ACAD_REACTORS
330
700B7
102
}
330
700B7
100
AcDbXrecord
280
     1
270
     1
271
     1
  0
XRECORD
  5
700BD
102
{ACAD_REACTORS
330
700B7
102
}
330
700B7
100
AcDbXrecord
280
     1
270
     1
271
     1
  0
XRECORD
  5
7008C
102
{ACAD_REACTORS
330
7008B
102
}
330
7008B
100
AcDbXrecord
280
     1
270
     1
271
     1
  0
XRECORD
  5
7008D
102
{ACAD_REACTORS
330
7008B
102
}
330
7008B
100
AcDbXrecord
280
     1
270
     1
271
     1
  0
XRECORD
  5
7008E
102
{ACAD_REACTORS
330
7008B
102
}
330
7008B
100
AcDbXrecord
280
     1
270
     1
271
     1
  0
XRECORD
  5
7008F
102
{ACAD_REACTORS
330
7008B
102
}
330
7008B
100
AcDbXrecord
280
     1
270
     1
271
     1
  0
XRECORD
  5
70090
102
{ACAD_REACTORS
330
7008B
102
}
330
7008B
100
AcDbXrecord
280
     1
270
     1
271
     1
  0
XRECORD
  5
70091
102
{ACAD_REACTORS
330
7008B
102
}
330
7008B
100
AcDbXrecord
280
     1
270
     1
271
     1
  0
CELLSTYLEMAP
  5
70152
102
{ACAD_REACTORS
330
700CC
102
}
330
700CC
100
AcDbCellStyleMap
 90
        3
300
CELLSTYLE
  1
TABLEFORMAT_BEGIN
 90
        5
170
     1
 91
        0
 92
    32768
 62
   257
 93
        1
300
CONTENTFORMAT
  1
CONTENTFORMAT_BEGIN
 90
        0
 91
        0
 92
        4
 93
        0
300

 40
0.0
140
1.0
 94
        5
 62
     0
340
700A3
144
0.25
309
CONTENTFORMAT_END
171
     0
 94
        6
 95
        1
302
GRIDFORMAT
  1
GRIDFORMAT_BEGIN
 90
        0
 91
        1
 62
     0
 92
       -2
340
0
 93
        0
 40
0.045
309
GRIDFORMAT_END
 95
        2
302
GRIDFORMAT
  1
GRIDFORMAT_BEGIN
 90
        0
 91
        1
 62
     0
 92
       -2
340
0
 93
        0
 40
0.045
309
GRIDFORMAT_END
 95
        4
302
GRIDFORMAT
  1
GRIDFORMAT_BEGIN
 90
        0
 91
        1
 62
     0
 92
       -2
340
0
 93
        0
 40
0.045
309
GRIDFORMAT_END
 95
        8
302
GRIDFORMAT
  1
GRIDFORMAT_BEGIN
 90
        0
 91
        1
 62
     0
 92
       -2
340
0
 93
        0
 40
0.045
309
GRIDFORMAT_END
 95
       16
302
GRIDFORMAT
  1
GRIDFORMAT_BEGIN
 90
        0
 91
        1
 62
     0
 92
       -2
340
0
 93
        0
 40
0.045
309
GRIDFORMAT_END
 95
       32
302
GRIDFORMAT
  1
GRIDFORMAT_BEGIN
 90
        0
 91
        1
 62
     0
 92
       -2
340
0
 93
        0
 40
0.045
309
GRIDFORMAT_END
309
TABLEFORMAT_END
  1
CELLSTYLE_BEGIN
 90
        1
 91
        1
300
_TITLE
309
CELLSTYLE_END
300
CELLSTYLE
  1
TABLEFORMAT_BEGIN
 90
        5
170
     1
 91
        0
 92
        0
 62
   257
 93
        1
300
CONTENTFORMAT
  1
CONTENTFORMAT_BEGIN
 90
        0
 91
        0
 92
        4
 93
        0
300

 40
0.0
140
1.0
 94
        5
 62
     0
340
700A3
144
0.18
309
CONTENTFORMAT_END
171
     0
 94
        6
 95
        1
302
GRIDFORMAT
  1
GRIDFORMAT_BEGIN
 90
        0
 91
        1
 62
     0
 92
       -2
340
0
 93
        0
 40
0.045
309
GRIDFORMAT_END
 95
        2
302
GRIDFORMAT
  1
GRIDFORMAT_BEGIN
 90
        0
 91
        1
 62
     0
 92
       -2
340
0
 93
        0
 40
0.045
309
GRIDFORMAT_END
 95
        4
302
GRIDFORMAT
  1
GRIDFORMAT_BEGIN
 90
        0
 91
        1
 62
     0
 92
       -2
340
0
 93
        0
 40
0.045
309
GRIDFORMAT_END
 95
        8
302
GRIDFORMAT
  1
GRIDFORMAT_BEGIN
 90
        0
 91
        1
 62
     0
 92
       -2
340
0
 93
        0
 40
0.045
309
GRIDFORMAT_END
 95
       16
302
GRIDFORMAT
  1
GRIDFORMAT_BEGIN
 90
        0
 91
        1
 62
     0
 92
       -2
340
0
 93
        0
 40
0.045
309
GRIDFORMAT_END
 95
       32
302
GRIDFORMAT
  1
GRIDFORMAT_BEGIN
 90
        0
 91
        1
 62
     0
 92
       -2
340
0
 93
        0
 40
0.045
309
GRIDFORMAT_END
309
TABLEFORMAT_END
  1
CELLSTYLE_BEGIN
 90
        2
 91
        1
300
_HEADER
309
CELLSTYLE_END
300
CELLSTYLE
  1
TABLEFORMAT_BEGIN
 90
        5
170
     1
 91
        0
 92
        0
 62
   257
 93
        1
300
CONTENTFORMAT
  1
CONTENTFORMAT_BEGIN
 90
        0
 91
        0
 92
        4
 93
        0
300

 40
0.0
140
1.0
 94
        2
 62
     0
340
700A3
144
0.18
309
CONTENTFORMAT_END
171
     0
 94
        6
 95
        1
302
GRIDFORMAT
  1
GRIDFORMAT_BEGIN
 90
        0
 91
        1
 62
     0
 92
       -2
340
0
 93
        0
 40
0.045
309
GRIDFORMAT_END
 95
        2
302
GRIDFORMAT
  1
GRIDFORMAT_BEGIN
 90
        0
 91
        1
 62
     0
 92
       -2
340
0
 93
        0
 40
0.045
309
GRIDFORMAT_END
 95
        4
302
GRIDFORMAT
  1
GRIDFORMAT_BEGIN
 90
        0
 91
        1
 62
     0
 92
       -2
340
0
 93
        0
 40
0.045
309
GRIDFORMAT_END
 95
        8
302
GRIDFORMAT
  1
GRIDFORMAT_BEGIN
 90
        0
 91
        1
 62
     0
 92
       -2
340
0
 93
        0
 40
0.045
309
GRIDFORMAT_END
 95
       16
302
GRIDFORMAT
  1
GRIDFORMAT_BEGIN
 90
        0
 91
        1
 62
     0
 92
       -2
340
0
 93
        0
 40
0.045
309
GRIDFORMAT_END
 95
       32
302
GRIDFORMAT
  1
GRIDFORMAT_BEGIN
 90
        0
 91
        1
 62
     0
 92
       -2
340
0
 93
        0
 40
0.045
309
GRIDFORMAT_END
309
TABLEFORMAT_END
  1
CELLSTYLE_BEGIN
 90
        3
 91
        2
300
_DATA
309
CELLSTYLE_END
  0
ENDSEC
  0
SECTION
  2
ACDSDATA
 70
     2
 71
     6
  0
ACDSSCHEMA
 90
        0
  1
AcDb_Thumbnail_Schema
  2
AcDbDs::ID
280
    10
 91
        8
  2
Thumbnail_Data
280
    15
 91
        0
101
ACDSRECORD
 95
        0
 90
        1
  2
AcDbDs::TreatedAsObjectData
280
     1
291
     1
101
ACDSRECORD
 95
        0
 90
        2
  2
AcDbDs::Legacy
280
     1
291
     1
101
ACDSRECORD
  1
AcDbDs::ID
 90
        3
  2
AcDs:Indexable
280
     1
291
     1
101
ACDSRECORD
  1
AcDbDs::ID
 90
        4
  2
AcDbDs::HandleAttribute
280
     7
282
     1
  0
ACDSSCHEMA
 90
        1
  1
AcDbDs::TreatedAsObjectDataSchema
  2
AcDbDs::TreatedAsObjectData
280
     1
 91
        0
  0
ACDSSCHEMA
 90
        2
  1
AcDbDs::LegacySchema
  2
AcDbDs::Legacy
280
     1
 91
        0
  0
ACDSSCHEMA
 90
        3
  1
AcDbDs::IndexedPropertySchema
  2
AcDs:Indexable
280
     1
 91
        0
  0
ACDSSCHEMA
 90
        4
  1
AcDbDs::HandleAttributeSchema
  2
AcDbDs::HandleAttribute
280
     7
 91
        1
284
     1
  0
ACDSRECORD
 90
        0
  2
AcDbDs::ID
280
    10
320
7009B
  2
Thumbnail_Data
280
    15
 94
     1183
310
89504E470D0A1A0A0000000D4948445200000100000000C508030000008CFEDCE700000300504C5445FFFFFF000000FFFFFF0000000000000000000000000000000000000000000000000000330000660000990000CC0000FF0033000033330033660033990033CC0033FF0066000066330066660066990066CC0066FF0099
310
000099330099660099990099CC0099FF00CC0000CC3300CC6600CC9900CCCC00CCFF00FF0000FF3300FF6600FF9900FFCC00FFFF3300003300333300663300993300CC3300FF3333003333333333663333993333CC3333FF3366003366333366663366993366CC3366FF3399003399333399663399993399CC3399FF33CC00
310
33CC3333CC6633CC9933CCCC33CCFF33FF0033FF3333FF6633FF9933FFCC33FFFF6600006600336600666600996600CC6600FF6633006633336633666633996633CC6633FF6666006666336666666666996666CC6666FF6699006699336699666699996699CC6699FF66CC0066CC3366CC6666CC9966CCCC66CCFF66FF0066
310
FF3366FF6666FF9966FFCC66FFFF9900009900339900669900999900CC9900FF9933009933339933669933999933CC9933FF9966009966339966669966999966CC9966FF9999009999339999669999999999CC9999FF99CC0099CC3399CC6699CC9999CCCC99CCFF99FF0099FF3399FF6699FF9999FFCC99FFFFCC0000CC00
310
33CC0066CC0099CC00CCCC00FFCC3300CC3333CC3366CC3399CC33CCCC33FFCC6600CC6633CC6666CC6699CC66CCCC66FFCC9900CC9933CC9966CC9999CC99CCCC99FFCCCC00CCCC33CCCC66CCCC99CCCCCCCCCCFFCCFF00CCFF33CCFF66CCFF99CCFFCCCCFFFFFF0000FF0033FF0066FF0099FF00CCFF00FFFF3300FF3333
310
FF3366FF3399FF33CCFF33FFFF6600FF6633FF6666FF6699FF66CCFF66FFFF9900FF9933FF9966FF9999FF99CCFF99FFFFCC00FFCC33FFCC66FFCC99FFCCCCFFCCFFFFFF00FFFF33FFFF66FFFF99FFFFCCFFFFFF0000000D0D0D1A1A1A2828283535354343435050505D5D5D6B6B6B787878868686939393A1A1A1AEAEAEBB
310
BBBBC9C9C9D6D6D6E4E4E4F1F1F1FFFFFF000000000000000000000000000000000000000000000000000000000000790CAC0F0000015A4944415478DAEDD8410A8340100440FFFFCCF9C09EE61E104224896014844D579F64F420A587DE592A3A632CD5C101100F500500C0F36ACDF6D636BFCEEBAEF9E9177D0788FBF600
310
000000000000004D1000000000000000100F50FB4F4C9E8B5578FAFF0300000000000000000000000000000000B00BD069000D0000000000000000A009020000000000000000000000000000000052013A0DA001000000000000000000A8C2000000000000000000000000000000402A40FC420400000000000000002016C0
310
5900000000000000000000000000000000C803885F88000000000000000000C402380B0000000000000000000000000000000000E2003A0DA0010000000000000000344100000000000000000000000000000000C0E7C660F21C04080D0000000000000000C01F54DE73151900000000000000D0AFCDCFB6227CDDAB1C9CD7
310
5DF3D32FAA0902000000C00A109E658C110DF0000E6CC6FBCCF8EC2E0000000049454E44AE426082
  0
ACDSRECORD
 90
        0
  2
AcDbDs::ID
280
    10
320
70094
  2
Thumbnail_Data
280
    15
 94
     1017
310
89504E470D0A1A0A0000000D4948445200000100000000890803000000F46416F000000300504C5445FEFCF0000000FFFFFF0000000000000000000000000000000000000000000000000000330000660000990000CC0000FF0033000033330033660033990033CC0033FF0066000066330066660066990066CC0066FF0099
310
000099330099660099990099CC0099FF00CC0000CC3300CC6600CC9900CCCC00CCFF00FF0000FF3300FF6600FF9900FFCC00FFFF3300003300333300663300993300CC3300FF3333003333333333663333993333CC3333FF3366003366333366663366993366CC3366FF3399003399333399663399993399CC3399FF33CC00
310
33CC3333CC6633CC9933CCCC33CCFF33FF0033FF3333FF6633FF9933FFCC33FFFF6600006600336600666600996600CC6600FF6633006633336633666633996633CC6633FF6666006666336666666666996666CC6666FF6699006699336699666699996699CC6699FF66CC0066CC3366CC6666CC9966CCCC66CCFF66FF0066
310
FF3366FF6666FF9966FFCC66FFFF9900009900339900669900999900CC9900FF9933009933339933669933999933CC9933FF9966009966339966669966999966CC9966FF9999009999339999669999999999CC9999FF99CC0099CC3399CC6699CC9999CCCC99CCFF99FF0099FF3399FF6699FF9999FFCC99FFFFCC0000CC00
310
33CC0066CC0099CC00CCCC00FFCC3300CC3333CC3366CC3399CC33CCCC33FFCC6600CC6633CC6666CC6699CC66CCCC66FFCC9900CC9933CC9966CC9999CC99CCCC99FFCCCC00CCCC33CCCC66CCCC99CCCCCCCCCCFFCCFF00CCFF33CCFF66CCFF99CCFFCCCCFFFFFF0000FF0033FF0066FF0099FF00CCFF00FFFF3300FF3333
310
FF3366FF3399FF33CCFF33FFFF6600FF6633FF6666FF6699FF66CCFF66FFFF9900FF9933FF9966FF9999FF99CCFF99FFFFCC00FFCC33FFCC66FFCC99FFCCCCFFCCFFFFFF00FFFF33FFFF66FFFF99FFFFCCFFFFFF0000000D0D0D1A1A1A2828283535354343435050505D5D5D6B6B6B787878868686939393A1A1A1AEAEAEBB
310
BBBBC9C9C9D6D6D6E4E4E4F1F1F1FFFFFF0000000000000000000000000000000000000000000000000000000000007C77BAA7000000B44944415478DAEDD0310100000C0220FBB7B48931760C22903E1701020408102040800001020408102040800001020408102040800001020408102040800001020408102040800001
310
020408102040800001020408102040800001020408102040800001020408102040800001020408102040800001020408102040800001020408102040800001020408102040800001020408102040800001020408102040800001020408102040800001020408102040C099016B33700943E05F3C0000000049454E44AE4260
310
82
  0
ENDSEC
  0
EOF
