  0
SECTION
  2
HEADER
  9
$ACADVER
  1
AC1027
  9
$ACADMAINTVER
 70
    55
  9
$DWGCODEPAGE
  3
ANSI_1252
  9
$AUTHOR
  1
WAEngineering1
  9
$LASTSAVEDBY
  1
WAMarketing2
  9
$REQUIREDVERSIONS
160
                 0
  9
$INSBASE
 10
0.0
 20
0.0
 30
0.0
  9
$EXTMIN
 10
283.982
 20
-3444.583
 30
0.0
  9
$EXTMAX
 10
7905.084
 20
3135.418
 30
0.0
  9
$LIMMIN
 10
-16042.756674
 20
-20291.872174
  9
$LIMMAX
 10
24231.822674
 20
19982.707174
  9
$ORTHOMODE
 70
     0
  9
$REGENMODE
 70
     1
  9
$FILLMODE
 70
     1
  9
$QTEXTMODE
 70
     0
  9
$MIRRTEXT
 70
     0
  9
$LTSCALE
 40
1.0
  9
$ATTMODE
 70
     1
  9
$TEXTSIZE
 40
100.0
  9
$TRACEWID
 40
0.05
  9
$TEXTSTYLE
  7
Standard
  9
$CLAYER
  8
Level 8
  9
$CELTYPE
  6
Continuous
  9
$CECOLOR
 62
    98
  9
$CELTSCALE
 40
1.0
  9
$DISPSILH
 70
     0
  9
$DIMSCALE
 40
1.0
  9
$DIMASZ
 40
0.18
  9
$DIMEXO
 40
0.0625
  9
$DIMDLI
 40
0.38
  9
$DIMRND
 40
0.0
  9
$DIMDLE
 40
0.0
  9
$DIMEXE
 40
0.18
  9
$DIMTP
 40
0.0
  9
$DIMTM
 40
0.0
  9
$DIMTXT
 40
0.18
  9
$DIMCEN
 40
0.09
  9
$DIMTSZ
 40
0.0
  9
$DIMTOL
 70
     0
  9
$DIMLIM
 70
     0
  9
$DIMTIH
 70
     1
  9
$DIMTOH
 70
     1
  9
$DIMSE1
 70
     0
  9
$DIMSE2
 70
     0
  9
$DIMTAD
 70
     0
  9
$DIMZIN
 70
     0
  9
$DIMBLK
  1

  9
$DIMASO
 70
     1
  9
$DIMSHO
 70
     1
  9
$DIMPOST
  1

  9
$DIMAPOST
  1

  9
$DIMALT
 70
     0
  9
$DIMALTD
 70
     2
  9
$DIMALTF
 40
25.4
  9
$DIMLFAC
 40
1.0
  9
$DIMTOFL
 70
     0
  9
$DIMTVP
 40
0.0
  9
$DIMTIX
 70
     0
  9
$DIMSOXD
 70
     0
  9
$DIMSAH
 70
     0
  9
$DIMBLK1
  1

  9
$DIMBLK2
  1

  9
$DIMSTYLE
  2
Standard
  9
$DIMCLRD
 70
     0
  9
$DIMCLRE
 70
     0
  9
$DIMCLRT
 70
     0
  9
$DIMTFAC
 40
1.0
  9
$DIMGAP
 40
0.09
  9
$DIMJUST
 70
     0
  9
$DIMSD1
 70
     0
  9
$DIMSD2
 70
     0
  9
$DIMTOLJ
 70
     1
  9
$DIMTZIN
 70
     0
  9
$DIMALTZ
 70
     0
  9
$DIMALTTZ
 70
     0
  9
$DIMUPT
 70
     0
  9
$DIMDEC
 70
     4
  9
$DIMTDEC
 70
     4
  9
$DIMALTU
 70
     2
  9
$DIMALTTD
 70
     2
  9
$DIMTXSTY
  7
Standard
  9
$DIMAUNIT
 70
     0
  9
$DIMADEC
 70
     0
  9
$DIMALTRND
 40
0.0
  9
$DIMAZIN
 70
     0
  9
$DIMDSEP
 70
    46
  9
$DIMATFIT
 70
     3
  9
$DIMFRAC
 70
     0
  9
$DIMLDRBLK
  1

  9
$DIMLUNIT
 70
     2
  9
$DIMLWD
 70
    -2
  9
$DIMLWE
 70
    -2
  9
$DIMTMOVE
 70
     0
  9
$DIMFXL
 40
1.0
  9
$DIMFXLON
 70
     0
  9
$DIMJOGANG
 40
0.785398
  9
$DIMTFILL
 70
     0
  9
$DIMTFILLCLR
 70
     0
  9
$DIMARCSYM
 70
     0
  9
$DIMLTYPE
  6

  9
$DIMLTEX1
  6

  9
$DIMLTEX2
  6

  9
$DIMTXTDIRECTION
 70
     0
  9
$LUNITS
 70
     2
  9
$LUPREC
 70
     0
  9
$SKETCHINC
 40
0.1
  9
$FILLETRAD
 40
0.0
  9
$AUNITS
 70
     0
  9
$AUPREC
 70
     0
  9
$MENU
  1
.
  9
$ELEVATION
 40
0.0
  9
$PELEVATION
 40
0.0
  9
$THICKNESS
 40
0.0
  9
$LIMCHECK
 70
     0
  9
$CHAMFERA
 40
0.0
  9
$CHAMFERB
 40
0.0
  9
$CHAMFERC
 40
0.0
  9
$CHAMFERD
 40
0.0
  9
$SKPOLY
 70
     0
  9
$TDCREATE
 40
2454145.111357350
  9
$TDUCREATE
 40
2454144.778024017
  9
$TDUPDATE
 40
2455657.145108565
  9
$TDUUPDATE
 40
2455656.811775231
  9
$TDINDWG
 40
0.0262194907
  9
$TDUSRTIMER
 40
0.0262193056
  9
$USRTIMER
 70
     1
  9
$ANGBASE
 50
0.0
  9
$ANGDIR
 70
     0
  9
$PDMODE
 70
     0
  9
$PDSIZE
 40
0.0
  9
$PLINEWID
 40
0.0
  9
$SPLFRAME
 70
     0
  9
$SPLINETYPE
 70
     6
  9
$SPLINESEGS
 70
     8
  9
$HANDSEED
  5
7003A
  9
$SURFTAB1
 70
     6
  9
$SURFTAB2
 70
     6
  9
$SURFTYPE
 70
     6
  9
$SURFU
 70
     6
  9
$SURFV
 70
     6
  9
$UCSBASE
  2

  9
$UCSNAME
  2

  9
$UCSORG
 10
0.0
 20
0.0
 30
0.0
  9
$UCSXDIR
 10
1.0
 20
0.0
 30
0.0
  9
$UCSYDIR
 10
0.0
 20
1.0
 30
0.0
  9
$UCSORTHOREF
  2

  9
$UCSORTHOVIEW
 70
     0
  9
$UCSORGTOP
 10
0.0
 20
0.0
 30
0.0
  9
$UCSORGBOTTOM
 10
0.0
 20
0.0
 30
0.0
  9
$UCSORGLEFT
 10
0.0
 20
0.0
 30
0.0
  9
$UCSORGRIGHT
 10
0.0
 20
0.0
 30
0.0
  9
$UCSORGFRONT
 10
0.0
 20
0.0
 30
0.0
  9
$UCSORGBACK
 10
0.0
 20
0.0
 30
0.0
  9
$PUCSBASE
  2

  9
$PUCSNAME
  2

  9
$PUCSORG
 10
0.0
 20
0.0
 30
0.0
  9
$PUCSXDIR
 10
1.0
 20
0.0
 30
0.0
  9
$PUCSYDIR
 10
0.0
 20
1.0
 30
0.0
  9
$PUCSORTHOREF
  2

  9
$PUCSORTHOVIEW
 70
     0
  9
$PUCSORGTOP
 10
0.0
 20
0.0
 30
0.0
  9
$PUCSORGBOTTOM
 10
0.0
 20
0.0
 30
0.0
  9
$PUCSORGLEFT
 10
0.0
 20
0.0
 30
0.0
  9
$PUCSORGRIGHT
 10
0.0
 20
0.0
 30
0.0
  9
$PUCSORGFRONT
 10
0.0
 20
0.0
 30
0.0
  9
$PUCSORGBACK
 10
0.0
 20
0.0
 30
0.0
  9
$USERI1
 70
     0
  9
$USERI2
 70
     0
  9
$USERI3
 70
     0
  9
$USERI4
 70
     0
  9
$USERI5
 70
     0
  9
$USERR1
 40
0.0
  9
$USERR2
 40
0.0
  9
$USERR3
 40
0.0
  9
$USERR4
 40
0.0
  9
$USERR5
 40
0.0
  9
$WORLDVIEW
 70
     1
  9
$SHADEDGE
 70
     3
  9
$SHADEDIF
 70
    70
  9
$TILEMODE
 70
     1
  9
$MAXACTVP
 70
    64
  9
$PINSBASE
 10
0.0
 20
0.0
 30
0.0
  9
$PLIMCHECK
 70
     0
  9
$PEXTMIN
 10
1.05
 20
0.8
 30
0.0
  9
$PEXTMAX
 10
9.45
 20
7.2
 30
0.0
  9
$PLIMMIN
 10
-0.25
 20
-0.25
  9
$PLIMMAX
 10
10.75
 20
8.25
  9
$UNITMODE
 70
     0
  9
$VISRETAIN
 70
     1
  9
$PLINEGEN
 70
     0
  9
$PSLTSCALE
 70
     0
  9
$TREEDEPTH
 70
  3020
  9
$CMLSTYLE
  2
Standard
  9
$CMLJUST
 70
     0
  9
$CMLSCALE
 40
1.0
  9
$PROXYGRAPHICS
 70
     1
  9
$MEASUREMENT
 70
     0
  9
$CELWEIGHT
370
     0
  9
$ENDCAPS
280
     0
  9
$JOINSTYLE
280
     0
  9
$LWDISPLAY
290
     1
  9
$INSUNITS
 70
     4
  9
$HYPERLINKBASE
  1

  9
$STYLESHEET
  1

  9
$XEDIT
290
     1
  9
$CEPSNTYPE
380
     0
  9
$PSTYLEMODE
290
     1
  9
$FINGERPRINTGUID
  2
{24C18607-62B9-46A6-B6D5-D782EC359F78}
  9
$VERSIONGUID
  2
{5066CCA6-5121-4C7B-A04C-375F92FA871B}
  9
$EXTNAMES
290
     1
  9
$PSVPSCALE
 40
0.0
  9
$OLESTARTUP
290
     0
  9
$SORTENTS
280
   127
  9
$INDEXCTL
280
     0
  9
$HIDETEXT
280
     1
  9
$XCLIPFRAME
280
     0
  9
$HALOGAP
280
     0
  9
$OBSCOLOR
 70
   257
  9
$OBSLTYPE
280
     0
  9
$INTERSECTIONDISPLAY
280
     0
  9
$INTERSECTIONCOLOR
 70
   257
  9
$DIMASSOC
280
     1
  9
$PROJECTNAME
  1

  9
$CAMERADISPLAY
290
     0
  9
$LENSLENGTH
 40
50.0
  9
$CAMERAHEIGHT
 40
0.0
  9
$STEPSPERSEC
 40
2.0
  9
$STEPSIZE
 40
6.0
  9
$3DDWFPREC
 40
2.0
  9
$PSOLWIDTH
 40
0.25
  9
$PSOLHEIGHT
 40
4.0
  9
$LOFTANG1
 40
1.570796
  9
$LOFTANG2
 40
1.570796
  9
$LOFTMAG1
 40
0.0
  9
$LOFTMAG2
 40
0.0
  9
$LOFTPARAM
 70
     7
  9
$LOFTNORMALS
280
     1
  9
$LATITUDE
 40
37.795
  9
$LONGITUDE
 40
-122.394
  9
$NORTHDIRECTION
 40
0.0
  9
$TIMEZONE
 70
 -8000
  9
$LIGHTGLYPHDISPLAY
280
     1
  9
$TILEMODELIGHTSYNCH
280
     1
  9
$CMATERIAL
347
6FF8E
  9
$SOLIDHIST
280
     1
  9
$SHOWHIST
280
     1
  9
$DWFFRAME
280
     2
  9
$DGNFRAME
280
     0
  9
$REALWORLDSCALE
290
     1
  9
$INTERFERECOLOR
 62
     1
  9
$INTERFEREOBJVS
345
6FFA5
  9
$INTERFEREVPVS
346
6FFA6
  9
$CSHADOW
280
     0
  9
$SHADOWPLANELOCATION
 40
0.0
  0
ENDSEC
  0
SECTION
  2
CLASSES
  0
CLASS
  1
ACDBDICTIONARYWDFLT
  2
AcDbDictionaryWithDefault
  3
ObjectDBX Classes
 90
        0
 91
        1
280
     0
281
     0
  0
CLASS
  1
DICTIONARYVAR
  2
AcDbDictionaryVar
  3
ObjectDBX Classes
 90
        0
 91
        8
280
     0
281
     0
  0
CLASS
  1
TABLESTYLE
  2
AcDbTableStyle
  3
ObjectDBX Classes
 90
     4095
 91
        1
280
     0
281
     0
  0
CLASS
  1
MATERIAL
  2
AcDbMaterial
  3
ObjectDBX Classes
 90
     1153
 91
        3
280
     0
281
     0
  0
CLASS
  1
VISUALSTYLE
  2
AcDbVisualStyle
  3
ObjectDBX Classes
 90
     4095
 91
        3
280
     0
281
     0
  0
CLASS
  1
SCALE
  2
AcDbScale
  3
ObjectDBX Classes
 90
     1153
 91
       33
280
     0
281
     0
  0
CLASS
  1
MLEADERSTYLE
  2
AcDbMLeaderStyle
  3
ACDB_MLEADERSTYLE_CLASS
 90
     4095
 91
        0
280
     0
281
     0
  0
CLASS
  1
EXACXREFPANELOBJECT
  2
ExAcXREFPanelObject
  3
EXAC_ESW
 90
     1025
 91
        0
280
     1
281
     0
  0
CLASS
  1
NPOCOLLECTION
  2
AcDbImpNonPersistentObjectsCollection
  3
ObjectDBX Classes
 90
     1153
 91
        0
280
     0
281
     0
  0
CLASS
  1
CELLSTYLEMAP
  2
AcDbCellStyleMap
  3
ObjectDBX Classes
 90
     1152
 91
        1
280
     0
281
     0
  0
CLASS
  1
ACDBSECTIONVIEWSTYLE
  2
AcDbSectionViewStyle
  3
ObjectDBX Classes
 90
     1025
 91
        0
280
     0
281
     0
  0
CLASS
  1
ACDBDETAILVIEWSTYLE
  2
AcDbDetailViewStyle
  3
ObjectDBX Classes
 90
     1025
 91
        0
280
     0
281
     0
  0
CLASS
  1
SORTENTSTABLE
  2
AcDbSortentsTable
  3
ObjectDBX Classes
 90
        0
 91
        1
280
     0
281
     0
  0
ENDSEC
  0
SECTION
  2
TABLES
  0
TABLE
  2
VPORT
  5
6FF82
330
0
100
AcDbSymbolTable
 70
     2
  0
VPORT
  5
4B
330
6FF82
100
AcDbSymbolTableRecord
100
AcDbViewportTableRecord
  2
*ACTIVE
 70
     0
 10
0.0
 20
0.0
 11
1.0
 21
1.0
 12
4094.533
 22
-154.5825
 13
0.0
 23
0.0
 14
1.0
 24
1.0
 15
1.0
 25
1.0
 16
0.0
 26
0.0
 36
1.0
 17
0.0
 27
0.0
 37
0.0
 40
6843.20104
 41
2.090493
 42
50.0
 43
0.0
 44
0.0
 50
0.0
 51
0.0
 71
     0
 72
   100
 73
     1
 74
     0
 75
     0
 76
     0
 77
     0
 78
     1
281
     0
 65
     1
110
0.0
120
0.0
130
0.0
111
1.0
121
0.0
131
0.0
112
0.0
122
1.0
132
0.0
 79
     0
146
0.0
 60
     3
 61
    10
292
     0
282
     1
141
0.0
142
0.0
 63
     7
421
 16777215
  0
ENDTAB
  0
TABLE
  2
LTYPE
  5
6FF7D
330
0
100
AcDbSymbolTable
 70
     2
  0
LTYPE
  5
6FF7E
330
6FF7D
100
AcDbSymbolTableRecord
100
AcDbLinetypeTableRecord
  2
ByBlock
 70
     0
  3

 72
    65
 73
     0
 40
0.0
  0
LTYPE
  5
6FF7F
330
6FF7D
100
AcDbSymbolTableRecord
100
AcDbLinetypeTableRecord
  2
ByLayer
 70
     0
  3

 72
    65
 73
     0
 40
0.0
  0
LTYPE
  5
6FF6A
330
6FF7D
100
AcDbSymbolTableRecord
100
AcDbLinetypeTableRecord
  2
Continuous
 70
     0
  3
Solid line
 72
    65
 73
     0
 40
0.0
  0
LTYPE
  5
7002D
330
6FF7D
100
AcDbSymbolTableRecord
100
AcDbLinetypeTableRecord
  2
DGN Style 2
 70
     0
  3
Dgn Style 2
 72
    65
 73
     2
 40
143.056608
 49
85.833965
 74
     0
 49
-57.222643
 74
     0
  0
ENDTAB
  0
TABLE
  2
LAYER
  5
6FF77
102
{ACAD_XDICTIONARY
360
6FF78
102
}
330
0
100
AcDbSymbolTable
 70
    65
  0
LAYER
  5
6FF5B
102
{ACAD_XDICTIONARY
360
6FF5C
102
}
330
6FF77
100
AcDbSymbolTableRecord
100
AcDbLayerTableRecord
  2
0
 70
     0
 62
     7
  6
Continuous
370
    -3
390
6FF5E
347
6FF61
348
0
1001
AcCmTransparency
1071
 33554687
  0
LAYER
  5
7
330
6FF77
100
AcDbSymbolTableRecord
100
AcDbLayerTableRecord
  2
Level 1
 70
     0
 62
     7
  6
Continuous
370
     0
390
6FF5E
347
6FF61
348
0
1001
AcCmTransparency
1071
 33554687
  0
LAYER
  5
8
330
6FF77
100
AcDbSymbolTableRecord
100
AcDbLayerTableRecord
  2
Level 2
 70
     0
 62
     7
  6
Continuous
370
     0
390
6FF5E
347
6FF61
348
0
1001
AcCmTransparency
1071
 33554687
  0
LAYER
  5
9
330
6FF77
100
AcDbSymbolTableRecord
100
AcDbLayerTableRecord
  2
Level 3
 70
     0
 62
     7
  6
Continuous
370
     0
390
6FF5E
347
6FF61
348
0
1001
AcCmTransparency
1071
 33554687
  0
LAYER
  5
A
330
6FF77
100
AcDbSymbolTableRecord
100
AcDbLayerTableRecord
  2
Level 4
 70
     0
 62
     7
  6
Continuous
370
     0
390
6FF5E
347
6FF61
348
0
1001
AcCmTransparency
1071
 33554687
  0
LAYER
  5
B
330
6FF77
100
AcDbSymbolTableRecord
100
AcDbLayerTableRecord
  2
Level 5
 70
     0
 62
     7
  6
Continuous
370
     0
390
6FF5E
347
6FF61
348
0
1001
AcCmTransparency
1071
 33554687
  0
LAYER
  5
C
330
6FF77
100
AcDbSymbolTableRecord
100
AcDbLayerTableRecord
  2
Level 6
 70
     0
 62
     7
  6
Continuous
370
     0
390
6FF5E
347
6FF61
348
0
1001
AcCmTransparency
1071
 33554687
  0
LAYER
  5
D
330
6FF77
100
AcDbSymbolTableRecord
100
AcDbLayerTableRecord
  2
Level 7
 70
     0
 62
     7
  6
Continuous
370
     0
390
6FF5E
347
6FF61
348
0
1001
AcCmTransparency
1071
 33554687
  0
LAYER
  5
E
330
6FF77
100
AcDbSymbolTableRecord
100
AcDbLayerTableRecord
  2
Level 8
 70
     0
 62
     7
  6
Continuous
370
     0
390
6FF5E
347
6FF61
348
0
1001
AcCmTransparency
1071
 33554687
  0
LAYER
  5
F
330
6FF77
100
AcDbSymbolTableRecord
100
AcDbLayerTableRecord
  2
Level 9
 70
     0
 62
     7
  6
Continuous
370
     0
390
6FF5E
347
6FF61
348
0
1001
AcCmTransparency
1071
 33554687
  0
LAYER
  5
10
330
6FF77
100
AcDbSymbolTableRecord
100
AcDbLayerTableRecord
  2
Level 10
 70
     0
 62
     7
  6
Continuous
370
     0
390
6FF5E
347
6FF61
348
0
1001
AcCmTransparency
1071
 33554687
  0
LAYER
  5
11
330
6FF77
100
AcDbSymbolTableRecord
100
AcDbLayerTableRecord
  2
Level 11
 70
     0
 62
     7
  6
Continuous
370
     0
390
6FF5E
347
6FF61
348
0
1001
AcCmTransparency
1071
 33554687
  0
LAYER
  5
12
330
6FF77
100
AcDbSymbolTableRecord
100
AcDbLayerTableRecord
  2
Level 12
 70
     0
 62
     7
  6
Continuous
370
     0
390
6FF5E
347
6FF61
348
0
1001
AcCmTransparency
1071
 33554687
  0
LAYER
  5
13
330
6FF77
100
AcDbSymbolTableRecord
100
AcDbLayerTableRecord
  2
Level 13
 70
     0
 62
     7
  6
Continuous
370
     0
390
6FF5E
347
6FF61
348
0
1001
AcCmTransparency
1071
 33554687
  0
LAYER
  5
14
330
6FF77
100
AcDbSymbolTableRecord
100
AcDbLayerTableRecord
  2
Level 14
 70
     0
 62
     7
  6
Continuous
370
     0
390
6FF5E
347
6FF61
348
0
1001
AcCmTransparency
1071
 33554687
  0
LAYER
  5
15
330
6FF77
100
AcDbSymbolTableRecord
100
AcDbLayerTableRecord
  2
Level 15
 70
     0
 62
     7
  6
Continuous
370
     0
390
6FF5E
347
6FF61
348
0
1001
AcCmTransparency
1071
 33554687
  0
LAYER
  5
16
330
6FF77
100
AcDbSymbolTableRecord
100
AcDbLayerTableRecord
  2
Level 16
 70
     0
 62
     7
  6
Continuous
370
     0
390
6FF5E
347
6FF61
348
0
1001
AcCmTransparency
1071
 33554687
  0
LAYER
  5
17
330
6FF77
100
AcDbSymbolTableRecord
100
AcDbLayerTableRecord
  2
Level 17
 70
     0
 62
     7
  6
Continuous
370
     0
390
6FF5E
347
6FF61
348
0
1001
AcCmTransparency
1071
 33554687
  0
LAYER
  5
18
330
6FF77
100
AcDbSymbolTableRecord
100
AcDbLayerTableRecord
  2
Level 18
 70
     0
 62
     7
  6
Continuous
370
     0
390
6FF5E
347
6FF61
348
0
1001
AcCmTransparency
1071
 33554687
  0
LAYER
  5
19
330
6FF77
100
AcDbSymbolTableRecord
100
AcDbLayerTableRecord
  2
Level 19
 70
     0
 62
     7
  6
Continuous
370
     0
390
6FF5E
347
6FF61
348
0
1001
AcCmTransparency
1071
 33554687
  0
LAYER
  5
1A
330
6FF77
100
AcDbSymbolTableRecord
100
AcDbLayerTableRecord
  2
Level 20
 70
     0
 62
     7
  6
Continuous
370
     0
390
6FF5E
347
6FF61
348
0
1001
AcCmTransparency
1071
 33554687
  0
LAYER
  5
1B
330
6FF77
100
AcDbSymbolTableRecord
100
AcDbLayerTableRecord
  2
Level 21
 70
     0
 62
     7
  6
Continuous
370
     0
390
6FF5E
347
6FF61
348
0
1001
AcCmTransparency
1071
 33554687
  0
LAYER
  5
1C
330
6FF77
100
AcDbSymbolTableRecord
100
AcDbLayerTableRecord
  2
Level 22
 70
     0
 62
     7
  6
Continuous
370
     0
390
6FF5E
347
6FF61
348
0
1001
AcCmTransparency
1071
 33554687
  0
LAYER
  5
1D
330
6FF77
100
AcDbSymbolTableRecord
100
AcDbLayerTableRecord
  2
Level 23
 70
     0
 62
     7
  6
Continuous
370
     0
390
6FF5E
347
6FF61
348
0
1001
AcCmTransparency
1071
 33554687
  0
LAYER
  5
1E
330
6FF77
100
AcDbSymbolTableRecord
100
AcDbLayerTableRecord
  2
Level 24
 70
     0
 62
     7
  6
Continuous
370
     0
390
6FF5E
347
6FF61
348
0
1001
AcCmTransparency
1071
 33554687
  0
LAYER
  5
1F
330
6FF77
100
AcDbSymbolTableRecord
100
AcDbLayerTableRecord
  2
Level 25
 70
     0
 62
     7
  6
Continuous
370
     0
390
6FF5E
347
6FF61
348
0
1001
AcCmTransparency
1071
 33554687
  0
LAYER
  5
20
330
6FF77
100
AcDbSymbolTableRecord
100
AcDbLayerTableRecord
  2
Level 26
 70
     0
 62
     7
  6
Continuous
370
     0
390
6FF5E
347
6FF61
348
0
1001
AcCmTransparency
1071
 33554687
  0
LAYER
  5
21
330
6FF77
100
AcDbSymbolTableRecord
100
AcDbLayerTableRecord
  2
Level 27
 70
     0
 62
     7
  6
Continuous
370
     0
390
6FF5E
347
6FF61
348
0
1001
AcCmTransparency
1071
 33554687
  0
LAYER
  5
22
330
6FF77
100
AcDbSymbolTableRecord
100
AcDbLayerTableRecord
  2
Level 28
 70
     0
 62
     7
  6
Continuous
370
     0
390
6FF5E
347
6FF61
348
0
1001
AcCmTransparency
1071
 33554687
  0
LAYER
  5
23
330
6FF77
100
AcDbSymbolTableRecord
100
AcDbLayerTableRecord
  2
Level 29
 70
     0
 62
     7
  6
Continuous
370
     0
390
6FF5E
347
6FF61
348
0
1001
AcCmTransparency
1071
 33554687
  0
LAYER
  5
24
330
6FF77
100
AcDbSymbolTableRecord
100
AcDbLayerTableRecord
  2
Level 30
 70
     0
 62
     7
  6
Continuous
370
     0
390
6FF5E
347
6FF61
348
0
1001
AcCmTransparency
1071
 33554687
  0
LAYER
  5
25
330
6FF77
100
AcDbSymbolTableRecord
100
AcDbLayerTableRecord
  2
Level 31
 70
     0
 62
     7
  6
Continuous
370
     0
390
6FF5E
347
6FF61
348
0
1001
AcCmTransparency
1071
 33554687
  0
LAYER
  5
26
330
6FF77
100
AcDbSymbolTableRecord
100
AcDbLayerTableRecord
  2
Level 32
 70
     0
 62
     7
  6
Continuous
370
     0
390
6FF5E
347
6FF61
348
0
1001
AcCmTransparency
1071
 33554687
  0
LAYER
  5
27
330
6FF77
100
AcDbSymbolTableRecord
100
AcDbLayerTableRecord
  2
Level 33
 70
     0
 62
     7
  6
Continuous
370
     0
390
6FF5E
347
6FF61
348
0
1001
AcCmTransparency
1071
 33554687
  0
LAYER
  5
28
330
6FF77
100
AcDbSymbolTableRecord
100
AcDbLayerTableRecord
  2
Level 34
 70
     0
 62
     7
  6
Continuous
370
     0
390
6FF5E
347
6FF61
348
0
1001
AcCmTransparency
1071
 33554687
  0
LAYER
  5
29
330
6FF77
100
AcDbSymbolTableRecord
100
AcDbLayerTableRecord
  2
Level 35
 70
     0
 62
     7
  6
Continuous
370
     0
390
6FF5E
347
6FF61
348
0
1001
AcCmTransparency
1071
 33554687
  0
LAYER
  5
2A
330
6FF77
100
AcDbSymbolTableRecord
100
AcDbLayerTableRecord
  2
Level 36
 70
     0
 62
     7
  6
Continuous
370
     0
390
6FF5E
347
6FF61
348
0
1001
AcCmTransparency
1071
 33554687
  0
LAYER
  5
2B
330
6FF77
100
AcDbSymbolTableRecord
100
AcDbLayerTableRecord
  2
Level 37
 70
     0
 62
     7
  6
Continuous
370
     0
390
6FF5E
347
6FF61
348
0
1001
AcCmTransparency
1071
 33554687
  0
LAYER
  5
2C
330
6FF77
100
AcDbSymbolTableRecord
100
AcDbLayerTableRecord
  2
Level 38
 70
     0
 62
     7
  6
Continuous
370
     0
390
6FF5E
347
6FF61
348
0
1001
AcCmTransparency
1071
 33554687
  0
LAYER
  5
2D
330
6FF77
100
AcDbSymbolTableRecord
100
AcDbLayerTableRecord
  2
Level 39
 70
     0
 62
     7
  6
Continuous
370
     0
390
6FF5E
347
6FF61
348
0
1001
AcCmTransparency
1071
 33554687
  0
LAYER
  5
2E
330
6FF77
100
AcDbSymbolTableRecord
100
AcDbLayerTableRecord
  2
Level 40
 70
     0
 62
     7
  6
Continuous
370
     0
390
6FF5E
347
6FF61
348
0
1001
AcCmTransparency
1071
 33554687
  0
LAYER
  5
2F
330
6FF77
100
AcDbSymbolTableRecord
100
AcDbLayerTableRecord
  2
Level 41
 70
     0
 62
     7
  6
Continuous
370
     0
390
6FF5E
347
6FF61
348
0
1001
AcCmTransparency
1071
 33554687
  0
LAYER
  5
30
330
6FF77
100
AcDbSymbolTableRecord
100
AcDbLayerTableRecord
  2
Level 42
 70
     0
 62
     7
  6
Continuous
370
     0
390
6FF5E
347
6FF61
348
0
1001
AcCmTransparency
1071
 33554687
  0
LAYER
  5
31
330
6FF77
100
AcDbSymbolTableRecord
100
AcDbLayerTableRecord
  2
Level 43
 70
     0
 62
     7
  6
Continuous
370
     0
390
6FF5E
347
6FF61
348
0
1001
AcCmTransparency
1071
 33554687
  0
LAYER
  5
32
330
6FF77
100
AcDbSymbolTableRecord
100
AcDbLayerTableRecord
  2
Level 44
 70
     0
 62
     7
  6
Continuous
370
     0
390
6FF5E
347
6FF61
348
0
1001
AcCmTransparency
1071
 33554687
  0
LAYER
  5
33
330
6FF77
100
AcDbSymbolTableRecord
100
AcDbLayerTableRecord
  2
Level 45
 70
     0
 62
     7
  6
Continuous
370
     0
390
6FF5E
347
6FF61
348
0
1001
AcCmTransparency
1071
 33554687
  0
LAYER
  5
34
330
6FF77
100
AcDbSymbolTableRecord
100
AcDbLayerTableRecord
  2
Level 46
 70
     0
 62
     7
  6
Continuous
370
     0
390
6FF5E
347
6FF61
348
0
1001
AcCmTransparency
1071
 33554687
  0
LAYER
  5
35
330
6FF77
100
AcDbSymbolTableRecord
100
AcDbLayerTableRecord
  2
Level 47
 70
     0
 62
     7
  6
Continuous
370
     0
390
6FF5E
347
6FF61
348
0
1001
AcCmTransparency
1071
 33554687
  0
LAYER
  5
36
330
6FF77
100
AcDbSymbolTableRecord
100
AcDbLayerTableRecord
  2
Level 48
 70
     0
 62
     7
  6
Continuous
370
     0
390
6FF5E
347
6FF61
348
0
1001
AcCmTransparency
1071
 33554687
  0
LAYER
  5
37
330
6FF77
100
AcDbSymbolTableRecord
100
AcDbLayerTableRecord
  2
Level 49
 70
     0
 62
     7
  6
Continuous
370
     0
390
6FF5E
347
6FF61
348
0
1001
AcCmTransparency
1071
 33554687
  0
LAYER
  5
38
330
6FF77
100
AcDbSymbolTableRecord
100
AcDbLayerTableRecord
  2
Level 50
 70
     0
 62
     7
  6
Continuous
370
     0
390
6FF5E
347
6FF61
348
0
1001
AcCmTransparency
1071
 33554687
  0
LAYER
  5
39
330
6FF77
100
AcDbSymbolTableRecord
100
AcDbLayerTableRecord
  2
Level 51
 70
     0
 62
     7
  6
Continuous
370
     0
390
6FF5E
347
6FF61
348
0
1001
AcCmTransparency
1071
 33554687
  0
LAYER
  5
3A
330
6FF77
100
AcDbSymbolTableRecord
100
AcDbLayerTableRecord
  2
Level 52
 70
     0
 62
     7
  6
Continuous
370
     0
390
6FF5E
347
6FF61
348
0
1001
AcCmTransparency
1071
 33554687
  0
LAYER
  5
3B
330
6FF77
100
AcDbSymbolTableRecord
100
AcDbLayerTableRecord
  2
Level 53
 70
     0
 62
     7
  6
Continuous
370
     0
390
6FF5E
347
6FF61
348
0
1001
AcCmTransparency
1071
 33554687
  0
LAYER
  5
3C
330
6FF77
100
AcDbSymbolTableRecord
100
AcDbLayerTableRecord
  2
Level 54
 70
     0
 62
     7
  6
Continuous
370
     0
390
6FF5E
347
6FF61
348
0
1001
AcCmTransparency
1071
 33554687
  0
LAYER
  5
3D
330
6FF77
100
AcDbSymbolTableRecord
100
AcDbLayerTableRecord
  2
Level 55
 70
     0
 62
     7
  6
Continuous
370
     0
390
6FF5E
347
6FF61
348
0
1001
AcCmTransparency
1071
 33554687
  0
LAYER
  5
3E
330
6FF77
100
AcDbSymbolTableRecord
100
AcDbLayerTableRecord
  2
Level 56
 70
     0
 62
     7
  6
Continuous
370
     0
390
6FF5E
347
6FF61
348
0
1001
AcCmTransparency
1071
 33554687
  0
LAYER
  5
3F
330
6FF77
100
AcDbSymbolTableRecord
100
AcDbLayerTableRecord
  2
Level 57
 70
     0
 62
     7
  6
Continuous
370
     0
390
6FF5E
347
6FF61
348
0
1001
AcCmTransparency
1071
 33554687
  0
LAYER
  5
40
330
6FF77
100
AcDbSymbolTableRecord
100
AcDbLayerTableRecord
  2
Level 58
 70
     0
 62
     7
  6
Continuous
370
     0
390
6FF5E
347
6FF61
348
0
1001
AcCmTransparency
1071
 33554687
  0
LAYER
  5
41
330
6FF77
100
AcDbSymbolTableRecord
100
AcDbLayerTableRecord
  2
Level 59
 70
     0
 62
     7
  6
Continuous
370
     0
390
6FF5E
347
6FF61
348
0
1001
AcCmTransparency
1071
 33554687
  0
LAYER
  5
42
330
6FF77
100
AcDbSymbolTableRecord
100
AcDbLayerTableRecord
  2
Level 60
 70
     0
 62
     7
  6
Continuous
370
     0
390
6FF5E
347
6FF61
348
0
1001
AcCmTransparency
1071
 33554687
  0
LAYER
  5
43
330
6FF77
100
AcDbSymbolTableRecord
100
AcDbLayerTableRecord
  2
Level 61
 70
     0
 62
     7
  6
Continuous
370
     0
390
6FF5E
347
6FF61
348
0
1001
AcCmTransparency
1071
 33554687
  0
LAYER
  5
44
330
6FF77
100
AcDbSymbolTableRecord
100
AcDbLayerTableRecord
  2
Level 62
 70
     0
 62
     7
  6
Continuous
370
     0
390
6FF5E
347
6FF61
348
0
1001
AcCmTransparency
1071
 33554687
  0
LAYER
  5
45
330
6FF77
100
AcDbSymbolTableRecord
100
AcDbLayerTableRecord
  2
Level 63
 70
     0
 62
     7
  6
Continuous
370
     0
390
6FF5E
347
6FF61
348
0
1001
AcCmTransparency
1071
 33554687
  0
LAYER
  5
50CA0
330
6FF77
100
AcDbSymbolTableRecord
100
AcDbLayerTableRecord
  2
25
 70
     0
 62
     7
  6
Continuous
370
     0
390
6FF5E
347
6FF61
348
0
1001
AcCmTransparency
1071
 33554687
  0
ENDTAB
  0
TABLE
  2
STYLE
  5
6FF7A
330
0
100
AcDbSymbolTable
 70
     1
  0
STYLE
  5
6FF7B
330
6FF7A
100
AcDbSymbolTableRecord
100
AcDbTextStyleTableRecord
  2
Standard
 70
     0
 40
0.0
 41
1.0
 50
0.0
 71
     0
 42
100.0
  3
txt
  4

  0
ENDTAB
  0
TABLE
  2
VIEW
  5
6FF80
330
0
100
AcDbSymbolTable
 70
     0
  0
ENDTAB
  0
TABLE
  2
UCS
  5
6FF81
330
0
100
AcDbSymbolTable
 70
     0
  0
ENDTAB
  0
TABLE
  2
APPID
  5
6FF86
330
0
100
AcDbSymbolTable
 70
     3
  0
APPID
  5
6FF87
330
6FF86
100
AcDbSymbolTableRecord
100
AcDbRegAppTableRecord
  2
ACAD
 70
     0
  0
APPID
  5
6FF76
330
6FF86
100
AcDbSymbolTableRecord
100
AcDbRegAppTableRecord
  2
ACAD_PSEXT
 70
     0
  0
APPID
  5
6FFCA
330
6FF86
100
AcDbSymbolTableRecord
100
AcDbRegAppTableRecord
  2
AcCmTransparency
 70
     0
  0
ENDTAB
  0
TABLE
  2
DIMSTYLE
  5
6FF88
330
0
100
AcDbSymbolTable
 70
     1
100
AcDbDimStyleTable
 71
     1
340
6FF89
  0
DIMSTYLE
105
6FF89
330
6FF88
100
AcDbSymbolTableRecord
100
AcDbDimStyleTableRecord
  2
Standard
 70
     0
340
6FF7B
  0
ENDTAB
  0
TABLE
  2
BLOCK_RECORD
  5
6FF58
330
0
100
AcDbSymbolTable
 70
    32
  0
BLOCK_RECORD
  5
6FF59
330
6FF58
100
AcDbSymbolTableRecord
100
AcDbBlockTableRecord
  2
*Model_Space
340
6FF6C
 70
     0
280
     1
281
     0
  0
BLOCK_RECORD
  5
6FF70
330
6FF58
100
AcDbSymbolTableRecord
100
AcDbBlockTableRecord
  2
*Paper_Space
340
6FF73
 70
     0
280
     1
281
     0
  0
BLOCK_RECORD
  5
6FF3C
330
6FF58
100
AcDbSymbolTableRecord
100
AcDbBlockTableRecord
  2
*U0
340
0
 70
     0
280
     1
281
     0
  0
BLOCK_RECORD
  5
6FF3E
330
6FF58
100
AcDbSymbolTableRecord
100
AcDbBlockTableRecord
  2
*U1
340
0
 70
     0
280
     1
281
     0
  0
BLOCK_RECORD
  5
6FFD1
102
{ACAD_XDICTIONARY
360
7002B
102
}
330
6FF58
100
AcDbSymbolTableRecord
100
AcDbBlockTableRecord
  2
SW04
340
0
102
{BLKREFS
331
6FD6F
102
}
 70
     0
280
     1
281
     0
  0
BLOCK_RECORD
  5
6FFD4
330
6FF58
100
AcDbSymbolTableRecord
100
AcDbBlockTableRecord
  2
From Solid
340
0
102
{BLKREFS
331
6FF40
102
}
 70
     0
280
     1
281
     0
  0
BLOCK_RECORD
  5
6FFD7
330
6FF58
100
AcDbSymbolTableRecord
100
AcDbBlockTableRecord
  2
From Solid_1
340
0
102
{BLKREFS
331
6FF41
102
}
 70
     0
280
     1
281
     0
  0
BLOCK_RECORD
  5
6FFDA
330
6FF58
100
AcDbSymbolTableRecord
100
AcDbBlockTableRecord
  2
From Solid_2
340
0
102
{BLKREFS
331
6FF42
102
}
 70
     0
280
     1
281
     0
  0
BLOCK_RECORD
  5
6FFDD
330
6FF58
100
AcDbSymbolTableRecord
100
AcDbBlockTableRecord
  2
From Solid_3
340
0
102
{BLKREFS
331
6FF43
102
}
 70
     0
280
     1
281
     0
  0
BLOCK_RECORD
  5
6FFE0
330
6FF58
100
AcDbSymbolTableRecord
100
AcDbBlockTableRecord
  2
From Solid_4
340
0
102
{BLKREFS
331
6FF44
102
}
 70
     0
280
     1
281
     0
  0
BLOCK_RECORD
  5
6FFE3
330
6FF58
100
AcDbSymbolTableRecord
100
AcDbBlockTableRecord
  2
From Solid_5
340
0
102
{BLKREFS
331
6FF45
102
}
 70
     0
280
     1
281
     0
  0
BLOCK_RECORD
  5
6FFE6
330
6FF58
100
AcDbSymbolTableRecord
100
AcDbBlockTableRecord
  2
From Solid_6
340
0
102
{BLKREFS
331
6FF46
102
}
 70
     0
280
     1
281
     0
  0
BLOCK_RECORD
  5
6FFE9
330
6FF58
100
AcDbSymbolTableRecord
100
AcDbBlockTableRecord
  2
From Solid_7
340
0
102
{BLKREFS
331
6FF47
102
}
 70
     0
280
     1
281
     0
  0
BLOCK_RECORD
  5
6FFEC
330
6FF58
100
AcDbSymbolTableRecord
100
AcDbBlockTableRecord
  2
From Solid_8
340
0
102
{BLKREFS
331
6FF48
102
}
 70
     0
280
     1
281
     0
  0
BLOCK_RECORD
  5
6FFEF
330
6FF58
100
AcDbSymbolTableRecord
100
AcDbBlockTableRecord
  2
From Solid_9
340
0
102
{BLKREFS
331
6FF49
102
}
 70
     0
280
     1
281
     0
  0
BLOCK_RECORD
  5
6FFF2
330
6FF58
100
AcDbSymbolTableRecord
100
AcDbBlockTableRecord
  2
From Solid_10
340
0
102
{BLKREFS
331
6FF4A
102
}
 70
     0
280
     1
281
     0
  0
BLOCK_RECORD
  5
6FFF5
330
6FF58
100
AcDbSymbolTableRecord
100
AcDbBlockTableRecord
  2
From Solid_11
340
0
102
{BLKREFS
331
6FF4B
102
}
 70
     0
280
     1
281
     0
  0
BLOCK_RECORD
  5
6FFF8
330
6FF58
100
AcDbSymbolTableRecord
100
AcDbBlockTableRecord
  2
From Solid_12
340
0
102
{BLKREFS
331
6FF4C
102
}
 70
     0
280
     1
281
     0
  0
BLOCK_RECORD
  5
6FFFB
330
6FF58
100
AcDbSymbolTableRecord
100
AcDbBlockTableRecord
  2
From Solid_13
340
0
102
{BLKREFS
331
6FF4D
102
}
 70
     0
280
     1
281
     0
  0
BLOCK_RECORD
  5
6FFFE
330
6FF58
100
AcDbSymbolTableRecord
100
AcDbBlockTableRecord
  2
From Solid_14
340
0
102
{BLKREFS
331
6FF4E
102
}
 70
     0
280
     1
281
     0
  0
BLOCK_RECORD
  5
70001
330
6FF58
100
AcDbSymbolTableRecord
100
AcDbBlockTableRecord
  2
From Solid_15
340
0
102
{BLKREFS
331
6FF4F
102
}
 70
     0
280
     1
281
     0
  0
BLOCK_RECORD
  5
70004
330
6FF58
100
AcDbSymbolTableRecord
100
AcDbBlockTableRecord
  2
From Solid_16
340
0
102
{BLKREFS
331
6FF50
102
}
 70
     0
280
     1
281
     0
  0
BLOCK_RECORD
  5
70007
330
6FF58
100
AcDbSymbolTableRecord
100
AcDbBlockTableRecord
  2
From Solid_17
340
0
102
{BLKREFS
331
6FF51
102
}
 70
     0
280
     1
281
     0
  0
BLOCK_RECORD
  5
7000A
330
6FF58
100
AcDbSymbolTableRecord
100
AcDbBlockTableRecord
  2
From Solid_18
340
0
102
{BLKREFS
331
6FF52
102
}
 70
     0
280
     1
281
     0
  0
BLOCK_RECORD
  5
7000D
330
6FF58
100
AcDbSymbolTableRecord
100
AcDbBlockTableRecord
  2
From Solid_19
340
0
102
{BLKREFS
331
6FF53
102
}
 70
     0
280
     1
281
     0
  0
BLOCK_RECORD
  5
70010
330
6FF58
100
AcDbSymbolTableRecord
100
AcDbBlockTableRecord
  2
From Solid_20
340
0
102
{BLKREFS
331
6FF54
102
}
 70
     0
280
     1
281
     0
  0
BLOCK_RECORD
  5
70013
330
6FF58
100
AcDbSymbolTableRecord
100
AcDbBlockTableRecord
  2
From Surface
340
0
102
{BLKREFS
331
6FF55
102
}
 70
     0
280
     1
281
     0
  0
BLOCK_RECORD
  5
70016
330
6FF58
100
AcDbSymbolTableRecord
100
AcDbBlockTableRecord
  2
From Surface_1
340
0
102
{BLKREFS
331
6FF56
102
}
 70
     0
280
     1
281
     0
  0
BLOCK_RECORD
  5
70019
330
6FF58
100
AcDbSymbolTableRecord
100
AcDbBlockTableRecord
  2
Feature Solid
340
0
102
{BLKREFS
331
6FEBB
102
}
 70
     0
280
     1
281
     0
  0
BLOCK_RECORD
  5
7001C
330
6FF58
100
AcDbSymbolTableRecord
100
AcDbBlockTableRecord
  2
UNITE
340
0
102
{BLKREFS
331
6FEBC
102
}
 70
     0
280
     1
281
     0
  0
BLOCK_RECORD
  5
7001F
330
6FF58
100
AcDbSymbolTableRecord
100
AcDbBlockTableRecord
  2
Feature Solid_1
340
0
102
{BLKREFS
331
6FEBD
102
}
 70
     0
280
     1
281
     0
  0
BLOCK_RECORD
  5
70022
330
6FF58
100
AcDbSymbolTableRecord
100
AcDbBlockTableRecord
  2
DDPROJ
340
0
102
{BLKREFS
331
6FEBE
102
}
 70
     0
280
     1
281
     0
  0
BLOCK_RECORD
  5
70025
330
6FF58
100
AcDbSymbolTableRecord
100
AcDbBlockTableRecord
  2
Feature Solid_2
340
0
102
{BLKREFS
331
6FEC3
102
}
 70
     0
280
     1
281
     0
  0
BLOCK_RECORD
  5
70028
330
6FF58
100
AcDbSymbolTableRecord
100
AcDbBlockTableRecord
  2
DDPROJ_1
340
0
102
{BLKREFS
331
6FEC4
102
}
 70
     0
280
     1
281
     0
  0
ENDTAB
  0
ENDSEC
  0
SECTION
  2
BLOCKS
  0
BLOCK
  5
6FF5A
330
6FF59
100
AcDbEntity
  8
0
100
AcDbBlockBegin
  2
*Model_Space
 70
     0
 10
0.0
 20
0.0
 30
0.0
  3
*Model_Space
  1

  0
ENDBLK
  5
6FF6B
330
6FF59
100
AcDbEntity
  8
0
100
AcDbBlockEnd
  0
BLOCK
  5
6FF71
330
6FF70
100
AcDbEntity
 67
     1
  8
0
100
AcDbBlockBegin
  2
*Paper_Space
 70
     0
 10
0.0
 20
0.0
 30
0.0
  3
*Paper_Space
  1

  0
ENDBLK
  5
6FF72
330
6FF70
100
AcDbEntity
 67
     1
  8
0
100
AcDbBlockEnd
  0
BLOCK
  5
6FFCD
330
6FF3C
100
AcDbEntity
  8
0
100
AcDbBlockBegin
  2
*U0
 70
     1
 10
0.0
 20
0.0
 30
0.0
  3
*U0
  1

  0
LWPOLYLINE
  5
6FF3D
330
6FF3C
100
AcDbEntity
  8
0
  6
Continuous
 62
     7
370
     0
100
AcDbPolyline
 90
        5
 70
   129
 43
0.0
 10
-62.174244
 20
-35.238473
 10
12.825756
 20
-35.238473
 10
-12.825756
 20
35.238473
 10
-87.825756
 20
35.238473
 10
-62.174244
 20
-35.238473
  0
ENDBLK
  5
6FFCE
330
6FF3C
100
AcDbEntity
  8
0
100
AcDbBlockEnd
  0
BLOCK
  5
6FFCF
330
6FF3E
100
AcDbEntity
  8
0
100
AcDbBlockBegin
  2
*U1
 70
     1
 10
0.0
 20
0.0
 30
0.0
  3
*U1
  1

  0
LWPOLYLINE
  5
6FF3F
330
6FF3E
100
AcDbEntity
  8
0
  6
Continuous
 62
    12
370
     0
100
AcDbPolyline
 90
        5
 70
   129
 43
0.0
 10
30.0
 20
30.0
 10
-45.0
 20
30.0
 10
-45.0
 20
-45.0
 10
30.0
 20
-45.0
 10
30.0
 20
30.0
  0
ENDBLK
  5
6FFD0
330
6FF3E
100
AcDbEntity
  8
0
100
AcDbBlockEnd
  0
BLOCK
  5
6FFD2
330
6FFD1
100
AcDbEntity
  8
0
 62
    98
370
     0
100
AcDbBlockBegin
  2
SW04
 70
     0
 10
0.0
 20
0.0
 30
0.0
  3
SW04
  1

  0
LWPOLYLINE
  5
6FD70
330
6FFD1
100
AcDbEntity
  8
Level 27
  6
Continuous
 62
    12
370
     0
100
AcDbPolyline
 90
        5
 70
   129
 43
0.0
 10
-1017.277808
 20
5195.285307
 10
-1017.277808
 20
5120.285307
 10
982.722192
 20
5120.285307
 10
982.722192
 20
5195.285307
 10
-1017.277808
 20
5195.285307
  0
LWPOLYLINE
  5
6FD71
330
6FFD1
100
AcDbEntity
  8
Level 27
  6
Continuous
 62
    12
370
     0
100
AcDbPolyline
 90
        5
 70
   129
 43
0.0
 10
-1017.277808
 20
5120.285307
 10
-1017.277808
 20
5120.285307
 10
982.722192
 20
5120.285307
 10
982.722192
 20
5120.285307
 10
-1017.277808
 20
5120.285307
  0
LWPOLYLINE
  5
6FD72
330
6FFD1
100
AcDbEntity
  8
Level 27
  6
Continuous
 62
    12
370
     0
100
AcDbPolyline
 90
        5
 70
   129
 43
0.0
 10
-1017.277808
 20
5195.285307
 10
-1017.277808
 20
5195.285307
 10
982.722192
 20
5195.285307
 10
982.722192
 20
5195.285307
 10
-1017.277808
 20
5195.285307
  0
LWPOLYLINE
  5
6FD73
330
6FFD1
100
AcDbEntity
  8
Level 27
  6
Continuous
 62
    12
370
     0
100
AcDbPolyline
 90
        5
 70
   129
 43
0.0
 10
-1017.277808
 20
5120.285307
 10
-1017.277808
 20
5195.285307
 10
982.722192
 20
5195.285307
 10
982.722192
 20
5120.285307
 10
-1017.277808
 20
5120.285307
  0
LWPOLYLINE
  5
6FD74
330
6FFD1
100
AcDbEntity
  8
Level 25
  6
Continuous
 62
   252
370
     0
100
AcDbPolyline
 90
        5
 70
   129
 43
0.0
 10
2.296188
 20
-36.361687
 10
72.07262
 20
-27.588354
 10
1318.31619
 20
-1120.327291
 10
1248.539759
 20
-1129.100624
 10
2.296188
 20
-36.361687
  0
LWPOLYLINE
  5
6FD75
330
6FFD1
100
AcDbEntity
  8
Level 25
  6
Continuous
 62
   252
370
     0
100
AcDbPolyline
 90
        5
 70
   129
 43
0.0
 10
72.07262
 20
-27.588354
 10
72.788852
 20
42.888592
 10
1319.032422
 20
-1049.850344
 10
1318.31619
 20
-1120.327291
 10
72.07262
 20
-27.588354
  0
LWPOLYLINE
  5
6FD76
330
6FFD1
100
AcDbEntity
  8
Level 25
  6
Continuous
 62
   252
370
     0
100
AcDbPolyline
 90
        5
 70
   129
 43
0.0
 10
3.01242
 20
34.115259
 10
2.296188
 20
-36.361687
 10
1248.539759
 20
-1129.100624
 10
1249.255991
 20
-1058.623677
 10
3.01242
 20
34.115259
  0
LWPOLYLINE
  5
6FD77
330
6FFD1
100
AcDbEntity
  8
Level 25
  6
Continuous
 62
   252
370
     0
100
AcDbPolyline
 90
        5
 70
   129
 43
0.0
 10
72.788852
 20
42.888592
 10
3.01242
 20
34.115259
 10
1249.255991
 20
-1058.623677
 10
1319.032422
 20
-1049.850344
 10
72.788852
 20
42.888592
  0
LWPOLYLINE
  5
6FD78
330
6FFD1
100
AcDbEntity
  8
Level 27
  6
Continuous
 62
    12
370
     0
100
AcDbPolyline
 90
        5
 70
   129
 43
0.0
 10
-1017.277808
 20
-870.285307
 10
-1017.277808
 20
-795.285307
 10
982.722192
 20
-795.285307
 10
982.722192
 20
-870.285307
 10
-1017.277808
 20
-870.285307
  0
LWPOLYLINE
  5
6FD79
330
6FFD1
100
AcDbEntity
  8
Level 27
  6
Continuous
 62
    12
370
     0
100
AcDbPolyline
 90
        5
 70
   129
 43
0.0
 10
-1017.277808
 20
-795.285307
 10
-1017.277808
 20
-795.285307
 10
982.722192
 20
-795.285307
 10
982.722192
 20
-795.285307
 10
-1017.277808
 20
-795.285307
  0
LWPOLYLINE
  5
6FD7A
330
6FFD1
100
AcDbEntity
  8
Level 27
  6
Continuous
 62
    12
370
     0
100
AcDbPolyline
 90
        5
 70
   129
 43
0.0
 10
-1017.277808
 20
-870.285307
 10
-1017.277808
 20
-870.285307
 10
982.722192
 20
-870.285307
 10
982.722192
 20
-870.285307
 10
-1017.277808
 20
-870.285307
  0
LWPOLYLINE
  5
6FD7B
330
6FFD1
100
AcDbEntity
  8
Level 27
  6
Continuous
 62
    12
370
     0
100
AcDbPolyline
 90
        5
 70
   129
 43
0.0
 10
-1017.277808
 20
-795.285307
 10
-1017.277808
 20
-870.285307
 10
982.722192
 20
-870.285307
 10
982.722192
 20
-795.285307
 10
-1017.277808
 20
-795.285307
  0
LWPOLYLINE
  5
6FD7C
330
6FFD1
100
AcDbEntity
  8
Level 25
  6
Continuous
 62
   252
370
     0
100
AcDbPolyline
 90
        5
 70
   129
 43
0.0
 10
2.296188
 20
4361.361687
 10
72.07262
 20
4352.588354
 10
1318.31619
 20
5445.327291
 10
1248.539759
 20
5454.100624
 10
2.296188
 20
4361.361687
  0
LWPOLYLINE
  5
6FD7D
330
6FFD1
100
AcDbEntity
  8
Level 25
  6
Continuous
 62
   252
370
     0
100
AcDbPolyline
 90
        5
 70
   129
 43
0.0
 10
72.07262
 20
4352.588354
 10
72.788852
 20
4282.111408
 10
1319.032422
 20
5374.850344
 10
1318.31619
 20
5445.327291
 10
72.07262
 20
4352.588354
  0
LWPOLYLINE
  5
6FD7E
330
6FFD1
100
AcDbEntity
  8
Level 25
  6
Continuous
 62
   252
370
     0
100
AcDbPolyline
 90
        5
 70
   129
 43
0.0
 10
3.01242
 20
4290.884741
 10
2.296188
 20
4361.361687
 10
1248.539759
 20
5454.100624
 10
1249.255991
 20
5383.623677
 10
3.01242
 20
4290.884741
  0
LWPOLYLINE
  5
6FD7F
330
6FFD1
100
AcDbEntity
  8
Level 25
  6
Continuous
 62
   252
370
     0
100
AcDbPolyline
 90
        5
 70
   129
 43
0.0
 10
72.788852
 20
4282.111408
 10
3.01242
 20
4290.884741
 10
1249.255991
 20
5383.623677
 10
1319.032422
 20
5374.850344
 10
72.788852
 20
4282.111408
  0
LWPOLYLINE
  5
6FD80
330
6FFD1
100
AcDbEntity
  8
Level 25
  6
Continuous
 62
   252
370
     0
100
AcDbPolyline
 90
        5
 70
   129
 43
0.0
 10
-2.296188
 20
-36.361687
 10
-72.07262
 20
-27.588354
 10
-1318.31619
 20
-1120.327291
 10
-1248.539759
 20
-1129.100624
 10
-2.296188
 20
-36.361687
  0
LWPOLYLINE
  5
6FD81
330
6FFD1
100
AcDbEntity
  8
Level 25
  6
Continuous
 62
   252
370
     0
100
AcDbPolyline
 90
        5
 70
   129
 43
0.0
 10
-72.07262
 20
-27.588354
 10
-72.788852
 20
42.888592
 10
-1319.032422
 20
-1049.850344
 10
-1318.31619
 20
-1120.327291
 10
-72.07262
 20
-27.588354
  0
LWPOLYLINE
  5
6FD82
330
6FFD1
100
AcDbEntity
  8
Level 25
  6
Continuous
 62
   252
370
     0
100
AcDbPolyline
 90
        5
 70
   129
 43
0.0
 10
-3.01242
 20
34.115259
 10
-2.296188
 20
-36.361687
 10
-1248.539759
 20
-1129.100624
 10
-1249.255991
 20
-1058.623677
 10
-3.01242
 20
34.115259
  0
LWPOLYLINE
  5
6FD83
330
6FFD1
100
AcDbEntity
  8
Level 25
  6
Continuous
 62
   252
370
     0
100
AcDbPolyline
 90
        5
 70
   129
 43
0.0
 10
-72.788852
 20
42.888592
 10
-3.01242
 20
34.115259
 10
-1249.255991
 20
-1058.623677
 10
-1319.032422
 20
-1049.850344
 10
-72.788852
 20
42.888592
  0
LWPOLYLINE
  5
6FD84
330
6FFD1
100
AcDbEntity
  8
Level 25
  6
Continuous
 62
   252
370
     0
100
AcDbPolyline
 90
        5
 70
   129
 43
0.0
 10
-2.296188
 20
4361.361687
 10
-72.07262
 20
4352.588354
 10
-1318.31619
 20
5445.327291
 10
-1248.539759
 20
5454.100624
 10
-2.296188
 20
4361.361687
  0
LWPOLYLINE
  5
6FD85
330
6FFD1
100
AcDbEntity
  8
Level 25
  6
Continuous
 62
   252
370
     0
100
AcDbPolyline
 90
        5
 70
   129
 43
0.0
 10
-72.07262
 20
4352.588354
 10
-72.788852
 20
4282.111408
 10
-1319.032422
 20
5374.850344
 10
-1318.31619
 20
5445.327291
 10
-72.07262
 20
4352.588354
  0
LWPOLYLINE
  5
6FD86
330
6FFD1
100
AcDbEntity
  8
Level 25
  6
Continuous
 62
   252
370
     0
100
AcDbPolyline
 90
        5
 70
   129
 43
0.0
 10
-3.01242
 20
4290.884741
 10
-2.296188
 20
4361.361687
 10
-1248.539759
 20
5454.100624
 10
-1249.255991
 20
5383.623677
 10
-3.01242
 20
4290.884741
  0
LWPOLYLINE
  5
6FD87
330
6FFD1
100
AcDbEntity
  8
Level 25
  6
Continuous
 62
   252
370
     0
100
AcDbPolyline
 90
        5
 70
   129
 43
0.0
 10
-72.788852
 20
4282.111408
 10
-3.01242
 20
4290.884741
 10
-1249.255991
 20
5383.623677
 10
-1319.032422
 20
5374.850344
 10
-72.788852
 20
4282.111408
  0
LWPOLYLINE
  5
6FD88
330
6FFD1
100
AcDbEntity
  8
Level 25
  6
Continuous
 62
   252
370
     0
100
AcDbPolyline
 90
        5
 70
   129
 43
0.0
 10
-37.5
 20
1462.5
 10
37.5
 20
1462.5
 10
37.5
 20
1462.5
 10
-37.5
 20
1462.5
 10
-37.5
 20
1462.5
  0
LWPOLYLINE
  5
6FD89
330
6FFD1
100
AcDbEntity
  8
Level 25
  6
Continuous
 62
   252
370
     0
100
AcDbPolyline
 90
        5
 70
   129
 43
0.0
 10
-37.5
 20
1537.5
 10
-37.5
 20
1462.5
 10
-37.5
 20
1462.5
 10
-37.5
 20
1537.5
 10
-37.5
 20
1537.5
  0
LWPOLYLINE
  5
6FD8A
330
6FFD1
100
AcDbEntity
  8
Level 25
  6
Continuous
 62
   252
370
     0
100
AcDbPolyline
 90
        5
 70
   129
 43
0.0
 10
37.5
 20
1537.5
 10
-37.5
 20
1537.5
 10
-37.5
 20
1537.5
 10
37.5
 20
1537.5
 10
37.5
 20
1537.5
  0
LWPOLYLINE
  5
6FD8B
330
6FFD1
100
AcDbEntity
  8
Level 25
  6
Continuous
 62
   252
370
     0
100
AcDbPolyline
 90
        5
 70
   129
 43
0.0
 10
37.5
 20
1462.5
 10
37.5
 20
1537.5
 10
37.5
 20
1537.5
 10
37.5
 20
1462.5
 10
37.5
 20
1462.5
  0
LWPOLYLINE
  5
6FD8C
330
6FFD1
100
AcDbEntity
  8
Level 25
  6
Continuous
 62
   252
370
     0
100
AcDbPolyline
 90
        5
 70
   129
 43
0.0
 10
-37.5
 20
2587.5
 10
37.5
 20
2587.5
 10
37.5
 20
2587.5
 10
-37.5
 20
2587.5
 10
-37.5
 20
2587.5
  0
LWPOLYLINE
  5
6FD8D
330
6FFD1
100
AcDbEntity
  8
Level 25
  6
Continuous
 62
   252
370
     0
100
AcDbPolyline
 90
        5
 70
   129
 43
0.0
 10
-37.5
 20
2662.5
 10
-37.5
 20
2587.5
 10
-37.5
 20
2587.5
 10
-37.5
 20
2662.5
 10
-37.5
 20
2662.5
  0
LWPOLYLINE
  5
6FD8E
330
6FFD1
100
AcDbEntity
  8
Level 25
  6
Continuous
 62
   252
370
     0
100
AcDbPolyline
 90
        5
 70
   129
 43
0.0
 10
37.5
 20
2662.5
 10
-37.5
 20
2662.5
 10
-37.5
 20
2662.5
 10
37.5
 20
2662.5
 10
37.5
 20
2662.5
  0
LWPOLYLINE
  5
6FD8F
330
6FFD1
100
AcDbEntity
  8
Level 25
  6
Continuous
 62
   252
370
     0
100
AcDbPolyline
 90
        5
 70
   129
 43
0.0
 10
37.5
 20
2587.5
 10
37.5
 20
2662.5
 10
37.5
 20
2662.5
 10
37.5
 20
2587.5
 10
37.5
 20
2587.5
  0
LWPOLYLINE
  5
6FD90
330
6FFD1
100
AcDbEntity
  8
Level 26
  6
Continuous
 62
   163
370
     0
100
AcDbPolyline
 90
        5
 70
   129
 43
0.0
 10
982.722192
 20
5195.285307
 10
982.722192
 20
5120.285307
 10
992.722192
 20
5120.285307
 10
992.722192
 20
5195.285307
 10
982.722192
 20
5195.285307
  0
LWPOLYLINE
  5
6FD91
330
6FFD1
100
AcDbEntity
  8
Level 26
  6
Continuous
 62
   163
370
     0
100
AcDbPolyline
 90
        5
 70
   129
 43
0.0
 10
982.722192
 20
5195.285307
 10
982.722192
 20
5195.285307
 10
992.722192
 20
5195.285307
 10
992.722192
 20
5195.285307
 10
982.722192
 20
5195.285307
  0
LWPOLYLINE
  5
6FD92
330
6FFD1
100
AcDbEntity
  8
Level 26
  6
Continuous
 62
   163
370
     0
100
AcDbPolyline
 90
        5
 70
   129
 43
0.0
 10
982.722192
 20
5120.285307
 10
982.722192
 20
5195.285307
 10
992.722192
 20
5195.285307
 10
992.722192
 20
5120.285307
 10
982.722192
 20
5120.285307
  0
LWPOLYLINE
  5
6FD93
330
6FFD1
100
AcDbEntity
  8
Level 26
  6
Continuous
 62
   163
370
     0
100
AcDbPolyline
 90
        5
 70
   129
 43
0.0
 10
982.722192
 20
5120.285307
 10
982.722192
 20
5120.285307
 10
992.722192
 20
5120.285307
 10
992.722192
 20
5120.285307
 10
982.722192
 20
5120.285307
  0
LWPOLYLINE
  5
6FD94
330
6FFD1
100
AcDbEntity
  8
Level 26
  6
Continuous
 62
   163
370
     0
100
AcDbPolyline
 90
        5
 70
   129
 43
0.0
 10
-1017.277808
 20
5195.285307
 10
-1017.277808
 20
5120.285307
 10
-1027.277808
 20
5120.285307
 10
-1027.277808
 20
5195.285307
 10
-1017.277808
 20
5195.285307
  0
LWPOLYLINE
  5
6FD95
330
6FFD1
100
AcDbEntity
  8
Level 26
  6
Continuous
 62
   163
370
     0
100
AcDbPolyline
 90
        5
 70
   129
 43
0.0
 10
-1017.277808
 20
5195.285307
 10
-1017.277808
 20
5195.285307
 10
-1027.277808
 20
5195.285307
 10
-1027.277808
 20
5195.285307
 10
-1017.277808
 20
5195.285307
  0
LWPOLYLINE
  5
6FD96
330
6FFD1
100
AcDbEntity
  8
Level 26
  6
Continuous
 62
   163
370
     0
100
AcDbPolyline
 90
        5
 70
   129
 43
0.0
 10
-1017.277808
 20
5120.285307
 10
-1017.277808
 20
5195.285307
 10
-1027.277808
 20
5195.285307
 10
-1027.277808
 20
5120.285307
 10
-1017.277808
 20
5120.285307
  0
LWPOLYLINE
  5
6FD97
330
6FFD1
100
AcDbEntity
  8
Level 26
  6
Continuous
 62
   163
370
     0
100
AcDbPolyline
 90
        5
 70
   129
 43
0.0
 10
-1017.277808
 20
5120.285307
 10
-1017.277808
 20
5120.285307
 10
-1027.277808
 20
5120.285307
 10
-1027.277808
 20
5120.285307
 10
-1017.277808
 20
5120.285307
  0
LWPOLYLINE
  5
6FD98
330
6FFD1
100
AcDbEntity
  8
Level 26
  6
Continuous
 62
   163
370
     0
100
AcDbPolyline
 90
        5
 70
   129
 43
0.0
 10
72.072619
 20
-27.588354
 10
72.788851
 20
42.888592
 10
69.123428
 20
46.102531
 10
68.407196
 20
-24.374416
 10
72.072619
 20
-27.588354
  0
LWPOLYLINE
  5
6FD99
330
6FFD1
100
AcDbEntity
  8
Level 26
  6
Continuous
 62
   163
370
     0
100
AcDbPolyline
 90
        5
 70
   129
 43
0.0
 10
2.296189
 20
-36.361687
 10
72.072619
 20
-27.588354
 10
68.407196
 20
-24.374416
 10
-1.369233
 20
-33.147749
 10
2.296189
 20
-36.361687
  0
LWPOLYLINE
  5
6FD9A
330
6FFD1
100
AcDbEntity
  8
Level 26
  6
Continuous
 62
   163
370
     0
100
AcDbPolyline
 90
        5
 70
   129
 43
0.0
 10
3.012422
 20
34.115259
 10
2.296189
 20
-36.361687
 10
-1.369233
 20
-33.147749
 10
-0.653001
 20
37.329197
 10
3.012422
 20
34.115259
  0
LWPOLYLINE
  5
6FD9B
330
6FFD1
100
AcDbEntity
  8
Level 26
  6
Continuous
 62
   163
370
     0
100
AcDbPolyline
 90
        5
 70
   129
 43
0.0
 10
72.788851
 20
42.888592
 10
3.012422
 20
34.115259
 10
-0.653001
 20
37.329197
 10
69.123428
 20
46.102531
 10
72.788851
 20
42.888592
  0
LWPOLYLINE
  5
6FD9C
330
6FFD1
100
AcDbEntity
  8
Level 26
  6
Continuous
 62
   163
370
     0
100
AcDbPolyline
 90
        5
 70
   129
 43
0.0
 10
982.722192
 20
-870.285307
 10
982.722192
 20
-795.285307
 10
992.722192
 20
-795.285307
 10
992.722192
 20
-870.285307
 10
982.722192
 20
-870.285307
  0
LWPOLYLINE
  5
6FD9D
330
6FFD1
100
AcDbEntity
  8
Level 26
  6
Continuous
 62
   163
370
     0
100
AcDbPolyline
 90
        5
 70
   129
 43
0.0
 10
982.722192
 20
-870.285307
 10
982.722192
 20
-870.285307
 10
992.722192
 20
-870.285307
 10
992.722192
 20
-870.285307
 10
982.722192
 20
-870.285307
  0
LWPOLYLINE
  5
6FD9E
330
6FFD1
100
AcDbEntity
  8
Level 26
  6
Continuous
 62
   163
370
     0
100
AcDbPolyline
 90
        5
 70
   129
 43
0.0
 10
982.722192
 20
-795.285307
 10
982.722192
 20
-870.285307
 10
992.722192
 20
-870.285307
 10
992.722192
 20
-795.285307
 10
982.722192
 20
-795.285307
  0
LWPOLYLINE
  5
6FD9F
330
6FFD1
100
AcDbEntity
  8
Level 26
  6
Continuous
 62
   163
370
     0
100
AcDbPolyline
 90
        5
 70
   129
 43
0.0
 10
982.722192
 20
-795.285307
 10
982.722192
 20
-795.285307
 10
992.722192
 20
-795.285307
 10
992.722192
 20
-795.285307
 10
982.722192
 20
-795.285307
  0
LWPOLYLINE
  5
6FDA0
330
6FFD1
100
AcDbEntity
  8
Level 26
  6
Continuous
 62
   163
370
     0
100
AcDbPolyline
 90
        5
 70
   129
 43
0.0
 10
-1017.277808
 20
-870.285307
 10
-1017.277808
 20
-795.285307
 10
-1027.277808
 20
-795.285307
 10
-1027.277808
 20
-870.285307
 10
-1017.277808
 20
-870.285307
  0
LWPOLYLINE
  5
6FDA1
330
6FFD1
100
AcDbEntity
  8
Level 26
  6
Continuous
 62
   163
370
     0
100
AcDbPolyline
 90
        5
 70
   129
 43
0.0
 10
-1017.277808
 20
-870.285307
 10
-1017.277808
 20
-870.285307
 10
-1027.277808
 20
-870.285307
 10
-1027.277808
 20
-870.285307
 10
-1017.277808
 20
-870.285307
  0
LWPOLYLINE
  5
6FDA2
330
6FFD1
100
AcDbEntity
  8
Level 26
  6
Continuous
 62
   163
370
     0
100
AcDbPolyline
 90
        5
 70
   129
 43
0.0
 10
-1017.277808
 20
-795.285307
 10
-1017.277808
 20
-870.285307
 10
-1027.277808
 20
-870.285307
 10
-1027.277808
 20
-795.285307
 10
-1017.277808
 20
-795.285307
  0
LWPOLYLINE
  5
6FDA3
330
6FFD1
100
AcDbEntity
  8
Level 26
  6
Continuous
 62
   163
370
     0
100
AcDbPolyline
 90
        5
 70
   129
 43
0.0
 10
-1017.277808
 20
-795.285307
 10
-1017.277808
 20
-795.285307
 10
-1027.277808
 20
-795.285307
 10
-1027.277808
 20
-795.285307
 10
-1017.277808
 20
-795.285307
  0
LWPOLYLINE
  5
6FDA4
330
6FFD1
100
AcDbEntity
  8
Level 26
  6
Continuous
 62
   163
370
     0
100
AcDbPolyline
 90
        5
 70
   129
 43
0.0
 10
72.072619
 20
4352.588354
 10
72.788851
 20
4282.111408
 10
69.123428
 20
4278.897469
 10
68.407196
 20
4349.374416
 10
72.072619
 20
4352.588354
  0
LWPOLYLINE
  5
6FDA5
330
6FFD1
100
AcDbEntity
  8
Level 26
  6
Continuous
 62
   163
370
     0
100
AcDbPolyline
 90
        5
 70
   129
 43
0.0
 10
2.296189
 20
4361.361687
 10
72.072619
 20
4352.588354
 10
68.407196
 20
4349.374416
 10
-1.369233
 20
4358.147749
 10
2.296189
 20
4361.361687
  0
LWPOLYLINE
  5
6FDA6
330
6FFD1
100
AcDbEntity
  8
Level 26
  6
Continuous
 62
   163
370
     0
100
AcDbPolyline
 90
        5
 70
   129
 43
0.0
 10
3.012422
 20
4290.884741
 10
2.296189
 20
4361.361687
 10
-1.369233
 20
4358.147749
 10
-0.653001
 20
4287.670803
 10
3.012422
 20
4290.884741
  0
LWPOLYLINE
  5
6FDA7
330
6FFD1
100
AcDbEntity
  8
Level 26
  6
Continuous
 62
   163
370
     0
100
AcDbPolyline
 90
        5
 70
   129
 43
0.0
 10
72.788851
 20
4282.111408
 10
3.012422
 20
4290.884741
 10
-0.653001
 20
4287.670803
 10
69.123428
 20
4278.897469
 10
72.788851
 20
4282.111408
  0
LWPOLYLINE
  5
6FDA8
330
6FFD1
100
AcDbEntity
  8
Level 26
  6
Continuous
 62
   163
370
     0
100
AcDbPolyline
 90
        5
 70
   129
 43
0.0
 10
-72.072619
 20
-27.588354
 10
-72.788851
 20
42.888592
 10
-69.123428
 20
46.102531
 10
-68.407196
 20
-24.374416
 10
-72.072619
 20
-27.588354
  0
LWPOLYLINE
  5
6FDA9
330
6FFD1
100
AcDbEntity
  8
Level 26
  6
Continuous
 62
   163
370
     0
100
AcDbPolyline
 90
        5
 70
   129
 43
0.0
 10
-2.296189
 20
-36.361687
 10
-72.072619
 20
-27.588354
 10
-68.407196
 20
-24.374416
 10
1.369233
 20
-33.147749
 10
-2.296189
 20
-36.361687
  0
LWPOLYLINE
  5
6FDAA
330
6FFD1
100
AcDbEntity
  8
Level 26
  6
Continuous
 62
   163
370
     0
100
AcDbPolyline
 90
        5
 70
   129
 43
0.0
 10
-3.012422
 20
34.115259
 10
-2.296189
 20
-36.361687
 10
1.369233
 20
-33.147749
 10
0.653001
 20
37.329197
 10
-3.012422
 20
34.115259
  0
LWPOLYLINE
  5
6FDAB
330
6FFD1
100
AcDbEntity
  8
Level 26
  6
Continuous
 62
   163
370
     0
100
AcDbPolyline
 90
        5
 70
   129
 43
0.0
 10
-72.788851
 20
42.888592
 10
-3.012422
 20
34.115259
 10
0.653001
 20
37.329197
 10
-69.123428
 20
46.102531
 10
-72.788851
 20
42.888592
  0
LWPOLYLINE
  5
6FDAC
330
6FFD1
100
AcDbEntity
  8
Level 26
  6
Continuous
 62
   163
370
     0
100
AcDbPolyline
 90
        5
 70
   129
 43
0.0
 10
-72.072619
 20
4352.588354
 10
-72.788851
 20
4282.111408
 10
-69.123428
 20
4278.897469
 10
-68.407196
 20
4349.374416
 10
-72.072619
 20
4352.588354
  0
LWPOLYLINE
  5
6FDAD
330
6FFD1
100
AcDbEntity
  8
Level 26
  6
Continuous
 62
   163
370
     0
100
AcDbPolyline
 90
        5
 70
   129
 43
0.0
 10
-2.296189
 20
4361.361687
 10
-72.072619
 20
4352.588354
 10
-68.407196
 20
4349.374416
 10
1.369233
 20
4358.147749
 10
-2.296189
 20
4361.361687
  0
LWPOLYLINE
  5
6FDAE
330
6FFD1
100
AcDbEntity
  8
Level 26
  6
Continuous
 62
   163
370
     0
100
AcDbPolyline
 90
        5
 70
   129
 43
0.0
 10
-3.012422
 20
4290.884741
 10
-2.296189
 20
4361.361687
 10
1.369233
 20
4358.147749
 10
0.653001
 20
4287.670803
 10
-3.012422
 20
4290.884741
  0
LWPOLYLINE
  5
6FDAF
330
6FFD1
100
AcDbEntity
  8
Level 26
  6
Continuous
 62
   163
370
     0
100
AcDbPolyline
 90
        5
 70
   129
 43
0.0
 10
-72.788851
 20
4282.111408
 10
-3.012422
 20
4290.884741
 10
0.653001
 20
4287.670803
 10
-69.123428
 20
4278.897469
 10
-72.788851
 20
4282.111408
  0
LWPOLYLINE
  5
6FDB0
330
6FFD1
100
AcDbEntity
  8
Level 25
  6
Continuous
 62
   252
370
     0
100
AcDbPolyline
 90
        5
 70
   129
 43
0.0
 10
-15.000001
 20
509.999999
 10
-15.000008
 20
509.999999
 10
-15.000007
 20
489.999999
 10
-15.000001
 20
489.999999
 10
-15.000001
 20
509.999999
  0
LWPOLYLINE
  5
6FDB1
330
6FFD1
100
AcDbEntity
  8
Level 25
  6
Continuous
 62
   252
370
     0
100
AcDbPolyline
 90
        5
 70
   129
 43
0.0
 10
15.000001
 20
509.999999
 10
15.000008
 20
509.999999
 10
15.000008
 20
489.999999
 10
15.000001
 20
489.999999
 10
15.000001
 20
509.999999
  0
LWPOLYLINE
  5
6FDB2
330
6FFD1
100
AcDbEntity
  8
Level 25
  6
Continuous
 62
   252
370
     0
100
AcDbPolyline
 90
        5
 70
   129
 43
0.0
 10
-25.0
 20
440.0
 10
-25.0
 20
440.999999
 10
25.0
 20
440.999999
 10
25.0
 20
440.0
 10
-25.0
 20
440.0
  0
LWPOLYLINE
  5
6FDB3
330
6FFD1
100
AcDbEntity
  8
Level 25
  6
Continuous
 62
   252
370
     0
100
AcDbPolyline
 90
        5
 70
   129
 43
0.0
 10
-25.0
 20
560.0
 10
-25.0
 20
559.0
 10
25.0
 20
559.0
 10
25.0
 20
560.0
 10
-25.0
 20
560.0
  0
LWPOLYLINE
  5
6FDB4
330
6FFD1
100
AcDbEntity
  8
Level 25
  6
Continuous
 62
   252
370
     0
100
AcDbPolyline
 90
        5
 70
   129
 43
0.0
 10
-25.0
 20
440.999999
 10
-25.0
 20
559.0
 10
25.0
 20
559.0
 10
25.0
 20
440.999999
 10
-25.0
 20
440.999999
  0
LWPOLYLINE
  5
6FDB5
330
6FFD1
100
AcDbEntity
  8
Level 25
  6
Continuous
 62
   252
370
     0
100
AcDbPolyline
 90
        5
 70
   129
 43
0.0
 10
-15.000001
 20
1009.999999
 10
-15.000008
 20
1009.999999
 10
-15.000007
 20
989.999999
 10
-15.000001
 20
989.999999
 10
-15.000001
 20
1009.999999
  0
LWPOLYLINE
  5
6FDB6
330
6FFD1
100
AcDbEntity
  8
Level 25
  6
Continuous
 62
   252
370
     0
100
AcDbPolyline
 90
        5
 70
   129
 43
0.0
 10
15.000001
 20
1009.999999
 10
15.000008
 20
1009.999999
 10
15.000008
 20
989.999999
 10
15.000001
 20
989.999999
 10
15.000001
 20
1009.999999
  0
LWPOLYLINE
  5
6FDB7
330
6FFD1
100
AcDbEntity
  8
Level 25
  6
Continuous
 62
   252
370
     0
100
AcDbPolyline
 90
        5
 70
   129
 43
0.0
 10
-25.0
 20
940.0
 10
-25.0
 20
940.999999
 10
25.0
 20
940.999999
 10
25.0
 20
940.0
 10
-25.0
 20
940.0
  0
LWPOLYLINE
  5
6FDB8
330
6FFD1
100
AcDbEntity
  8
Level 25
  6
Continuous
 62
   252
370
     0
100
AcDbPolyline
 90
        5
 70
   129
 43
0.0
 10
-25.0
 20
1060.0
 10
-25.0
 20
1059.0
 10
25.0
 20
1059.0
 10
25.0
 20
1060.0
 10
-25.0
 20
1060.0
  0
LWPOLYLINE
  5
6FDB9
330
6FFD1
100
AcDbEntity
  8
Level 25
  6
Continuous
 62
   252
370
     0
100
AcDbPolyline
 90
        5
 70
   129
 43
0.0
 10
-25.0
 20
940.999999
 10
-25.0
 20
1059.0
 10
25.0
 20
1059.0
 10
25.0
 20
940.999999
 10
-25.0
 20
940.999999
  0
INSERT
  5
6FF40
330
6FFD1
100
AcDbEntity
  8
Level 27
  6
Continuous
 62
    12
370
     0
100
AcDbBlockReference
  2
From Solid
 10
-154.582739
 20
-1413.083104
 30
0.0
 50
90.0
  0
INSERT
  5
6FF41
330
6FFD1
100
AcDbEntity
  8
Level 27
  6
Continuous
 62
    12
370
     0
100
AcDbBlockReference
  2
From Solid_1
 10
-154.582739
 20
-1413.083104
 30
0.0
 50
90.0
  0
INSERT
  5
6FF42
330
6FFD1
100
AcDbEntity
  8
Level 27
  6
Continuous
 62
    12
370
     0
100
AcDbBlockReference
  2
From Solid_2
 10
-154.582739
 20
-1413.083104
 30
0.0
 50
90.0
  0
INSERT
  5
6FF43
330
6FFD1
100
AcDbEntity
  8
Level 27
  6
Continuous
 62
    12
370
     0
100
AcDbBlockReference
  2
From Solid_3
 10
-154.582739
 20
-1413.083104
 30
0.0
 50
90.0
  0
INSERT
  5
6FF44
330
6FFD1
100
AcDbEntity
  8
Level 27
  6
Continuous
 62
    12
370
     0
100
AcDbBlockReference
  2
From Solid_4
 10
-154.582739
 20
-1413.083104
 30
0.0
 50
90.0
  0
INSERT
  5
6FF45
330
6FFD1
100
AcDbEntity
  8
Level 26
  6
Continuous
 62
   253
370
     0
100
AcDbBlockReference
  2
From Solid_5
 10
-154.582739
 20
-1413.083104
 30
0.0
 50
90.0
  0
INSERT
  5
6FF46
330
6FFD1
100
AcDbEntity
  8
Level 26
  6
Continuous
 62
   253
370
     0
100
AcDbBlockReference
  2
From Solid_6
 10
-154.582739
 20
-1413.083104
 30
0.0
 50
90.0
  0
INSERT
  5
6FF47
330
6FFD1
100
AcDbEntity
  8
Level 27
  6
Continuous
 62
    12
370
     0
100
AcDbBlockReference
  2
From Solid_7
 10
-154.582739
 20
-1413.083104
 30
0.0
 50
90.0
  0
INSERT
  5
6FF48
330
6FFD1
100
AcDbEntity
  8
Level 27
  6
Continuous
 62
    12
370
     0
100
AcDbBlockReference
  2
From Solid_8
 10
-154.582739
 20
-1413.083104
 30
0.0
 50
90.0
  0
INSERT
  5
6FF49
330
6FFD1
100
AcDbEntity
  8
Level 27
  6
Continuous
 62
    12
370
     0
100
AcDbBlockReference
  2
From Solid_9
 10
-154.582739
 20
-1413.083104
 30
0.0
 50
90.0
  0
INSERT
  5
6FF4A
330
6FFD1
100
AcDbEntity
  8
Level 27
  6
Continuous
 62
    12
370
     0
100
AcDbBlockReference
  2
From Solid_10
 10
-154.582739
 20
-1413.083104
 30
0.0
 50
90.0
  0
INSERT
  5
6FF4B
330
6FFD1
100
AcDbEntity
  8
Level 27
  6
Continuous
 62
    12
370
     0
100
AcDbBlockReference
  2
From Solid_11
 10
-154.582739
 20
-1413.083104
 30
0.0
 50
90.0
  0
INSERT
  5
6FF4C
330
6FFD1
100
AcDbEntity
  8
Level 27
  6
Continuous
 62
    12
370
     0
100
AcDbBlockReference
  2
From Solid_12
 10
-154.582739
 20
-1413.083104
 30
0.0
 50
90.0
  0
INSERT
  5
6FF4D
330
6FFD1
100
AcDbEntity
  8
Level 27
  6
Continuous
 62
    12
370
     0
100
AcDbBlockReference
  2
From Solid_13
 10
-154.582739
 20
-1413.083104
 30
0.0
 50
90.0
  0
INSERT
  5
6FF4E
330
6FFD1
100
AcDbEntity
  8
Level 27
  6
Continuous
 62
    12
370
     0
100
AcDbBlockReference
  2
From Solid_14
 10
-154.582739
 20
-1413.083104
 30
0.0
 50
90.0
  0
INSERT
  5
6FF4F
330
6FFD1
100
AcDbEntity
  8
Level 27
  6
Continuous
 62
    12
370
     0
100
AcDbBlockReference
  2
From Solid_15
 10
-154.582739
 20
-1413.083104
 30
0.0
 50
90.0
  0
INSERT
  5
6FF50
330
6FFD1
100
AcDbEntity
  8
Level 27
  6
Continuous
 62
    12
370
     0
100
AcDbBlockReference
  2
From Solid_16
 10
-154.582739
 20
-1413.083104
 30
0.0
 50
90.0
  0
INSERT
  5
6FF51
330
6FFD1
100
AcDbEntity
  8
Level 27
  6
Continuous
 62
    12
370
     0
100
AcDbBlockReference
  2
From Solid_17
 10
-154.582739
 20
-1413.083104
 30
0.0
 50
90.0
  0
INSERT
  5
6FF52
330
6FFD1
100
AcDbEntity
  8
Level 27
  6
Continuous
 62
    12
370
     0
100
AcDbBlockReference
  2
From Solid_18
 10
-154.582739
 20
-1413.083104
 30
0.0
 50
90.0
  0
INSERT
  5
6FF53
330
6FFD1
100
AcDbEntity
  8
Level 27
  6
Continuous
 62
    12
370
     0
100
AcDbBlockReference
  2
From Solid_19
 10
-154.582739
 20
-1413.083104
 30
0.0
 50
90.0
  0
INSERT
  5
6FF54
330
6FFD1
100
AcDbEntity
  8
Level 27
  6
Continuous
 62
    12
370
     0
100
AcDbBlockReference
  2
From Solid_20
 10
-154.582739
 20
-1413.083104
 30
0.0
 50
90.0
  0
LWPOLYLINE
  5
6FE4D
330
6FFD1
100
AcDbEntity
  8
Level 26
  6
Continuous
 62
   163
370
     0
100
AcDbPolyline
 90
        5
 70
   129
 43
0.0
 10
992.722192
 20
5195.285307
 10
992.722192
 20
5120.285307
 10
992.722192
 20
5120.285307
 10
992.722192
 20
5195.285307
 10
992.722192
 20
5195.285307
  0
LWPOLYLINE
  5
6FE52
330
6FFD1
100
AcDbEntity
  8
Level 26
  6
Continuous
 62
   163
370
     0
100
AcDbPolyline
 90
        5
 70
   129
 43
0.0
 10
-1027.277808
 20
5195.285307
 10
-1027.277808
 20
5120.285307
 10
-1027.277808
 20
5120.285307
 10
-1027.277808
 20
5195.285307
 10
-1027.277808
 20
5195.285307
  0
LWPOLYLINE
  5
6FE57
330
6FFD1
100
AcDbEntity
  8
Level 26
  6
Continuous
 62
   163
370
     0
100
AcDbPolyline
 90
        5
 70
   129
 43
0.0
 10
68.407196
 20
-24.374416
 10
69.123428
 20
46.102531
 10
-0.653001
 20
37.329197
 10
-1.369233
 20
-33.147749
 10
68.407196
 20
-24.374416
  0
LWPOLYLINE
  5
6FE5C
330
6FFD1
100
AcDbEntity
  8
Level 26
  6
Continuous
 62
   163
370
     0
100
AcDbPolyline
 90
        5
 70
   129
 43
0.0
 10
992.722192
 20
-870.285307
 10
992.722192
 20
-795.285307
 10
992.722192
 20
-795.285307
 10
992.722192
 20
-870.285307
 10
992.722192
 20
-870.285307
  0
LWPOLYLINE
  5
6FE61
330
6FFD1
100
AcDbEntity
  8
Level 26
  6
Continuous
 62
   163
370
     0
100
AcDbPolyline
 90
        5
 70
   129
 43
0.0
 10
-1027.277808
 20
-870.285307
 10
-1027.277808
 20
-795.285307
 10
-1027.277808
 20
-795.285307
 10
-1027.277808
 20
-870.285307
 10
-1027.277808
 20
-870.285307
  0
LWPOLYLINE
  5
6FE66
330
6FFD1
100
AcDbEntity
  8
Level 26
  6
Continuous
 62
   163
370
     0
100
AcDbPolyline
 90
        5
 70
   129
 43
0.0
 10
68.407196
 20
4349.374416
 10
69.123428
 20
4278.897469
 10
-0.653001
 20
4287.670803
 10
-1.369233
 20
4358.147749
 10
68.407196
 20
4349.374416
  0
LWPOLYLINE
  5
6FE6B
330
6FFD1
100
AcDbEntity
  8
Level 26
  6
Continuous
 62
   163
370
     0
100
AcDbPolyline
 90
        5
 70
   129
 43
0.0
 10
-68.407196
 20
-24.374416
 10
-69.123428
 20
46.102531
 10
0.653001
 20
37.329197
 10
1.369233
 20
-33.147749
 10
-68.407196
 20
-24.374416
  0
LWPOLYLINE
  5
6FE70
330
6FFD1
100
AcDbEntity
  8
Level 26
  6
Continuous
 62
   163
370
     0
100
AcDbPolyline
 90
        5
 70
   129
 43
0.0
 10
-68.407196
 20
4349.374416
 10
-69.123428
 20
4278.897469
 10
0.653001
 20
4287.670803
 10
1.369233
 20
4358.147749
 10
-68.407196
 20
4349.374416
  0
LWPOLYLINE
  5
6FE75
330
6FFD1
100
AcDbEntity
  8
Level 25
  6
Continuous
 62
   252
370
     0
100
AcDbPolyline
 90
        7
 70
   129
 43
0.0
 10
-15.000008
 20
509.999999
 10
15.000008
 20
509.999999
 10
15.000001
 20
509.999999
 10
-15.000001
 20
509.999999
 10
15.0
 20
509.999999
 10
-15.000001
 20
509.999999
 10
-15.000008
 20
509.999999
  0
LWPOLYLINE
  5
6FE7A
330
6FFD1
100
AcDbEntity
  8
Level 25
  6
Continuous
 62
   252
370
     0
100
AcDbPolyline
 90
        7
 70
   129
 43
0.0
 10
-15.000007
 20
489.999999
 10
15.000008
 20
489.999999
 10
15.000001
 20
489.999999
 10
-15.000001
 20
489.999999
 10
15.0
 20
489.999999
 10
-15.000001
 20
489.999999
 10
-15.000007
 20
489.999999
  0
INSERT
  5
6FF55
330
6FFD1
100
AcDbEntity
  8
Level 25
  6
Continuous
 62
   252
370
     0
100
AcDbBlockReference
  2
From Surface
 10
-154.582739
 20
-1413.083104
 30
0.0
 50
90.0
  0
LWPOLYLINE
  5
6FE84
330
6FFD1
100
AcDbEntity
  8
Level 25
  6
Continuous
 62
   252
370
     0
100
AcDbPolyline
 90
        5
 70
   129
 43
0.0
 10
25.0
 20
440.0
 10
25.0
 20
560.0
 10
25.0
 20
559.0
 10
25.0
 20
440.999999
 10
25.0
 20
440.0
  0
LWPOLYLINE
  5
6FE89
330
6FFD1
100
AcDbEntity
  8
Level 25
  6
Continuous
 62
   252
370
     0
100
AcDbPolyline
 90
        5
 70
   129
 43
0.0
 10
-25.0
 20
440.0
 10
-25.0
 20
560.0
 10
-25.0
 20
559.0
 10
-25.0
 20
440.999999
 10
-25.0
 20
440.0
  0
LWPOLYLINE
  5
6FE8E
330
6FFD1
100
AcDbEntity
  8
Level 25
  6
Continuous
 62
   252
370
     0
100
AcDbPolyline
 90
        7
 70
   129
 43
0.0
 10
-15.000008
 20
1009.999999
 10
15.000008
 20
1009.999999
 10
15.000001
 20
1009.999999
 10
-15.000001
 20
1009.999999
 10
15.0
 20
1009.999999
 10
-15.000001
 20
1009.999999
 10
-15.000008
 20
1009.999999
  0
LWPOLYLINE
  5
6FE93
330
6FFD1
100
AcDbEntity
  8
Level 25
  6
Continuous
 62
   252
370
     0
100
AcDbPolyline
 90
        7
 70
   129
 43
0.0
 10
-15.000007
 20
989.999999
 10
15.000008
 20
989.999999
 10
15.000001
 20
989.999999
 10
-15.000001
 20
989.999999
 10
15.0
 20
989.999999
 10
-15.000001
 20
989.999999
 10
-15.000007
 20
989.999999
  0
INSERT
  5
6FF56
330
6FFD1
100
AcDbEntity
  8
Level 25
  6
Continuous
 62
   252
370
     0
100
AcDbBlockReference
  2
From Surface_1
 10
-154.582739
 20
-1413.083104
 30
0.0
 50
90.0
  0
LWPOLYLINE
  5
6FE9D
330
6FFD1
100
AcDbEntity
  8
Level 25
  6
Continuous
 62
   252
370
     0
100
AcDbPolyline
 90
        5
 70
   129
 43
0.0
 10
25.0
 20
940.0
 10
25.0
 20
1060.0
 10
25.0
 20
1059.0
 10
25.0
 20
940.999999
 10
25.0
 20
940.0
  0
LWPOLYLINE
  5
6FEA2
330
6FFD1
100
AcDbEntity
  8
Level 25
  6
Continuous
 62
   252
370
     0
100
AcDbPolyline
 90
        5
 70
   129
 43
0.0
 10
-25.0
 20
940.0
 10
-25.0
 20
1060.0
 10
-25.0
 20
1059.0
 10
-25.0
 20
940.999999
 10
-25.0
 20
940.0
  0
LWPOLYLINE
  5
6FEA7
330
6FFD1
100
AcDbEntity
  8
Level 27
  6
Continuous
 62
    12
370
     0
100
AcDbPolyline
 90
       14
 70
   129
 43
0.0
 10
11.829847
 20
2586.5
 10
27.299646
 20
2586.5
 10
30.0
 20
2586.5
 10
27.299646
 20
2586.5
 10
11.829847
 20
2586.5
 10
-11.829847
 20
2586.5
 10
11.829847
 20
2586.5
 10
-11.829847
 20
2586.5
 10
-27.299646
 20
2586.5
 10
-30.0
 20
2586.5
 10
-27.299646
 20
2586.5
 10
-11.829847
 20
2586.5
 10
11.829847
 20
2586.5
 10
-11.829847
 20
2586.5
  0
LWPOLYLINE
  5
6FEB0
330
6FFD1
100
AcDbEntity
  8
Level 27
  6
Continuous
 62
    12
370
     0
100
AcDbPolyline
 90
       14
 70
   129
 43
0.0
 10
-11.829847
 20
1538.5
 10
-27.299646
 20
1538.5
 10
-30.0
 20
1538.5
 10
-27.299646
 20
1538.5
 10
-11.829847
 20
1538.5
 10
11.829847
 20
1538.5
 10
-11.829847
 20
1538.5
 10
11.829847
 20
1538.5
 10
27.299646
 20
1538.5
 10
30.0
 20
1538.5
 10
27.299646
 20
1538.5
 10
11.829847
 20
1538.5
 10
-11.829847
 20
1538.5
 10
11.829847
 20
1538.5
  0
LWPOLYLINE
  5
6FEB9
330
6FFD1
100
AcDbEntity
  8
Level 25
  6
Continuous
 62
   252
370
     0
100
AcDbPolyline
 90
        5
 70
   129
 43
0.0
 10
-77.68387
 20
4289.942935
 10
77.983869
 20
4289.942935
 10
124.999998
 20
4334.405554
 10
-125.000002
 20
4334.405554
 10
-77.68387
 20
4289.942935
  0
LWPOLYLINE
  5
6FEBA
330
6FFD1
100
AcDbEntity
  8
Level 25
  6
Continuous
 62
   252
370
     0
100
AcDbPolyline
 90
        5
 70
   129
 43
0.0
 10
77.983869
 20
35.057065
 10
-77.68387
 20
35.057065
 10
-125.000002
 20
-9.405554
 10
124.999998
 20
-9.405554
 10
77.983869
 20
35.057065
  0
INSERT
  5
6FEBB
330
6FFD1
100
AcDbEntity
  8
Level 25
  6
Continuous
 62
   252
370
     0
100
AcDbBlockReference
  2
Feature Solid
 10
0.0005
 20
2162.5
 30
0.0
  0
ENDBLK
  5
6FFD3
330
6FFD1
100
AcDbEntity
  8
0
 62
    98
370
     0
100
AcDbBlockEnd
  0
BLOCK
  5
6FFD5
330
6FFD4
100
AcDbEntity
  8
0
 62
    98
370
     0
100
AcDbBlockBegin
  2
From Solid
 70
     0
 10
0.0
 20
0.0
 30
0.0
  3
From Solid
  1

  0
ELLIPSE
  5
6FDBB
330
6FFD4
100
AcDbEntity
  8
Level 27
  6
Continuous
 62
    12
370
     0
100
AcDbEllipse
 10
1913.083104
 20
-543.323132
 30
0.0
 11
8.000000000000003
 21
0.0
 31
0.0
210
0.0
220
0.0
230
1.0
 40
0.7592806724357052
 41
0.0
 42
6.283185307179586
  0
ELLIPSE
  5
6FDBC
330
6FFD4
100
AcDbEntity
  8
Level 27
  6
Continuous
 62
    12
370
     0
100
AcDbEllipse
 10
1913.083104
 20
-154.582739
 30
0.0
 11
8.000000000000007
 21
0.0
 31
0.0
210
0.0
220
0.0
230
1.0
 40
0.9993867638409051
 41
0.0
 42
6.283185307179586
  0
LINE
  5
6FDBD
330
6FFD4
100
AcDbEntity
  8
Level 27
  6
Continuous
 62
    12
370
     0
100
AcDbLine
 10
1921.083104
 20
-543.323132
 30
0.0
 11
1921.083104
 21
-153.589888
 31
0.0
  0
LINE
  5
6FDBE
330
6FFD4
100
AcDbEntity
  8
Level 27
  6
Continuous
 62
    12
370
     0
100
AcDbLine
 10
1913.083104
 20
-537.248886
 30
0.0
 11
1913.083104
 21
-145.589888
 31
0.0
  0
LINE
  5
6FDBF
330
6FFD4
100
AcDbEntity
  8
Level 27
  6
Continuous
 62
    12
370
     0
100
AcDbLine
 10
1905.083104
 20
-543.323132
 30
0.0
 11
1905.083104
 21
-153.589888
 31
0.0
  0
LINE
  5
6FDC0
330
6FFD4
100
AcDbEntity
  8
Level 27
  6
Continuous
 62
    12
370
     0
100
AcDbLine
 10
1913.083104
 20
-549.397377
 30
0.0
 11
1913.083104
 21
-161.589888
 31
0.0
  0
ENDBLK
  5
6FFD6
330
6FFD4
100
AcDbEntity
  8
0
 62
    98
370
     0
100
AcDbBlockEnd
  0
BLOCK
  5
6FFD8
330
6FFD7
100
AcDbEntity
  8
0
 62
    98
370
     0
100
AcDbBlockBegin
  2
From Solid_1
 70
     0
 10
0.0
 20
0.0
 30
0.0
  3
From Solid_1
  1

  0
ELLIPSE
  5
6FDC2
330
6FFD7
100
AcDbEntity
  8
Level 27
  6
Continuous
 62
    12
370
     0
100
AcDbEllipse
 10
2413.083104
 20
-543.323132
 30
0.0
 11
8.000000000000003
 21
0.0
 31
0.0
210
0.0
220
0.0
230
1.0
 40
0.7592806724357052
 41
0.0
 42
6.283185307179586
  0
ELLIPSE
  5
6FDC3
330
6FFD7
100
AcDbEntity
  8
Level 27
  6
Continuous
 62
    12
370
     0
100
AcDbEllipse
 10
2413.083104
 20
-154.582739
 30
0.0
 11
8.000000000000007
 21
0.0
 31
0.0
210
0.0
220
0.0
230
1.0
 40
0.9993867638409051
 41
0.0
 42
6.283185307179586
  0
LINE
  5
6FDC4
330
6FFD7
100
AcDbEntity
  8
Level 27
  6
Continuous
 62
    12
370
     0
100
AcDbLine
 10
2421.083104
 20
-543.323132
 30
0.0
 11
2421.083104
 21
-153.589888
 31
0.0
  0
LINE
  5
6FDC5
330
6FFD7
100
AcDbEntity
  8
Level 27
  6
Continuous
 62
    12
370
     0
100
AcDbLine
 10
2413.083104
 20
-537.248886
 30
0.0
 11
2413.083104
 21
-145.589888
 31
0.0
  0
LINE
  5
6FDC6
330
6FFD7
100
AcDbEntity
  8
Level 27
  6
Continuous
 62
    12
370
     0
100
AcDbLine
 10
2405.083104
 20
-543.323132
 30
0.0
 11
2405.083104
 21
-153.589888
 31
0.0
  0
LINE
  5
6FDC7
330
6FFD7
100
AcDbEntity
  8
Level 27
  6
Continuous
 62
    12
370
     0
100
AcDbLine
 10
2413.083104
 20
-549.397377
 30
0.0
 11
2413.083104
 21
-161.589888
 31
0.0
  0
ENDBLK
  5
6FFD9
330
6FFD7
100
AcDbEntity
  8
0
 62
    98
370
     0
100
AcDbBlockEnd
  0
BLOCK
  5
6FFDB
330
6FFDA
100
AcDbEntity
  8
0
 62
    98
370
     0
100
AcDbBlockBegin
  2
From Solid_2
 70
     0
 10
0.0
 20
0.0
 30
0.0
  3
From Solid_2
  1

  0
LINE
  5
6FDC9
330
6FFDA
100
AcDbEntity
  8
Level 27
  6
Continuous
 62
    12
370
     0
100
AcDbLine
 10
1913.083104
 20
-556.773132
 30
0.0
 11
1913.083104
 21
-529.873132
 31
0.0
  0
LINE
  5
6FDCA
330
6FFDA
100
AcDbEntity
  8
Level 27
  6
Continuous
 62
    12
370
     0
100
AcDbLine
 10
2413.083104
 20
-556.773132
 30
0.0
 11
2413.083104
 21
-529.873132
 31
0.0
  0
LINE
  5
6FDCB
330
6FFDA
100
AcDbEntity
  8
Level 27
  6
Continuous
 62
    12
370
     0
100
AcDbLine
 10
1913.083104
 20
-543.323132
 30
0.0
 11
2413.083104
 21
-543.323132
 31
0.0
  0
LINE
  5
6FDCC
330
6FFDA
100
AcDbEntity
  8
Level 27
  6
Continuous
 62
    12
370
     0
100
AcDbLine
 10
1913.083104
 20
-556.773132
 30
0.0
 11
2413.083104
 21
-556.773132
 31
0.0
  0
LINE
  5
6FDCD
330
6FFDA
100
AcDbEntity
  8
Level 27
  6
Continuous
 62
    12
370
     0
100
AcDbLine
 10
1913.083104
 20
-543.323132
 30
0.0
 11
2413.083104
 21
-543.323132
 31
0.0
  0
LINE
  5
6FDCE
330
6FFDA
100
AcDbEntity
  8
Level 27
  6
Continuous
 62
    12
370
     0
100
AcDbLine
 10
1913.083104
 20
-529.873132
 30
0.0
 11
2413.083104
 21
-529.873132
 31
0.0
  0
ENDBLK
  5
6FFDC
330
6FFDA
100
AcDbEntity
  8
0
 62
    98
370
     0
100
AcDbBlockEnd
  0
BLOCK
  5
6FFDE
330
6FFDD
100
AcDbEntity
  8
0
 62
    98
370
     0
100
AcDbBlockBegin
  2
From Solid_3
 70
     0
 10
0.0
 20
0.0
 30
0.0
  3
From Solid_3
  1

  0
LINE
  5
6FDD0
330
6FFDD
100
AcDbEntity
  8
Level 27
  6
Continuous
 62
    12
370
     0
100
AcDbLine
 10
2954.583104
 20
-137.582739
 30
0.0
 11
2954.583104
 21
-171.582739
 31
0.0
  0
LINE
  5
6FDD1
330
6FFDD
100
AcDbEntity
  8
Level 27
  6
Continuous
 62
    12
370
     0
100
AcDbLine
 10
3996.583104
 20
-137.582739
 30
0.0
 11
3996.583104
 21
-171.582739
 31
0.0
  0
LINE
  5
6FDD2
330
6FFDD
100
AcDbEntity
  8
Level 27
  6
Continuous
 62
    12
370
     0
100
AcDbLine
 10
2954.583104
 20
-137.582739
 30
0.0
 11
3996.583104
 21
-137.582739
 31
0.0
  0
LINE
  5
6FDD3
330
6FFDD
100
AcDbEntity
  8
Level 27
  6
Continuous
 62
    12
370
     0
100
AcDbLine
 10
2954.583104
 20
-154.582739
 30
0.0
 11
3996.583104
 21
-154.582739
 31
0.0
  0
LINE
  5
6FDD4
330
6FFDD
100
AcDbEntity
  8
Level 27
  6
Continuous
 62
    12
370
     0
100
AcDbLine
 10
2954.583104
 20
-171.582739
 30
0.0
 11
3996.583104
 21
-171.582739
 31
0.0
  0
LINE
  5
6FDD5
330
6FFDD
100
AcDbEntity
  8
Level 27
  6
Continuous
 62
    12
370
     0
100
AcDbLine
 10
2954.583104
 20
-154.582739
 30
0.0
 11
3996.583104
 21
-154.582739
 31
0.0
  0
ENDBLK
  5
6FFDF
330
6FFDD
100
AcDbEntity
  8
0
 62
    98
370
     0
100
AcDbBlockEnd
  0
BLOCK
  5
6FFE1
330
6FFE0
100
AcDbEntity
  8
0
 62
    98
370
     0
100
AcDbBlockBegin
  2
From Solid_4
 70
     0
 10
0.0
 20
0.0
 30
0.0
  3
From Solid_4
  1

  0
CIRCLE
  5
6FDD7
330
6FFE0
100
AcDbEntity
  8
Level 27
  6
Continuous
 62
    12
370
     0
100
AcDbCircle
 10
4538.083104
 20
-154.582739
 30
0.0
 40
15.00000000000001
  0
CIRCLE
  5
6FDD8
330
6FFE0
100
AcDbEntity
  8
Level 27
  6
Continuous
 62
    12
370
     0
100
AcDbCircle
 10
4538.083104
 20
-154.582739
 30
0.0
 40
15.00000000000001
  0
POINT
  5
6FDD9
330
6FFE0
100
AcDbEntity
  8
Level 27
  6
Continuous
 62
    12
370
     0
100
AcDbPoint
 10
4523.083104
 20
-154.582739
 30
0.0
  0
POINT
  5
6FDDA
330
6FFE0
100
AcDbEntity
  8
Level 27
  6
Continuous
 62
    12
370
     0
100
AcDbPoint
 10
4538.083104
 20
-169.582739
 30
0.0
  0
POINT
  5
6FDDB
330
6FFE0
100
AcDbEntity
  8
Level 27
  6
Continuous
 62
    12
370
     0
100
AcDbPoint
 10
4553.083104
 20
-154.582739
 30
0.0
  0
POINT
  5
6FDDC
330
6FFE0
100
AcDbEntity
  8
Level 27
  6
Continuous
 62
    12
370
     0
100
AcDbPoint
 10
4538.083104
 20
-139.582739
 30
0.0
  0
ENDBLK
  5
6FFE2
330
6FFE0
100
AcDbEntity
  8
0
 62
    98
370
     0
100
AcDbBlockEnd
  0
BLOCK
  5
6FFE4
330
6FFE3
100
AcDbEntity
  8
0
 62
    98
370
     0
100
AcDbBlockBegin
  2
From Solid_5
 70
     0
 10
0.0
 20
0.0
 30
0.0
  3
From Solid_5
  1

  0
CIRCLE
  5
6FDDE
330
6FFE3
100
AcDbEntity
  8
Level 26
  6
Continuous
 62
   253
370
     0
100
AcDbCircle
 10
4538.083104
 20
-154.582739
 30
0.0
 40
8.000000000000003
  0
CIRCLE
  5
6FDDF
330
6FFE3
100
AcDbEntity
  8
Level 26
  6
Continuous
 62
   253
370
     0
100
AcDbCircle
 10
4538.083104
 20
-154.582739
 30
0.0
 40
8.000000000000005
  0
POINT
  5
6FDE0
330
6FFE3
100
AcDbEntity
  8
Level 26
  6
Continuous
 62
   253
370
     0
100
AcDbPoint
 10
4530.083104
 20
-154.582739
 30
0.0
  0
POINT
  5
6FDE1
330
6FFE3
100
AcDbEntity
  8
Level 26
  6
Continuous
 62
   253
370
     0
100
AcDbPoint
 10
4538.083104
 20
-162.582739
 30
0.0
  0
POINT
  5
6FDE2
330
6FFE3
100
AcDbEntity
  8
Level 26
  6
Continuous
 62
   253
370
     0
100
AcDbPoint
 10
4546.083104
 20
-154.582739
 30
0.0
  0
POINT
  5
6FDE3
330
6FFE3
100
AcDbEntity
  8
Level 26
  6
Continuous
 62
   253
370
     0
100
AcDbPoint
 10
4538.083104
 20
-146.582739
 30
0.0
  0
ENDBLK
  5
6FFE5
330
6FFE3
100
AcDbEntity
  8
0
 62
    98
370
     0
100
AcDbBlockEnd
  0
BLOCK
  5
6FFE7
330
6FFE6
100
AcDbEntity
  8
0
 62
    98
370
     0
100
AcDbBlockBegin
  2
From Solid_6
 70
     0
 10
0.0
 20
0.0
 30
0.0
  3
From Solid_6
  1

  0
CIRCLE
  5
6FDE5
330
6FFE6
100
AcDbEntity
  8
Level 26
  6
Continuous
 62
   253
370
     0
100
AcDbCircle
 10
4538.083104
 20
-154.582739
 30
0.0
 40
8.000000000000003
  0
CIRCLE
  5
6FDE6
330
6FFE6
100
AcDbEntity
  8
Level 26
  6
Continuous
 62
   253
370
     0
100
AcDbCircle
 10
4538.083104
 20
-154.582739
 30
0.0
 40
8.000000000000005
  0
POINT
  5
6FDE7
330
6FFE6
100
AcDbEntity
  8
Level 26
  6
Continuous
 62
   253
370
     0
100
AcDbPoint
 10
4530.083104
 20
-154.582739
 30
0.0
  0
POINT
  5
6FDE8
330
6FFE6
100
AcDbEntity
  8
Level 26
  6
Continuous
 62
   253
370
     0
100
AcDbPoint
 10
4538.083104
 20
-162.582739
 30
0.0
  0
POINT
  5
6FDE9
330
6FFE6
100
AcDbEntity
  8
Level 26
  6
Continuous
 62
   253
370
     0
100
AcDbPoint
 10
4546.083104
 20
-154.582739
 30
0.0
  0
POINT
  5
6FDEA
330
6FFE6
100
AcDbEntity
  8
Level 26
  6
Continuous
 62
   253
370
     0
100
AcDbPoint
 10
4538.083104
 20
-146.582739
 30
0.0
  0
ENDBLK
  5
6FFE8
330
6FFE6
100
AcDbEntity
  8
0
 62
    98
370
     0
100
AcDbBlockEnd
  0
BLOCK
  5
6FFEA
330
6FFE9
100
AcDbEntity
  8
0
 62
    98
370
     0
100
AcDbBlockBegin
  2
From Solid_7
 70
     0
 10
0.0
 20
0.0
 30
0.0
  3
From Solid_7
  1

  0
CIRCLE
  5
6FDEC
330
6FFE9
100
AcDbEntity
  8
Level 27
  6
Continuous
 62
    12
370
     0
100
AcDbCircle
 10
5038.083104
 20
-154.582739
 30
0.0
 40
8.000000000000003
  0
CIRCLE
  5
6FDED
330
6FFE9
100
AcDbEntity
  8
Level 27
  6
Continuous
 62
    12
370
     0
100
AcDbCircle
 10
5038.083104
 20
-154.582739
 30
0.0
 40
8.000000000000005
  0
POINT
  5
6FDEE
330
6FFE9
100
AcDbEntity
  8
Level 27
  6
Continuous
 62
    12
370
     0
100
AcDbPoint
 10
5030.083104
 20
-154.582739
 30
0.0
  0
POINT
  5
6FDEF
330
6FFE9
100
AcDbEntity
  8
Level 27
  6
Continuous
 62
    12
370
     0
100
AcDbPoint
 10
5038.083104
 20
-162.582739
 30
0.0
  0
POINT
  5
6FDF0
330
6FFE9
100
AcDbEntity
  8
Level 27
  6
Continuous
 62
    12
370
     0
100
AcDbPoint
 10
5046.083104
 20
-154.582739
 30
0.0
  0
POINT
  5
6FDF1
330
6FFE9
100
AcDbEntity
  8
Level 27
  6
Continuous
 62
    12
370
     0
100
AcDbPoint
 10
5038.083104
 20
-146.582739
 30
0.0
  0
ENDBLK
  5
6FFEB
330
6FFE9
100
AcDbEntity
  8
0
 62
    98
370
     0
100
AcDbBlockEnd
  0
BLOCK
  5
6FFED
330
6FFEC
100
AcDbEntity
  8
0
 62
    98
370
     0
100
AcDbBlockBegin
  2
From Solid_8
 70
     0
 10
0.0
 20
0.0
 30
0.0
  3
From Solid_8
  1

  0
CIRCLE
  5
6FDF3
330
6FFEC
100
AcDbEntity
  8
Level 27
  6
Continuous
 62
    12
370
     0
100
AcDbCircle
 10
5538.083104
 20
-154.582739
 30
0.0
 40
8.000000000000003
  0
CIRCLE
  5
6FDF4
330
6FFEC
100
AcDbEntity
  8
Level 27
  6
Continuous
 62
    12
370
     0
100
AcDbCircle
 10
5538.083104
 20
-154.582739
 30
0.0
 40
8.000000000000005
  0
POINT
  5
6FDF5
330
6FFEC
100
AcDbEntity
  8
Level 27
  6
Continuous
 62
    12
370
     0
100
AcDbPoint
 10
5530.083104
 20
-154.582739
 30
0.0
  0
POINT
  5
6FDF6
330
6FFEC
100
AcDbEntity
  8
Level 27
  6
Continuous
 62
    12
370
     0
100
AcDbPoint
 10
5538.083104
 20
-162.582739
 30
0.0
  0
POINT
  5
6FDF7
330
6FFEC
100
AcDbEntity
  8
Level 27
  6
Continuous
 62
    12
370
     0
100
AcDbPoint
 10
5546.083104
 20
-154.582739
 30
0.0
  0
POINT
  5
6FDF8
330
6FFEC
100
AcDbEntity
  8
Level 27
  6
Continuous
 62
    12
370
     0
100
AcDbPoint
 10
5538.083104
 20
-146.582739
 30
0.0
  0
ENDBLK
  5
6FFEE
330
6FFEC
100
AcDbEntity
  8
0
 62
    98
370
     0
100
AcDbBlockEnd
  0
BLOCK
  5
6FFF0
330
6FFEF
100
AcDbEntity
  8
0
 62
    98
370
     0
100
AcDbBlockBegin
  2
From Solid_9
 70
     0
 10
0.0
 20
0.0
 30
0.0
  3
From Solid_9
  1

  0
CIRCLE
  5
6FDFA
330
6FFEF
100
AcDbEntity
  8
Level 27
  6
Continuous
 62
    12
370
     0
100
AcDbCircle
 10
5038.083104
 20
-154.582739
 30
0.0
 40
8.000000000000003
  0
CIRCLE
  5
6FDFB
330
6FFEF
100
AcDbEntity
  8
Level 27
  6
Continuous
 62
    12
370
     0
100
AcDbCircle
 10
5038.083104
 20
-154.582739
 30
0.0
 40
8.000000000000005
  0
POINT
  5
6FDFC
330
6FFEF
100
AcDbEntity
  8
Level 27
  6
Continuous
 62
    12
370
     0
100
AcDbPoint
 10
5030.083104
 20
-154.582739
 30
0.0
  0
POINT
  5
6FDFD
330
6FFEF
100
AcDbEntity
  8
Level 27
  6
Continuous
 62
    12
370
     0
100
AcDbPoint
 10
5038.083104
 20
-162.582739
 30
0.0
  0
POINT
  5
6FDFE
330
6FFEF
100
AcDbEntity
  8
Level 27
  6
Continuous
 62
    12
370
     0
100
AcDbPoint
 10
5046.083104
 20
-154.582739
 30
0.0
  0
POINT
  5
6FDFF
330
6FFEF
100
AcDbEntity
  8
Level 27
  6
Continuous
 62
    12
370
     0
100
AcDbPoint
 10
5038.083104
 20
-146.582739
 30
0.0
  0
ENDBLK
  5
6FFF1
330
6FFEF
100
AcDbEntity
  8
0
 62
    98
370
     0
100
AcDbBlockEnd
  0
BLOCK
  5
6FFF3
330
6FFF2
100
AcDbEntity
  8
0
 62
    98
370
     0
100
AcDbBlockBegin
  2
From Solid_10
 70
     0
 10
0.0
 20
0.0
 30
0.0
  3
From Solid_10
  1

  0
CIRCLE
  5
6FE01
330
6FFF2
100
AcDbEntity
  8
Level 27
  6
Continuous
 62
    12
370
     0
100
AcDbCircle
 10
5038.083104
 20
-154.582739
 30
0.0
 40
8.000000000000003
  0
CIRCLE
  5
6FE02
330
6FFF2
100
AcDbEntity
  8
Level 27
  6
Continuous
 62
    12
370
     0
100
AcDbCircle
 10
5038.083104
 20
-154.582739
 30
0.0
 40
8.000000000000005
  0
POINT
  5
6FE03
330
6FFF2
100
AcDbEntity
  8
Level 27
  6
Continuous
 62
    12
370
     0
100
AcDbPoint
 10
5030.083104
 20
-154.582739
 30
0.0
  0
POINT
  5
6FE04
330
6FFF2
100
AcDbEntity
  8
Level 27
  6
Continuous
 62
    12
370
     0
100
AcDbPoint
 10
5038.083104
 20
-162.582739
 30
0.0
  0
POINT
  5
6FE05
330
6FFF2
100
AcDbEntity
  8
Level 27
  6
Continuous
 62
    12
370
     0
100
AcDbPoint
 10
5046.083104
 20
-154.582739
 30
0.0
  0
POINT
  5
6FE06
330
6FFF2
100
AcDbEntity
  8
Level 27
  6
Continuous
 62
    12
370
     0
100
AcDbPoint
 10
5038.083104
 20
-146.582739
 30
0.0
  0
ENDBLK
  5
6FFF4
330
6FFF2
100
AcDbEntity
  8
0
 62
    98
370
     0
100
AcDbBlockEnd
  0
BLOCK
  5
6FFF6
330
6FFF5
100
AcDbEntity
  8
0
 62
    98
370
     0
100
AcDbBlockBegin
  2
From Solid_11
 70
     0
 10
0.0
 20
0.0
 30
0.0
  3
From Solid_11
  1

  0
CIRCLE
  5
6FE08
330
6FFF5
100
AcDbEntity
  8
Level 27
  6
Continuous
 62
    12
370
     0
100
AcDbCircle
 10
5538.083104
 20
-154.582739
 30
0.0
 40
8.000000000000003
  0
CIRCLE
  5
6FE09
330
6FFF5
100
AcDbEntity
  8
Level 27
  6
Continuous
 62
    12
370
     0
100
AcDbCircle
 10
5538.083104
 20
-154.582739
 30
0.0
 40
8.000000000000005
  0
POINT
  5
6FE0A
330
6FFF5
100
AcDbEntity
  8
Level 27
  6
Continuous
 62
    12
370
     0
100
AcDbPoint
 10
5530.083104
 20
-154.582739
 30
0.0
  0
POINT
  5
6FE0B
330
6FFF5
100
AcDbEntity
  8
Level 27
  6
Continuous
 62
    12
370
     0
100
AcDbPoint
 10
5538.083104
 20
-162.582739
 30
0.0
  0
POINT
  5
6FE0C
330
6FFF5
100
AcDbEntity
  8
Level 27
  6
Continuous
 62
    12
370
     0
100
AcDbPoint
 10
5546.083104
 20
-154.582739
 30
0.0
  0
POINT
  5
6FE0D
330
6FFF5
100
AcDbEntity
  8
Level 27
  6
Continuous
 62
    12
370
     0
100
AcDbPoint
 10
5538.083104
 20
-146.582739
 30
0.0
  0
ENDBLK
  5
6FFF7
330
6FFF5
100
AcDbEntity
  8
0
 62
    98
370
     0
100
AcDbBlockEnd
  0
BLOCK
  5
6FFF9
330
6FFF8
100
AcDbEntity
  8
0
 62
    98
370
     0
100
AcDbBlockBegin
  2
From Solid_12
 70
     0
 10
0.0
 20
0.0
 30
0.0
  3
From Solid_12
  1

  0
CIRCLE
  5
6FE0F
330
6FFF8
100
AcDbEntity
  8
Level 27
  6
Continuous
 62
    12
370
     0
100
AcDbCircle
 10
5538.083104
 20
-154.582739
 30
0.0
 40
8.000000000000003
  0
CIRCLE
  5
6FE10
330
6FFF8
100
AcDbEntity
  8
Level 27
  6
Continuous
 62
    12
370
     0
100
AcDbCircle
 10
5538.083104
 20
-154.582739
 30
0.0
 40
8.000000000000005
  0
POINT
  5
6FE11
330
6FFF8
100
AcDbEntity
  8
Level 27
  6
Continuous
 62
    12
370
     0
100
AcDbPoint
 10
5530.083104
 20
-154.582739
 30
0.0
  0
POINT
  5
6FE12
330
6FFF8
100
AcDbEntity
  8
Level 27
  6
Continuous
 62
    12
370
     0
100
AcDbPoint
 10
5538.083104
 20
-162.582739
 30
0.0
  0
POINT
  5
6FE13
330
6FFF8
100
AcDbEntity
  8
Level 27
  6
Continuous
 62
    12
370
     0
100
AcDbPoint
 10
5546.083104
 20
-154.582739
 30
0.0
  0
POINT
  5
6FE14
330
6FFF8
100
AcDbEntity
  8
Level 27
  6
Continuous
 62
    12
370
     0
100
AcDbPoint
 10
5538.083104
 20
-146.582739
 30
0.0
  0
ENDBLK
  5
6FFFA
330
6FFF8
100
AcDbEntity
  8
0
 62
    98
370
     0
100
AcDbBlockEnd
  0
BLOCK
  5
6FFFC
330
6FFFB
100
AcDbEntity
  8
0
 62
    98
370
     0
100
AcDbBlockBegin
  2
From Solid_13
 70
     0
 10
0.0
 20
0.0
 30
0.0
  3
From Solid_13
  1

  0
LINE
  5
6FE16
330
6FFFB
100
AcDbEntity
  8
Level 27
  6
Continuous
 62
    12
370
     0
100
AcDbLine
 10
5038.083104
 20
-169.582739
 30
0.0
 11
5038.083104
 21
-139.582739
 31
0.0
  0
LINE
  5
6FE17
330
6FFFB
100
AcDbEntity
  8
Level 27
  6
Continuous
 62
    12
370
     0
100
AcDbLine
 10
5538.083104
 20
-169.582739
 30
0.0
 11
5538.083104
 21
-139.582739
 31
0.0
  0
LINE
  5
6FE18
330
6FFFB
100
AcDbEntity
  8
Level 27
  6
Continuous
 62
    12
370
     0
100
AcDbLine
 10
5038.083104
 20
-154.582739
 30
0.0
 11
5538.083104
 21
-154.582739
 31
0.0
  0
LINE
  5
6FE19
330
6FFFB
100
AcDbEntity
  8
Level 27
  6
Continuous
 62
    12
370
     0
100
AcDbLine
 10
5038.083104
 20
-169.582739
 30
0.0
 11
5538.083104
 21
-169.582739
 31
0.0
  0
LINE
  5
6FE1A
330
6FFFB
100
AcDbEntity
  8
Level 27
  6
Continuous
 62
    12
370
     0
100
AcDbLine
 10
5038.083104
 20
-154.582739
 30
0.0
 11
5538.083104
 21
-154.582739
 31
0.0
  0
LINE
  5
6FE1B
330
6FFFB
100
AcDbEntity
  8
Level 27
  6
Continuous
 62
    12
370
     0
100
AcDbLine
 10
5038.083104
 20
-139.582739
 30
0.0
 11
5538.083104
 21
-139.582739
 31
0.0
  0
ENDBLK
  5
6FFFD
330
6FFFB
100
AcDbEntity
  8
0
 62
    98
370
     0
100
AcDbBlockEnd
  0
BLOCK
  5
6FFFF
330
6FFFE
100
AcDbEntity
  8
0
 62
    98
370
     0
100
AcDbBlockBegin
  2
From Solid_14
 70
     0
 10
0.0
 20
0.0
 30
0.0
  3
From Solid_14
  1

  0
LINE
  5
6FE1D
330
6FFFE
100
AcDbEntity
  8
Level 27
  6
Continuous
 62
    12
370
     0
100
AcDbLine
 10
5038.083104
 20
-169.582739
 30
0.0
 11
5038.083104
 21
-139.582739
 31
0.0
  0
LINE
  5
6FE1E
330
6FFFE
100
AcDbEntity
  8
Level 27
  6
Continuous
 62
    12
370
     0
100
AcDbLine
 10
5538.083104
 20
-169.582739
 30
0.0
 11
5538.083104
 21
-139.582739
 31
0.0
  0
LINE
  5
6FE1F
330
6FFFE
100
AcDbEntity
  8
Level 27
  6
Continuous
 62
    12
370
     0
100
AcDbLine
 10
5038.083104
 20
-154.582739
 30
0.0
 11
5538.083104
 21
-154.582739
 31
0.0
  0
LINE
  5
6FE20
330
6FFFE
100
AcDbEntity
  8
Level 27
  6
Continuous
 62
    12
370
     0
100
AcDbLine
 10
5038.083104
 20
-169.582739
 30
0.0
 11
5538.083104
 21
-169.582739
 31
0.0
  0
LINE
  5
6FE21
330
6FFFE
100
AcDbEntity
  8
Level 27
  6
Continuous
 62
    12
370
     0
100
AcDbLine
 10
5038.083104
 20
-154.582739
 30
0.0
 11
5538.083104
 21
-154.582739
 31
0.0
  0
LINE
  5
6FE22
330
6FFFE
100
AcDbEntity
  8
Level 27
  6
Continuous
 62
    12
370
     0
100
AcDbLine
 10
5038.083104
 20
-139.582739
 30
0.0
 11
5538.083104
 21
-139.582739
 31
0.0
  0
ENDBLK
  5
70000
330
6FFFE
100
AcDbEntity
  8
0
 62
    98
370
     0
100
AcDbBlockEnd
  0
BLOCK
  5
70002
330
70001
100
AcDbEntity
  8
0
 62
    98
370
     0
100
AcDbBlockBegin
  2
From Solid_15
 70
     0
 10
0.0
 20
0.0
 30
0.0
  3
From Solid_15
  1

  0
LINE
  5
6FE24
330
70001
100
AcDbEntity
  8
Level 27
  6
Continuous
 62
    12
370
     0
100
AcDbLine
 10
5038.083104
 20
-169.582739
 30
0.0
 11
5038.083104
 21
-139.582739
 31
0.0
  0
LINE
  5
6FE25
330
70001
100
AcDbEntity
  8
Level 27
  6
Continuous
 62
    12
370
     0
100
AcDbLine
 10
5538.083104
 20
-169.582739
 30
0.0
 11
5538.083104
 21
-139.582739
 31
0.0
  0
LINE
  5
6FE26
330
70001
100
AcDbEntity
  8
Level 27
  6
Continuous
 62
    12
370
     0
100
AcDbLine
 10
5038.083104
 20
-154.582739
 30
0.0
 11
5538.083104
 21
-154.582739
 31
0.0
  0
LINE
  5
6FE27
330
70001
100
AcDbEntity
  8
Level 27
  6
Continuous
 62
    12
370
     0
100
AcDbLine
 10
5038.083104
 20
-169.582739
 30
0.0
 11
5538.083104
 21
-169.582739
 31
0.0
  0
LINE
  5
6FE28
330
70001
100
AcDbEntity
  8
Level 27
  6
Continuous
 62
    12
370
     0
100
AcDbLine
 10
5038.083104
 20
-154.582739
 30
0.0
 11
5538.083104
 21
-154.582739
 31
0.0
  0
LINE
  5
6FE29
330
70001
100
AcDbEntity
  8
Level 27
  6
Continuous
 62
    12
370
     0
100
AcDbLine
 10
5038.083104
 20
-139.582739
 30
0.0
 11
5538.083104
 21
-139.582739
 31
0.0
  0
ENDBLK
  5
70003
330
70001
100
AcDbEntity
  8
0
 62
    98
370
     0
100
AcDbBlockEnd
  0
BLOCK
  5
70005
330
70004
100
AcDbEntity
  8
0
 62
    98
370
     0
100
AcDbBlockBegin
  2
From Solid_16
 70
     0
 10
0.0
 20
0.0
 30
0.0
  3
From Solid_16
  1

  0
LINE
  5
6FE2B
330
70004
100
AcDbEntity
  8
Level 27
  6
Continuous
 62
    12
370
     0
100
AcDbLine
 10
5038.083104
 20
-169.582739
 30
0.0
 11
5038.083104
 21
-139.582739
 31
0.0
  0
LINE
  5
6FE2C
330
70004
100
AcDbEntity
  8
Level 27
  6
Continuous
 62
    12
370
     0
100
AcDbLine
 10
5538.083104
 20
-169.582739
 30
0.0
 11
5538.083104
 21
-139.582739
 31
0.0
  0
LINE
  5
6FE2D
330
70004
100
AcDbEntity
  8
Level 27
  6
Continuous
 62
    12
370
     0
100
AcDbLine
 10
5038.083104
 20
-154.582739
 30
0.0
 11
5538.083104
 21
-154.582739
 31
0.0
  0
LINE
  5
6FE2E
330
70004
100
AcDbEntity
  8
Level 27
  6
Continuous
 62
    12
370
     0
100
AcDbLine
 10
5038.083104
 20
-169.582739
 30
0.0
 11
5538.083104
 21
-169.582739
 31
0.0
  0
LINE
  5
6FE2F
330
70004
100
AcDbEntity
  8
Level 27
  6
Continuous
 62
    12
370
     0
100
AcDbLine
 10
5038.083104
 20
-154.582739
 30
0.0
 11
5538.083104
 21
-154.582739
 31
0.0
  0
LINE
  5
6FE30
330
70004
100
AcDbEntity
  8
Level 27
  6
Continuous
 62
    12
370
     0
100
AcDbLine
 10
5038.083104
 20
-139.582739
 30
0.0
 11
5538.083104
 21
-139.582739
 31
0.0
  0
ENDBLK
  5
70006
330
70004
100
AcDbEntity
  8
0
 62
    98
370
     0
100
AcDbBlockEnd
  0
BLOCK
  5
70008
330
70007
100
AcDbEntity
  8
0
 62
    98
370
     0
100
AcDbBlockBegin
  2
From Solid_17
 70
     0
 10
0.0
 20
0.0
 30
0.0
  3
From Solid_17
  1

  0
LINE
  5
6FE32
330
70007
100
AcDbEntity
  8
Level 27
  6
Continuous
 62
    12
370
     0
100
AcDbLine
 10
5038.083104
 20
-169.582739
 30
0.0
 11
5038.083104
 21
-139.582739
 31
0.0
  0
LINE
  5
6FE33
330
70007
100
AcDbEntity
  8
Level 27
  6
Continuous
 62
    12
370
     0
100
AcDbLine
 10
5538.083104
 20
-169.582739
 30
0.0
 11
5538.083104
 21
-139.582739
 31
0.0
  0
LINE
  5
6FE34
330
70007
100
AcDbEntity
  8
Level 27
  6
Continuous
 62
    12
370
     0
100
AcDbLine
 10
5038.083104
 20
-154.582739
 30
0.0
 11
5538.083104
 21
-154.582739
 31
0.0
  0
LINE
  5
6FE35
330
70007
100
AcDbEntity
  8
Level 27
  6
Continuous
 62
    12
370
     0
100
AcDbLine
 10
5038.083104
 20
-169.582739
 30
0.0
 11
5538.083104
 21
-169.582739
 31
0.0
  0
LINE
  5
6FE36
330
70007
100
AcDbEntity
  8
Level 27
  6
Continuous
 62
    12
370
     0
100
AcDbLine
 10
5038.083104
 20
-154.582739
 30
0.0
 11
5538.083104
 21
-154.582739
 31
0.0
  0
LINE
  5
6FE37
330
70007
100
AcDbEntity
  8
Level 27
  6
Continuous
 62
    12
370
     0
100
AcDbLine
 10
5038.083104
 20
-139.582739
 30
0.0
 11
5538.083104
 21
-139.582739
 31
0.0
  0
ENDBLK
  5
70009
330
70007
100
AcDbEntity
  8
0
 62
    98
370
     0
100
AcDbBlockEnd
  0
BLOCK
  5
7000B
330
7000A
100
AcDbEntity
  8
0
 62
    98
370
     0
100
AcDbBlockBegin
  2
From Solid_18
 70
     0
 10
0.0
 20
0.0
 30
0.0
  3
From Solid_18
  1

  0
LINE
  5
6FE39
330
7000A
100
AcDbEntity
  8
Level 27
  6
Continuous
 62
    12
370
     0
100
AcDbLine
 10
5038.083104
 20
-169.582739
 30
0.0
 11
5038.083104
 21
-139.582739
 31
0.0
  0
LINE
  5
6FE3A
330
7000A
100
AcDbEntity
  8
Level 27
  6
Continuous
 62
    12
370
     0
100
AcDbLine
 10
5538.083104
 20
-169.582739
 30
0.0
 11
5538.083104
 21
-139.582739
 31
0.0
  0
LINE
  5
6FE3B
330
7000A
100
AcDbEntity
  8
Level 27
  6
Continuous
 62
    12
370
     0
100
AcDbLine
 10
5038.083104
 20
-154.582739
 30
0.0
 11
5538.083104
 21
-154.582739
 31
0.0
  0
LINE
  5
6FE3C
330
7000A
100
AcDbEntity
  8
Level 27
  6
Continuous
 62
    12
370
     0
100
AcDbLine
 10
5038.083104
 20
-169.582739
 30
0.0
 11
5538.083104
 21
-169.582739
 31
0.0
  0
LINE
  5
6FE3D
330
7000A
100
AcDbEntity
  8
Level 27
  6
Continuous
 62
    12
370
     0
100
AcDbLine
 10
5038.083104
 20
-154.582739
 30
0.0
 11
5538.083104
 21
-154.582739
 31
0.0
  0
LINE
  5
6FE3E
330
7000A
100
AcDbEntity
  8
Level 27
  6
Continuous
 62
    12
370
     0
100
AcDbLine
 10
5038.083104
 20
-139.582739
 30
0.0
 11
5538.083104
 21
-139.582739
 31
0.0
  0
ENDBLK
  5
7000C
330
7000A
100
AcDbEntity
  8
0
 62
    98
370
     0
100
AcDbBlockEnd
  0
BLOCK
  5
7000E
330
7000D
100
AcDbEntity
  8
0
 62
    98
370
     0
100
AcDbBlockBegin
  2
From Solid_19
 70
     0
 10
0.0
 20
0.0
 30
0.0
  3
From Solid_19
  1

  0
LINE
  5
6FE40
330
7000D
100
AcDbEntity
  8
Level 27
  6
Continuous
 62
    12
370
     0
100
AcDbLine
 10
5038.083104
 20
-169.582739
 30
0.0
 11
5038.083104
 21
-139.582739
 31
0.0
  0
LINE
  5
6FE41
330
7000D
100
AcDbEntity
  8
Level 27
  6
Continuous
 62
    12
370
     0
100
AcDbLine
 10
5538.083104
 20
-169.582739
 30
0.0
 11
5538.083104
 21
-139.582739
 31
0.0
  0
LINE
  5
6FE42
330
7000D
100
AcDbEntity
  8
Level 27
  6
Continuous
 62
    12
370
     0
100
AcDbLine
 10
5038.083104
 20
-154.582739
 30
0.0
 11
5538.083104
 21
-154.582739
 31
0.0
  0
LINE
  5
6FE43
330
7000D
100
AcDbEntity
  8
Level 27
  6
Continuous
 62
    12
370
     0
100
AcDbLine
 10
5038.083104
 20
-169.582739
 30
0.0
 11
5538.083104
 21
-169.582739
 31
0.0
  0
LINE
  5
6FE44
330
7000D
100
AcDbEntity
  8
Level 27
  6
Continuous
 62
    12
370
     0
100
AcDbLine
 10
5038.083104
 20
-154.582739
 30
0.0
 11
5538.083104
 21
-154.582739
 31
0.0
  0
LINE
  5
6FE45
330
7000D
100
AcDbEntity
  8
Level 27
  6
Continuous
 62
    12
370
     0
100
AcDbLine
 10
5038.083104
 20
-139.582739
 30
0.0
 11
5538.083104
 21
-139.582739
 31
0.0
  0
ENDBLK
  5
7000F
330
7000D
100
AcDbEntity
  8
0
 62
    98
370
     0
100
AcDbBlockEnd
  0
BLOCK
  5
70011
330
70010
100
AcDbEntity
  8
0
 62
    98
370
     0
100
AcDbBlockBegin
  2
From Solid_20
 70
     0
 10
0.0
 20
0.0
 30
0.0
  3
From Solid_20
  1

  0
LINE
  5
6FE47
330
70010
100
AcDbEntity
  8
Level 27
  6
Continuous
 62
    12
370
     0
100
AcDbLine
 10
5038.083104
 20
-169.582739
 30
0.0
 11
5038.083104
 21
-139.582739
 31
0.0
  0
LINE
  5
6FE48
330
70010
100
AcDbEntity
  8
Level 27
  6
Continuous
 62
    12
370
     0
100
AcDbLine
 10
5538.083104
 20
-169.582739
 30
0.0
 11
5538.083104
 21
-139.582739
 31
0.0
  0
LINE
  5
6FE49
330
70010
100
AcDbEntity
  8
Level 27
  6
Continuous
 62
    12
370
     0
100
AcDbLine
 10
5038.083104
 20
-154.582739
 30
0.0
 11
5538.083104
 21
-154.582739
 31
0.0
  0
LINE
  5
6FE4A
330
70010
100
AcDbEntity
  8
Level 27
  6
Continuous
 62
    12
370
     0
100
AcDbLine
 10
5038.083104
 20
-169.582739
 30
0.0
 11
5538.083104
 21
-169.582739
 31
0.0
  0
LINE
  5
6FE4B
330
70010
100
AcDbEntity
  8
Level 27
  6
Continuous
 62
    12
370
     0
100
AcDbLine
 10
5038.083104
 20
-154.582739
 30
0.0
 11
5538.083104
 21
-154.582739
 31
0.0
  0
LINE
  5
6FE4C
330
70010
100
AcDbEntity
  8
Level 27
  6
Continuous
 62
    12
370
     0
100
AcDbLine
 10
5038.083104
 20
-139.582739
 30
0.0
 11
5538.083104
 21
-139.582739
 31
0.0
  0
ENDBLK
  5
70012
330
70010
100
AcDbEntity
  8
0
 62
    98
370
     0
100
AcDbBlockEnd
  0
BLOCK
  5
70014
330
70013
100
AcDbEntity
  8
0
 62
    98
370
     0
100
AcDbBlockBegin
  2
From Surface
 70
     0
 10
0.0
 20
0.0
 30
0.0
  3
From Surface
  1

  0
LINE
  5
6FE80
330
70013
100
AcDbEntity
  8
Level 25
  6
Continuous
 62
   252
370
     0
100
AcDbLine
 10
1923.083103
 20
-139.582738
 30
0.0
 11
1923.083103
 21
-169.582739
 31
0.0
  0
LINE
  5
6FE81
330
70013
100
AcDbEntity
  8
Level 25
  6
Continuous
 62
   252
370
     0
100
AcDbLine
 10
1903.083103
 20
-139.582738
 30
0.0
 11
1903.083103
 21
-169.582739
 31
0.0
  0
LINE
  5
6FE82
330
70013
100
AcDbEntity
  8
Level 25
  6
Continuous
 62
   252
370
     0
100
AcDbLine
 10
1923.083103
 20
-169.582739
 30
0.0
 11
1903.083103
 21
-169.582739
 31
0.0
  0
LINE
  5
6FE83
330
70013
100
AcDbEntity
  8
Level 25
  6
Continuous
 62
   252
370
     0
100
AcDbLine
 10
1923.083103
 20
-139.582738
 30
0.0
 11
1903.083103
 21
-139.582738
 31
0.0
  0
ENDBLK
  5
70015
330
70013
100
AcDbEntity
  8
0
 62
    98
370
     0
100
AcDbBlockEnd
  0
BLOCK
  5
70017
330
70016
100
AcDbEntity
  8
0
 62
    98
370
     0
100
AcDbBlockBegin
  2
From Surface_1
 70
     0
 10
0.0
 20
0.0
 30
0.0
  3
From Surface_1
  1

  0
LINE
  5
6FE99
330
70016
100
AcDbEntity
  8
Level 25
  6
Continuous
 62
   252
370
     0
100
AcDbLine
 10
2423.083103
 20
-139.582738
 30
0.0
 11
2423.083103
 21
-169.582739
 31
0.0
  0
LINE
  5
6FE9A
330
70016
100
AcDbEntity
  8
Level 25
  6
Continuous
 62
   252
370
     0
100
AcDbLine
 10
2403.083103
 20
-139.582738
 30
0.0
 11
2403.083103
 21
-169.582739
 31
0.0
  0
LINE
  5
6FE9B
330
70016
100
AcDbEntity
  8
Level 25
  6
Continuous
 62
   252
370
     0
100
AcDbLine
 10
2423.083103
 20
-169.582739
 30
0.0
 11
2403.083103
 21
-169.582739
 31
0.0
  0
LINE
  5
6FE9C
330
70016
100
AcDbEntity
  8
Level 25
  6
Continuous
 62
   252
370
     0
100
AcDbLine
 10
2423.083103
 20
-139.582738
 30
0.0
 11
2403.083103
 21
-139.582738
 31
0.0
  0
ENDBLK
  5
70018
330
70016
100
AcDbEntity
  8
0
 62
    98
370
     0
100
AcDbBlockEnd
  0
BLOCK
  5
7001A
330
70019
100
AcDbEntity
  8
0
 62
    98
370
     0
100
AcDbBlockBegin
  2
Feature Solid
 70
     0
 10
0.0
 20
0.0
 30
0.0
  3
Feature Solid
  1

  0
INSERT
  5
6FEBC
330
70019
100
AcDbEntity
  8
Level 25
  6
Continuous
 62
   252
370
     0
100
AcDbBlockReference
  2
UNITE
 10
-5656.25624
 20
-11635.743997
 30
0.0
  0
ENDBLK
  5
7001B
330
70019
100
AcDbEntity
  8
0
 62
    98
370
     0
100
AcDbBlockEnd
  0
BLOCK
  5
7001D
330
7001C
100
AcDbEntity
  8
0
 62
    98
370
     0
100
AcDbBlockBegin
  2
UNITE
 70
     0
 10
0.0
 20
0.0
 30
0.0
  3
UNITE
  1

  0
INSERT
  5
6FEBD
330
7001C
100
AcDbEntity
  8
Level 25
  6
Continuous
 62
   252
370
     0
100
AcDbBlockReference
  2
Feature Solid_1
 10
0.0
 20
0.0
 30
0.0
  0
INSERT
  5
6FEC3
330
7001C
100
AcDbEntity
  8
Level 25
  6
Continuous
 62
   252
370
     0
100
AcDbBlockReference
  2
Feature Solid_2
 10
0.0
 20
0.0
 30
0.0
  0
ENDBLK
  5
7001E
330
7001C
100
AcDbEntity
  8
0
 62
    98
370
     0
100
AcDbBlockEnd
  0
BLOCK
  5
70020
330
7001F
100
AcDbEntity
  8
0
 62
    98
370
     0
100
AcDbBlockBegin
  2
Feature Solid_1
 70
     0
 10
0.0
 20
0.0
 30
0.0
  3
Feature Solid_1
  1

  0
INSERT
  5
6FEBE
330
7001F
100
AcDbEntity
  8
Level 25
  6
Continuous
 62
   252
370
     0
100
AcDbBlockReference
  2
DDPROJ
 10
0.0
 20
0.0
 30
0.0
  0
ENDBLK
  5
70021
330
7001F
100
AcDbEntity
  8
0
 62
    98
370
     0
100
AcDbBlockEnd
  0
BLOCK
  5
70023
330
70022
100
AcDbEntity
  8
0
 62
    98
370
     0
100
AcDbBlockBegin
  2
DDPROJ
 70
     0
 10
0.0
 20
0.0
 30
0.0
  3
DDPROJ
  1

  0
LINE
  5
6FEBF
330
70022
100
AcDbEntity
  8
Level 25
  6
Continuous
 62
   252
370
     0
100
AcDbLine
 10
5693.75574
 20
9473.243997
 30
0.0
 11
5618.75574
 21
9473.243997
 31
0.0
  0
LINE
  5
6FEC0
330
70022
100
AcDbEntity
  8
Level 25
  6
Continuous
 62
   252
370
     0
100
AcDbLine
 10
5693.75574
 20
9498.895508
 30
0.0
 11
5618.75574
 21
9498.895508
 31
0.0
  0
LINE
  5
6FEC1
330
70022
100
AcDbEntity
  8
Level 25
  6
Continuous
 62
   252
370
     0
100
AcDbLine
 10
5693.75574
 20
9473.243997
 30
0.0
 11
5693.75574
 21
9498.895508
 31
0.0
  0
LINE
  5
6FEC2
330
70022
100
AcDbEntity
  8
Level 25
  6
Continuous
 62
   252
370
     0
100
AcDbLine
 10
5618.75574
 20
9473.243997
 30
0.0
 11
5618.75574
 21
9498.895508
 31
0.0
  0
ENDBLK
  5
70024
330
70022
100
AcDbEntity
  8
0
 62
    98
370
     0
100
AcDbBlockEnd
  0
BLOCK
  5
70026
330
70025
100
AcDbEntity
  8
0
 62
    98
370
     0
100
AcDbBlockBegin
  2
Feature Solid_2
 70
     0
 10
0.0
 20
0.0
 30
0.0
  3
Feature Solid_2
  1

  0
INSERT
  5
6FEC4
330
70025
100
AcDbEntity
  8
Level 25
  6
Continuous
 62
   252
370
     0
100
AcDbBlockReference
  2
DDPROJ_1
 10
0.0
 20
0.0
 30
0.0
  0
ENDBLK
  5
70027
330
70025
100
AcDbEntity
  8
0
 62
    98
370
     0
100
AcDbBlockEnd
  0
BLOCK
  5
70029
330
70028
100
AcDbEntity
  8
0
 62
    98
370
     0
100
AcDbBlockBegin
  2
DDPROJ_1
 70
     0
 10
0.0
 20
0.0
 30
0.0
  3
DDPROJ_1
  1

  0
LINE
  5
6FEC5
330
70028
100
AcDbEntity
  8
Level 25
  6
Continuous
 62
   252
370
     0
100
AcDbLine
 10
5693.75574
 20
9498.895508
 30
0.0
 11
5693.75574
 21
13772.592486
 31
0.0
  0
LINE
  5
6FEC6
330
70028
100
AcDbEntity
  8
Level 25
  6
Continuous
 62
   252
370
     0
100
AcDbLine
 10
5693.75574
 20
13798.243997
 30
0.0
 11
5693.75574
 21
9473.243997
 31
0.0
  0
LINE
  5
6FEC7
330
70028
100
AcDbEntity
  8
Level 25
  6
Continuous
 62
   252
370
     0
100
AcDbLine
 10
5618.75574
 20
9498.895508
 30
0.0
 11
5618.75574
 21
13772.592486
 31
0.0
  0
LINE
  5
6FEC8
330
70028
100
AcDbEntity
  8
Level 25
  6
Continuous
 62
   252
370
     0
100
AcDbLine
 10
5618.75574
 20
13798.243997
 30
0.0
 11
5618.75574
 21
9473.243997
 31
0.0
  0
LINE
  5
6FEC9
330
70028
100
AcDbEntity
  8
Level 25
  6
Continuous
 62
   252
370
     0
100
AcDbLine
 10
5618.75574
 20
13798.243997
 30
0.0
 11
5618.75574
 21
13772.592486
 31
0.0
  0
LINE
  5
6FECA
330
70028
100
AcDbEntity
  8
Level 25
  6
Continuous
 62
   252
370
     0
100
AcDbLine
 10
5693.75574
 20
13798.243997
 30
0.0
 11
5618.75574
 21
13798.243997
 31
0.0
  0
LINE
  5
6FECB
330
70028
100
AcDbEntity
  8
Level 25
  6
Continuous
 62
   252
370
     0
100
AcDbLine
 10
5693.75574
 20
13772.592486
 30
0.0
 11
5693.75574
 21
13798.243997
 31
0.0
  0
LINE
  5
6FECC
330
70028
100
AcDbEntity
  8
Level 25
  6
Continuous
 62
   252
370
     0
100
AcDbLine
 10
5618.75574
 20
13772.592486
 30
0.0
 11
5693.75574
 21
13772.592486
 31
0.0
  0
ENDBLK
  5
7002A
330
70028
100
AcDbEntity
  8
0
 62
    98
370
     0
100
AcDbBlockEnd
  0
ENDSEC
  0
SECTION
  2
ENTITIES
  0
INSERT
  5
6FD6F
330
6FF59
100
AcDbEntity
  8
Level 27
  6
Continuous
 62
    12
370
     0
100
AcDbBlockReference
  2
SW04
 10
1413.083104
 20
-154.582739
 30
0.0
 50
270.0
  0
LWPOLYLINE
  5
6FED9
330
6FF59
100
AcDbEntity
  8
Level 15
  6
DGN Style 2
 62
     7
370
    13
100
AcDbPolyline
 90
       12
 70
   129
 43
0.0
 10
3038.083104
 20
3135.417261
 10
6262.507311
 20
2098.836567
 42
-0.325781
 10
7905.083104
 20
-154.582739
 42
-0.325781
 10
6262.507311
 20
-2408.002045
 10
3038.083104
 20
-3444.582739
 10
1288.083104
 20
-3444.582739
 10
1288.083104
 20
-1473.615161
 10
283.98248
 20
-1473.615161
 10
283.98248
 20
1164.449683
 10
1288.083104
 20
1164.449683
 10
1288.083104
 20
3135.417261
 10
3038.083104
 20
3135.417261
  0
ENDSEC
  0
SECTION
  2
OBJECTS
  0
DICTIONARY
  5
6FF60
330
0
100
AcDbDictionary
281
     1
  3
ACAD_COLOR
350
6FF9E
  3
ACAD_GROUP
350
6FF8B
  3
ACAD_LAYOUT
350
6FF6D
  3
ACAD_MATERIAL
350
6FF62
  3
ACAD_MLEADERSTYLE
350
6FFA1
  3
ACAD_MLINESTYLE
350
6FF8C
  3
ACAD_PLOTSETTINGS
350
6FF8D
  3
ACAD_PLOTSTYLENAME
350
6FF5F
  3
ACAD_SCALELIST
350
6FF9F
  3
ACAD_TABLESTYLE
350
6FFA0
  3
ACAD_VISUALSTYLE
350
6FF85
  3
ACDB_RECOMPOSE_DATA
350
70039
  3
AcDbVariableDictionary
350
7002F
  0
DICTIONARY
  5
6FF78
330
6FF77
100
AcDbDictionary
280
     1
281
     1
  3
ACAD_LAYERFILTERS
360
6FFCB
  3
ACAD_LAYERSTATES
360
6FF79
  3
ACLYDICTIONARY
360
6FFCC
  0
DICTIONARY
  5
6FF5C
330
6FF5B
100
AcDbDictionary
280
     1
281
     1
  3
ADSK_XREC_LAYER_RECONCILED
360
6FF5D
  0
DICTIONARY
  5
7002B
330
6FFD1
100
AcDbDictionary
280
     1
281
     1
  3
ACAD_SORTENTS
360
7002C
  0
DICTIONARY
  5
6FF9E
102
{ACAD_REACTORS
330
6FF60
102
}
330
6FF60
100
AcDbDictionary
281
     1
  0
DICTIONARY
  5
6FF8B
102
{ACAD_REACTORS
330
6FF60
102
}
330
6FF60
100
AcDbDictionary
281
     1
  0
DICTIONARY
  5
6FF6D
102
{ACAD_REACTORS
330
6FF60
102
}
330
6FF60
100
AcDbDictionary
281
     1
  3
Layout1
350
6FF73
  3
Model
350
6FF6C
  0
DICTIONARY
  5
6FF62
102
{ACAD_REACTORS
330
6FF60
102
}
330
6FF60
100
AcDbDictionary
281
     1
  3
ByBlock
350
6FF96
  3
ByLayer
350
6FF8E
  3
Global
350
6FF61
  0
DICTIONARY
  5
6FFA1
102
{ACAD_REACTORS
330
6FF60
102
}
330
6FF60
100
AcDbDictionary
281
     1
  0
DICTIONARY
  5
6FF8C
102
{ACAD_REACTORS
330
6FF60
102
}
330
6FF60
100
AcDbDictionary
281
     1
  3
Standard
350
6FFA2
  0
DICTIONARY
  5
6FF8D
102
{ACAD_REACTORS
330
6FF60
102
}
330
6FF60
100
AcDbDictionary
281
     1
  0
ACDBDICTIONARYWDFLT
  5
6FF5F
102
{ACAD_REACTORS
330
6FF60
102
}
330
6FF60
100
AcDbDictionary
281
     1
  3
Normal
350
6FF5E
100
AcDbDictionaryWithDefault
340
6FF5E
  0
DICTIONARY
  5
6FF9F
102
{ACAD_REACTORS
330
6FF60
102
}
330
6FF60
100
AcDbDictionary
281
     1
  3
A0
350
6FFA7
  3
A1
350
6FFA8
  3
A2
350
6FFA9
  3
A3
350
6FFAA
  3
A4
350
6FFAB
  3
A5
350
6FFAC
  3
A6
350
6FFAD
  3
A7
350
6FFAE
  3
A8
350
6FFAF
  3
A9
350
6FFB0
  3
B0
350
6FFB1
  3
B1
350
6FFB2
  3
B2
350
6FFB3
  3
B3
350
6FFB4
  3
B4
350
6FFB5
  3
B5
350
6FFB6
  3
B6
350
6FFB7
  3
B7
350
6FFB8
  3
B8
350
6FFB9
  3
B9
350
6FFBA
  3
C0
350
6FFBB
  3
C1
350
6FFBC
  3
C2
350
6FFBD
  3
C3
350
6FFBE
  3
C4
350
6FFBF
  3
C5
350
6FFC0
  3
C6
350
6FFC1
  3
C7
350
6FFC2
  3
C8
350
6FFC3
  3
C9
350
6FFC4
  3
D0
350
6FFC5
  3
D1
350
6FFC6
  3
D2
350
6FFC7
  0
DICTIONARY
  5
6FFA0
102
{ACAD_REACTORS
330
6FF60
102
}
330
6FF60
100
AcDbDictionary
281
     1
  3
Standard
350
6FFA3
  0
DICTIONARY
  5
6FF85
102
{ACAD_REACTORS
330
6FF60
102
}
330
6FF60
100
AcDbDictionary
281
     1
  3
2dWireframe
350
6FF84
  3
Realistic
350
6FFA5
  3
Wireframe
350
6FFA6
  0
XRECORD
  5
70039
102
{ACAD_REACTORS
330
6FF60
102
}
330
6FF60
100
AcDbXrecord
280
     1
 90
        1
330
6FFA3
  0
DICTIONARY
  5
7002F
102
{ACAD_REACTORS
330
6FF60
102
}
330
6FF60
100
AcDbDictionary
281
     1
  3
CANNOSCALE
350
70035
  3
CMLEADERSTYLE
350
70031
  3
CTABLESTYLE
350
70030
  3
CVIEWDETAILSTYLE
350
70032
  3
CVIEWSECTIONSTYLE
350
70033
  3
LAYEREVAL
350
70036
  3
LAYERNOTIFY
350
70037
  3
MSLTSCALE
350
70034
  0
DICTIONARY
  5
6FFCB
102
{ACAD_REACTORS
330
6FF78
102
}
330
6FF78
100
AcDbDictionary
281
     1
  0
DICTIONARY
  5
6FF79
102
{ACAD_REACTORS
330
6FF78
102
}
330
6FF78
100
AcDbDictionary
281
     1
  0
DICTIONARY
  5
6FFCC
102
{ACAD_REACTORS
330
6FF78
102
}
330
6FF78
100
AcDbDictionary
281
     1
  0
XRECORD
  5
6FF5D
102
{ACAD_REACTORS
330
6FF5C
102
}
330
6FF5C
100
AcDbXrecord
280
     1
290
     1
  0
SORTENTSTABLE
  5
7002C
102
{ACAD_REACTORS
330
7002B
102
}
330
7002B
100
AcDbSortentsTable
330
6FFD1
331
6FE8E
  5
6FF4D
331
6FDA1
  5
6FDA1
331
6FD7A
  5
6FD7A
331
6FF40
  5
6FE4D
331
6FD99
  5
6FD99
331
6FD72
  5
6FD72
331
6FE9D
  5
6FF50
331
6FDB8
  5
6FDB8
331
6FD91
  5
6FD91
331
6FF55
  5
6FF4A
331
6FF4D
  5
6FE93
331
6FDB0
  5
6FDB0
331
6FD89
  5
6FD89
331
6FDA8
  5
6FDA8
331
6FE7A
  5
6FF49
331
6FD85
  5
6FD85
331
6FDA4
  5
6FDA4
331
6FD7D
  5
6FD7D
331
6FE89
  5
6FF4C
331
6FEB0
  5
6FF53
331
6FF43
  5
6FE5C
331
6FD9C
  5
6FD9C
331
6FD75
  5
6FD75
331
6FD94
  5
6FD94
331
6FDB3
  5
6FDB3
331
6FD8C
  5
6FD8C
331
6FF50
  5
6FEA7
331
6FE66
  5
6FF45
331
6FF48
  5
6FE75
331
6FDAB
  5
6FDAB
331
6FE75
  5
6FF48
331
6FEBB
  5
6FF56
331
6FDA7
  5
6FDA7
331
6FD80
  5
6FD80
331
6FF46
  5
6FE6B
331
6FD9F
  5
6FD9F
331
6FD78
  5
6FD78
331
6FE84
  5
6FF4B
331
6FD97
  5
6FD97
331
6FD70
  5
6FD70
331
6FDB6
  5
6FDB6
331
6FD8F
  5
6FD8F
331
6FF53
  5
6FEBA
331
6FF4B
  5
6FE89
331
6FDAE
  5
6FDAE
331
6FE61
  5
6FF44
331
6FD83
  5
6FD83
331
6FE70
  5
6FF47
331
6FDA2
  5
6FDA2
331
6FD7B
  5
6FD7B
331
6FF41
  5
6FE52
331
6FD9A
  5
6FD9A
331
6FD73
  5
6FD73
331
6FDB9
  5
6FDB9
331
6FD92
  5
6FD92
331
6FF56
  5
6FF4F
331
6FF4E
  5
6FE9D
331
6FDB1
  5
6FDB1
331
6FD8A
  5
6FD8A
331
6FDA9
  5
6FDA9
331
6FE5C
  5
6FF43
331
6FD86
  5
6FD86
331
6FEB9
  5
6FF54
331
6FDA5
  5
6FDA5
331
6FD7E
  5
6FD7E
331
6FE6B
  5
6FF46
331
6FF44
  5
6FE61
331
6FD9D
  5
6FD9D
331
6FD76
  5
6FD76
331
6FD95
  5
6FD95
331
6FDB4
  5
6FDB4
331
6FD8D
  5
6FD8D
331
6FF51
  5
6FEB0
331
6FF49
  5
6FE7A
331
6FDAC
  5
6FDAC
331
6FE57
  5
6FF42
331
6FD81
  5
6FD81
331
6FF47
  5
6FE70
331
6FDA0
  5
6FDA0
331
6FD79
  5
6FD79
331
6FD98
  5
6FD98
331
6FD71
  5
6FD71
331
6FDB7
  5
6FDB7
331
6FD90
  5
6FD90
331
6FF54
  5
6FEBB
331
6FF4C
  5
6FE8E
331
6FDAF
  5
6FDAF
331
6FD88
  5
6FD88
331
6FE52
  5
6FF41
331
6FD84
  5
6FD84
331
6FDA3
  5
6FDA3
331
6FD7C
  5
6FD7C
331
6FEA7
  5
6FF52
331
6FF42
  5
6FE57
331
6FD9B
  5
6FD9B
331
6FD74
  5
6FD74
331
6FD93
  5
6FD93
331
6FF4F
  5
6FEA2
331
6FDB2
  5
6FDB2
331
6FD8B
  5
6FD8B
331
6FDAA
  5
6FDAA
331
6FD87
  5
6FD87
331
6FE93
  5
6FF4E
331
6FE4D
  5
6FF40
331
6FEBA
  5
6FF55
331
6FDA6
  5
6FDA6
331
6FD7F
  5
6FD7F
331
6FF45
  5
6FE66
331
6FD9E
  5
6FD9E
331
6FD77
  5
6FD77
331
6FEA2
  5
6FF51
331
6FD96
  5
6FD96
331
6FDB5
  5
6FDB5
331
6FD8E
  5
6FD8E
331
6FF52
  5
6FEB9
331
6FF4A
  5
6FE84
331
6FDAD
  5
6FDAD
331
6FD82
  5
6FD82
  0
LAYOUT
  5
6FF73
102
{ACAD_XDICTIONARY
360
6FF74
102
}
102
{ACAD_REACTORS
330
6FF6D
102
}
330
6FF6D
100
AcDbPlotSettings
  1

  2
none_device
  4
Letter_(8.50_x_11.00_Inches)
  6

 40
6.35
 41
6.35
 42
6.350006
 43
6.350006
 44
215.899994
 45
279.399994
 46
0.0
 47
0.0
 48
0.0
 49
0.0
140
0.0
141
0.0
142
1.0
143
1.0
 70
   688
 72
     0
 73
     1
 74
     5
  7

 75
    16
147
1.0
 76
     0
 77
     2
 78
   300
148
0.0
149
0.0
100
AcDbLayout
  1
Layout1
 70
     1
 71
     1
 10
-0.25
 20
-0.25
 11
10.75
 21
8.25
 12
0.0
 22
0.0
 32
0.0
 14
1.05
 24
0.8
 34
0.0
 15
9.45
 25
7.2
 35
0.0
146
0.0
 13
0.0
 23
0.0
 33
0.0
 16
1.0
 26
0.0
 36
0.0
 17
0.0
 27
1.0
 37
0.0
 76
     0
330
6FF70
1001
ACAD_PSEXT
1000
None
1000
None
1000
Not applicable
1000
The layout will not be plotted unless a new plotter configuration name is selected.
1070
     0
  0
LAYOUT
  5
6FF6C
102
{ACAD_XDICTIONARY
360
6FF6E
102
}
102
{ACAD_REACTORS
330
6FF6D
102
}
330
6FF6D
100
AcDbPlotSettings
  1

  2
none_device
  4
ANSI_A_(8.50_x_11.00_Inches)
  6

 40
6.35
 41
19.049999
 42
6.350006
 43
19.049988
 44
215.899994
 45
279.399994
 46
0.0
 47
0.0
 48
0.0
 49
0.0
140
0.0
141
0.0
142
1.0
143
2.584895
 70
 11952
 72
     0
 73
     1
 74
     0
  7

 75
     0
147
0.386863
 76
     0
 77
     2
 78
   300
148
0.0
149
0.0
100
AcDbLayout
  1
Model
 70
     1
 71
     0
 10
0.0
 20
0.0
 11
12.0
 21
9.0
 12
0.0
 22
0.0
 32
0.0
 14
0.0
 24
0.0
 34
0.0
 15
0.0
 25
0.0
 35
0.0
146
0.0
 13
0.0
 23
0.0
 33
0.0
 16
1.0
 26
0.0
 36
0.0
 17
0.0
 27
1.0
 37
0.0
 76
     0
330
6FF59
331
6FF83
  0
MATERIAL
  5
6FF96
102
{ACAD_XDICTIONARY
360
6FF97
102
}
102
{ACAD_REACTORS
330
6FF62
102
}
330
6FF62
100
AcDbMaterial
  1
ByBlock
 72
     0
 43
0.020833
 43
0.0
 43
0.0
 43
0.0
 43
0.0
 43
0.020833
 43
0.0
 43
0.0
 43
0.0
 43
0.0
 43
1.0
 43
0.0
 43
0.0
 43
0.0
 43
0.0
 43
1.0
 77
     0
 47
0.020833
 47
0.0
 47
0.0
 47
0.0
 47
0.0
 47
0.020833
 47
0.0
 47
0.0
 47
0.0
 47
0.0
 47
1.0
 47
0.0
 47
0.0
 47
0.0
 47
0.0
 47
1.0
171
     0
 49
0.020833
 49
0.0
 49
0.0
 49
0.0
 49
0.0
 49
0.020833
 49
0.0
 49
0.0
 49
0.0
 49
0.0
 49
1.0
 49
0.0
 49
0.0
 49
0.0
 49
0.0
 49
1.0
175
     0
142
0.020833
142
0.0
142
0.0
142
0.0
142
0.0
142
0.020833
142
0.0
142
0.0
142
0.0
142
0.0
142
1.0
142
0.0
142
0.0
142
0.0
142
0.0
142
1.0
179
     0
144
0.020833
144
0.0
144
0.0
144
0.0
144
0.0
144
0.020833
144
0.0
144
0.0
144
0.0
144
0.0
144
1.0
144
0.0
144
0.0
144
0.0
144
0.0
144
1.0
147
0.020833
147
0.0
147
0.0
147
0.0
147
0.0
147
0.020833
147
0.0
147
0.0
147
0.0
147
0.0
147
1.0
147
0.0
147
0.0
147
0.0
147
0.0
147
1.0
  0
MATERIAL
  5
6FF8E
102
{ACAD_XDICTIONARY
360
6FF8F
102
}
102
{ACAD_REACTORS
330
6FF62
102
}
330
6FF62
100
AcDbMaterial
  1
ByLayer
 72
     0
 43
0.020833
 43
0.0
 43
0.0
 43
0.0
 43
0.0
 43
0.020833
 43
0.0
 43
0.0
 43
0.0
 43
0.0
 43
1.0
 43
0.0
 43
0.0
 43
0.0
 43
0.0
 43
1.0
 77
     0
 47
0.020833
 47
0.0
 47
0.0
 47
0.0
 47
0.0
 47
0.020833
 47
0.0
 47
0.0
 47
0.0
 47
0.0
 47
1.0
 47
0.0
 47
0.0
 47
0.0
 47
0.0
 47
1.0
171
     0
 49
0.020833
 49
0.0
 49
0.0
 49
0.0
 49
0.0
 49
0.020833
 49
0.0
 49
0.0
 49
0.0
 49
0.0
 49
1.0
 49
0.0
 49
0.0
 49
0.0
 49
0.0
 49
1.0
175
     0
142
0.020833
142
0.0
142
0.0
142
0.0
142
0.0
142
0.020833
142
0.0
142
0.0
142
0.0
142
0.0
142
1.0
142
0.0
142
0.0
142
0.0
142
0.0
142
1.0
179
     0
144
0.020833
144
0.0
144
0.0
144
0.0
144
0.0
144
0.020833
144
0.0
144
0.0
144
0.0
144
0.0
144
1.0
144
0.0
144
0.0
144
0.0
144
0.0
144
1.0
147
0.020833
147
0.0
147
0.0
147
0.0
147
0.0
147
0.020833
147
0.0
147
0.0
147
0.0
147
0.0
147
1.0
147
0.0
147
0.0
147
0.0
147
0.0
147
1.0
  0
MATERIAL
  5
6FF61
102
{ACAD_XDICTIONARY
360
6FF63
102
}
102
{ACAD_REACTORS
330
6FF62
102
}
330
6FF62
100
AcDbMaterial
  1
Global
 72
     0
 43
0.020833
 43
0.0
 43
0.0
 43
0.0
 43
0.0
 43
0.020833
 43
0.0
 43
0.0
 43
0.0
 43
0.0
 43
1.0
 43
0.0
 43
0.0
 43
0.0
 43
0.0
 43
1.0
 77
     0
 47
0.020833
 47
0.0
 47
0.0
 47
0.0
 47
0.0
 47
0.020833
 47
0.0
 47
0.0
 47
0.0
 47
0.0
 47
1.0
 47
0.0
 47
0.0
 47
0.0
 47
0.0
 47
1.0
171
     0
 49
0.020833
 49
0.0
 49
0.0
 49
0.0
 49
0.0
 49
0.020833
 49
0.0
 49
0.0
 49
0.0
 49
0.0
 49
1.0
 49
0.0
 49
0.0
 49
0.0
 49
0.0
 49
1.0
175
     0
142
0.020833
142
0.0
142
0.0
142
0.0
142
0.0
142
0.020833
142
0.0
142
0.0
142
0.0
142
0.0
142
1.0
142
0.0
142
0.0
142
0.0
142
0.0
142
1.0
179
     0
144
0.020833
144
0.0
144
0.0
144
0.0
144
0.0
144
0.020833
144
0.0
144
0.0
144
0.0
144
0.0
144
1.0
144
0.0
144
0.0
144
0.0
144
0.0
144
1.0
147
0.020833
147
0.0
147
0.0
147
0.0
147
0.0
147
0.020833
147
0.0
147
0.0
147
0.0
147
0.0
147
1.0
147
0.0
147
0.0
147
0.0
147
0.0
147
1.0
  0
MLINESTYLE
  5
6FFA2
102
{ACAD_REACTORS
330
6FF8C
102
}
330
6FF8C
100
AcDbMlineStyle
  2
STANDARD
 70
     0
  3

 62
   256
 51
90.0
 52
90.0
 71
     2
 49
0.5
 62
   256
  6
BYLAYER
 49
-0.5
 62
   256
  6
BYLAYER
  0
ACDBPLACEHOLDER
  5
6FF5E
102
{ACAD_REACTORS
330
6FF5F
102
}
330
6FF5F
  0
SCALE
  5
6FFA7
102
{ACAD_REACTORS
330
6FF9F
102
}
330
6FF9F
100
AcDbScale
 70
     0
300
1:1
140
1.0
141
1.0
290
     1
  0
SCALE
  5
6FFA8
102
{ACAD_REACTORS
330
6FF9F
102
}
330
6FF9F
100
AcDbScale
 70
     0
300
1:2
140
1.0
141
2.0
290
     0
  0
SCALE
  5
6FFA9
102
{ACAD_REACTORS
330
6FF9F
102
}
330
6FF9F
100
AcDbScale
 70
     0
300
1:4
140
1.0
141
4.0
290
     0
  0
SCALE
  5
6FFAA
102
{ACAD_REACTORS
330
6FF9F
102
}
330
6FF9F
100
AcDbScale
 70
     0
300
1:5
140
1.0
141
5.0
290
     0
  0
SCALE
  5
6FFAB
102
{ACAD_REACTORS
330
6FF9F
102
}
330
6FF9F
100
AcDbScale
 70
     0
300
1:8
140
1.0
141
8.0
290
     0
  0
SCALE
  5
6FFAC
102
{ACAD_REACTORS
330
6FF9F
102
}
330
6FF9F
100
AcDbScale
 70
     0
300
1:10
140
1.0
141
10.0
290
     0
  0
SCALE
  5
6FFAD
102
{ACAD_REACTORS
330
6FF9F
102
}
330
6FF9F
100
AcDbScale
 70
     0
300
1:16
140
1.0
141
16.0
290
     0
  0
SCALE
  5
6FFAE
102
{ACAD_REACTORS
330
6FF9F
102
}
330
6FF9F
100
AcDbScale
 70
     0
300
1:20
140
1.0
141
20.0
290
     0
  0
SCALE
  5
6FFAF
102
{ACAD_REACTORS
330
6FF9F
102
}
330
6FF9F
100
AcDbScale
 70
     0
300
1:30
140
1.0
141
30.0
290
     0
  0
SCALE
  5
6FFB0
102
{ACAD_REACTORS
330
6FF9F
102
}
330
6FF9F
100
AcDbScale
 70
     0
300
1:40
140
1.0
141
40.0
290
     0
  0
SCALE
  5
6FFB1
102
{ACAD_REACTORS
330
6FF9F
102
}
330
6FF9F
100
AcDbScale
 70
     0
300
1:50
140
1.0
141
50.0
290
     0
  0
SCALE
  5
6FFB2
102
{ACAD_REACTORS
330
6FF9F
102
}
330
6FF9F
100
AcDbScale
 70
     0
300
1:100
140
1.0
141
100.0
290
     0
  0
SCALE
  5
6FFB3
102
{ACAD_REACTORS
330
6FF9F
102
}
330
6FF9F
100
AcDbScale
 70
     0
300
2:1
140
2.0
141
1.0
290
     0
  0
SCALE
  5
6FFB4
102
{ACAD_REACTORS
330
6FF9F
102
}
330
6FF9F
100
AcDbScale
 70
     0
300
4:1
140
4.0
141
1.0
290
     0
  0
SCALE
  5
6FFB5
102
{ACAD_REACTORS
330
6FF9F
102
}
330
6FF9F
100
AcDbScale
 70
     0
300
8:1
140
8.0
141
1.0
290
     0
  0
SCALE
  5
6FFB6
102
{ACAD_REACTORS
330
6FF9F
102
}
330
6FF9F
100
AcDbScale
 70
     0
300
10:1
140
10.0
141
1.0
290
     0
  0
SCALE
  5
6FFB7
102
{ACAD_REACTORS
330
6FF9F
102
}
330
6FF9F
100
AcDbScale
 70
     0
300
100:1
140
100.0
141
1.0
290
     0
  0
SCALE
  5
6FFB8
102
{ACAD_REACTORS
330
6FF9F
102
}
330
6FF9F
100
AcDbScale
 70
     0
300
1/128" = 1'-0"
140
0.007813
141
12.0
290
     0
  0
SCALE
  5
6FFB9
102
{ACAD_REACTORS
330
6FF9F
102
}
330
6FF9F
100
AcDbScale
 70
     0
300
1/64" = 1'-0"
140
0.015625
141
12.0
290
     0
  0
SCALE
  5
6FFBA
102
{ACAD_REACTORS
330
6FF9F
102
}
330
6FF9F
100
AcDbScale
 70
     0
300
1/32" = 1'-0"
140
0.03125
141
12.0
290
     0
  0
SCALE
  5
6FFBB
102
{ACAD_REACTORS
330
6FF9F
102
}
330
6FF9F
100
AcDbScale
 70
     0
300
1/16" = 1'-0"
140
0.0625
141
12.0
290
     0
  0
SCALE
  5
6FFBC
102
{ACAD_REACTORS
330
6FF9F
102
}
330
6FF9F
100
AcDbScale
 70
     0
300
3/32" = 1'-0"
140
0.09375
141
12.0
290
     0
  0
SCALE
  5
6FFBD
102
{ACAD_REACTORS
330
6FF9F
102
}
330
6FF9F
100
AcDbScale
 70
     0
300
1/8" = 1'-0"
140
0.125
141
12.0
290
     0
  0
SCALE
  5
6FFBE
102
{ACAD_REACTORS
330
6FF9F
102
}
330
6FF9F
100
AcDbScale
 70
     0
300
3/16" = 1'-0"
140
0.1875
141
12.0
290
     0
  0
SCALE
  5
6FFBF
102
{ACAD_REACTORS
330
6FF9F
102
}
330
6FF9F
100
AcDbScale
 70
     0
300
1/4" = 1'-0"
140
0.25
141
12.0
290
     0
  0
SCALE
  5
6FFC0
102
{ACAD_REACTORS
330
6FF9F
102
}
330
6FF9F
100
AcDbScale
 70
     0
300
3/8" = 1'-0"
140
0.375
141
12.0
290
     0
  0
SCALE
  5
6FFC1
102
{ACAD_REACTORS
330
6FF9F
102
}
330
6FF9F
100
AcDbScale
 70
     0
300
1/2" = 1'-0"
140
0.5
141
12.0
290
     0
  0
SCALE
  5
6FFC2
102
{ACAD_REACTORS
330
6FF9F
102
}
330
6FF9F
100
AcDbScale
 70
     0
300
3/4" = 1'-0"
140
0.75
141
12.0
290
     0
  0
SCALE
  5
6FFC3
102
{ACAD_REACTORS
330
6FF9F
102
}
330
6FF9F
100
AcDbScale
 70
     0
300
1" = 1'-0"
140
1.0
141
12.0
290
     0
  0
SCALE
  5
6FFC4
102
{ACAD_REACTORS
330
6FF9F
102
}
330
6FF9F
100
AcDbScale
 70
     0
300
1-1/2" = 1'-0"
140
1.5
141
12.0
290
     0
  0
SCALE
  5
6FFC5
102
{ACAD_REACTORS
330
6FF9F
102
}
330
6FF9F
100
AcDbScale
 70
     0
300
3" = 1'-0"
140
3.0
141
12.0
290
     0
  0
SCALE
  5
6FFC6
102
{ACAD_REACTORS
330
6FF9F
102
}
330
6FF9F
100
AcDbScale
 70
     0
300
6" = 1'-0"
140
6.0
141
12.0
290
     0
  0
SCALE
  5
6FFC7
102
{ACAD_REACTORS
330
6FF9F
102
}
330
6FF9F
100
AcDbScale
 70
     0
300
1'-0" = 1'-0"
140
12.0
141
12.0
290
     0
  0
TABLESTYLE
  5
6FFA3
102
{ACAD_XDICTIONARY
360
6FFA4
102
}
102
{ACAD_REACTORS
330
6FFA0
102
}
330
6FFA0
100
AcDbTableStyle
280
     0
  3
Standard
 70
     0
 71
     0
 40
0.06
 41
0.06
280
     0
281
     0
  7
Standard
140
0.18
170
     2
 62
     0
 63
     7
283
     0
 90
        4
 91
        0
  1

274
    -2
284
     1
 64
     0
275
    -2
285
     1
 65
     0
276
    -2
286
     1
 66
     0
277
    -2
287
     1
 67
     0
278
    -2
288
     1
 68
     0
279
    -2
289
     1
 69
     0
  7
Standard
140
0.25
170
     5
 62
     0
 63
     7
283
     0
 90
        4
 91
        0
  1

274
    -2
284
     1
 64
     0
275
    -2
285
     1
 65
     0
276
    -2
286
     1
 66
     0
277
    -2
287
     1
 67
     0
278
    -2
288
     1
 68
     0
279
    -2
289
     1
 69
     0
  7
Standard
140
0.18
170
     5
 62
     0
 63
     7
283
     0
 90
        4
 91
        0
  1

274
    -2
284
     1
 64
     0
275
    -2
285
     1
 65
     0
276
    -2
286
     1
 66
     0
277
    -2
287
     1
 67
     0
278
    -2
288
     1
 68
     0
279
    -2
289
     1
 69
     0
  0
VISUALSTYLE
  5
6FF84
102
{ACAD_REACTORS
330
6FF85
102
}
330
6FF85
100
AcDbVisualStyle
  2
2dWireframe
 70
     4
177
     3
291
     0
 70
    58
 90
        0
176
     1
 90
        2
176
     1
 90
        0
176
     1
 90
        0
176
     1
 40
0.6
176
     1
 40
30.0
176
     1
 62
     7
420
 16777215
176
     1
 90
        1
176
     1
 90
        4
176
     1
 62
     7
176
     1
 62
   257
176
     1
 90
        1
176
     1
 90
        1
176
     1
 40
1.0
176
     1
 90
        0
176
     1
 62
   257
176
     1
 40
1.0
176
     1
 90
        1
176
     1
 90
        6
176
     1
 90
        2
176
     1
 62
     7
176
     1
 90
        5
176
     1
 90
        0
176
     1
 90
        0
176
     1
290
     0
176
     1
 90
        1
176
     1
 40
0.0
176
     1
 90
        0
176
     1
290
     1
176
     1
290
     1
176
     1
290
     0
176
     1
290
     0
176
     1
290
     0
176
     1
290
     0
176
     1
290
     0
176
     1
290
     0
176
     1
290
     0
176
     1
 90
       50
176
     1
 40
0.0
176
     1
 40
1.0
176
     1
 90
        0
176
     1
 62
    18
420
        0
176
     1
 90
       50
176
     1
 90
        3
176
     1
 62
     5
420
      255
176
     1
290
     0
176
     1
 90
       50
176
     1
 90
       50
176
     1
 90
       50
176
     1
290
     0
176
     1
 90
       50
176
     1
 62
   256
176
     0
 40
1.0
176
     0
 90
        2
176
     1
  1
strokes_ogs.tif
176
     1
290
     0
176
     1
 40
1.0
176
     1
 40
1.0
176
     1
  0
VISUALSTYLE
  5
6FFA5
102
{ACAD_REACTORS
330
6FF85
102
}
330
6FF85
100
AcDbVisualStyle
  2
Realistic
 70
     8
177
     3
291
     0
 70
    58
 90
        2
176
     1
 90
        2
176
     1
 90
        0
176
     1
 90
        0
176
     1
 40
0.6
176
     1
 40
30.0
176
     1
 62
     7
420
 16777215
176
     1
 90
        1
176
     1
 90
        0
176
     1
 62
     7
176
     1
 62
   257
176
     1
 90
        1
176
     1
 90
        1
176
     1
 40
1.0
176
     1
 90
        8
176
     1
 62
     8
420
  7895160
176
     1
 40
1.0
176
     1
 90
        1
176
     1
 90
        6
176
     1
 90
        2
176
     1
 62
     7
176
     1
 90
        5
176
     1
 90
        0
176
     1
 90
        0
176
     1
290
     0
176
     1
 90
       13
176
     1
 40
0.0
176
     1
 90
        0
176
     1
290
     0
176
     1
290
     1
176
     1
290
     1
176
     1
290
     0
176
     1
290
     0
176
     1
290
     0
176
     1
290
     0
176
     1
290
     0
176
     1
290
     0
176
     1
 90
       50
176
     1
 40
0.0
176
     1
 40
1.0
176
     1
 90
        0
176
     1
 62
    18
420
        0
176
     1
 90
       50
176
     1
 90
        3
176
     1
 62
     5
420
      255
176
     1
290
     0
176
     1
 90
       50
176
     1
 90
       50
176
     1
 90
       50
176
     1
290
     0
176
     1
 90
       50
176
     1
 62
   256
176
     0
 40
1.0
176
     0
 90
        2
176
     1
  1
strokes_ogs.tif
176
     1
290
     0
176
     1
 40
1.0
176
     1
 40
1.0
176
     1
  0
VISUALSTYLE
  5
6FFA6
102
{ACAD_REACTORS
330
6FF85
102
}
330
6FF85
100
AcDbVisualStyle
  2
Wireframe
 70
     5
177
     3
291
     0
 70
    58
 90
        0
176
     1
 90
        2
176
     1
 90
        0
176
     1
 90
        0
176
     1
 40
0.6
176
     1
 40
30.0
176
     1
 62
     7
420
 16777215
176
     1
 90
        1
176
     1
 90
        4
176
     1
 62
     7
176
     1
 62
   257
176
     1
 90
        1
176
     1
 90
        1
176
     1
 40
1.0
176
     1
 90
        0
176
     1
 62
   257
176
     1
 40
1.0
176
     1
 90
        1
176
     1
 90
        6
176
     1
 90
        2
176
     1
 62
     7
176
     1
 90
        3
176
     1
 90
        0
176
     1
 90
        0
176
     1
290
     0
176
     1
 90
        1
176
     1
 40
0.0
176
     1
 90
        0
176
     1
290
     0
176
     1
290
     1
176
     1
290
     1
176
     1
290
     0
176
     1
290
     0
176
     1
290
     0
176
     1
290
     0
176
     1
290
     0
176
     1
290
     0
176
     1
 90
       50
176
     1
 40
0.0
176
     1
 40
1.0
176
     1
 90
        0
176
     1
 62
    18
420
        0
176
     1
 90
       50
176
     1
 90
        3
176
     1
 62
     5
420
      255
176
     1
290
     0
176
     1
 90
       50
176
     1
 90
       50
176
     1
 90
       50
176
     1
290
     0
176
     1
 90
       50
176
     1
 62
   256
176
     0
 40
1.0
176
     0
 90
        2
176
     1
  1
strokes_ogs.tif
176
     1
290
     0
176
     1
 40
1.0
176
     1
 40
1.0
176
     1
  0
DICTIONARYVAR
  5
70035
102
{ACAD_REACTORS
330
7002F
102
}
330
7002F
100
DictionaryVariables
280
     0
  1
1:1
  0
DICTIONARYVAR
  5
70031
102
{ACAD_REACTORS
330
7002F
102
}
330
7002F
100
DictionaryVariables
280
     0
  1
STANDARD
  0
DICTIONARYVAR
  5
70030
102
{ACAD_REACTORS
330
7002F
102
}
330
7002F
100
DictionaryVariables
280
     0
  1
STANDARD
  0
DICTIONARYVAR
  5
70032
102
{ACAD_REACTORS
330
7002F
102
}
330
7002F
100
DictionaryVariables
280
     0
  1

  0
DICTIONARYVAR
  5
70033
102
{ACAD_REACTORS
330
7002F
102
}
330
7002F
100
DictionaryVariables
280
     0
  1

  0
DICTIONARYVAR
  5
70036
102
{ACAD_REACTORS
330
7002F
102
}
330
7002F
100
DictionaryVariables
280
     0
  1
1
  0
DICTIONARYVAR
  5
70037
102
{ACAD_REACTORS
330
7002F
102
}
330
7002F
100
DictionaryVariables
280
     0
  1
15
  0
DICTIONARYVAR
  5
70034
102
{ACAD_REACTORS
330
7002F
102
}
330
7002F
100
DictionaryVariables
280
     0
  1
0
  0
DICTIONARY
  5
6FF74
330
6FF73
100
AcDbDictionary
280
     1
281
     1
  0
DICTIONARY
  5
6FF6E
330
6FF6C
100
AcDbDictionary
280
     1
281
     1
  0
DICTIONARY
  5
6FF97
330
6FF96
100
AcDbDictionary
280
     1
281
     1
  3
BUMPTILE
360
6FF98
  3
DIFFUSETILE
360
6FF99
  3
OPACITYTILE
360
6FF9A
  3
REFLECTIONTILE
360
6FF9B
  3
REFRACTIONTILE
360
6FF9C
  3
SPECULARTILE
360
6FF9D
  0
DICTIONARY
  5
6FF8F
330
6FF8E
100
AcDbDictionary
280
     1
281
     1
  3
BUMPTILE
360
6FF90
  3
DIFFUSETILE
360
6FF91
  3
OPACITYTILE
360
6FF92
  3
REFLECTIONTILE
360
6FF93
  3
REFRACTIONTILE
360
6FF94
  3
SPECULARTILE
360
6FF95
  0
DICTIONARY
  5
6FF63
330
6FF61
100
AcDbDictionary
280
     1
281
     1
  3
BUMPTILE
360
6FF64
  3
DIFFUSETILE
360
6FF65
  3
OPACITYTILE
360
6FF66
  3
REFLECTIONTILE
360
6FF67
  3
REFRACTIONTILE
360
6FF68
  3
SPECULARTILE
360
6FF69
  0
DICTIONARY
  5
6FFA4
330
6FFA3
100
AcDbDictionary
280
     1
281
     1
  3
ACAD_ROUNDTRIP_2008_TABLESTYLE_CELLSTYLEMAP
360
70038
  0
XRECORD
  5
6FF98
102
{ACAD_REACTORS
330
6FF97
102
}
330
6FF97
100
AcDbXrecord
280
     1
270
     1
271
     1
  0
XRECORD
  5
6FF99
102
{ACAD_REACTORS
330
6FF97
102
}
330
6FF97
100
AcDbXrecord
280
     1
270
     1
271
     1
  0
XRECORD
  5
6FF9A
102
{ACAD_REACTORS
330
6FF97
102
}
330
6FF97
100
AcDbXrecord
280
     1
270
     1
271
     1
  0
XRECORD
  5
6FF9B
102
{ACAD_REACTORS
330
6FF97
102
}
330
6FF97
100
AcDbXrecord
280
     1
270
     1
271
     1
  0
XRECORD
  5
6FF9C
102
{ACAD_REACTORS
330
6FF97
102
}
330
6FF97
100
AcDbXrecord
280
     1
270
     1
271
     1
  0
XRECORD
  5
6FF9D
102
{ACAD_REACTORS
330
6FF97
102
}
330
6FF97
100
AcDbXrecord
280
     1
270
     1
271
     1
  0
XRECORD
  5
6FF90
102
{ACAD_REACTORS
330
6FF8F
102
}
330
6FF8F
100
AcDbXrecord
280
     1
270
     1
271
     1
  0
XRECORD
  5
6FF91
102
{ACAD_REACTORS
330
6FF8F
102
}
330
6FF8F
100
AcDbXrecord
280
     1
270
     1
271
     1
  0
XRECORD
  5
6FF92
102
{ACAD_REACTORS
330
6FF8F
102
}
330
6FF8F
100
AcDbXrecord
280
     1
270
     1
271
     1
  0
XRECORD
  5
6FF93
102
{ACAD_REACTORS
330
6FF8F
102
}
330
6FF8F
100
AcDbXrecord
280
     1
270
     1
271
     1
  0
XRECORD
  5
6FF94
102
{ACAD_REACTORS
330
6FF8F
102
}
330
6FF8F
100
AcDbXrecord
280
     1
270
     1
271
     1
  0
XRECORD
  5
6FF95
102
{ACAD_REACTORS
330
6FF8F
102
}
330
6FF8F
100
AcDbXrecord
280
     1
270
     1
271
     1
  0
XRECORD
  5
6FF64
102
{ACAD_REACTORS
330
6FF63
102
}
330
6FF63
100
AcDbXrecord
280
     1
270
     1
271
     1
  0
XRECORD
  5
6FF65
102
{ACAD_REACTORS
330
6FF63
102
}
330
6FF63
100
AcDbXrecord
280
     1
270
     1
271
     1
  0
XRECORD
  5
6FF66
102
{ACAD_REACTORS
330
6FF63
102
}
330
6FF63
100
AcDbXrecord
280
     1
270
     1
271
     1
  0
XRECORD
  5
6FF67
102
{ACAD_REACTORS
330
6FF63
102
}
330
6FF63
100
AcDbXrecord
280
     1
270
     1
271
     1
  0
XRECORD
  5
6FF68
102
{ACAD_REACTORS
330
6FF63
102
}
330
6FF63
100
AcDbXrecord
280
     1
270
     1
271
     1
  0
XRECORD
  5
6FF69
102
{ACAD_REACTORS
330
6FF63
102
}
330
6FF63
100
AcDbXrecord
280
     1
270
     1
271
     1
  0
CELLSTYLEMAP
  5
70038
102
{ACAD_REACTORS
330
6FFA4
102
}
330
6FFA4
100
AcDbCellStyleMap
 90
        3
300
CELLSTYLE
  1
TABLEFORMAT_BEGIN
 90
        5
170
     1
 91
        0
 92
    32768
 62
   257
 93
        1
300
CONTENTFORMAT
  1
CONTENTFORMAT_BEGIN
 90
        0
 91
        0
 92
        4
 93
        0
300

 40
0.0
140
1.0
 94
        5
 62
     0
340
6FF7B
144
0.25
309
CONTENTFORMAT_END
171
     0
 94
        6
 95
        1
302
GRIDFORMAT
  1
GRIDFORMAT_BEGIN
 90
        0
 91
        1
 62
     0
 92
       -2
340
0
 93
        0
 40
0.045
309
GRIDFORMAT_END
 95
        2
302
GRIDFORMAT
  1
GRIDFORMAT_BEGIN
 90
        0
 91
        1
 62
     0
 92
       -2
340
0
 93
        0
 40
0.045
309
GRIDFORMAT_END
 95
        4
302
GRIDFORMAT
  1
GRIDFORMAT_BEGIN
 90
        0
 91
        1
 62
     0
 92
       -2
340
0
 93
        0
 40
0.045
309
GRIDFORMAT_END
 95
        8
302
GRIDFORMAT
  1
GRIDFORMAT_BEGIN
 90
        0
 91
        1
 62
     0
 92
       -2
340
0
 93
        0
 40
0.045
309
GRIDFORMAT_END
 95
       16
302
GRIDFORMAT
  1
GRIDFORMAT_BEGIN
 90
        0
 91
        1
 62
     0
 92
       -2
340
0
 93
        0
 40
0.045
309
GRIDFORMAT_END
 95
       32
302
GRIDFORMAT
  1
GRIDFORMAT_BEGIN
 90
        0
 91
        1
 62
     0
 92
       -2
340
0
 93
        0
 40
0.045
309
GRIDFORMAT_END
309
TABLEFORMAT_END
  1
CELLSTYLE_BEGIN
 90
        1
 91
        1
300
_TITLE
309
CELLSTYLE_END
300
CELLSTYLE
  1
TABLEFORMAT_BEGIN
 90
        5
170
     1
 91
        0
 92
        0
 62
   257
 93
        1
300
CONTENTFORMAT
  1
CONTENTFORMAT_BEGIN
 90
        0
 91
        0
 92
        4
 93
        0
300

 40
0.0
140
1.0
 94
        5
 62
     0
340
6FF7B
144
0.18
309
CONTENTFORMAT_END
171
     0
 94
        6
 95
        1
302
GRIDFORMAT
  1
GRIDFORMAT_BEGIN
 90
        0
 91
        1
 62
     0
 92
       -2
340
0
 93
        0
 40
0.045
309
GRIDFORMAT_END
 95
        2
302
GRIDFORMAT
  1
GRIDFORMAT_BEGIN
 90
        0
 91
        1
 62
     0
 92
       -2
340
0
 93
        0
 40
0.045
309
GRIDFORMAT_END
 95
        4
302
GRIDFORMAT
  1
GRIDFORMAT_BEGIN
 90
        0
 91
        1
 62
     0
 92
       -2
340
0
 93
        0
 40
0.045
309
GRIDFORMAT_END
 95
        8
302
GRIDFORMAT
  1
GRIDFORMAT_BEGIN
 90
        0
 91
        1
 62
     0
 92
       -2
340
0
 93
        0
 40
0.045
309
GRIDFORMAT_END
 95
       16
302
GRIDFORMAT
  1
GRIDFORMAT_BEGIN
 90
        0
 91
        1
 62
     0
 92
       -2
340
0
 93
        0
 40
0.045
309
GRIDFORMAT_END
 95
       32
302
GRIDFORMAT
  1
GRIDFORMAT_BEGIN
 90
        0
 91
        1
 62
     0
 92
       -2
340
0
 93
        0
 40
0.045
309
GRIDFORMAT_END
309
TABLEFORMAT_END
  1
CELLSTYLE_BEGIN
 90
        2
 91
        1
300
_HEADER
309
CELLSTYLE_END
300
CELLSTYLE
  1
TABLEFORMAT_BEGIN
 90
        5
170
     1
 91
        0
 92
        0
 62
   257
 93
        1
300
CONTENTFORMAT
  1
CONTENTFORMAT_BEGIN
 90
        0
 91
        0
 92
        4
 93
        0
300

 40
0.0
140
1.0
 94
        2
 62
     0
340
6FF7B
144
0.18
309
CONTENTFORMAT_END
171
     0
 94
        6
 95
        1
302
GRIDFORMAT
  1
GRIDFORMAT_BEGIN
 90
        0
 91
        1
 62
     0
 92
       -2
340
0
 93
        0
 40
0.045
309
GRIDFORMAT_END
 95
        2
302
GRIDFORMAT
  1
GRIDFORMAT_BEGIN
 90
        0
 91
        1
 62
     0
 92
       -2
340
0
 93
        0
 40
0.045
309
GRIDFORMAT_END
 95
        4
302
GRIDFORMAT
  1
GRIDFORMAT_BEGIN
 90
        0
 91
        1
 62
     0
 92
       -2
340
0
 93
        0
 40
0.045
309
GRIDFORMAT_END
 95
        8
302
GRIDFORMAT
  1
GRIDFORMAT_BEGIN
 90
        0
 91
        1
 62
     0
 92
       -2
340
0
 93
        0
 40
0.045
309
GRIDFORMAT_END
 95
       16
302
GRIDFORMAT
  1
GRIDFORMAT_BEGIN
 90
        0
 91
        1
 62
     0
 92
       -2
340
0
 93
        0
 40
0.045
309
GRIDFORMAT_END
 95
       32
302
GRIDFORMAT
  1
GRIDFORMAT_BEGIN
 90
        0
 91
        1
 62
     0
 92
       -2
340
0
 93
        0
 40
0.045
309
GRIDFORMAT_END
309
TABLEFORMAT_END
  1
CELLSTYLE_BEGIN
 90
        3
 91
        2
300
_DATA
309
CELLSTYLE_END
  0
ENDSEC
  0
SECTION
  2
ACDSDATA
 70
     2
 71
     6
  0
ACDSSCHEMA
 90
        0
  1
AcDb_Thumbnail_Schema
  2
AcDbDs::ID
280
    10
 91
        8
  2
Thumbnail_Data
280
    15
 91
        0
101
ACDSRECORD
 95
        0
 90
        1
  2
AcDbDs::TreatedAsObjectData
280
     1
291
     1
101
ACDSRECORD
 95
        0
 90
        2
  2
AcDbDs::Legacy
280
     1
291
     1
101
ACDSRECORD
  1
AcDbDs::ID
 90
        3
  2
AcDs:Indexable
280
     1
291
     1
101
ACDSRECORD
  1
AcDbDs::ID
 90
        4
  2
AcDbDs::HandleAttribute
280
     7
282
     1
  0
ACDSSCHEMA
 90
        1
  1
AcDbDs::TreatedAsObjectDataSchema
  2
AcDbDs::TreatedAsObjectData
280
     1
 91
        0
  0
ACDSSCHEMA
 90
        2
  1
AcDbDs::LegacySchema
  2
AcDbDs::Legacy
280
     1
 91
        0
  0
ACDSSCHEMA
 90
        3
  1
AcDbDs::IndexedPropertySchema
  2
AcDs:Indexable
280
     1
 91
        0
  0
ACDSSCHEMA
 90
        4
  1
AcDbDs::HandleAttributeSchema
  2
AcDbDs::HandleAttribute
280
     7
 91
        1
284
     1
  0
ACDSRECORD
 90
        0
  2
AcDbDs::ID
280
    10
320
6FF73
  2
Thumbnail_Data
280
    15
 94
     1183
310
89504E470D0A1A0A0000000D4948445200000100000000C508030000008CFEDCE700000300504C5445FFFFFF000000FFFFFF0000000000000000000000000000000000000000000000000000330000660000990000CC0000FF0033000033330033660033990033CC0033FF0066000066330066660066990066CC0066FF0099
310
000099330099660099990099CC0099FF00CC0000CC3300CC6600CC9900CCCC00CCFF00FF0000FF3300FF6600FF9900FFCC00FFFF3300003300333300663300993300CC3300FF3333003333333333663333993333CC3333FF3366003366333366663366993366CC3366FF3399003399333399663399993399CC3399FF33CC00
310
33CC3333CC6633CC9933CCCC33CCFF33FF0033FF3333FF6633FF9933FFCC33FFFF6600006600336600666600996600CC6600FF6633006633336633666633996633CC6633FF6666006666336666666666996666CC6666FF6699006699336699666699996699CC6699FF66CC0066CC3366CC6666CC9966CCCC66CCFF66FF0066
310
FF3366FF6666FF9966FFCC66FFFF9900009900339900669900999900CC9900FF9933009933339933669933999933CC9933FF9966009966339966669966999966CC9966FF9999009999339999669999999999CC9999FF99CC0099CC3399CC6699CC9999CCCC99CCFF99FF0099FF3399FF6699FF9999FFCC99FFFFCC0000CC00
310
33CC0066CC0099CC00CCCC00FFCC3300CC3333CC3366CC3399CC33CCCC33FFCC6600CC6633CC6666CC6699CC66CCCC66FFCC9900CC9933CC9966CC9999CC99CCCC99FFCCCC00CCCC33CCCC66CCCC99CCCCCCCCCCFFCCFF00CCFF33CCFF66CCFF99CCFFCCCCFFFFFF0000FF0033FF0066FF0099FF00CCFF00FFFF3300FF3333
310
FF3366FF3399FF33CCFF33FFFF6600FF6633FF6666FF6699FF66CCFF66FFFF9900FF9933FF9966FF9999FF99CCFF99FFFFCC00FFCC33FFCC66FFCC99FFCCCCFFCCFFFFFF00FFFF33FFFF66FFFF99FFFFCCFFFFFF0000000D0D0D1A1A1A2828283535354343435050505D5D5D6B6B6B787878868686939393A1A1A1AEAEAEBB
310
BBBBC9C9C9D6D6D6E4E4E4F1F1F1FFFFFF000000000000000000000000000000000000000000000000000000000000790CAC0F0000015A4944415478DAEDD8410A8340100440FFFFCCF9C09EE61E104224896014844D579F64F420A587DE592A3A632CD5C101100F500500C0F36ACDF6D636BFCEEBAEF9E9177D0788FBF600
310
000000000000004D1000000000000000100F50FB4F4C9E8B5578FAFF0300000000000000000000000000000000B00BD069000D0000000000000000A009020000000000000000000000000000000052013A0DA001000000000000000000A8C2000000000000000000000000000000402A40FC420400000000000000002016C0
310
5900000000000000000000000000000000C803885F88000000000000000000C402380B0000000000000000000000000000000000E2003A0DA0010000000000000000344100000000000000000000000000000000C0E7C660F21C04080D0000000000000000C01F54DE73151900000000000000D0AFCDCFB6227CDDAB1C9CD7
310
5DF3D32FAA0902000000C00A109E658C110DF0000E6CC6FBCCF8EC2E0000000049454E44AE426082
  0
ACDSRECORD
 90
        0
  2
AcDbDs::ID
280
    10
320
6FF6C
  2
Thumbnail_Data
280
    15
 94
     1017
310
89504E470D0A1A0A0000000D4948445200000100000000890803000000F46416F000000300504C5445FEFCF0000000FFFFFF0000000000000000000000000000000000000000000000000000330000660000990000CC0000FF0033000033330033660033990033CC0033FF0066000066330066660066990066CC0066FF0099
310
000099330099660099990099CC0099FF00CC0000CC3300CC6600CC9900CCCC00CCFF00FF0000FF3300FF6600FF9900FFCC00FFFF3300003300333300663300993300CC3300FF3333003333333333663333993333CC3333FF3366003366333366663366993366CC3366FF3399003399333399663399993399CC3399FF33CC00
310
33CC3333CC6633CC9933CCCC33CCFF33FF0033FF3333FF6633FF9933FFCC33FFFF6600006600336600666600996600CC6600FF6633006633336633666633996633CC6633FF6666006666336666666666996666CC6666FF6699006699336699666699996699CC6699FF66CC0066CC3366CC6666CC9966CCCC66CCFF66FF0066
310
FF3366FF6666FF9966FFCC66FFFF9900009900339900669900999900CC9900FF9933009933339933669933999933CC9933FF9966009966339966669966999966CC9966FF9999009999339999669999999999CC9999FF99CC0099CC3399CC6699CC9999CCCC99CCFF99FF0099FF3399FF6699FF9999FFCC99FFFFCC0000CC00
310
33CC0066CC0099CC00CCCC00FFCC3300CC3333CC3366CC3399CC33CCCC33FFCC6600CC6633CC6666CC6699CC66CCCC66FFCC9900CC9933CC9966CC9999CC99CCCC99FFCCCC00CCCC33CCCC66CCCC99CCCCCCCCCCFFCCFF00CCFF33CCFF66CCFF99CCFFCCCCFFFFFF0000FF0033FF0066FF0099FF00CCFF00FFFF3300FF3333
310
FF3366FF3399FF33CCFF33FFFF6600FF6633FF6666FF6699FF66CCFF66FFFF9900FF9933FF9966FF9999FF99CCFF99FFFFCC00FFCC33FFCC66FFCC99FFCCCCFFCCFFFFFF00FFFF33FFFF66FFFF99FFFFCCFFFFFF0000000D0D0D1A1A1A2828283535354343435050505D5D5D6B6B6B787878868686939393A1A1A1AEAEAEBB
310
BBBBC9C9C9D6D6D6E4E4E4F1F1F1FFFFFF0000000000000000000000000000000000000000000000000000000000007C77BAA7000000B44944415478DAEDD0310100000C0220FBB7B48931760C22903E1701020408102040800001020408102040800001020408102040800001020408102040800001020408102040800001
310
020408102040800001020408102040800001020408102040800001020408102040800001020408102040800001020408102040800001020408102040800001020408102040800001020408102040800001020408102040800001020408102040800001020408102040C099016B33700943E05F3C0000000049454E44AE4260
310
82
  0
ENDSEC
  0
EOF
