  0
SECTION
  2
HEADER
  9
$ACADVER
  1
AC1027
  9
$ACADMAINTVER
 70
    55
  9
$DWGCODEPAGE
  3
ANSI_1252
  9
$AUTHOR
  1
WAEngineering1
  9
$LASTSAVEDBY
  1
WAMarketing2
  9
$REQUIREDVERSIONS
160
                 0
  9
$INSBASE
 10
0.0
 20
0.0
 30
0.0
  9
$EXTMIN
 10
892.038
 20
-1655.389
 30
0.0
  9
$EXTMAX
 10
4096.176
 20
1221.583
 30
0.0
  9
$LIMMIN
 10
-6118.318492
 20
-8829.328492
  9
$LIMMAX
 10
11106.532492
 20
8395.522492
  9
$ORTHOMODE
 70
     0
  9
$REGENMODE
 70
     1
  9
$FILLMODE
 70
     1
  9
$QTEXTMODE
 70
     0
  9
$MIRRTEXT
 70
     0
  9
$LTSCALE
 40
1.0
  9
$ATTMODE
 70
     1
  9
$TEXTSIZE
 40
100.0
  9
$TRACEWID
 40
0.05
  9
$TEXTSTYLE
  7
Standard
  9
$CLAYER
  8
Level 8
  9
$CELTYPE
  6
Continuous
  9
$CECOLOR
 62
    98
  9
$CELTSCALE
 40
1.0
  9
$DISPSILH
 70
     0
  9
$DIMSCALE
 40
1.0
  9
$DIMASZ
 40
0.18
  9
$DIMEXO
 40
0.0625
  9
$DIMDLI
 40
0.38
  9
$DIMRND
 40
0.0
  9
$DIMDLE
 40
0.0
  9
$DIMEXE
 40
0.18
  9
$DIMTP
 40
0.0
  9
$DIMTM
 40
0.0
  9
$DIMTXT
 40
0.18
  9
$DIMCEN
 40
0.09
  9
$DIMTSZ
 40
0.0
  9
$DIMTOL
 70
     0
  9
$DIMLIM
 70
     0
  9
$DIMTIH
 70
     1
  9
$DIMTOH
 70
     1
  9
$DIMSE1
 70
     0
  9
$DIMSE2
 70
     0
  9
$DIMTAD
 70
     0
  9
$DIMZIN
 70
     0
  9
$DIMBLK
  1

  9
$DIMASO
 70
     1
  9
$DIMSHO
 70
     1
  9
$DIMPOST
  1

  9
$DIMAPOST
  1

  9
$DIMALT
 70
     0
  9
$DIMALTD
 70
     2
  9
$DIMALTF
 40
25.4
  9
$DIMLFAC
 40
1.0
  9
$DIMTOFL
 70
     0
  9
$DIMTVP
 40
0.0
  9
$DIMTIX
 70
     0
  9
$DIMSOXD
 70
     0
  9
$DIMSAH
 70
     0
  9
$DIMBLK1
  1

  9
$DIMBLK2
  1

  9
$DIMSTYLE
  2
Standard
  9
$DIMCLRD
 70
     0
  9
$DIMCLRE
 70
     0
  9
$DIMCLRT
 70
     0
  9
$DIMTFAC
 40
1.0
  9
$DIMGAP
 40
0.09
  9
$DIMJUST
 70
     0
  9
$DIMSD1
 70
     0
  9
$DIMSD2
 70
     0
  9
$DIMTOLJ
 70
     1
  9
$DIMTZIN
 70
     0
  9
$DIMALTZ
 70
     0
  9
$DIMALTTZ
 70
     0
  9
$DIMUPT
 70
     0
  9
$DIMDEC
 70
     4
  9
$DIMTDEC
 70
     4
  9
$DIMALTU
 70
     2
  9
$DIMALTTD
 70
     2
  9
$DIMTXSTY
  7
Standard
  9
$DIMAUNIT
 70
     0
  9
$DIMADEC
 70
     0
  9
$DIMALTRND
 40
0.0
  9
$DIMAZIN
 70
     0
  9
$DIMDSEP
 70
    46
  9
$DIMATFIT
 70
     3
  9
$DIMFRAC
 70
     0
  9
$DIMLDRBLK
  1

  9
$DIMLUNIT
 70
     2
  9
$DIMLWD
 70
    -2
  9
$DIMLWE
 70
    -2
  9
$DIMTMOVE
 70
     0
  9
$DIMFXL
 40
1.0
  9
$DIMFXLON
 70
     0
  9
$DIMJOGANG
 40
0.785398
  9
$DIMTFILL
 70
     0
  9
$DIMTFILLCLR
 70
     0
  9
$DIMARCSYM
 70
     0
  9
$DIMLTYPE
  6

  9
$DIMLTEX1
  6

  9
$DIMLTEX2
  6

  9
$DIMTXTDIRECTION
 70
     0
  9
$LUNITS
 70
     2
  9
$LUPREC
 70
     0
  9
$SKETCHINC
 40
0.1
  9
$FILLETRAD
 40
0.0
  9
$AUNITS
 70
     0
  9
$AUPREC
 70
     0
  9
$MENU
  1
.
  9
$ELEVATION
 40
0.0
  9
$PELEVATION
 40
0.0
  9
$THICKNESS
 40
0.0
  9
$LIMCHECK
 70
     0
  9
$CHAMFERA
 40
0.0
  9
$CHAMFERB
 40
0.0
  9
$CHAMFERC
 40
0.0
  9
$CHAMFERD
 40
0.0
  9
$SKPOLY
 70
     0
  9
$TDCREATE
 40
2454145.111357350
  9
$TDUCREATE
 40
2454144.778024017
  9
$TDUPDATE
 40
2455657.145108565
  9
$TDUUPDATE
 40
2455656.811775231
  9
$TDINDWG
 40
0.0262176852
  9
$TDUSRTIMER
 40
0.0262175000
  9
$USRTIMER
 70
     1
  9
$ANGBASE
 50
0.0
  9
$ANGDIR
 70
     0
  9
$PDMODE
 70
     0
  9
$PDSIZE
 40
0.0
  9
$PLINEWID
 40
0.0
  9
$SPLFRAME
 70
     0
  9
$SPLINETYPE
 70
     6
  9
$SPLINESEGS
 70
     8
  9
$HANDSEED
  5
7029C
  9
$SURFTAB1
 70
     6
  9
$SURFTAB2
 70
     6
  9
$SURFTYPE
 70
     6
  9
$SURFU
 70
     6
  9
$SURFV
 70
     6
  9
$UCSBASE
  2

  9
$UCSNAME
  2

  9
$UCSORG
 10
0.0
 20
0.0
 30
0.0
  9
$UCSXDIR
 10
1.0
 20
0.0
 30
0.0
  9
$UCSYDIR
 10
0.0
 20
1.0
 30
0.0
  9
$UCSORTHOREF
  2

  9
$UCSORTHOVIEW
 70
     0
  9
$UCSORGTOP
 10
0.0
 20
0.0
 30
0.0
  9
$UCSORGBOTTOM
 10
0.0
 20
0.0
 30
0.0
  9
$UCSORGLEFT
 10
0.0
 20
0.0
 30
0.0
  9
$UCSORGRIGHT
 10
0.0
 20
0.0
 30
0.0
  9
$UCSORGFRONT
 10
0.0
 20
0.0
 30
0.0
  9
$UCSORGBACK
 10
0.0
 20
0.0
 30
0.0
  9
$PUCSBASE
  2

  9
$PUCSNAME
  2

  9
$PUCSORG
 10
0.0
 20
0.0
 30
0.0
  9
$PUCSXDIR
 10
1.0
 20
0.0
 30
0.0
  9
$PUCSYDIR
 10
0.0
 20
1.0
 30
0.0
  9
$PUCSORTHOREF
  2

  9
$PUCSORTHOVIEW
 70
     0
  9
$PUCSORGTOP
 10
0.0
 20
0.0
 30
0.0
  9
$PUCSORGBOTTOM
 10
0.0
 20
0.0
 30
0.0
  9
$PUCSORGLEFT
 10
0.0
 20
0.0
 30
0.0
  9
$PUCSORGRIGHT
 10
0.0
 20
0.0
 30
0.0
  9
$PUCSORGFRONT
 10
0.0
 20
0.0
 30
0.0
  9
$PUCSORGBACK
 10
0.0
 20
0.0
 30
0.0
  9
$USERI1
 70
     0
  9
$USERI2
 70
     0
  9
$USERI3
 70
     0
  9
$USERI4
 70
     0
  9
$USERI5
 70
     0
  9
$USERR1
 40
0.0
  9
$USERR2
 40
0.0
  9
$USERR3
 40
0.0
  9
$USERR4
 40
0.0
  9
$USERR5
 40
0.0
  9
$WORLDVIEW
 70
     1
  9
$SHADEDGE
 70
     3
  9
$SHADEDIF
 70
    70
  9
$TILEMODE
 70
     1
  9
$MAXACTVP
 70
    64
  9
$PINSBASE
 10
0.0
 20
0.0
 30
0.0
  9
$PLIMCHECK
 70
     0
  9
$PEXTMIN
 10
1.05
 20
0.8
 30
0.0
  9
$PEXTMAX
 10
9.45
 20
7.2
 30
0.0
  9
$PLIMMIN
 10
-0.25
 20
-0.25
  9
$PLIMMAX
 10
10.75
 20
8.25
  9
$UNITMODE
 70
     0
  9
$VISRETAIN
 70
     1
  9
$PLINEGEN
 70
     0
  9
$PSLTSCALE
 70
     0
  9
$TREEDEPTH
 70
  3020
  9
$CMLSTYLE
  2
Standard
  9
$CMLJUST
 70
     0
  9
$CMLSCALE
 40
1.0
  9
$PROXYGRAPHICS
 70
     1
  9
$MEASUREMENT
 70
     0
  9
$CELWEIGHT
370
     0
  9
$ENDCAPS
280
     0
  9
$JOINSTYLE
280
     0
  9
$LWDISPLAY
290
     1
  9
$INSUNITS
 70
     4
  9
$HYPERLINKBASE
  1

  9
$STYLESHEET
  1

  9
$XEDIT
290
     1
  9
$CEPSNTYPE
380
     0
  9
$PSTYLEMODE
290
     1
  9
$FINGERPRINTGUID
  2
{5085FBE2-73C2-4211-B005-98ACF67C35C6}
  9
$VERSIONGUID
  2
{5066CCA6-5121-4C7B-A04C-375F92FA871B}
  9
$EXTNAMES
290
     1
  9
$PSVPSCALE
 40
0.0
  9
$OLESTARTUP
290
     0
  9
$SORTENTS
280
   127
  9
$INDEXCTL
280
     0
  9
$HIDETEXT
280
     1
  9
$XCLIPFRAME
280
     0
  9
$HALOGAP
280
     0
  9
$OBSCOLOR
 70
   257
  9
$OBSLTYPE
280
     0
  9
$INTERSECTIONDISPLAY
280
     0
  9
$INTERSECTIONCOLOR
 70
   257
  9
$DIMASSOC
280
     1
  9
$PROJECTNAME
  1

  9
$CAMERADISPLAY
290
     0
  9
$LENSLENGTH
 40
50.0
  9
$CAMERAHEIGHT
 40
0.0
  9
$STEPSPERSEC
 40
2.0
  9
$STEPSIZE
 40
6.0
  9
$3DDWFPREC
 40
2.0
  9
$PSOLWIDTH
 40
0.25
  9
$PSOLHEIGHT
 40
4.0
  9
$LOFTANG1
 40
1.570796
  9
$LOFTANG2
 40
1.570796
  9
$LOFTMAG1
 40
0.0
  9
$LOFTMAG2
 40
0.0
  9
$LOFTPARAM
 70
     7
  9
$LOFTNORMALS
280
     1
  9
$LATITUDE
 40
37.795
  9
$LONGITUDE
 40
-122.394
  9
$NORTHDIRECTION
 40
0.0
  9
$TIMEZONE
 70
 -8000
  9
$LIGHTGLYPHDISPLAY
280
     1
  9
$TILEMODELIGHTSYNCH
280
     1
  9
$CMATERIAL
347
701CF
  9
$SOLIDHIST
280
     1
  9
$SHOWHIST
280
     1
  9
$DWFFRAME
280
     2
  9
$DGNFRAME
280
     0
  9
$REALWORLDSCALE
290
     1
  9
$INTERFERECOLOR
 62
     1
  9
$INTERFEREOBJVS
345
701E6
  9
$INTERFEREVPVS
346
701E7
  9
$CSHADOW
280
     0
  9
$SHADOWPLANELOCATION
 40
0.0
  0
ENDSEC
  0
SECTION
  2
CLASSES
  0
CLASS
  1
ACDBDICTIONARYWDFLT
  2
AcDbDictionaryWithDefault
  3
ObjectDBX Classes
 90
        0
 91
        1
280
     0
281
     0
  0
CLASS
  1
DICTIONARYVAR
  2
AcDbDictionaryVar
  3
ObjectDBX Classes
 90
        0
 91
        8
280
     0
281
     0
  0
CLASS
  1
TABLESTYLE
  2
AcDbTableStyle
  3
ObjectDBX Classes
 90
     4095
 91
        1
280
     0
281
     0
  0
CLASS
  1
MATERIAL
  2
AcDbMaterial
  3
ObjectDBX Classes
 90
     1153
 91
        3
280
     0
281
     0
  0
CLASS
  1
VISUALSTYLE
  2
AcDbVisualStyle
  3
ObjectDBX Classes
 90
     4095
 91
        3
280
     0
281
     0
  0
CLASS
  1
SCALE
  2
AcDbScale
  3
ObjectDBX Classes
 90
     1153
 91
       33
280
     0
281
     0
  0
CLASS
  1
MLEADERSTYLE
  2
AcDbMLeaderStyle
  3
ACDB_MLEADERSTYLE_CLASS
 90
     4095
 91
        0
280
     0
281
     0
  0
CLASS
  1
EXACXREFPANELOBJECT
  2
ExAcXREFPanelObject
  3
EXAC_ESW
 90
     1025
 91
        0
280
     1
281
     0
  0
CLASS
  1
NPOCOLLECTION
  2
AcDbImpNonPersistentObjectsCollection
  3
ObjectDBX Classes
 90
     1153
 91
        0
280
     0
281
     0
  0
CLASS
  1
CELLSTYLEMAP
  2
AcDbCellStyleMap
  3
ObjectDBX Classes
 90
     1152
 91
        1
280
     0
281
     0
  0
CLASS
  1
ACDBSECTIONVIEWSTYLE
  2
AcDbSectionViewStyle
  3
ObjectDBX Classes
 90
     1025
 91
        0
280
     0
281
     0
  0
CLASS
  1
ACDBDETAILVIEWSTYLE
  2
AcDbDetailViewStyle
  3
ObjectDBX Classes
 90
     1025
 91
        0
280
     0
281
     0
  0
CLASS
  1
SORTENTSTABLE
  2
AcDbSortentsTable
  3
ObjectDBX Classes
 90
        0
 91
        1
280
     0
281
     0
  0
ENDSEC
  0
SECTION
  2
TABLES
  0
TABLE
  2
VPORT
  5
701C3
330
0
100
AcDbSymbolTable
 70
     2
  0
VPORT
  5
4B
330
701C3
100
AcDbSymbolTableRecord
100
AcDbViewportTableRecord
  2
*ACTIVE
 70
     0
 10
0.0
 20
0.0
 11
1.0
 21
1.0
 12
2494.107
 22
-216.903
 13
0.0
 23
0.0
 14
1.0
 24
1.0
 15
1.0
 25
1.0
 16
0.0
 26
0.0
 36
1.0
 17
0.0
 27
0.0
 37
0.0
 40
2992.05088
 41
2.090493
 42
50.0
 43
0.0
 44
0.0
 50
0.0
 51
0.0
 71
     0
 72
   100
 73
     1
 74
     0
 75
     0
 76
     0
 77
     0
 78
     1
281
     0
 65
     1
110
0.0
120
0.0
130
0.0
111
1.0
121
0.0
131
0.0
112
0.0
122
1.0
132
0.0
 79
     0
146
0.0
 60
     3
 61
    10
292
     0
282
     1
141
0.0
142
0.0
 63
     7
421
 16777215
  0
ENDTAB
  0
TABLE
  2
LTYPE
  5
701BE
330
0
100
AcDbSymbolTable
 70
     2
  0
LTYPE
  5
701BF
330
701BE
100
AcDbSymbolTableRecord
100
AcDbLinetypeTableRecord
  2
ByBlock
 70
     0
  3

 72
    65
 73
     0
 40
0.0
  0
LTYPE
  5
701C0
330
701BE
100
AcDbSymbolTableRecord
100
AcDbLinetypeTableRecord
  2
ByLayer
 70
     0
  3

 72
    65
 73
     0
 40
0.0
  0
LTYPE
  5
701AB
330
701BE
100
AcDbSymbolTableRecord
100
AcDbLinetypeTableRecord
  2
Continuous
 70
     0
  3
Solid line
 72
    65
 73
     0
 40
0.0
  0
LTYPE
  5
7028F
330
701BE
100
AcDbSymbolTableRecord
100
AcDbLinetypeTableRecord
  2
DGN Style 2
 70
     0
  3
Dgn Style 2
 72
    65
 73
     2
 40
62.548601
 49
37.529161
 74
     0
 49
-25.01944
 74
     0
  0
ENDTAB
  0
TABLE
  2
LAYER
  5
701B8
102
{ACAD_XDICTIONARY
360
701B9
102
}
330
0
100
AcDbSymbolTable
 70
    66
  0
LAYER
  5
7019C
102
{ACAD_XDICTIONARY
360
7019D
102
}
330
701B8
100
AcDbSymbolTableRecord
100
AcDbLayerTableRecord
  2
0
 70
     0
 62
     7
  6
Continuous
370
    -3
390
7019F
347
701A2
348
0
1001
AcCmTransparency
1071
 33554687
  0
LAYER
  5
7
330
701B8
100
AcDbSymbolTableRecord
100
AcDbLayerTableRecord
  2
Level 1
 70
     0
 62
     7
  6
Continuous
370
     0
390
7019F
347
701A2
348
0
1001
AcCmTransparency
1071
 33554687
  0
LAYER
  5
8
330
701B8
100
AcDbSymbolTableRecord
100
AcDbLayerTableRecord
  2
Level 2
 70
     0
 62
     7
  6
Continuous
370
     0
390
7019F
347
701A2
348
0
1001
AcCmTransparency
1071
 33554687
  0
LAYER
  5
9
330
701B8
100
AcDbSymbolTableRecord
100
AcDbLayerTableRecord
  2
Level 3
 70
     0
 62
     7
  6
Continuous
370
     0
390
7019F
347
701A2
348
0
1001
AcCmTransparency
1071
 33554687
  0
LAYER
  5
A
330
701B8
100
AcDbSymbolTableRecord
100
AcDbLayerTableRecord
  2
Level 4
 70
     0
 62
     7
  6
Continuous
370
     0
390
7019F
347
701A2
348
0
1001
AcCmTransparency
1071
 33554687
  0
LAYER
  5
B
330
701B8
100
AcDbSymbolTableRecord
100
AcDbLayerTableRecord
  2
Level 5
 70
     0
 62
     7
  6
Continuous
370
     0
390
7019F
347
701A2
348
0
1001
AcCmTransparency
1071
 33554687
  0
LAYER
  5
C
330
701B8
100
AcDbSymbolTableRecord
100
AcDbLayerTableRecord
  2
Level 6
 70
     0
 62
     7
  6
Continuous
370
     0
390
7019F
347
701A2
348
0
1001
AcCmTransparency
1071
 33554687
  0
LAYER
  5
D
330
701B8
100
AcDbSymbolTableRecord
100
AcDbLayerTableRecord
  2
Level 7
 70
     0
 62
     7
  6
Continuous
370
     0
390
7019F
347
701A2
348
0
1001
AcCmTransparency
1071
 33554687
  0
LAYER
  5
E
330
701B8
100
AcDbSymbolTableRecord
100
AcDbLayerTableRecord
  2
Level 8
 70
     0
 62
     7
  6
Continuous
370
     0
390
7019F
347
701A2
348
0
1001
AcCmTransparency
1071
 33554687
  0
LAYER
  5
F
330
701B8
100
AcDbSymbolTableRecord
100
AcDbLayerTableRecord
  2
Level 9
 70
     0
 62
     7
  6
Continuous
370
     0
390
7019F
347
701A2
348
0
1001
AcCmTransparency
1071
 33554687
  0
LAYER
  5
10
330
701B8
100
AcDbSymbolTableRecord
100
AcDbLayerTableRecord
  2
Level 10
 70
     0
 62
     7
  6
Continuous
370
     0
390
7019F
347
701A2
348
0
1001
AcCmTransparency
1071
 33554687
  0
LAYER
  5
11
330
701B8
100
AcDbSymbolTableRecord
100
AcDbLayerTableRecord
  2
Level 11
 70
     0
 62
     7
  6
Continuous
370
     0
390
7019F
347
701A2
348
0
1001
AcCmTransparency
1071
 33554687
  0
LAYER
  5
12
330
701B8
100
AcDbSymbolTableRecord
100
AcDbLayerTableRecord
  2
Level 12
 70
     0
 62
     7
  6
Continuous
370
     0
390
7019F
347
701A2
348
0
1001
AcCmTransparency
1071
 33554687
  0
LAYER
  5
13
330
701B8
100
AcDbSymbolTableRecord
100
AcDbLayerTableRecord
  2
Level 13
 70
     0
 62
     7
  6
Continuous
370
     0
390
7019F
347
701A2
348
0
1001
AcCmTransparency
1071
 33554687
  0
LAYER
  5
14
330
701B8
100
AcDbSymbolTableRecord
100
AcDbLayerTableRecord
  2
Level 14
 70
     0
 62
     7
  6
Continuous
370
     0
390
7019F
347
701A2
348
0
1001
AcCmTransparency
1071
 33554687
  0
LAYER
  5
15
330
701B8
100
AcDbSymbolTableRecord
100
AcDbLayerTableRecord
  2
Level 15
 70
     0
 62
     7
  6
Continuous
370
     0
390
7019F
347
701A2
348
0
1001
AcCmTransparency
1071
 33554687
  0
LAYER
  5
16
330
701B8
100
AcDbSymbolTableRecord
100
AcDbLayerTableRecord
  2
Level 16
 70
     0
 62
     7
  6
Continuous
370
     0
390
7019F
347
701A2
348
0
1001
AcCmTransparency
1071
 33554687
  0
LAYER
  5
17
330
701B8
100
AcDbSymbolTableRecord
100
AcDbLayerTableRecord
  2
Level 17
 70
     0
 62
     7
  6
Continuous
370
     0
390
7019F
347
701A2
348
0
1001
AcCmTransparency
1071
 33554687
  0
LAYER
  5
18
330
701B8
100
AcDbSymbolTableRecord
100
AcDbLayerTableRecord
  2
Level 18
 70
     0
 62
     7
  6
Continuous
370
     0
390
7019F
347
701A2
348
0
1001
AcCmTransparency
1071
 33554687
  0
LAYER
  5
19
330
701B8
100
AcDbSymbolTableRecord
100
AcDbLayerTableRecord
  2
Level 19
 70
     0
 62
     7
  6
Continuous
370
     0
390
7019F
347
701A2
348
0
1001
AcCmTransparency
1071
 33554687
  0
LAYER
  5
1A
330
701B8
100
AcDbSymbolTableRecord
100
AcDbLayerTableRecord
  2
Level 20
 70
     0
 62
     7
  6
Continuous
370
     0
390
7019F
347
701A2
348
0
1001
AcCmTransparency
1071
 33554687
  0
LAYER
  5
1B
330
701B8
100
AcDbSymbolTableRecord
100
AcDbLayerTableRecord
  2
Level 21
 70
     0
 62
     7
  6
Continuous
370
     0
390
7019F
347
701A2
348
0
1001
AcCmTransparency
1071
 33554687
  0
LAYER
  5
1C
330
701B8
100
AcDbSymbolTableRecord
100
AcDbLayerTableRecord
  2
Level 22
 70
     0
 62
     7
  6
Continuous
370
     0
390
7019F
347
701A2
348
0
1001
AcCmTransparency
1071
 33554687
  0
LAYER
  5
1D
330
701B8
100
AcDbSymbolTableRecord
100
AcDbLayerTableRecord
  2
Level 23
 70
     0
 62
     7
  6
Continuous
370
     0
390
7019F
347
701A2
348
0
1001
AcCmTransparency
1071
 33554687
  0
LAYER
  5
1E
330
701B8
100
AcDbSymbolTableRecord
100
AcDbLayerTableRecord
  2
Level 24
 70
     0
 62
     7
  6
Continuous
370
     0
390
7019F
347
701A2
348
0
1001
AcCmTransparency
1071
 33554687
  0
LAYER
  5
1F
330
701B8
100
AcDbSymbolTableRecord
100
AcDbLayerTableRecord
  2
Level 25
 70
     0
 62
     7
  6
Continuous
370
     0
390
7019F
347
701A2
348
0
1001
AcCmTransparency
1071
 33554687
  0
LAYER
  5
20
330
701B8
100
AcDbSymbolTableRecord
100
AcDbLayerTableRecord
  2
Level 26
 70
     0
 62
     7
  6
Continuous
370
     0
390
7019F
347
701A2
348
0
1001
AcCmTransparency
1071
 33554687
  0
LAYER
  5
21
330
701B8
100
AcDbSymbolTableRecord
100
AcDbLayerTableRecord
  2
Level 27
 70
     0
 62
     7
  6
Continuous
370
     0
390
7019F
347
701A2
348
0
1001
AcCmTransparency
1071
 33554687
  0
LAYER
  5
22
330
701B8
100
AcDbSymbolTableRecord
100
AcDbLayerTableRecord
  2
Level 28
 70
     0
 62
     7
  6
Continuous
370
     0
390
7019F
347
701A2
348
0
1001
AcCmTransparency
1071
 33554687
  0
LAYER
  5
23
330
701B8
100
AcDbSymbolTableRecord
100
AcDbLayerTableRecord
  2
Level 29
 70
     0
 62
     7
  6
Continuous
370
     0
390
7019F
347
701A2
348
0
1001
AcCmTransparency
1071
 33554687
  0
LAYER
  5
24
330
701B8
100
AcDbSymbolTableRecord
100
AcDbLayerTableRecord
  2
Level 30
 70
     0
 62
     7
  6
Continuous
370
     0
390
7019F
347
701A2
348
0
1001
AcCmTransparency
1071
 33554687
  0
LAYER
  5
25
330
701B8
100
AcDbSymbolTableRecord
100
AcDbLayerTableRecord
  2
Level 31
 70
     0
 62
     7
  6
Continuous
370
     0
390
7019F
347
701A2
348
0
1001
AcCmTransparency
1071
 33554687
  0
LAYER
  5
26
330
701B8
100
AcDbSymbolTableRecord
100
AcDbLayerTableRecord
  2
Level 32
 70
     0
 62
     7
  6
Continuous
370
     0
390
7019F
347
701A2
348
0
1001
AcCmTransparency
1071
 33554687
  0
LAYER
  5
27
330
701B8
100
AcDbSymbolTableRecord
100
AcDbLayerTableRecord
  2
Level 33
 70
     0
 62
     7
  6
Continuous
370
     0
390
7019F
347
701A2
348
0
1001
AcCmTransparency
1071
 33554687
  0
LAYER
  5
28
330
701B8
100
AcDbSymbolTableRecord
100
AcDbLayerTableRecord
  2
Level 34
 70
     0
 62
     7
  6
Continuous
370
     0
390
7019F
347
701A2
348
0
1001
AcCmTransparency
1071
 33554687
  0
LAYER
  5
29
330
701B8
100
AcDbSymbolTableRecord
100
AcDbLayerTableRecord
  2
Level 35
 70
     0
 62
     7
  6
Continuous
370
     0
390
7019F
347
701A2
348
0
1001
AcCmTransparency
1071
 33554687
  0
LAYER
  5
2A
330
701B8
100
AcDbSymbolTableRecord
100
AcDbLayerTableRecord
  2
Level 36
 70
     0
 62
     7
  6
Continuous
370
     0
390
7019F
347
701A2
348
0
1001
AcCmTransparency
1071
 33554687
  0
LAYER
  5
2B
330
701B8
100
AcDbSymbolTableRecord
100
AcDbLayerTableRecord
  2
Level 37
 70
     0
 62
     7
  6
Continuous
370
     0
390
7019F
347
701A2
348
0
1001
AcCmTransparency
1071
 33554687
  0
LAYER
  5
2C
330
701B8
100
AcDbSymbolTableRecord
100
AcDbLayerTableRecord
  2
Level 38
 70
     0
 62
     7
  6
Continuous
370
     0
390
7019F
347
701A2
348
0
1001
AcCmTransparency
1071
 33554687
  0
LAYER
  5
2D
330
701B8
100
AcDbSymbolTableRecord
100
AcDbLayerTableRecord
  2
Level 39
 70
     0
 62
     7
  6
Continuous
370
     0
390
7019F
347
701A2
348
0
1001
AcCmTransparency
1071
 33554687
  0
LAYER
  5
2E
330
701B8
100
AcDbSymbolTableRecord
100
AcDbLayerTableRecord
  2
Level 40
 70
     0
 62
     7
  6
Continuous
370
     0
390
7019F
347
701A2
348
0
1001
AcCmTransparency
1071
 33554687
  0
LAYER
  5
2F
330
701B8
100
AcDbSymbolTableRecord
100
AcDbLayerTableRecord
  2
Level 41
 70
     0
 62
     7
  6
Continuous
370
     0
390
7019F
347
701A2
348
0
1001
AcCmTransparency
1071
 33554687
  0
LAYER
  5
30
330
701B8
100
AcDbSymbolTableRecord
100
AcDbLayerTableRecord
  2
Level 42
 70
     0
 62
     7
  6
Continuous
370
     0
390
7019F
347
701A2
348
0
1001
AcCmTransparency
1071
 33554687
  0
LAYER
  5
31
330
701B8
100
AcDbSymbolTableRecord
100
AcDbLayerTableRecord
  2
Level 43
 70
     0
 62
     7
  6
Continuous
370
     0
390
7019F
347
701A2
348
0
1001
AcCmTransparency
1071
 33554687
  0
LAYER
  5
32
330
701B8
100
AcDbSymbolTableRecord
100
AcDbLayerTableRecord
  2
Level 44
 70
     0
 62
     7
  6
Continuous
370
     0
390
7019F
347
701A2
348
0
1001
AcCmTransparency
1071
 33554687
  0
LAYER
  5
33
330
701B8
100
AcDbSymbolTableRecord
100
AcDbLayerTableRecord
  2
Level 45
 70
     0
 62
     7
  6
Continuous
370
     0
390
7019F
347
701A2
348
0
1001
AcCmTransparency
1071
 33554687
  0
LAYER
  5
34
330
701B8
100
AcDbSymbolTableRecord
100
AcDbLayerTableRecord
  2
Level 46
 70
     0
 62
     7
  6
Continuous
370
     0
390
7019F
347
701A2
348
0
1001
AcCmTransparency
1071
 33554687
  0
LAYER
  5
35
330
701B8
100
AcDbSymbolTableRecord
100
AcDbLayerTableRecord
  2
Level 47
 70
     0
 62
     7
  6
Continuous
370
     0
390
7019F
347
701A2
348
0
1001
AcCmTransparency
1071
 33554687
  0
LAYER
  5
36
330
701B8
100
AcDbSymbolTableRecord
100
AcDbLayerTableRecord
  2
Level 48
 70
     0
 62
     7
  6
Continuous
370
     0
390
7019F
347
701A2
348
0
1001
AcCmTransparency
1071
 33554687
  0
LAYER
  5
37
330
701B8
100
AcDbSymbolTableRecord
100
AcDbLayerTableRecord
  2
Level 49
 70
     0
 62
     7
  6
Continuous
370
     0
390
7019F
347
701A2
348
0
1001
AcCmTransparency
1071
 33554687
  0
LAYER
  5
38
330
701B8
100
AcDbSymbolTableRecord
100
AcDbLayerTableRecord
  2
Level 50
 70
     0
 62
     7
  6
Continuous
370
     0
390
7019F
347
701A2
348
0
1001
AcCmTransparency
1071
 33554687
  0
LAYER
  5
39
330
701B8
100
AcDbSymbolTableRecord
100
AcDbLayerTableRecord
  2
Level 51
 70
     0
 62
     7
  6
Continuous
370
     0
390
7019F
347
701A2
348
0
1001
AcCmTransparency
1071
 33554687
  0
LAYER
  5
3A
330
701B8
100
AcDbSymbolTableRecord
100
AcDbLayerTableRecord
  2
Level 52
 70
     0
 62
     7
  6
Continuous
370
     0
390
7019F
347
701A2
348
0
1001
AcCmTransparency
1071
 33554687
  0
LAYER
  5
3B
330
701B8
100
AcDbSymbolTableRecord
100
AcDbLayerTableRecord
  2
Level 53
 70
     0
 62
     7
  6
Continuous
370
     0
390
7019F
347
701A2
348
0
1001
AcCmTransparency
1071
 33554687
  0
LAYER
  5
3C
330
701B8
100
AcDbSymbolTableRecord
100
AcDbLayerTableRecord
  2
Level 54
 70
     0
 62
     7
  6
Continuous
370
     0
390
7019F
347
701A2
348
0
1001
AcCmTransparency
1071
 33554687
  0
LAYER
  5
3D
330
701B8
100
AcDbSymbolTableRecord
100
AcDbLayerTableRecord
  2
Level 55
 70
     0
 62
     7
  6
Continuous
370
     0
390
7019F
347
701A2
348
0
1001
AcCmTransparency
1071
 33554687
  0
LAYER
  5
3E
330
701B8
100
AcDbSymbolTableRecord
100
AcDbLayerTableRecord
  2
Level 56
 70
     0
 62
     7
  6
Continuous
370
     0
390
7019F
347
701A2
348
0
1001
AcCmTransparency
1071
 33554687
  0
LAYER
  5
3F
330
701B8
100
AcDbSymbolTableRecord
100
AcDbLayerTableRecord
  2
Level 57
 70
     0
 62
     7
  6
Continuous
370
     0
390
7019F
347
701A2
348
0
1001
AcCmTransparency
1071
 33554687
  0
LAYER
  5
40
330
701B8
100
AcDbSymbolTableRecord
100
AcDbLayerTableRecord
  2
Level 58
 70
     0
 62
     7
  6
Continuous
370
     0
390
7019F
347
701A2
348
0
1001
AcCmTransparency
1071
 33554687
  0
LAYER
  5
41
330
701B8
100
AcDbSymbolTableRecord
100
AcDbLayerTableRecord
  2
Level 59
 70
     0
 62
     7
  6
Continuous
370
     0
390
7019F
347
701A2
348
0
1001
AcCmTransparency
1071
 33554687
  0
LAYER
  5
42
330
701B8
100
AcDbSymbolTableRecord
100
AcDbLayerTableRecord
  2
Level 60
 70
     0
 62
     7
  6
Continuous
370
     0
390
7019F
347
701A2
348
0
1001
AcCmTransparency
1071
 33554687
  0
LAYER
  5
43
330
701B8
100
AcDbSymbolTableRecord
100
AcDbLayerTableRecord
  2
Level 61
 70
     0
 62
     7
  6
Continuous
370
     0
390
7019F
347
701A2
348
0
1001
AcCmTransparency
1071
 33554687
  0
LAYER
  5
44
330
701B8
100
AcDbSymbolTableRecord
100
AcDbLayerTableRecord
  2
Level 62
 70
     0
 62
     7
  6
Continuous
370
     0
390
7019F
347
701A2
348
0
1001
AcCmTransparency
1071
 33554687
  0
LAYER
  5
45
330
701B8
100
AcDbSymbolTableRecord
100
AcDbLayerTableRecord
  2
Level 63
 70
     0
 62
     7
  6
Continuous
370
     0
390
7019F
347
701A2
348
0
1001
AcCmTransparency
1071
 33554687
  0
LAYER
  5
50CA0
330
701B8
100
AcDbSymbolTableRecord
100
AcDbLayerTableRecord
  2
25
 70
     0
 62
     7
  6
Continuous
370
     0
390
7019F
347
701A2
348
0
1001
AcCmTransparency
1071
 33554687
  0
LAYER
  5
7025C
330
701B8
100
AcDbSymbolTableRecord
100
AcDbLayerTableRecord
  2
Level 26 (Construction)
 70
     0
 62
     7
  6
Continuous
370
     0
390
7019F
347
701A2
348
0
1001
AcCmTransparency
1071
 33554687
  0
ENDTAB
  0
TABLE
  2
STYLE
  5
701BB
330
0
100
AcDbSymbolTable
 70
     1
  0
STYLE
  5
701BC
330
701BB
100
AcDbSymbolTableRecord
100
AcDbTextStyleTableRecord
  2
Standard
 70
     0
 40
0.0
 41
1.0
 50
0.0
 71
     0
 42
100.0
  3
txt
  4

  0
ENDTAB
  0
TABLE
  2
VIEW
  5
701C1
330
0
100
AcDbSymbolTable
 70
     0
  0
ENDTAB
  0
TABLE
  2
UCS
  5
701C2
330
0
100
AcDbSymbolTable
 70
     0
  0
ENDTAB
  0
TABLE
  2
APPID
  5
701C7
330
0
100
AcDbSymbolTable
 70
     3
  0
APPID
  5
701C8
330
701C7
100
AcDbSymbolTableRecord
100
AcDbRegAppTableRecord
  2
ACAD
 70
     0
  0
APPID
  5
701B7
330
701C7
100
AcDbSymbolTableRecord
100
AcDbRegAppTableRecord
  2
ACAD_PSEXT
 70
     0
  0
APPID
  5
7020B
330
701C7
100
AcDbSymbolTableRecord
100
AcDbRegAppTableRecord
  2
AcCmTransparency
 70
     0
  0
ENDTAB
  0
TABLE
  2
DIMSTYLE
  5
701C9
330
0
100
AcDbSymbolTable
 70
     1
100
AcDbDimStyleTable
 71
     1
340
701CA
  0
DIMSTYLE
105
701CA
330
701C9
100
AcDbSymbolTableRecord
100
AcDbDimStyleTableRecord
  2
Standard
 70
     0
340
701BC
  0
ENDTAB
  0
TABLE
  2
BLOCK_RECORD
  5
70199
330
0
100
AcDbSymbolTable
 70
    42
  0
BLOCK_RECORD
  5
7019A
330
70199
100
AcDbSymbolTableRecord
100
AcDbBlockTableRecord
  2
*Model_Space
340
701AD
 70
     0
280
     1
281
     0
  0
BLOCK_RECORD
  5
701B1
330
70199
100
AcDbSymbolTableRecord
100
AcDbBlockTableRecord
  2
*Paper_Space
340
701B4
 70
     0
280
     1
281
     0
  0
BLOCK_RECORD
  5
7020E
102
{ACAD_XDICTIONARY
360
7028D
102
}
330
70199
100
AcDbSymbolTableRecord
100
AcDbBlockTableRecord
  2
SE01
340
0
102
{BLKREFS
331
6FD64
102
}
 70
     0
280
     1
281
     0
  0
BLOCK_RECORD
  5
70211
330
70199
100
AcDbSymbolTableRecord
100
AcDbBlockTableRecord
  2
From Surface
340
0
102
{BLKREFS
331
6FFEC
102
}
 70
     0
280
     1
281
     0
  0
BLOCK_RECORD
  5
70214
330
70199
100
AcDbSymbolTableRecord
100
AcDbBlockTableRecord
  2
From Surface_1
340
0
102
{BLKREFS
331
6FFED
102
}
 70
     0
280
     1
281
     0
  0
BLOCK_RECORD
  5
70217
330
70199
100
AcDbSymbolTableRecord
100
AcDbBlockTableRecord
  2
From Surface_2
340
0
102
{BLKREFS
331
6FFEE
102
}
 70
     0
280
     1
281
     0
  0
BLOCK_RECORD
  5
7021A
330
70199
100
AcDbSymbolTableRecord
100
AcDbBlockTableRecord
  2
From Surface_3
340
0
102
{BLKREFS
331
6FFEF
102
}
 70
     0
280
     1
281
     0
  0
BLOCK_RECORD
  5
7021D
330
70199
100
AcDbSymbolTableRecord
100
AcDbBlockTableRecord
  2
From Solid
340
0
102
{BLKREFS
331
6FFF0
102
}
 70
     0
280
     1
281
     0
  0
BLOCK_RECORD
  5
70220
330
70199
100
AcDbSymbolTableRecord
100
AcDbBlockTableRecord
  2
From Solid_1
340
0
102
{BLKREFS
331
6FFF1
102
}
 70
     0
280
     1
281
     0
  0
BLOCK_RECORD
  5
70223
330
70199
100
AcDbSymbolTableRecord
100
AcDbBlockTableRecord
  2
From Solid_2
340
0
102
{BLKREFS
331
6FFF2
102
}
 70
     0
280
     1
281
     0
  0
BLOCK_RECORD
  5
70226
330
70199
100
AcDbSymbolTableRecord
100
AcDbBlockTableRecord
  2
From Solid_3
340
0
102
{BLKREFS
331
6FFF3
102
}
 70
     0
280
     1
281
     0
  0
BLOCK_RECORD
  5
70229
330
70199
100
AcDbSymbolTableRecord
100
AcDbBlockTableRecord
  2
From Solid_4
340
0
102
{BLKREFS
331
6FFF4
102
}
 70
     0
280
     1
281
     0
  0
BLOCK_RECORD
  5
7022C
330
70199
100
AcDbSymbolTableRecord
100
AcDbBlockTableRecord
  2
From Solid_5
340
0
102
{BLKREFS
331
6FFF5
102
}
 70
     0
280
     1
281
     0
  0
BLOCK_RECORD
  5
7022F
330
70199
100
AcDbSymbolTableRecord
100
AcDbBlockTableRecord
  2
From Solid_6
340
0
102
{BLKREFS
331
6FFF6
102
}
 70
     0
280
     1
281
     0
  0
BLOCK_RECORD
  5
70232
330
70199
100
AcDbSymbolTableRecord
100
AcDbBlockTableRecord
  2
From Solid_7
340
0
102
{BLKREFS
331
6FFF7
102
}
 70
     0
280
     1
281
     0
  0
BLOCK_RECORD
  5
70235
330
70199
100
AcDbSymbolTableRecord
100
AcDbBlockTableRecord
  2
From Solid_8
340
0
102
{BLKREFS
331
6FFF8
102
}
 70
     0
280
     1
281
     0
  0
BLOCK_RECORD
  5
70238
330
70199
100
AcDbSymbolTableRecord
100
AcDbBlockTableRecord
  2
From Solid_9
340
0
102
{BLKREFS
331
6FFF9
102
}
 70
     0
280
     1
281
     0
  0
BLOCK_RECORD
  5
7023B
330
70199
100
AcDbSymbolTableRecord
100
AcDbBlockTableRecord
  2
From Solid_10
340
0
102
{BLKREFS
331
6FFFA
102
}
 70
     0
280
     1
281
     0
  0
BLOCK_RECORD
  5
7023E
330
70199
100
AcDbSymbolTableRecord
100
AcDbBlockTableRecord
  2
From Solid_11
340
0
102
{BLKREFS
331
6FFFB
102
}
 70
     0
280
     1
281
     0
  0
BLOCK_RECORD
  5
70241
330
70199
100
AcDbSymbolTableRecord
100
AcDbBlockTableRecord
  2
From Solid_12
340
0
102
{BLKREFS
331
6FFFC
102
}
 70
     0
280
     1
281
     0
  0
BLOCK_RECORD
  5
70244
330
70199
100
AcDbSymbolTableRecord
100
AcDbBlockTableRecord
  2
From Solid_13
340
0
102
{BLKREFS
331
6FFFD
102
}
 70
     0
280
     1
281
     0
  0
BLOCK_RECORD
  5
70247
330
70199
100
AcDbSymbolTableRecord
100
AcDbBlockTableRecord
  2
From Solid_14
340
0
102
{BLKREFS
331
6FFFE
102
}
 70
     0
280
     1
281
     0
  0
BLOCK_RECORD
  5
7024A
330
70199
100
AcDbSymbolTableRecord
100
AcDbBlockTableRecord
  2
From Solid_15
340
0
102
{BLKREFS
331
6FFFF
102
}
 70
     0
280
     1
281
     0
  0
BLOCK_RECORD
  5
7024D
330
70199
100
AcDbSymbolTableRecord
100
AcDbBlockTableRecord
  2
From Solid_16
340
0
102
{BLKREFS
331
70000
102
}
 70
     0
280
     1
281
     0
  0
BLOCK_RECORD
  5
70250
330
70199
100
AcDbSymbolTableRecord
100
AcDbBlockTableRecord
  2
From Solid_17
340
0
102
{BLKREFS
331
70001
102
}
 70
     0
280
     1
281
     0
  0
BLOCK_RECORD
  5
70253
330
70199
100
AcDbSymbolTableRecord
100
AcDbBlockTableRecord
  2
From Solid_18
340
0
102
{BLKREFS
331
70002
102
}
 70
     0
280
     1
281
     0
  0
BLOCK_RECORD
  5
70256
330
70199
100
AcDbSymbolTableRecord
100
AcDbBlockTableRecord
  2
From Solid_19
340
0
102
{BLKREFS
331
70003
102
}
 70
     0
280
     1
281
     0
  0
BLOCK_RECORD
  5
70259
330
70199
100
AcDbSymbolTableRecord
100
AcDbBlockTableRecord
  2
From Solid_20
340
0
102
{BLKREFS
331
70004
102
}
 70
     0
280
     1
281
     0
  0
BLOCK_RECORD
  5
7025D
330
70199
100
AcDbSymbolTableRecord
100
AcDbBlockTableRecord
  2
From Solid_21
340
0
102
{BLKREFS
331
70005
102
}
 70
     0
280
     1
281
     0
  0
BLOCK_RECORD
  5
70260
330
70199
100
AcDbSymbolTableRecord
100
AcDbBlockTableRecord
  2
*U27
340
0
102
{BLKREFS
331
6FEA7
102
}
 70
     0
280
     1
281
     0
  0
BLOCK_RECORD
  5
70263
330
70199
100
AcDbSymbolTableRecord
100
AcDbBlockTableRecord
  2
*U28
340
0
102
{BLKREFS
331
6FEB3
102
}
 70
     0
280
     1
281
     0
  0
BLOCK_RECORD
  5
70266
330
70199
100
AcDbSymbolTableRecord
100
AcDbBlockTableRecord
  2
*U29
340
0
102
{BLKREFS
331
6FEBF
102
}
 70
     0
280
     1
281
     0
  0
BLOCK_RECORD
  5
70269
330
70199
100
AcDbSymbolTableRecord
100
AcDbBlockTableRecord
  2
*U30
340
0
102
{BLKREFS
331
6FECB
102
}
 70
     0
280
     1
281
     0
  0
BLOCK_RECORD
  5
7026C
330
70199
100
AcDbSymbolTableRecord
100
AcDbBlockTableRecord
  2
*U31
340
0
102
{BLKREFS
331
6FED7
102
}
 70
     0
280
     1
281
     0
  0
BLOCK_RECORD
  5
7026F
330
70199
100
AcDbSymbolTableRecord
100
AcDbBlockTableRecord
  2
From Bspline Surface
340
0
102
{BLKREFS
331
70006
102
}
 70
     0
280
     1
281
     0
  0
BLOCK_RECORD
  5
70272
330
70199
100
AcDbSymbolTableRecord
100
AcDbBlockTableRecord
  2
From Bspline Surface_1
340
0
102
{BLKREFS
331
70025
102
}
 70
     0
280
     1
281
     0
  0
BLOCK_RECORD
  5
70275
330
70199
100
AcDbSymbolTableRecord
100
AcDbBlockTableRecord
  2
From Bspline Surface_2
340
0
102
{BLKREFS
331
70044
102
}
 70
     0
280
     1
281
     0
  0
BLOCK_RECORD
  5
70278
330
70199
100
AcDbSymbolTableRecord
100
AcDbBlockTableRecord
  2
From Bspline Surface_3
340
0
102
{BLKREFS
331
70063
102
}
 70
     0
280
     1
281
     0
  0
BLOCK_RECORD
  5
7027B
330
70199
100
AcDbSymbolTableRecord
100
AcDbBlockTableRecord
  2
From Bspline Surface_4
340
0
102
{BLKREFS
331
70082
102
}
 70
     0
280
     1
281
     0
  0
BLOCK_RECORD
  5
7027E
330
70199
100
AcDbSymbolTableRecord
100
AcDbBlockTableRecord
  2
From Bspline Surface_5
340
0
102
{BLKREFS
331
700A1
102
}
 70
     0
280
     1
281
     0
  0
BLOCK_RECORD
  5
70281
330
70199
100
AcDbSymbolTableRecord
100
AcDbBlockTableRecord
  2
From Bspline Surface_6
340
0
102
{BLKREFS
331
700C0
102
}
 70
     0
280
     1
281
     0
  0
BLOCK_RECORD
  5
70284
330
70199
100
AcDbSymbolTableRecord
100
AcDbBlockTableRecord
  2
From Bspline Surface_7
340
0
102
{BLKREFS
331
700DF
102
}
 70
     0
280
     1
281
     0
  0
BLOCK_RECORD
  5
70287
330
70199
100
AcDbSymbolTableRecord
100
AcDbBlockTableRecord
  2
From Solid_22
340
0
102
{BLKREFS
331
700FE
102
}
 70
     0
280
     1
281
     0
  0
BLOCK_RECORD
  5
7028A
330
70199
100
AcDbSymbolTableRecord
100
AcDbBlockTableRecord
  2
From Solid_23
340
0
102
{BLKREFS
331
700FF
102
}
 70
     0
280
     1
281
     0
  0
ENDTAB
  0
ENDSEC
  0
SECTION
  2
BLOCKS
  0
BLOCK
  5
7019B
330
7019A
100
AcDbEntity
  8
0
100
AcDbBlockBegin
  2
*Model_Space
 70
     0
 10
0.0
 20
0.0
 30
0.0
  3
*Model_Space
  1

  0
ENDBLK
  5
701AC
330
7019A
100
AcDbEntity
  8
0
100
AcDbBlockEnd
  0
BLOCK
  5
701B2
330
701B1
100
AcDbEntity
 67
     1
  8
0
100
AcDbBlockBegin
  2
*Paper_Space
 70
     0
 10
0.0
 20
0.0
 30
0.0
  3
*Paper_Space
  1

  0
ENDBLK
  5
701B3
330
701B1
100
AcDbEntity
 67
     1
  8
0
100
AcDbBlockEnd
  0
BLOCK
  5
7020F
330
7020E
100
AcDbEntity
  8
0
 62
    98
370
     0
100
AcDbBlockBegin
  2
SE01
 70
     0
 10
0.0
 20
0.0
 30
0.0
  3
SE01
  1

  0
LWPOLYLINE
  5
6FD65
330
7020E
100
AcDbEntity
  8
Level 26
  6
Continuous
 62
     7
370
     0
100
AcDbPolyline
 90
        5
 70
   129
 43
0.0
 10
268.997043
 20
-10.0
 10
264.727105
 20
-10.0
 10
264.727105
 20
10.0
 10
268.997043
 20
10.0
 10
268.997043
 20
-10.0
  0
LWPOLYLINE
  5
6FD66
330
7020E
100
AcDbEntity
  8
Level 26
  6
Continuous
 62
     7
370
     0
100
AcDbPolyline
 90
        5
 70
   129
 43
0.0
 10
256.073722
 20
-10.0
 10
251.836581
 20
-10.0
 10
251.836581
 20
10.0
 10
256.073722
 20
10.0
 10
256.073722
 20
-10.0
  0
LWPOLYLINE
  5
6FD67
330
7020E
100
AcDbEntity
  8
Level 26
  6
Continuous
 62
     7
370
     0
100
AcDbPolyline
 90
        5
 70
   129
 43
0.0
 10
221.493429
 20
-10.0
 10
217.132997
 20
-10.0
 10
217.132997
 20
10.0
 10
221.493429
 20
10.0
 10
221.493429
 20
-10.0
  0
LWPOLYLINE
  5
6FD68
330
7020E
100
AcDbEntity
  8
Level 26
  6
Continuous
 62
     7
370
     0
100
AcDbPolyline
 90
        5
 70
   129
 43
0.0
 10
269.459406
 20
-10.0
 10
265.358752
 20
-10.0
 10
265.358752
 20
10.0
 10
269.459406
 20
10.0
 10
269.459406
 20
-10.0
  0
LWPOLYLINE
  5
6FD69
330
7020E
100
AcDbEntity
  8
Level 26
  6
Continuous
 62
     7
370
     0
100
AcDbPolyline
 90
        5
 70
   129
 43
0.0
 10
488.813368
 20
-10.0
 10
487.845733
 20
-10.0
 10
487.845733
 20
10.0
 10
488.813368
 20
10.0
 10
488.813368
 20
-10.0
  0
LWPOLYLINE
  5
6FD6A
330
7020E
100
AcDbEntity
  8
Level 26
  6
Continuous
 62
   133
370
     0
100
AcDbPolyline
 90
        5
 70
   129
 43
0.0
 10
179.961847
 20
100.0
 10
-280.038153
 20
100.0
 10
-280.038153
 20
100.0
 10
179.961847
 20
100.0
 10
179.961847
 20
100.0
  0
LWPOLYLINE
  5
6FD6B
330
7020E
100
AcDbEntity
  8
Level 26
  6
Continuous
 62
   133
370
     0
100
AcDbPolyline
 90
        5
 70
   129
 43
0.0
 10
-280.038153
 20
-100.0
 10
179.961847
 20
-100.0
 10
179.961847
 20
-100.0
 10
-280.038153
 20
-100.0
 10
-280.038153
 20
-100.0
  0
LWPOLYLINE
  5
6FD6C
330
7020E
100
AcDbEntity
  8
Level 26
  6
Continuous
 62
     7
370
     0
100
AcDbPolyline
 90
       13
 70
   129
 43
0.0
 10
487.845733
 20
10.1
 10
260.661151
 20
10.1
 10
256.073722
 20
10.1
 10
251.836581
 20
10.1
 10
264.727105
 20
10.1
 10
251.836581
 20
10.1
 10
264.727105
 20
10.1
 10
268.997043
 20
10.1
 10
263.294604
 20
10.1
 10
488.813368
 20
10.1
 10
263.294604
 20
10.1
 10
488.813368
 20
10.1
 10
487.845733
 20
10.1
  0
LWPOLYLINE
  5
6FD75
330
7020E
100
AcDbEntity
  8
Level 26
  6
Continuous
 62
     7
370
     0
100
AcDbPolyline
 90
        6
 70
   129
 43
0.0
 10
269.459406
 20
10.1
 10
221.493429
 20
10.1
 10
269.459406
 20
10.1
 10
265.358752
 20
10.1
 10
217.132997
 20
10.1
 10
221.493429
 20
10.1
  0
LWPOLYLINE
  5
6FD7A
330
7020E
100
AcDbEntity
  8
Level 26
  6
Continuous
 62
     7
370
     0
100
AcDbPolyline
 90
        6
 70
   129
 43
0.0
 10
269.459406
 20
-10.1
 10
221.493429
 20
-10.1
 10
269.459406
 20
-10.1
 10
265.358752
 20
-10.1
 10
217.132997
 20
-10.1
 10
221.493429
 20
-10.1
  0
LWPOLYLINE
  5
6FD7F
330
7020E
100
AcDbEntity
  8
Level 26
  6
Continuous
 62
     7
370
     0
100
AcDbPolyline
 90
       13
 70
   129
 43
0.0
 10
487.845733
 20
-10.1
 10
260.661151
 20
-10.1
 10
256.073722
 20
-10.1
 10
251.836581
 20
-10.1
 10
264.727105
 20
-10.1
 10
251.836581
 20
-10.1
 10
264.727105
 20
-10.1
 10
268.997043
 20
-10.1
 10
263.294604
 20
-10.1
 10
488.813368
 20
-10.1
 10
263.294604
 20
-10.1
 10
488.813368
 20
-10.1
 10
487.845733
 20
-10.1
  0
INSERT
  5
6FFEC
330
7020E
100
AcDbEntity
  8
Level 26
  6
Continuous
 62
   133
370
     0
100
AcDbBlockReference
  2
From Surface
 10
-2517.038549
 20
216.902804
 30
0.0
  0
INSERT
  5
6FFED
330
7020E
100
AcDbEntity
  8
Level 26
  6
Continuous
 62
   133
370
     0
100
AcDbBlockReference
  2
From Surface_1
 10
-2517.038549
 20
216.902804
 30
0.0
  0
INSERT
  5
6FFEE
330
7020E
100
AcDbEntity
  8
Level 26
  6
Continuous
 62
   133
370
     0
100
AcDbBlockReference
  2
From Surface_2
 10
-2517.038549
 20
216.902804
 30
0.0
  0
INSERT
  5
6FFEF
330
7020E
100
AcDbEntity
  8
Level 26
  6
Continuous
 62
   133
370
     0
100
AcDbBlockReference
  2
From Surface_3
 10
-2517.038549
 20
216.902804
 30
0.0
  0
LWPOLYLINE
  5
6FD9C
330
7020E
100
AcDbEntity
  8
Level 26
  6
Continuous
 62
   133
370
     0
100
AcDbPolyline
 90
        5
 70
   129
 43
0.0
 10
-320.038153
 20
-13.0
 10
-320.038153
 20
-60.0
 10
-320.038153
 20
-60.0
 10
-320.038153
 20
-13.0
 10
-320.038153
 20
-13.0
  0
LWPOLYLINE
  5
6FDA1
330
7020E
100
AcDbEntity
  8
Level 26
  6
Continuous
 62
   133
370
     0
100
AcDbPolyline
 90
        5
 70
   129
 43
0.0
 10
-320.038153
 20
60.0
 10
-320.038153
 20
13.0
 10
-320.038153
 20
13.0
 10
-320.038153
 20
60.0
 10
-320.038153
 20
60.0
  0
LWPOLYLINE
  5
6FDA6
330
7020E
100
AcDbEntity
  8
Level 26
  6
Continuous
 62
   133
370
     0
100
AcDbPolyline
 90
        5
 70
   129
 43
0.0
 10
219.961847
 20
13.0
 10
219.961847
 20
60.0
 10
219.961847
 20
60.0
 10
219.961847
 20
13.0
 10
219.961847
 20
13.0
  0
LWPOLYLINE
  5
6FDAB
330
7020E
100
AcDbEntity
  8
Level 26
  6
Continuous
 62
   133
370
     0
100
AcDbPolyline
 90
        5
 70
   129
 43
0.0
 10
219.961847
 20
-60.0
 10
219.961847
 20
-13.0
 10
219.961847
 20
-13.0
 10
219.961847
 20
-60.0
 10
219.961847
 20
-60.0
  0
LWPOLYLINE
  5
6FDB0
330
7020E
100
AcDbEntity
  8
Level 26
  6
Continuous
 62
   133
370
     0
100
AcDbPolyline
 90
       17
 70
   129
 43
0.0
 10
-280.038153
 20
-100.0
 10
179.961847
 20
-100.0
 42
0.414214
 10
219.961847
 20
-60.0
 10
219.961847
 20
-13.0
 10
79.961847
 20
-13.0
 10
79.961847
 20
13.0
 10
219.961847
 20
13.0
 10
219.961847
 20
60.0
 42
0.414214
 10
179.961847
 20
100.0
 10
-280.038153
 20
100.0
 42
0.414214
 10
-320.038153
 20
60.0
 10
-320.038153
 20
13.0
 10
-230.038153
 20
13.0
 10
-230.038153
 20
-13.0
 10
-320.038153
 20
-13.0
 10
-320.038153
 20
-60.0
 42
0.414214
 10
-280.038153
 20
-100.0
  0
INSERT
  5
6FFF0
330
7020E
100
AcDbEntity
  8
Level 26
  6
Continuous
 62
    40
370
     0
100
AcDbBlockReference
  2
From Solid
 10
-2517.038549
 20
216.902804
 30
0.0
  0
INSERT
  5
6FFF1
330
7020E
100
AcDbEntity
  8
Level 26
  6
Continuous
 62
    40
370
     0
100
AcDbBlockReference
  2
From Solid_1
 10
-2517.038549
 20
216.902804
 30
0.0
  0
INSERT
  5
6FFF2
330
7020E
100
AcDbEntity
  8
Level 26
  6
Continuous
 62
    40
370
     0
100
AcDbBlockReference
  2
From Solid_2
 10
-2517.038549
 20
216.902804
 30
0.0
  0
INSERT
  5
6FFF3
330
7020E
100
AcDbEntity
  8
Level 26
  6
Continuous
 62
    40
370
     0
100
AcDbBlockReference
  2
From Solid_3
 10
-2517.038549
 20
216.902804
 30
0.0
  0
INSERT
  5
6FFF4
330
7020E
100
AcDbEntity
  8
Level 26
  6
Continuous
 62
    40
370
     0
100
AcDbBlockReference
  2
From Solid_4
 10
-2517.038549
 20
216.902804
 30
0.0
  0
INSERT
  5
6FFF5
330
7020E
100
AcDbEntity
  8
Level 26
  6
Continuous
 62
   133
370
     0
100
AcDbBlockReference
  2
From Solid_5
 10
-2517.038549
 20
216.902804
 30
0.0
  0
INSERT
  5
6FFF6
330
7020E
100
AcDbEntity
  8
Level 26
  6
Continuous
 62
   133
370
     0
100
AcDbBlockReference
  2
From Solid_6
 10
-2517.038549
 20
216.902804
 30
0.0
  0
INSERT
  5
6FFF7
330
7020E
100
AcDbEntity
  8
Level 26
  6
Continuous
 62
   133
370
     0
100
AcDbBlockReference
  2
From Solid_7
 10
-2517.038549
 20
216.902804
 30
0.0
  0
INSERT
  5
6FFF8
330
7020E
100
AcDbEntity
  8
Level 26
  6
Continuous
 62
   133
370
     0
100
AcDbBlockReference
  2
From Solid_8
 10
-2517.038549
 20
216.902804
 30
0.0
  0
INSERT
  5
6FFF9
330
7020E
100
AcDbEntity
  8
Level 26
  6
Continuous
 62
   133
370
     0
100
AcDbBlockReference
  2
From Solid_9
 10
-2517.038549
 20
216.902804
 30
0.0
  0
INSERT
  5
6FFFA
330
7020E
100
AcDbEntity
  8
Level 26
  6
Continuous
 62
   133
370
     0
100
AcDbBlockReference
  2
From Solid_10
 10
-2517.038549
 20
216.902804
 30
0.0
  0
INSERT
  5
6FFFB
330
7020E
100
AcDbEntity
  8
Level 26
  6
Continuous
 62
   133
370
     0
100
AcDbBlockReference
  2
From Solid_11
 10
-2517.038549
 20
216.902804
 30
0.0
  0
INSERT
  5
6FFFC
330
7020E
100
AcDbEntity
  8
Level 26
  6
Continuous
 62
   133
370
     0
100
AcDbBlockReference
  2
From Solid_12
 10
-2517.038549
 20
216.902804
 30
0.0
  0
INSERT
  5
6FFFD
330
7020E
100
AcDbEntity
  8
Level 26
  6
Continuous
 62
   133
370
     0
100
AcDbBlockReference
  2
From Solid_13
 10
-2517.038549
 20
216.902804
 30
0.0
  0
INSERT
  5
6FFFE
330
7020E
100
AcDbEntity
  8
Level 26
  6
Continuous
 62
   133
370
     0
100
AcDbBlockReference
  2
From Solid_14
 10
-2517.038549
 20
216.902804
 30
0.0
  0
INSERT
  5
6FFFF
330
7020E
100
AcDbEntity
  8
Level 26
  6
Continuous
 62
    40
370
     0
100
AcDbBlockReference
  2
From Solid_15
 10
-2517.038549
 20
216.902804
 30
0.0
  0
INSERT
  5
70000
330
7020E
100
AcDbEntity
  8
Level 26
  6
Continuous
 62
    40
370
     0
100
AcDbBlockReference
  2
From Solid_16
 10
-2517.038549
 20
216.902804
 30
0.0
  0
INSERT
  5
70001
330
7020E
100
AcDbEntity
  8
Level 26
  6
Continuous
 62
    40
370
     0
100
AcDbBlockReference
  2
From Solid_17
 10
-2517.038549
 20
216.902804
 30
0.0
  0
INSERT
  5
70002
330
7020E
100
AcDbEntity
  8
Level 26
  6
Continuous
 62
    40
370
     0
100
AcDbBlockReference
  2
From Solid_18
 10
-2517.038549
 20
216.902804
 30
0.0
  0
INSERT
  5
70003
330
7020E
100
AcDbEntity
  8
Level 26
  6
Continuous
 62
    40
370
     0
100
AcDbBlockReference
  2
From Solid_19
 10
-2517.038549
 20
216.902804
 30
0.0
  0
INSERT
  5
70004
330
7020E
100
AcDbEntity
  8
Level 26
  6
Continuous
 62
   106
370
     0
100
AcDbBlockReference
  2
From Solid_20
 10
-2517.038549
 20
216.902804
 30
0.0
  0
INSERT
  5
70005
330
7020E
100
AcDbEntity
  8
Level 26
  6
Continuous
 62
   106
370
     0
100
AcDbBlockReference
  2
From Solid_21
 10
-2517.038549
 20
216.902804
 30
0.0
  0
INSERT
  5
6FEA7
330
7020E
100
AcDbEntity
  8
Level 26
  6
Continuous
 62
    40
370
     0
100
AcDbBlockReference
  2
*U27
 10
-275.313153
 20
10.2
 30
0.0
  0
INSERT
  5
6FEB3
330
7020E
100
AcDbEntity
  8
Level 26
  6
Continuous
 62
    40
370
     0
100
AcDbBlockReference
  2
*U28
 10
-275.313153
 20
-10.1
 30
0.0
  0
INSERT
  5
6FEBF
330
7020E
100
AcDbEntity
  8
Level 26
  6
Continuous
 62
    40
370
     0
100
AcDbBlockReference
  2
*U29
 10
276.178847
 20
10.1
 30
0.0
  0
INSERT
  5
6FECB
330
7020E
100
AcDbEntity
  8
Level 26
  6
Continuous
 62
    40
370
     0
100
AcDbBlockReference
  2
*U30
 10
276.178847
 20
-10.1
 30
0.0
  0
INSERT
  5
6FED7
330
7020E
100
AcDbEntity
  8
Level 26
  6
Continuous
 62
     7
370
     0
100
AcDbBlockReference
  2
*U31
 10
-1.487153
 20
0.003
 30
0.0
  0
INSERT
  5
700FE
330
7020E
100
AcDbEntity
  8
Level 26
  6
Continuous
 62
   106
370
     0
100
AcDbBlockReference
  2
From Solid_22
 10
-2517.038549
 20
216.902804
 30
0.0
  0
INSERT
  5
700FF
330
7020E
100
AcDbEntity
  8
Level 26
  6
Continuous
 62
     7
370
     0
100
AcDbBlockReference
  2
From Solid_23
 10
-2517.038549
 20
216.902804
 30
0.0
  0
ENDBLK
  5
70210
330
7020E
100
AcDbEntity
  8
0
 62
    98
370
     0
100
AcDbBlockEnd
  0
BLOCK
  5
70212
330
70211
100
AcDbEntity
  8
0
 62
    98
370
     0
100
AcDbBlockBegin
  2
From Surface
 70
     0
 10
0.0
 20
0.0
 30
0.0
  3
From Surface
  1

  0
ARC
  5
6FD89
330
70211
100
AcDbEntity
  8
Level 26
  6
Continuous
 62
   133
370
     0
100
AcDbCircle
 10
2697.000395
 20
-156.902805
 30
0.0
 40
40.00000084488784
100
AcDbArc
 50
0.000001
 51
89.999999
  0
ARC
  5
6FD8A
330
70211
100
AcDbEntity
  8
Level 26
  6
Continuous
 62
   133
370
     0
100
AcDbCircle
 10
2697.000395
 20
-156.902805
 30
0.0
 40
40.00000084488784
100
AcDbArc
 50
0.000001
 51
89.999999
  0
POINT
  5
6FD8B
330
70211
100
AcDbEntity
  8
Level 26
  6
Continuous
 62
   133
370
     0
100
AcDbPoint
 10
2737.000396
 20
-156.902804
 30
0.0
  0
POINT
  5
6FD8C
330
70211
100
AcDbEntity
  8
Level 26
  6
Continuous
 62
   133
370
     0
100
AcDbPoint
 10
2697.000396
 20
-116.902804
 30
0.0
  0
ENDBLK
  5
70213
330
70211
100
AcDbEntity
  8
0
 62
    98
370
     0
100
AcDbBlockEnd
  0
BLOCK
  5
70215
330
70214
100
AcDbEntity
  8
0
 62
    98
370
     0
100
AcDbBlockBegin
  2
From Surface_1
 70
     0
 10
0.0
 20
0.0
 30
0.0
  3
From Surface_1
  1

  0
ARC
  5
6FD8E
330
70214
100
AcDbEntity
  8
Level 26
  6
Continuous
 62
   133
370
     0
100
AcDbCircle
 10
2237.000397
 20
-156.902805
 30
0.0
 40
40.00000084488777
100
AcDbArc
 50
90.000001
 51
179.999999
  0
ARC
  5
6FD8F
330
70214
100
AcDbEntity
  8
Level 26
  6
Continuous
 62
   133
370
     0
100
AcDbCircle
 10
2237.000397
 20
-156.902805
 30
0.0
 40
40.00000084488777
100
AcDbArc
 50
90.000001
 51
179.999999
  0
POINT
  5
6FD90
330
70214
100
AcDbEntity
  8
Level 26
  6
Continuous
 62
   133
370
     0
100
AcDbPoint
 10
2237.000396
 20
-116.902804
 30
0.0
  0
POINT
  5
6FD91
330
70214
100
AcDbEntity
  8
Level 26
  6
Continuous
 62
   133
370
     0
100
AcDbPoint
 10
2197.000396
 20
-156.902804
 30
0.0
  0
ENDBLK
  5
70216
330
70214
100
AcDbEntity
  8
0
 62
    98
370
     0
100
AcDbBlockEnd
  0
BLOCK
  5
70218
330
70217
100
AcDbEntity
  8
0
 62
    98
370
     0
100
AcDbBlockBegin
  2
From Surface_2
 70
     0
 10
0.0
 20
0.0
 30
0.0
  3
From Surface_2
  1

  0
ARC
  5
6FD93
330
70217
100
AcDbEntity
  8
Level 26
  6
Continuous
 62
   133
370
     0
100
AcDbCircle
 10
2237.000397
 20
-276.902803
 30
0.0
 40
40.00000084488777
100
AcDbArc
 50
180.000001
 51
269.999999
  0
ARC
  5
6FD94
330
70217
100
AcDbEntity
  8
Level 26
  6
Continuous
 62
   133
370
     0
100
AcDbCircle
 10
2237.000397
 20
-276.902803
 30
0.0
 40
40.00000084488777
100
AcDbArc
 50
180.000001
 51
269.999999
  0
POINT
  5
6FD95
330
70217
100
AcDbEntity
  8
Level 26
  6
Continuous
 62
   133
370
     0
100
AcDbPoint
 10
2197.000396
 20
-276.902804
 30
0.0
  0
POINT
  5
6FD96
330
70217
100
AcDbEntity
  8
Level 26
  6
Continuous
 62
   133
370
     0
100
AcDbPoint
 10
2237.000396
 20
-316.902804
 30
0.0
  0
ENDBLK
  5
70219
330
70217
100
AcDbEntity
  8
0
 62
    98
370
     0
100
AcDbBlockEnd
  0
BLOCK
  5
7021B
330
7021A
100
AcDbEntity
  8
0
 62
    98
370
     0
100
AcDbBlockBegin
  2
From Surface_3
 70
     0
 10
0.0
 20
0.0
 30
0.0
  3
From Surface_3
  1

  0
ARC
  5
6FD98
330
7021A
100
AcDbEntity
  8
Level 26
  6
Continuous
 62
   133
370
     0
100
AcDbCircle
 10
2697.000395
 20
-276.902803
 30
0.0
 40
40.00000084488783
100
AcDbArc
 50
270.000001
 51
359.999999
  0
ARC
  5
6FD99
330
7021A
100
AcDbEntity
  8
Level 26
  6
Continuous
 62
   133
370
     0
100
AcDbCircle
 10
2697.000395
 20
-276.902803
 30
0.0
 40
40.00000084488782
100
AcDbArc
 50
270.000001
 51
359.999999
  0
POINT
  5
6FD9A
330
7021A
100
AcDbEntity
  8
Level 26
  6
Continuous
 62
   133
370
     0
100
AcDbPoint
 10
2697.000396
 20
-316.902804
 30
0.0
  0
POINT
  5
6FD9B
330
7021A
100
AcDbEntity
  8
Level 26
  6
Continuous
 62
   133
370
     0
100
AcDbPoint
 10
2737.000396
 20
-276.902804
 30
0.0
  0
ENDBLK
  5
7021C
330
7021A
100
AcDbEntity
  8
0
 62
    98
370
     0
100
AcDbBlockEnd
  0
BLOCK
  5
7021E
330
7021D
100
AcDbEntity
  8
0
 62
    98
370
     0
100
AcDbBlockBegin
  2
From Solid
 70
     0
 10
0.0
 20
0.0
 30
0.0
  3
From Solid
  1

  0
LINE
  5
6FDC2
330
7021D
100
AcDbEntity
  8
Level 26
  6
Continuous
 62
    40
370
     0
100
AcDbLine
 10
2228.275291
 20
-82.846026
 30
0.0
 11
2255.175291
 21
-82.846026
 31
0.0
  0
LINE
  5
6FDC3
330
7021D
100
AcDbEntity
  8
Level 26
  6
Continuous
 62
    40
370
     0
100
AcDbLine
 10
2228.275291
 20
-206.902804
 30
0.0
 11
2255.175291
 21
-206.902804
 31
0.0
  0
LINE
  5
6FDC4
330
7021D
100
AcDbEntity
  8
Level 26
  6
Continuous
 62
    40
370
     0
100
AcDbLine
 10
2239.389723
 20
-82.846026
 30
0.0
 11
2239.389723
 21
-206.902804
 31
0.0
  0
LINE
  5
6FDC5
330
7021D
100
AcDbEntity
  8
Level 26
  6
Continuous
 62
    40
370
     0
100
AcDbLine
 10
2228.479627
 20
-82.846026
 30
0.0
 11
2228.479627
 21
-206.902804
 31
0.0
  0
LINE
  5
6FDC6
330
7021D
100
AcDbEntity
  8
Level 26
  6
Continuous
 62
    40
370
     0
100
AcDbLine
 10
2244.060859
 20
-82.846026
 30
0.0
 11
2244.060859
 21
-206.902804
 31
0.0
  0
LINE
  5
6FDC7
330
7021D
100
AcDbEntity
  8
Level 26
  6
Continuous
 62
    40
370
     0
100
AcDbLine
 10
2254.970955
 20
-82.846026
 30
0.0
 11
2254.970955
 21
-206.902804
 31
0.0
  0
ENDBLK
  5
7021F
330
7021D
100
AcDbEntity
  8
0
 62
    98
370
     0
100
AcDbBlockEnd
  0
BLOCK
  5
70221
330
70220
100
AcDbEntity
  8
0
 62
    98
370
     0
100
AcDbBlockBegin
  2
From Solid_1
 70
     0
 10
0.0
 20
0.0
 30
0.0
  3
From Solid_1
  1

  0
ELLIPSE
  5
6FDC9
330
70220
100
AcDbEntity
  8
Level 26
  6
Continuous
 62
    40
370
     0
100
AcDbEllipse
 10
2749.628725
 20
8.354911
 30
0.0
 11
-1.454718147019315
 21
13.37109897488808
 31
0.0
210
0.0
220
0.0
230
0.9999999999999998
 40
0.1726599769276699
 41
0.0
 42
6.283185307179584
  0
ELLIPSE
  5
6FDCA
330
70220
100
AcDbEntity
  8
Level 26
  6
Continuous
 62
    40
370
     0
100
AcDbEllipse
 10
2276.921015
 20
-43.07366
 30
0.0
 11
-1.454718147019316
 21
13.37109897488809
 31
0.0
210
0.0
220
0.0
230
0.9999999999999998
 40
0.1726599769276696
 41
0.0
 42
6.283185307179584
  0
LINE
  5
6FDCB
330
70220
100
AcDbEntity
  8
Level 26
  6
Continuous
 62
    40
370
     0
100
AcDbLine
 10
2747.293157
 20
8.354911
 30
0.0
 11
2274.585447
 21
-43.07366
 31
0.0
  0
LINE
  5
6FDCC
330
70220
100
AcDbEntity
  8
Level 26
  6
Continuous
 62
    40
370
     0
100
AcDbLine
 10
2748.217623
 20
21.728369
 30
0.0
 11
2275.509913
 21
-29.700202
 31
0.0
  0
LINE
  5
6FDCD
330
70220
100
AcDbEntity
  8
Level 26
  6
Continuous
 62
    40
370
     0
100
AcDbLine
 10
2751.964293
 20
8.354911
 30
0.0
 11
2279.256583
 21
-43.07366
 31
0.0
  0
LINE
  5
6FDCE
330
70220
100
AcDbEntity
  8
Level 26
  6
Continuous
 62
    40
370
     0
100
AcDbLine
 10
2751.039827
 20
-5.018547
 30
0.0
 11
2278.332117
 21
-56.447118
 31
0.0
  0
ENDBLK
  5
70222
330
70220
100
AcDbEntity
  8
0
 62
    98
370
     0
100
AcDbBlockEnd
  0
BLOCK
  5
70224
330
70223
100
AcDbEntity
  8
0
 62
    98
370
     0
100
AcDbBlockBegin
  2
From Solid_2
 70
     0
 10
0.0
 20
0.0
 30
0.0
  3
From Solid_2
  1

  0
LINE
  5
6FDD0
330
70223
100
AcDbEntity
  8
Level 26
  6
Continuous
 62
    40
370
     0
100
AcDbLine
 10
2806.667619
 20
-206.902804
 30
0.0
 11
2779.767621
 21
-206.902804
 31
0.0
  0
LINE
  5
6FDD1
330
70223
100
AcDbEntity
  8
Level 26
  6
Continuous
 62
    40
370
     0
100
AcDbLine
 10
2806.667619
 20
-31.417455
 30
0.0
 11
2779.767621
 21
-31.417455
 31
0.0
  0
LINE
  5
6FDD2
330
70223
100
AcDbEntity
  8
Level 26
  6
Continuous
 62
    40
370
     0
100
AcDbLine
 10
2795.553188
 20
-206.902804
 30
0.0
 11
2795.553188
 21
-31.417455
 31
0.0
  0
LINE
  5
6FDD3
330
70223
100
AcDbEntity
  8
Level 26
  6
Continuous
 62
    40
370
     0
100
AcDbLine
 10
2779.971957
 20
-206.902804
 30
0.0
 11
2779.971957
 21
-31.417455
 31
0.0
  0
LINE
  5
6FDD4
330
70223
100
AcDbEntity
  8
Level 26
  6
Continuous
 62
    40
370
     0
100
AcDbLine
 10
2790.882052
 20
-206.902804
 30
0.0
 11
2790.882052
 21
-31.417455
 31
0.0
  0
LINE
  5
6FDD5
330
70223
100
AcDbEntity
  8
Level 26
  6
Continuous
 62
    40
370
     0
100
AcDbLine
 10
2806.463283
 20
-206.902804
 30
0.0
 11
2806.463283
 21
-31.417455
 31
0.0
  0
ENDBLK
  5
70225
330
70223
100
AcDbEntity
  8
0
 62
    98
370
     0
100
AcDbBlockEnd
  0
BLOCK
  5
70227
330
70226
100
AcDbEntity
  8
0
 62
    98
370
     0
100
AcDbBlockBegin
  2
From Solid_3
 70
     0
 10
0.0
 20
0.0
 30
0.0
  3
From Solid_3
  1

  0
LINE
  5
6FDD7
330
70226
100
AcDbEntity
  8
Level 26
  6
Continuous
 62
    40
370
     0
100
AcDbLine
 10
2228.275291
 20
-82.846026
 30
0.0
 11
2255.175291
 21
-82.846026
 31
0.0
  0
ELLIPSE
  5
6FDD8
330
70226
100
AcDbEntity
  8
Level 26
  6
Continuous
 62
    40
370
     0
100
AcDbEllipse
 10
2276.921015
 20
-43.073661
 30
0.0
 11
-1.454717961202306
 21
13.37109899510422
 31
0.0
210
0.0
220
0.0
230
1.0
 40
0.1726600149530908
 41
0.0
 42
6.283185307179584
  0
ELLIPSE
  5
6FDD9
330
70226
100
AcDbEntity
  8
Level 26
  6
Continuous
 62
    40
370
     0
100
AcDbEllipse
 10
2278.782032
 20
-82.846026
 30
0.0
 11
0.0
 21
39.99999874891617
 31
0.0
210
0.0
220
0.0
230
-1.0
 40
0.9848077483483567
 41
4.712388980384689
 42
6.176449651807985
  0
ELLIPSE
  5
6FDDA
330
70226
100
AcDbEntity
  8
Level 26
  6
Continuous
 62
    40
370
     0
100
AcDbEllipse
 10
2281.1176
 20
-82.846026
 30
0.0
 11
0.0
 21
53.44999877967016
 31
0.0
210
0.0
220
0.0
230
-1.0
 40
0.9848077483483571
 41
4.712388980384689
 42
6.176449651807985
  0
ELLIPSE
  5
6FDDB
330
70226
100
AcDbEntity
  8
Level 26
  6
Continuous
 62
    40
370
     0
100
AcDbEllipse
 10
2283.453168
 20
-82.846026
 30
0.0
 11
0.0
 21
39.99999935440033
 31
0.0
210
0.0
220
0.0
230
-0.9999999999999998
 40
0.9848077483483564
 41
4.712388980384689
 42
6.176449651807985
  0
ELLIPSE
  5
6FDDC
330
70226
100
AcDbEntity
  8
Level 26
  6
Continuous
 62
    40
370
     0
100
AcDbEllipse
 10
2281.1176
 20
-82.846026
 30
0.0
 11
0.0
 21
26.54999932364634
 31
0.0
210
0.0
220
0.0
230
-1.0
 40
0.9848077483483569
 41
4.712388980384689
 42
6.176449651807985
  0
ENDBLK
  5
70228
330
70226
100
AcDbEntity
  8
0
 62
    98
370
     0
100
AcDbBlockEnd
  0
BLOCK
  5
7022A
330
70229
100
AcDbEntity
  8
0
 62
    98
370
     0
100
AcDbBlockBegin
  2
From Solid_4
 70
     0
 10
0.0
 20
0.0
 30
0.0
  3
From Solid_4
  1

  0
LINE
  5
6FDDE
330
70229
100
AcDbEntity
  8
Level 26
  6
Continuous
 62
    40
370
     0
100
AcDbLine
 10
2806.667619
 20
-31.417455
 30
0.0
 11
2779.767621
 21
-31.417455
 31
0.0
  0
ELLIPSE
  5
6FDDF
330
70229
100
AcDbEntity
  8
Level 26
  6
Continuous
 62
    40
370
     0
100
AcDbEllipse
 10
2749.628725
 20
8.35491
 30
0.0
 11
1.454718120482505
 21
-13.37109798715622
 31
0.0
210
0.0
220
0.0
230
1.0
 40
0.1726599841529909
 41
0.0
 42
6.283185307179584
  0
ELLIPSE
  5
6FDE0
330
70229
100
AcDbEntity
  8
Level 26
  6
Continuous
 62
    40
370
     0
100
AcDbEllipse
 10
2756.160879
 20
-31.417455
 30
0.0
 11
0.0
 21
39.99999908005752
 31
0.0
210
0.0
220
0.0
230
0.9999999999999998
 40
0.9848077526236069
 41
4.712388980384689
 42
6.389920982714891
  0
ELLIPSE
  5
6FDE1
330
70229
100
AcDbEntity
  8
Level 26
  6
Continuous
 62
    40
370
     0
100
AcDbEllipse
 10
2753.825311
 20
-31.417455
 30
0.0
 11
0.0
 21
53.44999762121425
 31
0.0
210
0.0
220
0.0
230
1.0
 40
0.9848077526236062
 41
4.712388980384689
 42
6.389920982714891
  0
ELLIPSE
  5
6FDE2
330
70229
100
AcDbEntity
  8
Level 26
  6
Continuous
 62
    40
370
     0
100
AcDbEllipse
 10
2751.489743
 20
-31.417455
 30
0.0
 11
0.0
 21
39.99999867596264
 31
0.0
210
0.0
220
0.0
230
1.0
 40
0.9848077526236068
 41
4.712388980384689
 42
6.389920982714891
  0
ELLIPSE
  5
6FDE3
330
70229
100
AcDbEntity
  8
Level 26
  6
Continuous
 62
    40
370
     0
100
AcDbEllipse
 10
2753.825311
 20
-31.417455
 30
0.0
 11
0.0
 21
26.55000013480592
 31
0.0
210
0.0
220
0.0
230
1.0
 40
0.9848077526236064
 41
4.712388980384689
 42
6.389920982714891
  0
ENDBLK
  5
7022B
330
70229
100
AcDbEntity
  8
0
 62
    98
370
     0
100
AcDbBlockEnd
  0
BLOCK
  5
7022D
330
7022C
100
AcDbEntity
  8
0
 62
    98
370
     0
100
AcDbBlockBegin
  2
From Solid_5
 70
     0
 10
0.0
 20
0.0
 30
0.0
  3
From Solid_5
  1

  0
LINE
  5
6FDE5
330
7022C
100
AcDbEntity
  8
Level 26
  6
Continuous
 62
   133
370
     0
100
AcDbLine
 10
2675.425119
 20
-206.902804
 30
0.0
 11
2697.425119
 21
-206.902804
 31
0.0
  0
LINE
  5
6FDE6
330
7022C
100
AcDbEntity
  8
Level 26
  6
Continuous
 62
   133
370
     0
100
AcDbLine
 10
2675.425119
 20
-203.569471
 30
0.0
 11
2697.425119
 21
-203.569471
 31
0.0
  0
LINE
  5
6FDE7
330
7022C
100
AcDbEntity
  8
Level 26
  6
Continuous
 62
   133
370
     0
100
AcDbLine
 10
2675.425119
 20
-206.902804
 30
0.0
 11
2675.425119
 21
-203.569471
 31
0.0
  0
LINE
  5
6FDE8
330
7022C
100
AcDbEntity
  8
Level 26
  6
Continuous
 62
   133
370
     0
100
AcDbLine
 10
2686.425119
 20
-206.902804
 30
0.0
 11
2686.425119
 21
-203.569471
 31
0.0
  0
LINE
  5
6FDE9
330
7022C
100
AcDbEntity
  8
Level 26
  6
Continuous
 62
   133
370
     0
100
AcDbLine
 10
2697.425119
 20
-206.902804
 30
0.0
 11
2697.425119
 21
-203.569471
 31
0.0
  0
LINE
  5
6FDEA
330
7022C
100
AcDbEntity
  8
Level 26
  6
Continuous
 62
   133
370
     0
100
AcDbLine
 10
2686.425119
 20
-206.902804
 30
0.0
 11
2686.425119
 21
-203.569471
 31
0.0
  0
ENDBLK
  5
7022E
330
7022C
100
AcDbEntity
  8
0
 62
    98
370
     0
100
AcDbBlockEnd
  0
BLOCK
  5
70230
330
7022F
100
AcDbEntity
  8
0
 62
    98
370
     0
100
AcDbBlockBegin
  2
From Solid_6
 70
     0
 10
0.0
 20
0.0
 30
0.0
  3
From Solid_6
  1

  0
ELLIPSE
  5
6FDEC
330
7022F
100
AcDbEntity
  8
Level 26
  6
Continuous
 62
   133
370
     0
100
AcDbEllipse
 10
2686.425119
 20
-180.492548
 30
0.0
 11
11.0
 21
0.0
 31
0.0
210
0.0
220
0.0
230
1.0
 40
0.9230769419042422
 41
0.0
 42
6.283185307179586
  0
ELLIPSE
  5
6FDED
330
7022F
100
AcDbEntity
  8
Level 26
  6
Continuous
 62
   133
370
     0
100
AcDbEllipse
 10
2686.425119
 20
-151.325881
 30
0.0
 11
11.0
 21
0.0
 31
0.0
210
0.0
220
0.0
230
1.0
 40
0.9230769419042422
 41
0.0
 42
6.283185307179586
  0
LINE
  5
6FDEE
330
7022F
100
AcDbEntity
  8
Level 26
  6
Continuous
 62
   133
370
     0
100
AcDbLine
 10
2697.425119
 20
-180.492548
 30
0.0
 11
2697.425119
 21
-151.325881
 31
0.0
  0
LINE
  5
6FDEF
330
7022F
100
AcDbEntity
  8
Level 26
  6
Continuous
 62
   133
370
     0
100
AcDbLine
 10
2686.425119
 20
-170.338702
 30
0.0
 11
2686.425119
 21
-141.172035
 31
0.0
  0
LINE
  5
6FDF0
330
7022F
100
AcDbEntity
  8
Level 26
  6
Continuous
 62
   133
370
     0
100
AcDbLine
 10
2675.425119
 20
-180.492548
 30
0.0
 11
2675.425119
 21
-151.325881
 31
0.0
  0
LINE
  5
6FDF1
330
7022F
100
AcDbEntity
  8
Level 26
  6
Continuous
 62
   133
370
     0
100
AcDbLine
 10
2686.425119
 20
-190.646394
 30
0.0
 11
2686.425119
 21
-161.479727
 31
0.0
  0
ENDBLK
  5
70231
330
7022F
100
AcDbEntity
  8
0
 62
    98
370
     0
100
AcDbBlockEnd
  0
BLOCK
  5
70233
330
70232
100
AcDbEntity
  8
0
 62
    98
370
     0
100
AcDbBlockBegin
  2
From Solid_7
 70
     0
 10
0.0
 20
0.0
 30
0.0
  3
From Solid_7
  1

  0
LINE
  5
6FDF3
330
70232
100
AcDbEntity
  8
Level 26
  6
Continuous
 62
   133
370
     0
100
AcDbLine
 10
2697.425119
 20
-174.402804
 30
0.0
 11
2675.425119
 21
-174.402804
 31
0.0
  0
LINE
  5
6FDF4
330
70232
100
AcDbEntity
  8
Level 26
  6
Continuous
 62
   133
370
     0
100
AcDbLine
 10
2697.425119
 20
-206.902804
 30
0.0
 11
2675.425119
 21
-206.902804
 31
0.0
  0
LINE
  5
6FDF5
330
70232
100
AcDbEntity
  8
Level 26
  6
Continuous
 62
   133
370
     0
100
AcDbLine
 10
2697.425119
 20
-174.402804
 30
0.0
 11
2697.425119
 21
-206.902804
 31
0.0
  0
LINE
  5
6FDF6
330
70232
100
AcDbEntity
  8
Level 26
  6
Continuous
 62
   133
370
     0
100
AcDbLine
 10
2686.425119
 20
-174.402804
 30
0.0
 11
2686.425119
 21
-206.902804
 31
0.0
  0
LINE
  5
6FDF7
330
70232
100
AcDbEntity
  8
Level 26
  6
Continuous
 62
   133
370
     0
100
AcDbLine
 10
2675.425119
 20
-174.402804
 30
0.0
 11
2675.425119
 21
-206.902804
 31
0.0
  0
LINE
  5
6FDF8
330
70232
100
AcDbEntity
  8
Level 26
  6
Continuous
 62
   133
370
     0
100
AcDbLine
 10
2686.425119
 20
-174.402804
 30
0.0
 11
2686.425119
 21
-206.902804
 31
0.0
  0
ENDBLK
  5
70234
330
70232
100
AcDbEntity
  8
0
 62
    98
370
     0
100
AcDbBlockEnd
  0
BLOCK
  5
70236
330
70235
100
AcDbEntity
  8
0
 62
    98
370
     0
100
AcDbBlockBegin
  2
From Solid_8
 70
     0
 10
0.0
 20
0.0
 30
0.0
  3
From Solid_8
  1

  0
LINE
  5
6FDFA
330
70235
100
AcDbEntity
  8
Level 26
  6
Continuous
 62
   133
370
     0
100
AcDbLine
 10
2697.425119
 20
-174.402804
 30
0.0
 11
2675.425119
 21
-174.402804
 31
0.0
  0
ELLIPSE
  5
6FDFB
330
70235
100
AcDbEntity
  8
Level 26
  6
Continuous
 62
   133
370
     0
100
AcDbEllipse
 10
2686.425119
 20
-151.325881
 30
0.0
 11
11.0
 21
0.0
 31
0.0
210
0.0
220
0.0
230
1.0
 40
0.9230769313609508
 41
0.0
 42
6.283185307179586
  0
LINE
  5
6FDFC
330
70235
100
AcDbEntity
  8
Level 26
  6
Continuous
 62
   133
370
     0
100
AcDbLine
 10
2697.425119
 20
-174.402804
 30
0.0
 11
2697.425119
 21
-149.402804
 31
0.0
  0
LINE
  5
6FDFD
330
70235
100
AcDbEntity
  8
Level 26
  6
Continuous
 62
   133
370
     0
100
AcDbLine
 10
2686.425119
 20
-174.402804
 30
0.0
 11
2686.425119
 21
-138.402804
 31
0.0
  0
LINE
  5
6FDFE
330
70235
100
AcDbEntity
  8
Level 26
  6
Continuous
 62
   133
370
     0
100
AcDbLine
 10
2675.425119
 20
-174.402804
 30
0.0
 11
2675.425119
 21
-149.402804
 31
0.0
  0
LINE
  5
6FDFF
330
70235
100
AcDbEntity
  8
Level 26
  6
Continuous
 62
   133
370
     0
100
AcDbLine
 10
2686.425119
 20
-174.402804
 30
0.0
 11
2686.425119
 21
-160.402804
 31
0.0
  0
ENDBLK
  5
70237
330
70235
100
AcDbEntity
  8
0
 62
    98
370
     0
100
AcDbBlockEnd
  0
BLOCK
  5
70239
330
70238
100
AcDbEntity
  8
0
 62
    98
370
     0
100
AcDbBlockBegin
  2
From Solid_9
 70
     0
 10
0.0
 20
0.0
 30
0.0
  3
From Solid_9
  1

  0
LINE
  5
6FE01
330
70238
100
AcDbEntity
  8
Level 26
  6
Continuous
 62
   133
370
     0
100
AcDbLine
 10
2675.425119
 20
-203.569471
 30
0.0
 11
2697.425119
 21
-203.569471
 31
0.0
  0
ELLIPSE
  5
6FE02
330
70238
100
AcDbEntity
  8
Level 26
  6
Continuous
 62
   133
370
     0
100
AcDbEllipse
 10
2686.425119
 20
-180.492548
 30
0.0
 11
-11.0
 21
0.0
 31
0.0
210
0.0
220
0.0
230
1.0
 40
0.9230769313609508
 41
0.0
 42
6.283185307179586
  0
LINE
  5
6FE03
330
70238
100
AcDbEntity
  8
Level 26
  6
Continuous
 62
   133
370
     0
100
AcDbLine
 10
2675.425119
 20
-203.569471
 30
0.0
 11
2675.425119
 21
-180.492548
 31
0.0
  0
LINE
  5
6FE04
330
70238
100
AcDbEntity
  8
Level 26
  6
Continuous
 62
   133
370
     0
100
AcDbLine
 10
2686.425119
 20
-203.569471
 30
0.0
 11
2686.425119
 21
-170.338701
 31
0.0
  0
LINE
  5
6FE05
330
70238
100
AcDbEntity
  8
Level 26
  6
Continuous
 62
   133
370
     0
100
AcDbLine
 10
2697.425119
 20
-203.569471
 30
0.0
 11
2697.425119
 21
-180.492548
 31
0.0
  0
LINE
  5
6FE06
330
70238
100
AcDbEntity
  8
Level 26
  6
Continuous
 62
   133
370
     0
100
AcDbLine
 10
2686.425119
 20
-203.569471
 30
0.0
 11
2686.425119
 21
-190.646394
 31
0.0
  0
ENDBLK
  5
7023A
330
70238
100
AcDbEntity
  8
0
 62
    98
370
     0
100
AcDbBlockEnd
  0
BLOCK
  5
7023C
330
7023B
100
AcDbEntity
  8
0
 62
    98
370
     0
100
AcDbBlockBegin
  2
From Solid_10
 70
     0
 10
0.0
 20
0.0
 30
0.0
  3
From Solid_10
  1

  0
LINE
  5
6FE08
330
7023B
100
AcDbEntity
  8
Level 26
  6
Continuous
 62
   133
370
     0
100
AcDbLine
 10
2697.425119
 20
-226.902804
 30
0.0
 11
2675.425119
 21
-226.902804
 31
0.0
  0
LINE
  5
6FE09
330
7023B
100
AcDbEntity
  8
Level 26
  6
Continuous
 62
   133
370
     0
100
AcDbLine
 10
2697.425119
 20
-230.236137
 30
0.0
 11
2675.425119
 21
-230.236137
 31
0.0
  0
LINE
  5
6FE0A
330
7023B
100
AcDbEntity
  8
Level 26
  6
Continuous
 62
   133
370
     0
100
AcDbLine
 10
2697.425119
 20
-226.902804
 30
0.0
 11
2697.425119
 21
-230.236137
 31
0.0
  0
LINE
  5
6FE0B
330
7023B
100
AcDbEntity
  8
Level 26
  6
Continuous
 62
   133
370
     0
100
AcDbLine
 10
2686.425119
 20
-226.902804
 30
0.0
 11
2686.425119
 21
-230.236137
 31
0.0
  0
LINE
  5
6FE0C
330
7023B
100
AcDbEntity
  8
Level 26
  6
Continuous
 62
   133
370
     0
100
AcDbLine
 10
2675.425119
 20
-226.902804
 30
0.0
 11
2675.425119
 21
-230.236137
 31
0.0
  0
LINE
  5
6FE0D
330
7023B
100
AcDbEntity
  8
Level 26
  6
Continuous
 62
   133
370
     0
100
AcDbLine
 10
2686.425119
 20
-226.902804
 30
0.0
 11
2686.425119
 21
-230.236137
 31
0.0
  0
ENDBLK
  5
7023D
330
7023B
100
AcDbEntity
  8
0
 62
    98
370
     0
100
AcDbBlockEnd
  0
BLOCK
  5
7023F
330
7023E
100
AcDbEntity
  8
0
 62
    98
370
     0
100
AcDbBlockBegin
  2
From Solid_11
 70
     0
 10
0.0
 20
0.0
 30
0.0
  3
From Solid_11
  1

  0
ELLIPSE
  5
6FE0F
330
7023E
100
AcDbEntity
  8
Level 26
  6
Continuous
 62
   133
370
     0
100
AcDbEllipse
 10
2686.425119
 20
-253.31306
 30
0.0
 11
-11.00000000000001
 21
0.0
 31
0.0
210
0.0
220
0.0
230
0.9999999999999998
 40
0.9230769419042418
 41
0.0
 42
6.283185307179586
  0
ELLIPSE
  5
6FE10
330
7023E
100
AcDbEntity
  8
Level 26
  6
Continuous
 62
   133
370
     0
100
AcDbEllipse
 10
2686.425119
 20
-282.479727
 30
0.0
 11
-11.00000000000001
 21
0.0
 31
0.0
210
0.0
220
0.0
230
0.9999999999999998
 40
0.9230769419042418
 41
0.0
 42
6.283185307179586
  0
LINE
  5
6FE11
330
7023E
100
AcDbEntity
  8
Level 26
  6
Continuous
 62
   133
370
     0
100
AcDbLine
 10
2675.425119
 20
-253.31306
 30
0.0
 11
2675.425119
 21
-282.479727
 31
0.0
  0
LINE
  5
6FE12
330
7023E
100
AcDbEntity
  8
Level 26
  6
Continuous
 62
   133
370
     0
100
AcDbLine
 10
2686.425119
 20
-263.466906
 30
0.0
 11
2686.425119
 21
-292.633573
 31
0.0
  0
LINE
  5
6FE13
330
7023E
100
AcDbEntity
  8
Level 26
  6
Continuous
 62
   133
370
     0
100
AcDbLine
 10
2697.425119
 20
-253.31306
 30
0.0
 11
2697.425119
 21
-282.479727
 31
0.0
  0
LINE
  5
6FE14
330
7023E
100
AcDbEntity
  8
Level 26
  6
Continuous
 62
   133
370
     0
100
AcDbLine
 10
2686.425119
 20
-243.159214
 30
0.0
 11
2686.425119
 21
-272.325881
 31
0.0
  0
ENDBLK
  5
70240
330
7023E
100
AcDbEntity
  8
0
 62
    98
370
     0
100
AcDbBlockEnd
  0
BLOCK
  5
70242
330
70241
100
AcDbEntity
  8
0
 62
    98
370
     0
100
AcDbBlockBegin
  2
From Solid_12
 70
     0
 10
0.0
 20
0.0
 30
0.0
  3
From Solid_12
  1

  0
LINE
  5
6FE16
330
70241
100
AcDbEntity
  8
Level 26
  6
Continuous
 62
   133
370
     0
100
AcDbLine
 10
2675.425119
 20
-259.402804
 30
0.0
 11
2697.425119
 21
-259.402804
 31
0.0
  0
LINE
  5
6FE17
330
70241
100
AcDbEntity
  8
Level 26
  6
Continuous
 62
   133
370
     0
100
AcDbLine
 10
2675.425119
 20
-226.902804
 30
0.0
 11
2697.425119
 21
-226.902804
 31
0.0
  0
LINE
  5
6FE18
330
70241
100
AcDbEntity
  8
Level 26
  6
Continuous
 62
   133
370
     0
100
AcDbLine
 10
2675.425119
 20
-259.402804
 30
0.0
 11
2675.425119
 21
-226.902804
 31
0.0
  0
LINE
  5
6FE19
330
70241
100
AcDbEntity
  8
Level 26
  6
Continuous
 62
   133
370
     0
100
AcDbLine
 10
2686.425119
 20
-259.402804
 30
0.0
 11
2686.425119
 21
-226.902804
 31
0.0
  0
LINE
  5
6FE1A
330
70241
100
AcDbEntity
  8
Level 26
  6
Continuous
 62
   133
370
     0
100
AcDbLine
 10
2697.425119
 20
-259.402804
 30
0.0
 11
2697.425119
 21
-226.902804
 31
0.0
  0
LINE
  5
6FE1B
330
70241
100
AcDbEntity
  8
Level 26
  6
Continuous
 62
   133
370
     0
100
AcDbLine
 10
2686.425119
 20
-259.402804
 30
0.0
 11
2686.425119
 21
-226.902804
 31
0.0
  0
ENDBLK
  5
70243
330
70241
100
AcDbEntity
  8
0
 62
    98
370
     0
100
AcDbBlockEnd
  0
BLOCK
  5
70245
330
70244
100
AcDbEntity
  8
0
 62
    98
370
     0
100
AcDbBlockBegin
  2
From Solid_13
 70
     0
 10
0.0
 20
0.0
 30
0.0
  3
From Solid_13
  1

  0
LINE
  5
6FE1D
330
70244
100
AcDbEntity
  8
Level 26
  6
Continuous
 62
   133
370
     0
100
AcDbLine
 10
2675.425119
 20
-259.402804
 30
0.0
 11
2697.425119
 21
-259.402804
 31
0.0
  0
ELLIPSE
  5
6FE1E
330
70244
100
AcDbEntity
  8
Level 26
  6
Continuous
 62
   133
370
     0
100
AcDbEllipse
 10
2686.425119
 20
-282.479727
 30
0.0
 11
-11.00000000000001
 21
0.0
 31
0.0
210
0.0
220
0.0
230
1.0
 40
0.9230769313609508
 41
0.0
 42
6.283185307179586
  0
LINE
  5
6FE1F
330
70244
100
AcDbEntity
  8
Level 26
  6
Continuous
 62
   133
370
     0
100
AcDbLine
 10
2675.425119
 20
-259.402804
 30
0.0
 11
2675.425119
 21
-284.402804
 31
0.0
  0
LINE
  5
6FE20
330
70244
100
AcDbEntity
  8
Level 26
  6
Continuous
 62
   133
370
     0
100
AcDbLine
 10
2686.425119
 20
-259.402804
 30
0.0
 11
2686.425119
 21
-295.402804
 31
0.0
  0
LINE
  5
6FE21
330
70244
100
AcDbEntity
  8
Level 26
  6
Continuous
 62
   133
370
     0
100
AcDbLine
 10
2697.425119
 20
-259.402804
 30
0.0
 11
2697.425119
 21
-284.402804
 31
0.0
  0
LINE
  5
6FE22
330
70244
100
AcDbEntity
  8
Level 26
  6
Continuous
 62
   133
370
     0
100
AcDbLine
 10
2686.425119
 20
-259.402804
 30
0.0
 11
2686.425119
 21
-273.402804
 31
0.0
  0
ENDBLK
  5
70246
330
70244
100
AcDbEntity
  8
0
 62
    98
370
     0
100
AcDbBlockEnd
  0
BLOCK
  5
70248
330
70247
100
AcDbEntity
  8
0
 62
    98
370
     0
100
AcDbBlockBegin
  2
From Solid_14
 70
     0
 10
0.0
 20
0.0
 30
0.0
  3
From Solid_14
  1

  0
LINE
  5
6FE24
330
70247
100
AcDbEntity
  8
Level 26
  6
Continuous
 62
   133
370
     0
100
AcDbLine
 10
2697.425119
 20
-230.236137
 30
0.0
 11
2675.425119
 21
-230.236137
 31
0.0
  0
ELLIPSE
  5
6FE25
330
70247
100
AcDbEntity
  8
Level 26
  6
Continuous
 62
   133
370
     0
100
AcDbEllipse
 10
2686.425119
 20
-253.31306
 30
0.0
 11
11.00000000000001
 21
0.0
 31
0.0
210
0.0
220
0.0
230
1.0
 40
0.9230769313609508
 41
0.0
 42
6.283185307179586
  0
LINE
  5
6FE26
330
70247
100
AcDbEntity
  8
Level 26
  6
Continuous
 62
   133
370
     0
100
AcDbLine
 10
2697.425119
 20
-230.236137
 30
0.0
 11
2697.425119
 21
-253.31306
 31
0.0
  0
LINE
  5
6FE27
330
70247
100
AcDbEntity
  8
Level 26
  6
Continuous
 62
   133
370
     0
100
AcDbLine
 10
2686.425119
 20
-230.236137
 30
0.0
 11
2686.425119
 21
-263.466907
 31
0.0
  0
LINE
  5
6FE28
330
70247
100
AcDbEntity
  8
Level 26
  6
Continuous
 62
   133
370
     0
100
AcDbLine
 10
2675.425119
 20
-230.236137
 30
0.0
 11
2675.425119
 21
-253.31306
 31
0.0
  0
LINE
  5
6FE29
330
70247
100
AcDbEntity
  8
Level 26
  6
Continuous
 62
   133
370
     0
100
AcDbLine
 10
2686.425119
 20
-230.236137
 30
0.0
 11
2686.425119
 21
-243.159214
 31
0.0
  0
ENDBLK
  5
70249
330
70247
100
AcDbEntity
  8
0
 62
    98
370
     0
100
AcDbBlockEnd
  0
BLOCK
  5
7024B
330
7024A
100
AcDbEntity
  8
0
 62
    98
370
     0
100
AcDbBlockBegin
  2
From Solid_15
 70
     0
 10
0.0
 20
0.0
 30
0.0
  3
From Solid_15
  1

  0
LINE
  5
6FE2B
330
7024A
100
AcDbEntity
  8
Level 26
  6
Continuous
 62
    40
370
     0
100
AcDbLine
 10
2228.275291
 20
-350.959582
 30
0.0
 11
2255.175291
 21
-350.959582
 31
0.0
  0
LINE
  5
6FE2C
330
7024A
100
AcDbEntity
  8
Level 26
  6
Continuous
 62
    40
370
     0
100
AcDbLine
 10
2228.275291
 20
-226.902804
 30
0.0
 11
2255.175291
 21
-226.902804
 31
0.0
  0
LINE
  5
6FE2D
330
7024A
100
AcDbEntity
  8
Level 26
  6
Continuous
 62
    40
370
     0
100
AcDbLine
 10
2239.389723
 20
-350.959582
 30
0.0
 11
2239.389723
 21
-226.902804
 31
0.0
  0
LINE
  5
6FE2E
330
7024A
100
AcDbEntity
  8
Level 26
  6
Continuous
 62
    40
370
     0
100
AcDbLine
 10
2228.479627
 20
-350.959582
 30
0.0
 11
2228.479627
 21
-226.902804
 31
0.0
  0
LINE
  5
6FE2F
330
7024A
100
AcDbEntity
  8
Level 26
  6
Continuous
 62
    40
370
     0
100
AcDbLine
 10
2244.060859
 20
-350.959582
 30
0.0
 11
2244.060859
 21
-226.902804
 31
0.0
  0
LINE
  5
6FE30
330
7024A
100
AcDbEntity
  8
Level 26
  6
Continuous
 62
    40
370
     0
100
AcDbLine
 10
2254.970955
 20
-350.959582
 30
0.0
 11
2254.970955
 21
-226.902804
 31
0.0
  0
ENDBLK
  5
7024C
330
7024A
100
AcDbEntity
  8
0
 62
    98
370
     0
100
AcDbBlockEnd
  0
BLOCK
  5
7024E
330
7024D
100
AcDbEntity
  8
0
 62
    98
370
     0
100
AcDbBlockBegin
  2
From Solid_16
 70
     0
 10
0.0
 20
0.0
 30
0.0
  3
From Solid_16
  1

  0
ELLIPSE
  5
6FE32
330
7024D
100
AcDbEntity
  8
Level 26
  6
Continuous
 62
    40
370
     0
100
AcDbEllipse
 10
2749.628725
 20
-442.160519
 30
0.0
 11
-1.454718147019306
 21
-13.37109897488805
 31
0.0
210
0.0
220
0.0
230
1.0
 40
0.1726599769276698
 41
0.0
 42
6.283185307179584
  0
ELLIPSE
  5
6FE33
330
7024D
100
AcDbEntity
  8
Level 26
  6
Continuous
 62
    40
370
     0
100
AcDbEllipse
 10
2276.921015
 20
-390.731948
 30
0.0
 11
-1.454718147019306
 21
-13.37109897488805
 31
0.0
210
0.0
220
0.0
230
0.9999999999999998
 40
0.1726599769276698
 41
0.0
 42
6.283185307179584
  0
LINE
  5
6FE34
330
7024D
100
AcDbEntity
  8
Level 26
  6
Continuous
 62
    40
370
     0
100
AcDbLine
 10
2747.293157
 20
-442.160519
 30
0.0
 11
2274.585447
 21
-390.731948
 31
0.0
  0
LINE
  5
6FE35
330
7024D
100
AcDbEntity
  8
Level 26
  6
Continuous
 62
    40
370
     0
100
AcDbLine
 10
2748.217623
 20
-455.533977
 30
0.0
 11
2275.509913
 21
-404.105406
 31
0.0
  0
LINE
  5
6FE36
330
7024D
100
AcDbEntity
  8
Level 26
  6
Continuous
 62
    40
370
     0
100
AcDbLine
 10
2751.964293
 20
-442.160519
 30
0.0
 11
2279.256583
 21
-390.731948
 31
0.0
  0
LINE
  5
6FE37
330
7024D
100
AcDbEntity
  8
Level 26
  6
Continuous
 62
    40
370
     0
100
AcDbLine
 10
2751.039827
 20
-428.787061
 30
0.0
 11
2278.332117
 21
-377.35849
 31
0.0
  0
ENDBLK
  5
7024F
330
7024D
100
AcDbEntity
  8
0
 62
    98
370
     0
100
AcDbBlockEnd
  0
BLOCK
  5
70251
330
70250
100
AcDbEntity
  8
0
 62
    98
370
     0
100
AcDbBlockBegin
  2
From Solid_17
 70
     0
 10
0.0
 20
0.0
 30
0.0
  3
From Solid_17
  1

  0
LINE
  5
6FE39
330
70250
100
AcDbEntity
  8
Level 26
  6
Continuous
 62
    40
370
     0
100
AcDbLine
 10
2806.667619
 20
-226.902804
 30
0.0
 11
2779.767621
 21
-226.902804
 31
0.0
  0
LINE
  5
6FE3A
330
70250
100
AcDbEntity
  8
Level 26
  6
Continuous
 62
    40
370
     0
100
AcDbLine
 10
2806.667619
 20
-402.388153
 30
0.0
 11
2779.767621
 21
-402.388153
 31
0.0
  0
LINE
  5
6FE3B
330
70250
100
AcDbEntity
  8
Level 26
  6
Continuous
 62
    40
370
     0
100
AcDbLine
 10
2795.553188
 20
-226.902804
 30
0.0
 11
2795.553188
 21
-402.388153
 31
0.0
  0
LINE
  5
6FE3C
330
70250
100
AcDbEntity
  8
Level 26
  6
Continuous
 62
    40
370
     0
100
AcDbLine
 10
2779.971957
 20
-226.902804
 30
0.0
 11
2779.971957
 21
-402.388153
 31
0.0
  0
LINE
  5
6FE3D
330
70250
100
AcDbEntity
  8
Level 26
  6
Continuous
 62
    40
370
     0
100
AcDbLine
 10
2790.882052
 20
-226.902804
 30
0.0
 11
2790.882052
 21
-402.388153
 31
0.0
  0
LINE
  5
6FE3E
330
70250
100
AcDbEntity
  8
Level 26
  6
Continuous
 62
    40
370
     0
100
AcDbLine
 10
2806.463283
 20
-226.902804
 30
0.0
 11
2806.463283
 21
-402.388153
 31
0.0
  0
ENDBLK
  5
70252
330
70250
100
AcDbEntity
  8
0
 62
    98
370
     0
100
AcDbBlockEnd
  0
BLOCK
  5
70254
330
70253
100
AcDbEntity
  8
0
 62
    98
370
     0
100
AcDbBlockBegin
  2
From Solid_18
 70
     0
 10
0.0
 20
0.0
 30
0.0
  3
From Solid_18
  1

  0
ELLIPSE
  5
6FE40
330
70253
100
AcDbEntity
  8
Level 26
  6
Continuous
 62
    40
370
     0
100
AcDbEllipse
 10
2276.921015
 20
-390.731948
 30
0.0
 11
-1.454718147019305
 21
-13.37109897488805
 31
0.0
210
0.0
220
0.0
230
0.9999999999999996
 40
0.1726599769276698
 41
0.0
 42
6.283185307179584
  0
LINE
  5
6FE41
330
70253
100
AcDbEntity
  8
Level 26
  6
Continuous
 62
    40
370
     0
100
AcDbLine
 10
2228.27529
 20
-350.959582
 30
0.0
 11
2255.17529
 21
-350.959582
 31
0.0
  0
ELLIPSE
  5
6FE42
330
70253
100
AcDbEntity
  8
Level 26
  6
Continuous
 62
    40
370
     0
100
AcDbEllipse
 10
2278.782032
 20
-350.959582
 30
0.0
 11
0.0
 21
-39.99999949710872
 31
0.0
210
0.0
220
0.0
230
-1.0
 40
0.9848077483483537
 41
0.1067357497964734
 42
1.570796421219769
  0
ELLIPSE
  5
6FE43
330
70253
100
AcDbEntity
  8
Level 26
  6
Continuous
 62
    40
370
     0
100
AcDbEllipse
 10
2281.1176
 20
-350.959582
 30
0.0
 11
0.0
 21
-53.44999949627396
 31
0.0
210
0.0
220
0.0
230
-1.0
 40
0.9848077483483553
 41
0.1067357603082701
 42
1.570796431731565
  0
ELLIPSE
  5
6FE44
330
70253
100
AcDbEntity
  8
Level 26
  6
Continuous
 62
    40
370
     0
100
AcDbEllipse
 10
2283.453168
 20
-350.959582
 30
0.0
 11
0.0
 21
-40.00000003941548
 31
0.0
210
0.0
220
0.0
230
-1.0
 40
0.9848077483483548
 41
0.1067357635675235
 42
1.570796434990818
  0
ELLIPSE
  5
6FE45
330
70253
100
AcDbEntity
  8
Level 26
  6
Continuous
 62
    40
370
     0
100
AcDbEllipse
 10
2281.1176
 20
-350.959582
 30
0.0
 11
0.0
 21
-26.55000004025023
 31
0.0
210
0.0
220
0.0
230
-1.0
 40
0.9848077483483576
 41
0.1067357493815795
 42
1.570796420804874
  0
ENDBLK
  5
70255
330
70253
100
AcDbEntity
  8
0
 62
    98
370
     0
100
AcDbBlockEnd
  0
BLOCK
  5
70257
330
70256
100
AcDbEntity
  8
0
 62
    98
370
     0
100
AcDbBlockBegin
  2
From Solid_19
 70
     0
 10
0.0
 20
0.0
 30
0.0
  3
From Solid_19
  1

  0
LINE
  5
6FE47
330
70256
100
AcDbEntity
  8
Level 26
  6
Continuous
 62
    40
370
     0
100
AcDbLine
 10
2779.76762
 20
-402.388153
 30
0.0
 11
2806.66762
 21
-402.388153
 31
0.0
  0
ELLIPSE
  5
6FE48
330
70256
100
AcDbEntity
  8
Level 26
  6
Continuous
 62
    40
370
     0
100
AcDbEllipse
 10
2749.628725
 20
-442.160518
 30
0.0
 11
-1.454718226996918
 21
-13.3710989661869
 31
0.0
210
0.0
220
0.0
230
1.0
 40
0.1726599841530055
 41
0.0
 42
6.283185307179584
  0
ELLIPSE
  5
6FE49
330
70256
100
AcDbEntity
  8
Level 26
  6
Continuous
 62
    40
370
     0
100
AcDbEllipse
 10
2751.489743
 20
-402.388153
 30
0.0
 11
0.0
 21
-39.99999884961056
 31
0.0
210
0.0
220
0.0
230
-1.0
 40
0.9848077526236069
 41
4.712388980384689
 42
6.389920982714891
  0
ELLIPSE
  5
6FE4A
330
70256
100
AcDbEntity
  8
Level 26
  6
Continuous
 62
    40
370
     0
100
AcDbEllipse
 10
2753.825311
 20
-402.388153
 30
0.0
 11
0.0
 21
-53.44999860602205
 31
0.0
210
0.0
220
0.0
230
-0.9999999999999998
 40
0.984807752623606
 41
4.712388980384689
 42
6.389920982714891
  0
ELLIPSE
  5
6FE4B
330
70256
100
AcDbEntity
  8
Level 26
  6
Continuous
 62
    40
370
     0
100
AcDbEllipse
 10
2756.160879
 20
-402.388153
 30
0.0
 11
0.0
 21
-39.99999890640959
 31
0.0
210
0.0
220
0.0
230
-1.0
 40
0.9848077526236071
 41
4.712388980384689
 42
6.389920982714891
  0
ELLIPSE
  5
6FE4C
330
70256
100
AcDbEntity
  8
Level 26
  6
Continuous
 62
    40
370
     0
100
AcDbEllipse
 10
2753.825311
 20
-402.388153
 30
0.0
 11
0.0
 21
-26.54999914999816
 31
0.0
210
0.0
220
0.0
230
-0.9999999999999998
 40
0.9848077526236062
 41
4.712388980384689
 42
6.389920982714891
  0
ENDBLK
  5
70258
330
70256
100
AcDbEntity
  8
0
 62
    98
370
     0
100
AcDbBlockEnd
  0
BLOCK
  5
7025A
330
70259
100
AcDbEntity
  8
0
 62
    98
370
     0
100
AcDbBlockBegin
  2
From Solid_20
 70
     0
 10
0.0
 20
0.0
 30
0.0
  3
From Solid_20
  1

  0
POINT
  5
6FE4E
330
70259
100
AcDbEntity
  8
Level 26 (Construction)
  6
Continuous
 62
   106
370
     0
100
AcDbPoint
 10
2297.000396
 20
-226.902804
 30
0.0
  0
LINE
  5
6FE4F
330
70259
100
AcDbEntity
  8
Level 26 (Construction)
  6
Continuous
 62
   106
370
     0
100
AcDbLine
 10
2247.000396
 20
-226.902804
 30
0.0
 11
2297.000396
 21
-226.902804
 31
0.0
  0
SPLINE
  5
6FE50
330
70259
100
AcDbEntity
  8
Level 26 (Construction)
  6
Continuous
 62
   106
370
     0
100
AcDbSpline
210
0.0
220
0.0
230
1.0
 70
    24
 71
     2
 72
    10
 73
     7
 74
     0
 42
0.000000001
 43
0.0000000001
 40
0.0
 40
0.0
 40
0.0
 40
0.2
 40
0.4
 40
0.6000000000000001
 40
0.8
 40
1.0
 40
1.0
 40
1.0
 10
2247.000395900461
 20
-226.9028040180407
 30
0.0
 10
2192.800824899149
 20
-226.9028040180407
 30
0.0
 10
2133.459837900034
 20
-226.9028040180407
 30
0.0
 10
2096.602082902628
 20
-226.9028040180407
 30
0.0
 10
2059.375748908061
 20
-226.9028040180407
 30
0.0
 10
2046.106956891703
 20
-226.9028040180407
 30
0.0
 10
2040.048921886972
 20
-226.9028040180407
 30
0.0
  0
LINE
  5
6FE52
330
70259
100
AcDbEntity
  8
Level 26 (Construction)
  6
Continuous
 62
   106
370
     0
100
AcDbLine
 10
2037.000396
 20
-226.902804
 30
0.0
 11
2062.198748
 21
-226.902804
 31
0.0
  0
LINE
  5
6FE53
330
70259
100
AcDbEntity
  8
Level 26 (Construction)
  6
Continuous
 62
   106
370
     0
100
AcDbLine
 10
2062.198748
 20
-226.902804
 30
0.0
 11
2119.665396
 21
-226.902804
 31
0.0
  0
LINE
  5
6FE54
330
70259
100
AcDbEntity
  8
Level 26 (Construction)
  6
Continuous
 62
   106
370
     0
100
AcDbLine
 10
2190.220782
 20
-226.902804
 30
0.0
 11
2119.665396
 21
-226.902804
 31
0.0
  0
LINE
  5
6FE55
330
70259
100
AcDbEntity
  8
Level 26 (Construction)
  6
Continuous
 62
   106
370
     0
100
AcDbLine
 10
2190.111374
 20
-226.902804
 30
0.0
 11
2186.305042
 21
-226.902804
 31
0.0
  0
LINE
  5
6FE56
330
70259
100
AcDbEntity
  8
Level 26 (Construction)
  6
Continuous
 62
   106
370
     0
100
AcDbLine
 10
2193.519842
 20
-226.902804
 30
0.0
 11
2186.289412
 21
-226.902804
 31
0.0
  0
LINE
  5
6FE57
330
70259
100
AcDbEntity
  8
Level 26 (Construction)
  6
Continuous
 62
   106
370
     0
100
AcDbLine
 10
2193.519842
 20
-226.902804
 30
0.0
 11
2233.152543
 21
-226.902804
 31
0.0
  0
LINE
  5
6FE58
330
70259
100
AcDbEntity
  8
Level 26 (Construction)
  6
Continuous
 62
   106
370
     0
100
AcDbLine
 10
2233.152543
 20
-226.902804
 30
0.0
 11
2297.000396
 21
-226.902804
 31
0.0
  0
POINT
  5
6FE59
330
70259
100
AcDbEntity
  8
Level 26 (Construction)
  6
Continuous
 62
   106
370
     0
100
AcDbPoint
 10
2297.000396
 20
-206.902804
 30
0.0
  0
LINE
  5
6FE5A
330
70259
100
AcDbEntity
  8
Level 26 (Construction)
  6
Continuous
 62
   106
370
     0
100
AcDbLine
 10
2247.000396
 20
-206.902804
 30
0.0
 11
2297.000396
 21
-206.902804
 31
0.0
  0
SPLINE
  5
6FE5B
330
70259
100
AcDbEntity
  8
Level 26 (Construction)
  6
Continuous
 62
   106
370
     0
100
AcDbSpline
210
0.0
220
0.0
230
1.0
 70
    24
 71
     2
 72
    10
 73
     7
 74
     0
 42
0.000000001
 43
0.0000000001
 40
0.0
 40
0.0
 40
0.0
 40
0.2
 40
0.4
 40
0.6000000000000001
 40
0.8
 40
1.0
 40
1.0
 40
1.0
 10
2247.000395900461
 20
-206.9028040180406
 30
0.0
 10
2192.800824899149
 20
-206.9028040180406
 30
0.0
 10
2133.459837900034
 20
-206.9028040180406
 30
0.0
 10
2096.602082902628
 20
-206.9028040180406
 30
0.0
 10
2059.375748908061
 20
-206.9028040180406
 30
0.0
 10
2046.106956891703
 20
-206.9028040180406
 30
0.0
 10
2040.048921886972
 20
-206.9028040180406
 30
0.0
  0
LINE
  5
6FE5D
330
70259
100
AcDbEntity
  8
Level 26 (Construction)
  6
Continuous
 62
   106
370
     0
100
AcDbLine
 10
2037.000396
 20
-206.902804
 30
0.0
 11
2062.198748
 21
-206.902804
 31
0.0
  0
LINE
  5
6FE5E
330
70259
100
AcDbEntity
  8
Level 26 (Construction)
  6
Continuous
 62
   106
370
     0
100
AcDbLine
 10
2062.198748
 20
-206.902804
 30
0.0
 11
2119.665396
 21
-206.902804
 31
0.0
  0
LINE
  5
6FE5F
330
70259
100
AcDbEntity
  8
Level 26 (Construction)
  6
Continuous
 62
   106
370
     0
100
AcDbLine
 10
2190.220782
 20
-206.902804
 30
0.0
 11
2119.665396
 21
-206.902804
 31
0.0
  0
LINE
  5
6FE60
330
70259
100
AcDbEntity
  8
Level 26 (Construction)
  6
Continuous
 62
   106
370
     0
100
AcDbLine
 10
2190.111374
 20
-206.902804
 30
0.0
 11
2186.305042
 21
-206.902804
 31
0.0
  0
LINE
  5
6FE61
330
70259
100
AcDbEntity
  8
Level 26 (Construction)
  6
Continuous
 62
   106
370
     0
100
AcDbLine
 10
2193.519842
 20
-206.902804
 30
0.0
 11
2186.289412
 21
-206.902804
 31
0.0
  0
LINE
  5
6FE62
330
70259
100
AcDbEntity
  8
Level 26 (Construction)
  6
Continuous
 62
   106
370
     0
100
AcDbLine
 10
2193.519842
 20
-206.902804
 30
0.0
 11
2233.152543
 21
-206.902804
 31
0.0
  0
LINE
  5
6FE63
330
70259
100
AcDbEntity
  8
Level 26 (Construction)
  6
Continuous
 62
   106
370
     0
100
AcDbLine
 10
2233.152543
 20
-206.902804
 30
0.0
 11
2297.000396
 21
-206.902804
 31
0.0
  0
LINE
  5
6FE64
330
70259
100
AcDbEntity
  8
Level 26
  6
Continuous
 62
   106
370
     0
100
AcDbLine
 10
2297.000396
 20
-226.902804
 30
0.0
 11
2297.000396
 21
-206.902804
 31
0.0
  0
LINE
  5
6FE65
330
70259
100
AcDbEntity
  8
Level 26
  6
Continuous
 62
   106
370
     0
100
AcDbLine
 10
2297.000396
 20
-226.902804
 30
0.0
 11
2297.000396
 21
-206.902804
 31
0.0
  0
LINE
  5
6FE66
330
70259
100
AcDbEntity
  8
Level 26
  6
Continuous
 62
   106
370
     0
100
AcDbLine
 10
2247.000396
 20
-226.902804
 30
0.0
 11
2247.000396
 21
-206.902804
 31
0.0
  0
LINE
  5
6FE67
330
70259
100
AcDbEntity
  8
Level 26
  6
Continuous
 62
   106
370
     0
100
AcDbLine
 10
2173.701859
 20
-226.902804
 30
0.0
 11
2173.701859
 21
-206.902804
 31
0.0
  0
LINE
  5
6FE68
330
70259
100
AcDbEntity
  8
Level 26
  6
Continuous
 62
   106
370
     0
100
AcDbLine
 10
2128.565947
 20
-226.902804
 30
0.0
 11
2128.565947
 21
-206.902804
 31
0.0
  0
LINE
  5
6FE69
330
70259
100
AcDbEntity
  8
Level 26
  6
Continuous
 62
   106
370
     0
100
AcDbLine
 10
2096.556011
 20
-226.902804
 30
0.0
 11
2096.556011
 21
-206.902804
 31
0.0
  0
LINE
  5
6FE6A
330
70259
100
AcDbEntity
  8
Level 26
  6
Continuous
 62
   106
370
     0
100
AcDbLine
 10
2066.911112
 20
-226.902804
 30
0.0
 11
2066.911112
 21
-206.902804
 31
0.0
  0
LINE
  5
6FE6B
330
70259
100
AcDbEntity
  8
Level 26
  6
Continuous
 62
   106
370
     0
100
AcDbLine
 10
2050.545898
 20
-226.902804
 30
0.0
 11
2050.545898
 21
-206.902804
 31
0.0
  0
LINE
  5
6FE6C
330
70259
100
AcDbEntity
  8
Level 26
  6
Continuous
 62
   106
370
     0
100
AcDbLine
 10
2040.048922
 20
-226.902804
 30
0.0
 11
2040.048922
 21
-206.902804
 31
0.0
  0
LINE
  5
6FE6D
330
70259
100
AcDbEntity
  8
Level 26
  6
Continuous
 62
   106
370
     0
100
AcDbLine
 10
2062.198748
 20
-226.902804
 30
0.0
 11
2062.198748
 21
-206.902804
 31
0.0
  0
LINE
  5
6FE6E
330
70259
100
AcDbEntity
  8
Level 26
  6
Continuous
 62
   106
370
     0
100
AcDbLine
 10
2119.665396
 20
-226.902804
 30
0.0
 11
2119.665396
 21
-206.902804
 31
0.0
  0
LINE
  5
6FE6F
330
70259
100
AcDbEntity
  8
Level 26
  6
Continuous
 62
   106
370
     0
100
AcDbLine
 10
2190.111374
 20
-226.902804
 30
0.0
 11
2190.111374
 21
-206.902804
 31
0.0
  0
LINE
  5
6FE70
330
70259
100
AcDbEntity
  8
Level 26
  6
Continuous
 62
   106
370
     0
100
AcDbLine
 10
2186.305042
 20
-226.902804
 30
0.0
 11
2186.305042
 21
-206.902804
 31
0.0
  0
LINE
  5
6FE71
330
70259
100
AcDbEntity
  8
Level 26
  6
Continuous
 62
   106
370
     0
100
AcDbLine
 10
2193.519842
 20
-226.902804
 30
0.0
 11
2193.519842
 21
-206.902804
 31
0.0
  0
LINE
  5
6FE72
330
70259
100
AcDbEntity
  8
Level 26
  6
Continuous
 62
   106
370
     0
100
AcDbLine
 10
2233.152543
 20
-226.902804
 30
0.0
 11
2233.152543
 21
-206.902804
 31
0.0
  0
ENDBLK
  5
7025B
330
70259
100
AcDbEntity
  8
0
 62
    98
370
     0
100
AcDbBlockEnd
  0
BLOCK
  5
7025E
330
7025D
100
AcDbEntity
  8
0
 62
    98
370
     0
100
AcDbBlockBegin
  2
From Solid_21
 70
     0
 10
0.0
 20
0.0
 30
0.0
  3
From Solid_21
  1

  0
SPLINE
  5
6FE74
330
7025D
100
AcDbEntity
  8
Level 26
  6
Continuous
 62
   106
370
     0
100
AcDbSpline
210
0.0
220
0.0
230
1.0
 70
    24
 71
     2
 72
     6
 73
     3
 74
     0
 42
0.000000001
 43
0.0000000001
 40
0.0
 40
0.0
 40
0.0
 40
1.0
 40
1.0
 40
1.0
 10
2988.060184895487
 20
-226.9028040180407
 30
0.0
 10
2935.699700902445
 20
-226.9028040180407
 30
0.0
 10
2832.902278892496
 20
-226.9028040180407
 30
0.0
  0
LINE
  5
6FE76
330
7025D
100
AcDbEntity
  8
Level 26
  6
Continuous
 62
   106
370
     0
100
AcDbLine
 10
2832.902279
 20
-226.902804
 30
0.0
 11
2826.673656
 21
-226.902804
 31
0.0
  0
LINE
  5
6FE77
330
7025D
100
AcDbEntity
  8
Level 26
  6
Continuous
 62
   106
370
     0
100
AcDbLine
 10
2732.090412
 20
-226.902804
 30
0.0
 11
2826.673656
 21
-226.902804
 31
0.0
  0
LINE
  5
6FE78
330
7025D
100
AcDbEntity
  8
Level 26
  6
Continuous
 62
   106
370
     0
100
AcDbLine
 10
2732.090412
 20
-226.902804
 30
0.0
 11
2719.599109
 21
-226.902804
 31
0.0
  0
LINE
  5
6FE79
330
7025D
100
AcDbEntity
  8
Level 26
  6
Continuous
 62
   106
370
     0
100
AcDbLine
 10
2660.910221
 20
-226.902804
 30
0.0
 11
2719.599109
 21
-226.902804
 31
0.0
  0
SPLINE
  5
6FE7A
330
7025D
100
AcDbEntity
  8
Level 26
  6
Continuous
 62
   106
370
     0
100
AcDbSpline
210
0.0
220
0.0
230
1.0
 70
    24
 71
     2
 72
     6
 73
     3
 74
     0
 42
0.000000001
 43
0.0000000001
 40
0.0
 40
0.0
 40
0.0
 40
1.0
 40
1.0
 40
1.0
 10
2660.910220907328
 20
-226.9028040180407
 30
0.0
 10
2618.382040909159
 20
-226.9028040180407
 30
0.0
 10
2587.000395900461
 20
-226.9028040180407
 30
0.0
  0
LINE
  5
6FE7C
330
7025D
100
AcDbEntity
  8
Level 26
  6
Continuous
 62
   106
370
     0
100
AcDbLine
 10
2587.000396
 20
-226.902804
 30
0.0
 11
2637.000396
 21
-226.902804
 31
0.0
  0
SPLINE
  5
6FE7D
330
7025D
100
AcDbEntity
  8
Level 26
  6
Continuous
 62
   106
370
     0
100
AcDbSpline
210
0.0
220
0.0
230
1.0
 70
    24
 71
     2
 72
     9
 73
     6
 74
     0
 42
0.000000001
 43
0.0000000001
 40
0.0
 40
0.0
 40
0.0
 40
0.25
 40
0.5
 40
0.75
 40
1.0
 40
1.0
 40
1.0
 10
2637.000395900461
 20
-226.9028040180407
 30
0.0
 10
2677.070928906229
 20
-226.9028040180407
 30
0.0
 10
2709.392345911143
 20
-226.9028040180407
 30
0.0
 10
2731.50699891569
 20
-226.9028040180407
 30
0.0
 10
2777.000395900461
 20
-226.9028040180407
 30
0.0
 10
2777.000395900461
 20
-226.9028040180407
 30
0.0
  0
LINE
  5
6FE7F
330
7025D
100
AcDbEntity
  8
Level 26
  6
Continuous
 62
   106
370
     0
100
AcDbLine
 10
2777.000396
 20
-226.902804
 30
0.0
 11
2827.000396
 21
-226.902804
 31
0.0
  0
LINE
  5
6FE80
330
7025D
100
AcDbEntity
  8
Level 26
  6
Continuous
 62
   106
370
     0
100
AcDbLine
 10
2825.967393
 20
-226.902804
 30
0.0
 11
2808.789105
 21
-226.902804
 31
0.0
  0
LINE
  5
6FE81
330
7025D
100
AcDbEntity
  8
Level 26
  6
Continuous
 62
   106
370
     0
100
AcDbLine
 10
2885.848361
 20
-226.902804
 30
0.0
 11
2806.723099
 21
-226.902804
 31
0.0
  0
LINE
  5
6FE82
330
7025D
100
AcDbEntity
  8
Level 26
  6
Continuous
 62
   106
370
     0
100
AcDbLine
 10
2885.848361
 20
-226.902804
 30
0.0
 11
2935.787661
 21
-226.902804
 31
0.0
  0
LINE
  5
6FE83
330
7025D
100
AcDbEntity
  8
Level 26
  6
Continuous
 62
   106
370
     0
100
AcDbLine
 10
2935.787661
 20
-226.902804
 30
0.0
 11
3007.000395
 21
-226.902804
 31
0.0
  0
SPLINE
  5
6FE84
330
7025D
100
AcDbEntity
  8
Level 26
  6
Continuous
 62
   106
370
     0
100
AcDbSpline
210
0.0
220
0.0
230
1.0
 70
    24
 71
     2
 72
     6
 73
     3
 74
     0
 42
0.000000001
 43
0.0000000001
 40
0.0
 40
0.0
 40
0.0
 40
1.0
 40
1.0
 40
1.0
 10
2988.060184895487
 20
-206.9028040180406
 30
0.0
 10
2935.699700902445
 20
-206.9028040180406
 30
0.0
 10
2832.902278892496
 20
-206.9028040180406
 30
0.0
  0
LINE
  5
6FE86
330
7025D
100
AcDbEntity
  8
Level 26
  6
Continuous
 62
   106
370
     0
100
AcDbLine
 10
2832.902279
 20
-206.902804
 30
0.0
 11
2826.673656
 21
-206.902804
 31
0.0
  0
LINE
  5
6FE87
330
7025D
100
AcDbEntity
  8
Level 26
  6
Continuous
 62
   106
370
     0
100
AcDbLine
 10
2732.090412
 20
-206.902804
 30
0.0
 11
2826.673656
 21
-206.902804
 31
0.0
  0
LINE
  5
6FE88
330
7025D
100
AcDbEntity
  8
Level 26
  6
Continuous
 62
   106
370
     0
100
AcDbLine
 10
2732.090412
 20
-206.902804
 30
0.0
 11
2719.599109
 21
-206.902804
 31
0.0
  0
LINE
  5
6FE89
330
7025D
100
AcDbEntity
  8
Level 26
  6
Continuous
 62
   106
370
     0
100
AcDbLine
 10
2660.910221
 20
-206.902804
 30
0.0
 11
2719.599109
 21
-206.902804
 31
0.0
  0
SPLINE
  5
6FE8A
330
7025D
100
AcDbEntity
  8
Level 26
  6
Continuous
 62
   106
370
     0
100
AcDbSpline
210
0.0
220
0.0
230
1.0
 70
    24
 71
     2
 72
     6
 73
     3
 74
     0
 42
0.000000001
 43
0.0000000001
 40
0.0
 40
0.0
 40
0.0
 40
1.0
 40
1.0
 40
1.0
 10
2660.910220907328
 20
-206.9028040180406
 30
0.0
 10
2618.382040909159
 20
-206.9028040180406
 30
0.0
 10
2587.000395900461
 20
-206.9028040180406
 30
0.0
  0
LINE
  5
6FE8C
330
7025D
100
AcDbEntity
  8
Level 26
  6
Continuous
 62
   106
370
     0
100
AcDbLine
 10
2587.000396
 20
-206.902804
 30
0.0
 11
2637.000396
 21
-206.902804
 31
0.0
  0
SPLINE
  5
6FE8D
330
7025D
100
AcDbEntity
  8
Level 26
  6
Continuous
 62
   106
370
     0
100
AcDbSpline
210
0.0
220
0.0
230
1.0
 70
    24
 71
     2
 72
     9
 73
     6
 74
     0
 42
0.000000001
 43
0.0000000001
 40
0.0
 40
0.0
 40
0.0
 40
0.25
 40
0.5
 40
0.75
 40
1.0
 40
1.0
 40
1.0
 10
2637.000395900461
 20
-206.9028040180406
 30
0.0
 10
2677.070928906229
 20
-206.9028040180406
 30
0.0
 10
2709.392345911143
 20
-206.9028040180406
 30
0.0
 10
2731.50699891569
 20
-206.9028040180406
 30
0.0
 10
2777.000395900461
 20
-206.9028040180406
 30
0.0
 10
2777.000395900461
 20
-206.9028040180406
 30
0.0
  0
LINE
  5
6FE8F
330
7025D
100
AcDbEntity
  8
Level 26
  6
Continuous
 62
   106
370
     0
100
AcDbLine
 10
2777.000396
 20
-206.902804
 30
0.0
 11
2827.000396
 21
-206.902804
 31
0.0
  0
LINE
  5
6FE90
330
7025D
100
AcDbEntity
  8
Level 26
  6
Continuous
 62
   106
370
     0
100
AcDbLine
 10
2825.967393
 20
-206.902804
 30
0.0
 11
2808.789105
 21
-206.902804
 31
0.0
  0
LINE
  5
6FE91
330
7025D
100
AcDbEntity
  8
Level 26
  6
Continuous
 62
   106
370
     0
100
AcDbLine
 10
2885.848361
 20
-206.902804
 30
0.0
 11
2806.723099
 21
-206.902804
 31
0.0
  0
LINE
  5
6FE92
330
7025D
100
AcDbEntity
  8
Level 26
  6
Continuous
 62
   106
370
     0
100
AcDbLine
 10
2885.848361
 20
-206.902804
 30
0.0
 11
2935.787661
 21
-206.902804
 31
0.0
  0
LINE
  5
6FE93
330
7025D
100
AcDbEntity
  8
Level 26
  6
Continuous
 62
   106
370
     0
100
AcDbLine
 10
2935.787661
 20
-206.902804
 30
0.0
 11
3007.000395
 21
-206.902804
 31
0.0
  0
LINE
  5
6FE94
330
7025D
100
AcDbEntity
  8
Level 26
  6
Continuous
 62
   106
370
     0
100
AcDbLine
 10
2988.060185
 20
-226.902804
 30
0.0
 11
2988.060185
 21
-206.902804
 31
0.0
  0
LINE
  5
6FE95
330
7025D
100
AcDbEntity
  8
Level 26
  6
Continuous
 62
   106
370
     0
100
AcDbLine
 10
2923.090466
 20
-226.902804
 30
0.0
 11
2923.090466
 21
-206.902804
 31
0.0
  0
LINE
  5
6FE96
330
7025D
100
AcDbEntity
  8
Level 26
  6
Continuous
 62
   106
370
     0
100
AcDbLine
 10
2832.902279
 20
-226.902804
 30
0.0
 11
2832.902279
 21
-206.902804
 31
0.0
  0
LINE
  5
6FE97
330
7025D
100
AcDbEntity
  8
Level 26
  6
Continuous
 62
   106
370
     0
100
AcDbLine
 10
2826.673656
 20
-226.902804
 30
0.0
 11
2826.673656
 21
-206.902804
 31
0.0
  0
LINE
  5
6FE98
330
7025D
100
AcDbEntity
  8
Level 26
  6
Continuous
 62
   106
370
     0
100
AcDbLine
 10
2732.090412
 20
-226.902804
 30
0.0
 11
2732.090412
 21
-206.902804
 31
0.0
  0
LINE
  5
6FE99
330
7025D
100
AcDbEntity
  8
Level 26
  6
Continuous
 62
   106
370
     0
100
AcDbLine
 10
2719.599109
 20
-226.902804
 30
0.0
 11
2719.599109
 21
-206.902804
 31
0.0
  0
LINE
  5
6FE9A
330
7025D
100
AcDbEntity
  8
Level 26
  6
Continuous
 62
   106
370
     0
100
AcDbLine
 10
2660.910221
 20
-226.902804
 30
0.0
 11
2660.910221
 21
-206.902804
 31
0.0
  0
LINE
  5
6FE9B
330
7025D
100
AcDbEntity
  8
Level 26
  6
Continuous
 62
   106
370
     0
100
AcDbLine
 10
2621.168675
 20
-226.902804
 30
0.0
 11
2621.168675
 21
-206.902804
 31
0.0
  0
LINE
  5
6FE9C
330
7025D
100
AcDbEntity
  8
Level 26
  6
Continuous
 62
   106
370
     0
100
AcDbLine
 10
2587.000396
 20
-226.902804
 30
0.0
 11
2587.000396
 21
-206.902804
 31
0.0
  0
LINE
  5
6FE9D
330
7025D
100
AcDbEntity
  8
Level 26
  6
Continuous
 62
   106
370
     0
100
AcDbLine
 10
2637.000396
 20
-226.902804
 30
0.0
 11
2637.000396
 21
-206.902804
 31
0.0
  0
LINE
  5
6FE9E
330
7025D
100
AcDbEntity
  8
Level 26
  6
Continuous
 62
   106
370
     0
100
AcDbLine
 10
2685.810961
 20
-226.902804
 30
0.0
 11
2685.810961
 21
-206.902804
 31
0.0
  0
LINE
  5
6FE9F
330
7025D
100
AcDbEntity
  8
Level 26
  6
Continuous
 62
   106
370
     0
100
AcDbLine
 10
2710.78727
 20
-226.902804
 30
0.0
 11
2710.78727
 21
-206.902804
 31
0.0
  0
LINE
  5
6FEA0
330
7025D
100
AcDbEntity
  8
Level 26
  6
Continuous
 62
   106
370
     0
100
AcDbLine
 10
2731.165833
 20
-226.902804
 30
0.0
 11
2731.165833
 21
-206.902804
 31
0.0
  0
LINE
  5
6FEA1
330
7025D
100
AcDbEntity
  8
Level 26
  6
Continuous
 62
   106
370
     0
100
AcDbLine
 10
2762.442509
 20
-226.902804
 30
0.0
 11
2762.442509
 21
-206.902804
 31
0.0
  0
LINE
  5
6FEA2
330
7025D
100
AcDbEntity
  8
Level 26
  6
Continuous
 62
   106
370
     0
100
AcDbLine
 10
2777.000396
 20
-226.902804
 30
0.0
 11
2777.000396
 21
-206.902804
 31
0.0
  0
LINE
  5
6FEA3
330
7025D
100
AcDbEntity
  8
Level 26
  6
Continuous
 62
   106
370
     0
100
AcDbLine
 10
2825.967393
 20
-226.902804
 30
0.0
 11
2825.967393
 21
-206.902804
 31
0.0
  0
LINE
  5
6FEA4
330
7025D
100
AcDbEntity
  8
Level 26
  6
Continuous
 62
   106
370
     0
100
AcDbLine
 10
2808.789105
 20
-226.902804
 30
0.0
 11
2808.789105
 21
-206.902804
 31
0.0
  0
LINE
  5
6FEA5
330
7025D
100
AcDbEntity
  8
Level 26
  6
Continuous
 62
   106
370
     0
100
AcDbLine
 10
2885.848361
 20
-226.902804
 30
0.0
 11
2885.848361
 21
-206.902804
 31
0.0
  0
LINE
  5
6FEA6
330
7025D
100
AcDbEntity
  8
Level 26
  6
Continuous
 62
   106
370
     0
100
AcDbLine
 10
2935.787661
 20
-226.902804
 30
0.0
 11
2935.787661
 21
-206.902804
 31
0.0
  0
ENDBLK
  5
7025F
330
7025D
100
AcDbEntity
  8
0
 62
    98
370
     0
100
AcDbBlockEnd
  0
BLOCK
  5
70261
330
70260
100
AcDbEntity
  8
0
 62
    98
370
     0
100
AcDbBlockBegin
  2
*U27
 70
     1
 10
0.0
 20
0.0
 30
0.0
  3
*U27
  1

  0
LWPOLYLINE
  5
6FEA8
330
70260
100
AcDbEntity
  8
Level 26
  6
Continuous
 62
    40
370
     0
100
AcDbPolyline
 90
       14
 70
   129
 43
0.0
 10
-38.40758
 20
0.0
 10
-13.257082
 20
0.0
 10
5.208063
 20
0.0
 10
-13.257082
 20
0.0
 10
5.208063
 20
0.0
 10
34.22199
 20
0.0
 10
44.513742
 20
0.0
 10
38.40737
 20
0.0
 10
13.256872
 20
0.0
 10
-5.208273
 20
0.0
 10
13.256872
 20
0.0
 10
-5.208273
 20
0.0
 10
-34.2222
 20
0.0
 10
-44.513952
 20
0.0
  0
LINE
  5
6FEB1
330
70260
100
AcDbEntity
  8
Level 26 (Construction)
  6
Continuous
 62
    40
370
     0
100
AcDbLine
 10
-38.013952
 20
0.0
 30
0.0
 11
-25.013952
 21
0.0
 31
0.0
  0
LINE
  5
6FEB2
330
70260
100
AcDbEntity
  8
Level 26 (Construction)
  6
Continuous
 62
    40
370
     0
100
AcDbLine
 10
25.013743
 20
0.0
 30
0.0
 11
38.013743
 21
0.0
 31
0.0
  0
ENDBLK
  5
70262
330
70260
100
AcDbEntity
  8
0
 62
    98
370
     0
100
AcDbBlockEnd
  0
BLOCK
  5
70264
330
70263
100
AcDbEntity
  8
0
 62
    98
370
     0
100
AcDbBlockBegin
  2
*U28
 70
     1
 10
0.0
 20
0.0
 30
0.0
  3
*U28
  1

  0
LWPOLYLINE
  5
6FEB4
330
70263
100
AcDbEntity
  8
Level 26 (Construction)
  6
Continuous
 62
    40
370
     0
100
AcDbPolyline
 90
       12
 70
   129
 43
0.0
 10
-34.2222
 20
0.0
 10
-44.513952
 20
0.0
 10
-34.2222
 20
0.0
 10
-5.208273
 20
0.0
 10
13.256872
 20
0.0
 10
38.40737
 20
0.0
 10
34.22199
 20
0.0
 10
44.513742
 20
0.0
 10
34.22199
 20
0.0
 10
5.208063
 20
0.0
 10
-13.257082
 20
0.0
 10
-38.40758
 20
0.0
  0
LINE
  5
6FEBD
330
70263
100
AcDbEntity
  8
Level 26 (Construction)
  6
Continuous
 62
    40
370
     0
100
AcDbLine
 10
-38.013952
 20
0.0
 30
0.0
 11
-25.013952
 21
0.0
 31
0.0
  0
LINE
  5
6FEBE
330
70263
100
AcDbEntity
  8
Level 26 (Construction)
  6
Continuous
 62
    40
370
     0
100
AcDbLine
 10
25.013743
 20
0.0
 30
0.0
 11
38.013743
 21
0.0
 31
0.0
  0
ENDBLK
  5
70265
330
70263
100
AcDbEntity
  8
0
 62
    98
370
     0
100
AcDbBlockEnd
  0
BLOCK
  5
70267
330
70266
100
AcDbEntity
  8
0
 62
    98
370
     0
100
AcDbBlockBegin
  2
*U29
 70
     1
 10
0.0
 20
0.0
 30
0.0
  3
*U29
  1

  0
LWPOLYLINE
  5
6FEC0
330
70266
100
AcDbEntity
  8
Level 26
  6
Continuous
 62
    40
370
     0
100
AcDbPolyline
 90
       16
 70
   129
 43
0.0
 10
15.219555
 20
0.0
 10
23.904738
 20
0.0
 10
22.270568
 20
0.0
 10
25.000223
 20
0.0
 10
22.270568
 20
0.0
 10
8.791819
 20
0.0
 10
-15.219107
 20
0.0
 10
8.791819
 20
0.0
 10
-15.219107
 20
0.0
 10
-23.90429
 20
0.0
 10
-22.27012
 20
0.0
 10
-24.999775
 20
0.0
 10
-22.27012
 20
0.0
 10
-8.791372
 20
0.0
 10
15.219555
 20
0.0
 10
-8.791372
 20
0.0
  0
LINE
  5
6FEC9
330
70266
100
AcDbEntity
  8
Level 26 (Construction)
  6
Continuous
 62
    40
370
     0
100
AcDbLine
 10
3.71124
 20
0.0
 30
0.0
 11
-9.28876
 21
0.0
 31
0.0
  0
LINE
  5
6FECA
330
70266
100
AcDbEntity
  8
Level 26 (Construction)
  6
Continuous
 62
    40
370
     0
100
AcDbLine
 10
9.289208
 20
0.0
 30
0.0
 11
-3.710794
 21
0.0
 31
0.0
  0
ENDBLK
  5
70268
330
70266
100
AcDbEntity
  8
0
 62
    98
370
     0
100
AcDbBlockEnd
  0
BLOCK
  5
7026A
330
70269
100
AcDbEntity
  8
0
 62
    98
370
     0
100
AcDbBlockBegin
  2
*U30
 70
     1
 10
0.0
 20
0.0
 30
0.0
  3
*U30
  1

  0
LWPOLYLINE
  5
6FECC
330
70269
100
AcDbEntity
  8
Level 26
  6
Continuous
 62
    40
370
     0
100
AcDbPolyline
 90
       16
 70
   129
 43
0.0
 10
15.219555
 20
0.0
 10
23.904738
 20
0.0
 10
22.270568
 20
0.0
 10
25.000223
 20
0.0
 10
22.270568
 20
0.0
 10
8.791819
 20
0.0
 10
-15.219107
 20
0.0
 10
8.791819
 20
0.0
 10
-15.219107
 20
0.0
 10
-23.90429
 20
0.0
 10
-22.27012
 20
0.0
 10
-24.999775
 20
0.0
 10
-22.27012
 20
0.0
 10
-8.791372
 20
0.0
 10
15.219555
 20
0.0
 10
-8.791372
 20
0.0
  0
LINE
  5
6FED5
330
70269
100
AcDbEntity
  8
Level 26 (Construction)
  6
Continuous
 62
    40
370
     0
100
AcDbLine
 10
9.289208
 20
0.0
 30
0.0
 11
-3.710794
 21
0.0
 31
0.0
  0
LINE
  5
6FED6
330
70269
100
AcDbEntity
  8
Level 26 (Construction)
  6
Continuous
 62
    40
370
     0
100
AcDbLine
 10
3.71124
 20
0.0
 30
0.0
 11
-9.28876
 21
0.0
 31
0.0
  0
ENDBLK
  5
7026B
330
70269
100
AcDbEntity
  8
0
 62
    98
370
     0
100
AcDbBlockEnd
  0
BLOCK
  5
7026D
330
7026C
100
AcDbEntity
  8
0
 62
    98
370
     0
100
AcDbBlockBegin
  2
*U31
 70
     1
 10
0.0
 20
0.0
 30
0.0
  3
*U31
  1

  0
INSERT
  5
70006
330
7026C
100
AcDbEntity
  8
Level 26
  6
Continuous
 62
     7
370
     0
100
AcDbBlockReference
  2
From Bspline Surface
 10
-2515.551396
 20
216.899804
 30
0.0
  0
INSERT
  5
70025
330
7026C
100
AcDbEntity
  8
Level 26
  6
Continuous
 62
     7
370
     0
100
AcDbBlockReference
  2
From Bspline Surface_1
 10
-2515.551396
 20
216.899804
 30
0.0
  0
INSERT
  5
70044
330
7026C
100
AcDbEntity
  8
Level 26
  6
Continuous
 62
     7
370
     0
100
AcDbBlockReference
  2
From Bspline Surface_2
 10
-2515.551396
 20
216.899804
 30
0.0
  0
INSERT
  5
70063
330
7026C
100
AcDbEntity
  8
Level 26
  6
Continuous
 62
     7
370
     0
100
AcDbBlockReference
  2
From Bspline Surface_3
 10
-2515.551396
 20
216.899804
 30
0.0
  0
INSERT
  5
70082
330
7026C
100
AcDbEntity
  8
Level 26
  6
Continuous
 62
     7
370
     0
100
AcDbBlockReference
  2
From Bspline Surface_4
 10
-2515.551396
 20
216.899804
 30
0.0
  0
INSERT
  5
700A1
330
7026C
100
AcDbEntity
  8
Level 26
  6
Continuous
 62
     7
370
     0
100
AcDbBlockReference
  2
From Bspline Surface_5
 10
-2515.551396
 20
216.899804
 30
0.0
  0
INSERT
  5
700C0
330
7026C
100
AcDbEntity
  8
Level 26
  6
Continuous
 62
     7
370
     0
100
AcDbBlockReference
  2
From Bspline Surface_6
 10
-2515.551396
 20
216.899804
 30
0.0
  0
INSERT
  5
700DF
330
7026C
100
AcDbEntity
  8
Level 26
  6
Continuous
 62
     7
370
     0
100
AcDbBlockReference
  2
From Bspline Surface_7
 10
-2515.551396
 20
216.899804
 30
0.0
  0
ENDBLK
  5
7026E
330
7026C
100
AcDbEntity
  8
0
 62
    98
370
     0
100
AcDbBlockEnd
  0
BLOCK
  5
70270
330
7026F
100
AcDbEntity
  8
0
 62
    98
370
     0
100
AcDbBlockBegin
  2
From Bspline Surface
 70
     0
 10
0.0
 20
0.0
 30
0.0
  3
From Bspline Surface
  1

  0
SPLINE
  5
6FED8
330
7026F
100
AcDbEntity
  8
Level 26 (Construction)
  6
Continuous
 62
     7
370
     0
100
AcDbSpline
210
0.0
220
0.0
230
1.0
 70
     9
 71
     3
 72
    19
 73
    15
 74
     0
 42
0.000000001
 43
0.0000000001
 40
0.0
 40
0.0
 40
0.0
 40
0.0
 40
0.0833333335273589
 40
0.1666666665890565
 40
0.2500000001164153
 40
0.3333333331781129
 40
0.4166666667054718
 40
0.4999999997671694
 40
0.5833333332945282
 40
0.6666666668218872
 40
0.7499999998835847
 40
0.8333333334109434
 40
0.9166666664726411
 40
1.0
 40
1.0
 40
1.0
 40
1.0
 10
2582.000395900462
 20
-216.9028040180406
 30
0.0
 10
2581.559229849251
 20
-228.9201673408956
 30
0.0
 10
2576.109159717717
 20
-250.6996594823795
 30
0.0
 10
2550.813743048506
 20
-276.0941735666715
 30
0.0
 10
2517.01544405867
 20
-284.7426832868168
 30
0.0
 10
2483.124916668307
 20
-275.9858627966898
 30
0.0
 10
2458.115980238363
 20
-251.1497647102005
 30
0.0
 10
2449.102172108232
 20
-217.0620128867193
 30
0.0
 10
2457.935545166491
 20
-182.951658139565
 30
0.0
 10
2483.008704503629
 20
-157.8557485964275
 30
0.0
 10
2517.012041122788
 20
-149.0564091390464
 30
0.0
 10
2550.943828866556
 20
-157.7455045093884
 30
0.0
 10
2576.24215636068
 20
-183.4170050129439
 30
0.0
 10
2581.6494901111
 20
-204.939947332961
 30
0.0
 10
2582.000395900462
 20
-216.9028040180406
 30
0.0
  0
SPLINE
  5
70100
330
7026F
100
AcDbEntity
  8
Level 26 (Construction)
  6
Continuous
 62
     7
370
     0
100
AcDbSpline
210
0.0
220
0.0
230
1.0
 70
     9
 71
     3
 72
    19
 73
    15
 74
     0
 42
0.000000001
 43
0.0000000001
 40
0.0
 40
0.0
 40
0.0
 40
0.0
 40
0.0833333335273589
 40
0.1666666665890565
 40
0.2500000001164153
 40
0.3333333331781129
 40
0.4166666667054718
 40
0.4999999997671694
 40
0.5833333332945282
 40
0.6666666668218872
 40
0.7499999998835847
 40
0.8333333334109434
 40
0.9166666664726411
 40
1.0
 40
1.0
 40
1.0
 40
1.0
 10
2582.00039590046
 20
-216.9028040180406
 30
0.0
 10
2581.559229849251
 20
-228.9201673408956
 30
0.0
 10
2576.109159717717
 20
-250.6996594823795
 30
0.0
 10
2550.813743048506
 20
-276.0941735666715
 30
0.0
 10
2517.015444058669
 20
-284.7426832868168
 30
0.0
 10
2483.124916668307
 20
-275.9858627966898
 30
0.0
 10
2458.115980238363
 20
-251.1497647102005
 30
0.0
 10
2449.102172108231
 20
-217.0620128867193
 30
0.0
 10
2457.935545166491
 20
-182.951658139565
 30
0.0
 10
2483.008704503629
 20
-157.8557485964275
 30
0.0
 10
2517.012041122788
 20
-149.0564091390464
 30
0.0
 10
2550.943828866556
 20
-157.7455045093884
 30
0.0
 10
2576.24215636068
 20
-183.4170050129438
 30
0.0
 10
2581.6494901111
 20
-204.939947332961
 30
0.0
 10
2582.00039590046
 20
-216.9028040180406
 30
0.0
  0
SPLINE
  5
70101
330
7026F
100
AcDbEntity
  8
Level 26 (Construction)
  6
Continuous
 62
     7
370
     0
100
AcDbSpline
210
0.0
220
0.0
230
1.0
 70
     9
 71
     3
 72
    19
 73
    15
 74
     0
 42
0.000000001
 43
0.0000000001
 40
0.0
 40
0.0
 40
0.0
 40
0.0
 40
0.0833333335273589
 40
0.1666666665890565
 40
0.2500000001164153
 40
0.3333333331781129
 40
0.4166666667054718
 40
0.4999999997671694
 40
0.5833333332945282
 40
0.6666666668218872
 40
0.7499999998835847
 40
0.8333333334109434
 40
0.9166666664726411
 40
1.0
 40
1.0
 40
1.0
 40
1.0
 10
2582.000395900462
 20
-216.9028040180406
 30
0.0
 10
2581.559229849251
 20
-228.9201673408956
 30
0.0
 10
2576.109159717717
 20
-250.6996594823795
 30
0.0
 10
2550.813743048506
 20
-276.0941735666715
 30
0.0
 10
2517.01544405867
 20
-284.7426832868168
 30
0.0
 10
2483.124916668307
 20
-275.9858627966898
 30
0.0
 10
2458.115980238363
 20
-251.1497647102005
 30
0.0
 10
2449.102172108232
 20
-217.0620128867193
 30
0.0
 10
2457.935545166491
 20
-182.951658139565
 30
0.0
 10
2483.008704503629
 20
-157.8557485964275
 30
0.0
 10
2517.012041122788
 20
-149.0564091390464
 30
0.0
 10
2550.943828866556
 20
-157.7455045093884
 30
0.0
 10
2576.24215636068
 20
-183.4170050129439
 30
0.0
 10
2581.6494901111
 20
-204.939947332961
 30
0.0
 10
2582.000395900462
 20
-216.9028040180406
 30
0.0
  0
SPLINE
  5
70102
330
7026F
100
AcDbEntity
  8
Level 26 (Construction)
  6
Continuous
 62
     7
370
     0
100
AcDbSpline
210
0.0
220
0.0
230
1.0
 70
     9
 71
     3
 72
    19
 73
    15
 74
     0
 42
0.000000001
 43
0.0000000001
 40
0.0
 40
0.0
 40
0.0
 40
0.0
 40
0.0833333335273589
 40
0.1666666665890565
 40
0.2500000001164153
 40
0.3333333331781129
 40
0.4166666667054718
 40
0.4999999997671694
 40
0.5833333332945282
 40
0.6666666668218872
 40
0.7499999998835847
 40
0.8333333334109434
 40
0.9166666664726411
 40
1.0
 40
1.0
 40
1.0
 40
1.0
 10
2582.000395900462
 20
-216.9028040180407
 30
0.0
 10
2581.559229849251
 20
-228.9201673408956
 30
0.0
 10
2576.109159717717
 20
-250.6996594823795
 30
0.0
 10
2550.813743048507
 20
-276.0941735666715
 30
0.0
 10
2517.01544405867
 20
-284.7426832868168
 30
0.0
 10
2483.124916668307
 20
-275.9858627966898
 30
0.0
 10
2458.115980238363
 20
-251.1497647102005
 30
0.0
 10
2449.102172108232
 20
-217.0620128867193
 30
0.0
 10
2457.935545166491
 20
-182.951658139565
 30
0.0
 10
2483.008704503629
 20
-157.8557485964275
 30
0.0
 10
2517.012041122788
 20
-149.0564091390464
 30
0.0
 10
2550.943828866556
 20
-157.7455045093884
 30
0.0
 10
2576.24215636068
 20
-183.4170050129439
 30
0.0
 10
2581.6494901111
 20
-204.939947332961
 30
0.0
 10
2582.000395900462
 20
-216.9028040180407
 30
0.0
  0
SPLINE
  5
70103
330
7026F
100
AcDbEntity
  8
Level 26 (Construction)
  6
Continuous
 62
     7
370
     0
100
AcDbSpline
210
0.0
220
0.0
230
1.0
 70
     9
 71
     3
 72
    19
 73
    15
 74
     0
 42
0.000000001
 43
0.0000000001
 40
0.0
 40
0.0
 40
0.0
 40
0.0
 40
0.0833333335273589
 40
0.1666666665890565
 40
0.2500000001164153
 40
0.3333333331781129
 40
0.4166666667054718
 40
0.4999999997671694
 40
0.5833333332945282
 40
0.6666666668218872
 40
0.7499999998835847
 40
0.8333333334109434
 40
0.9166666664726411
 40
1.0
 40
1.0
 40
1.0
 40
1.0
 10
2582.000395900462
 20
-216.9028040180406
 30
0.0
 10
2581.559229849251
 20
-228.9201673408956
 30
0.0
 10
2576.109159717717
 20
-250.6996594823795
 30
0.0
 10
2550.813743048506
 20
-276.0941735666715
 30
0.0
 10
2517.01544405867
 20
-284.7426832868168
 30
0.0
 10
2483.124916668307
 20
-275.9858627966898
 30
0.0
 10
2458.115980238363
 20
-251.1497647102005
 30
0.0
 10
2449.102172108232
 20
-217.0620128867193
 30
0.0
 10
2457.935545166491
 20
-182.951658139565
 30
0.0
 10
2483.008704503629
 20
-157.8557485964275
 30
0.0
 10
2517.012041122788
 20
-149.0564091390464
 30
0.0
 10
2550.943828866556
 20
-157.7455045093884
 30
0.0
 10
2576.24215636068
 20
-183.4170050129439
 30
0.0
 10
2581.6494901111
 20
-204.939947332961
 30
0.0
 10
2582.000395900462
 20
-216.9028040180406
 30
0.0
  0
SPLINE
  5
70104
330
7026F
100
AcDbEntity
  8
Level 26 (Construction)
  6
Continuous
 62
     7
370
     0
100
AcDbSpline
210
0.0
220
0.0
230
1.0
 70
     9
 71
     3
 72
    19
 73
    15
 74
     0
 42
0.000000001
 43
0.0000000001
 40
0.0
 40
0.0
 40
0.0
 40
0.0
 40
0.0833333335273589
 40
0.1666666665890565
 40
0.2500000001164153
 40
0.3333333331781129
 40
0.4166666667054718
 40
0.4999999997671694
 40
0.5833333332945282
 40
0.6666666668218872
 40
0.7499999998835847
 40
0.8333333334109434
 40
0.9166666664726411
 40
1.0
 40
1.0
 40
1.0
 40
1.0
 10
2582.000395900462
 20
-216.9028040180406
 30
0.0
 10
2581.559229849251
 20
-228.9201673408956
 30
0.0
 10
2576.109159717717
 20
-250.6996594823795
 30
0.0
 10
2550.813743048506
 20
-276.0941735666715
 30
0.0
 10
2517.01544405867
 20
-284.7426832868168
 30
0.0
 10
2483.124916668307
 20
-275.9858627966898
 30
0.0
 10
2458.115980238363
 20
-251.1497647102005
 30
0.0
 10
2449.102172108232
 20
-217.0620128867193
 30
0.0
 10
2457.935545166491
 20
-182.951658139565
 30
0.0
 10
2483.008704503629
 20
-157.8557485964275
 30
0.0
 10
2517.012041122788
 20
-149.0564091390464
 30
0.0
 10
2550.943828866556
 20
-157.7455045093884
 30
0.0
 10
2576.24215636068
 20
-183.4170050129439
 30
0.0
 10
2581.6494901111
 20
-204.939947332961
 30
0.0
 10
2582.000395900462
 20
-216.9028040180406
 30
0.0
  0
SPLINE
  5
70105
330
7026F
100
AcDbEntity
  8
Level 26 (Construction)
  6
Continuous
 62
     7
370
     0
100
AcDbSpline
210
0.0
220
0.0
230
1.0
 70
     9
 71
     3
 72
    19
 73
    15
 74
     0
 42
0.000000001
 43
0.0000000001
 40
0.0
 40
0.0
 40
0.0
 40
0.0
 40
0.0833333335273589
 40
0.1666666665890565
 40
0.2500000001164153
 40
0.3333333331781129
 40
0.4166666667054718
 40
0.4999999997671694
 40
0.5833333332945282
 40
0.6666666668218872
 40
0.7499999998835847
 40
0.8333333334109434
 40
0.9166666664726411
 40
1.0
 40
1.0
 40
1.0
 40
1.0
 10
2582.000395900462
 20
-216.9028040180406
 30
0.0
 10
2581.559229849251
 20
-228.9201673408956
 30
0.0
 10
2576.109159717717
 20
-250.6996594823795
 30
0.0
 10
2550.813743048506
 20
-276.0941735666715
 30
0.0
 10
2517.01544405867
 20
-284.7426832868168
 30
0.0
 10
2483.124916668307
 20
-275.9858627966898
 30
0.0
 10
2458.115980238363
 20
-251.1497647102005
 30
0.0
 10
2449.102172108232
 20
-217.0620128867193
 30
0.0
 10
2457.935545166491
 20
-182.951658139565
 30
0.0
 10
2483.008704503629
 20
-157.8557485964275
 30
0.0
 10
2517.012041122788
 20
-149.0564091390464
 30
0.0
 10
2550.943828866556
 20
-157.7455045093884
 30
0.0
 10
2576.24215636068
 20
-183.4170050129439
 30
0.0
 10
2581.6494901111
 20
-204.939947332961
 30
0.0
 10
2582.000395900462
 20
-216.9028040180406
 30
0.0
  0
SPLINE
  5
70106
330
7026F
100
AcDbEntity
  8
Level 26 (Construction)
  6
Continuous
 62
     7
370
     0
100
AcDbSpline
210
0.0
220
0.0
230
1.0
 70
     9
 71
     3
 72
    19
 73
    15
 74
     0
 42
0.000000001
 43
0.0000000001
 40
0.0
 40
0.0
 40
0.0
 40
0.0
 40
0.0833333335273589
 40
0.1666666665890565
 40
0.2500000001164153
 40
0.3333333331781129
 40
0.4166666667054718
 40
0.4999999997671694
 40
0.5833333332945282
 40
0.6666666668218872
 40
0.7499999998835847
 40
0.8333333334109434
 40
0.9166666664726411
 40
1.0
 40
1.0
 40
1.0
 40
1.0
 10
2582.000395900462
 20
-216.9028040180406
 30
0.0
 10
2581.559229849251
 20
-228.9201673408956
 30
0.0
 10
2576.109159717717
 20
-250.6996594823795
 30
0.0
 10
2550.813743048506
 20
-276.0941735666715
 30
0.0
 10
2517.01544405867
 20
-284.7426832868168
 30
0.0
 10
2483.124916668307
 20
-275.9858627966898
 30
0.0
 10
2458.115980238363
 20
-251.1497647102005
 30
0.0
 10
2449.102172108232
 20
-217.0620128867193
 30
0.0
 10
2457.935545166491
 20
-182.951658139565
 30
0.0
 10
2483.008704503629
 20
-157.8557485964275
 30
0.0
 10
2517.012041122788
 20
-149.0564091390464
 30
0.0
 10
2550.943828866556
 20
-157.7455045093884
 30
0.0
 10
2576.24215636068
 20
-183.4170050129439
 30
0.0
 10
2581.6494901111
 20
-204.939947332961
 30
0.0
 10
2582.000395900462
 20
-216.9028040180406
 30
0.0
  0
SPLINE
  5
70107
330
7026F
100
AcDbEntity
  8
Level 26 (Construction)
  6
Continuous
 62
     7
370
     0
100
AcDbSpline
210
0.0
220
0.0
230
1.0
 70
     9
 71
     3
 72
    19
 73
    15
 74
     0
 42
0.000000001
 43
0.0000000001
 40
0.0
 40
0.0
 40
0.0
 40
0.0
 40
0.0833333335273589
 40
0.1666666665890565
 40
0.2500000001164153
 40
0.3333333331781129
 40
0.4166666667054718
 40
0.4999999997671694
 40
0.5833333332945282
 40
0.6666666668218872
 40
0.7499999998835847
 40
0.8333333334109434
 40
0.9166666664726411
 40
1.0
 40
1.0
 40
1.0
 40
1.0
 10
2582.000395900462
 20
-216.9028040180406
 30
0.0
 10
2581.559229849251
 20
-228.9201673408956
 30
0.0
 10
2576.109159717717
 20
-250.6996594823795
 30
0.0
 10
2550.813743048506
 20
-276.0941735666715
 30
0.0
 10
2517.01544405867
 20
-284.7426832868168
 30
0.0
 10
2483.124916668307
 20
-275.9858627966898
 30
0.0
 10
2458.115980238363
 20
-251.1497647102005
 30
0.0
 10
2449.102172108232
 20
-217.0620128867193
 30
0.0
 10
2457.935545166491
 20
-182.951658139565
 30
0.0
 10
2483.008704503629
 20
-157.8557485964275
 30
0.0
 10
2517.012041122788
 20
-149.0564091390464
 30
0.0
 10
2550.943828866556
 20
-157.7455045093884
 30
0.0
 10
2576.24215636068
 20
-183.4170050129439
 30
0.0
 10
2581.649490111101
 20
-204.939947332961
 30
0.0
 10
2582.000395900462
 20
-216.9028040180406
 30
0.0
  0
SPLINE
  5
70108
330
7026F
100
AcDbEntity
  8
Level 26 (Construction)
  6
Continuous
 62
     7
370
     0
100
AcDbSpline
210
0.0
220
0.0
230
1.0
 70
     9
 71
     3
 72
    19
 73
    15
 74
     0
 42
0.000000001
 43
0.0000000001
 40
0.0
 40
0.0
 40
0.0
 40
0.0
 40
0.0833333335273589
 40
0.1666666665890565
 40
0.2500000001164153
 40
0.3333333331781129
 40
0.4166666667054718
 40
0.4999999997671694
 40
0.5833333332945282
 40
0.6666666668218872
 40
0.7499999998835847
 40
0.8333333334109434
 40
0.9166666664726411
 40
1.0
 40
1.0
 40
1.0
 40
1.0
 10
2582.000395900462
 20
-216.9028040180406
 30
0.0
 10
2581.559229849251
 20
-228.9201673408956
 30
0.0
 10
2576.109159717717
 20
-250.6996594823795
 30
0.0
 10
2550.813743048506
 20
-276.0941735666715
 30
0.0
 10
2517.01544405867
 20
-284.7426832868168
 30
0.0
 10
2483.124916668307
 20
-275.9858627966898
 30
0.0
 10
2458.115980238363
 20
-251.1497647102005
 30
0.0
 10
2449.102172108232
 20
-217.0620128867193
 30
0.0
 10
2457.935545166491
 20
-182.951658139565
 30
0.0
 10
2483.008704503629
 20
-157.8557485964275
 30
0.0
 10
2517.012041122788
 20
-149.0564091390464
 30
0.0
 10
2550.943828866556
 20
-157.7455045093884
 30
0.0
 10
2576.24215636068
 20
-183.4170050129439
 30
0.0
 10
2581.6494901111
 20
-204.939947332961
 30
0.0
 10
2582.000395900462
 20
-216.9028040180406
 30
0.0
  0
ENDBLK
  5
70271
330
7026F
100
AcDbEntity
  8
0
 62
    98
370
     0
100
AcDbBlockEnd
  0
BLOCK
  5
70273
330
70272
100
AcDbEntity
  8
0
 62
    98
370
     0
100
AcDbBlockBegin
  2
From Bspline Surface_1
 70
     0
 10
0.0
 20
0.0
 30
0.0
  3
From Bspline Surface_1
  1

  0
SPLINE
  5
6FEE9
330
70272
100
AcDbEntity
  8
Level 26 (Construction)
  6
Continuous
 62
     7
370
     0
100
AcDbSpline
210
0.0
220
0.0
230
1.0
 70
     9
 71
     3
 72
    19
 73
    15
 74
     0
 42
0.000000001
 43
0.0000000001
 40
0.0
 40
0.0
 40
0.0
 40
0.0
 40
0.0833333335273589
 40
0.1666666665890565
 40
0.2500000001164153
 40
0.3333333331781129
 40
0.4166666667054718
 40
0.4999999997671694
 40
0.5833333332945282
 40
0.6666666668218872
 40
0.7499999998835847
 40
0.8333333334109434
 40
0.9166666664726411
 40
1.0
 40
1.0
 40
1.0
 40
1.0
 10
2582.000395900462
 20
-216.9028040180406
 30
0.0
 10
2581.559229849251
 20
-228.9201673408956
 30
0.0
 10
2576.109159717717
 20
-250.6996594823795
 30
0.0
 10
2550.813743048506
 20
-276.0941735666715
 30
0.0
 10
2517.01544405867
 20
-284.7426832868168
 30
0.0
 10
2483.124916668307
 20
-275.9858627966898
 30
0.0
 10
2458.115980238363
 20
-251.1497647102005
 30
0.0
 10
2449.102172108232
 20
-217.0620128867193
 30
0.0
 10
2457.935545166491
 20
-182.951658139565
 30
0.0
 10
2483.008704503629
 20
-157.8557485964275
 30
0.0
 10
2517.012041122788
 20
-149.0564091390464
 30
0.0
 10
2550.943828866556
 20
-157.7455045093884
 30
0.0
 10
2576.24215636068
 20
-183.4170050129439
 30
0.0
 10
2581.6494901111
 20
-204.939947332961
 30
0.0
 10
2582.000395900462
 20
-216.9028040180406
 30
0.0
  0
SPLINE
  5
70113
330
70272
100
AcDbEntity
  8
Level 26 (Construction)
  6
Continuous
 62
     7
370
     0
100
AcDbSpline
210
0.0
220
0.0
230
1.0
 70
     9
 71
     3
 72
    19
 73
    15
 74
     0
 42
0.000000001
 43
0.0000000001
 40
0.0
 40
0.0
 40
0.0
 40
0.0
 40
0.0833333335273589
 40
0.1666666665890565
 40
0.2500000001164153
 40
0.3333333331781129
 40
0.4166666667054718
 40
0.4999999997671694
 40
0.5833333332945282
 40
0.6666666668218872
 40
0.7499999998835847
 40
0.8333333334109434
 40
0.9166666664726411
 40
1.0
 40
1.0
 40
1.0
 40
1.0
 10
2582.00039590046
 20
-216.9028040180406
 30
0.0
 10
2581.559229849251
 20
-228.9201673408956
 30
0.0
 10
2576.109159717717
 20
-250.6996594823795
 30
0.0
 10
2550.813743048506
 20
-276.0941735666715
 30
0.0
 10
2517.015444058669
 20
-284.7426832868168
 30
0.0
 10
2483.124916668307
 20
-275.9858627966898
 30
0.0
 10
2458.115980238363
 20
-251.1497647102005
 30
0.0
 10
2449.102172108231
 20
-217.0620128867193
 30
0.0
 10
2457.935545166491
 20
-182.951658139565
 30
0.0
 10
2483.008704503629
 20
-157.8557485964275
 30
0.0
 10
2517.012041122788
 20
-149.0564091390464
 30
0.0
 10
2550.943828866556
 20
-157.7455045093884
 30
0.0
 10
2576.24215636068
 20
-183.4170050129438
 30
0.0
 10
2581.6494901111
 20
-204.939947332961
 30
0.0
 10
2582.00039590046
 20
-216.9028040180406
 30
0.0
  0
SPLINE
  5
70114
330
70272
100
AcDbEntity
  8
Level 26 (Construction)
  6
Continuous
 62
     7
370
     0
100
AcDbSpline
210
0.0
220
0.0
230
1.0
 70
     9
 71
     3
 72
    19
 73
    15
 74
     0
 42
0.000000001
 43
0.0000000001
 40
0.0
 40
0.0
 40
0.0
 40
0.0
 40
0.0833333335273589
 40
0.1666666665890565
 40
0.2500000001164153
 40
0.3333333331781129
 40
0.4166666667054718
 40
0.4999999997671694
 40
0.5833333332945282
 40
0.6666666668218872
 40
0.7499999998835847
 40
0.8333333334109434
 40
0.9166666664726411
 40
1.0
 40
1.0
 40
1.0
 40
1.0
 10
2582.000395900462
 20
-216.9028040180406
 30
0.0
 10
2581.559229849251
 20
-228.9201673408956
 30
0.0
 10
2576.109159717717
 20
-250.6996594823795
 30
0.0
 10
2550.813743048506
 20
-276.0941735666715
 30
0.0
 10
2517.01544405867
 20
-284.7426832868168
 30
0.0
 10
2483.124916668307
 20
-275.9858627966898
 30
0.0
 10
2458.115980238363
 20
-251.1497647102005
 30
0.0
 10
2449.102172108232
 20
-217.0620128867193
 30
0.0
 10
2457.935545166491
 20
-182.951658139565
 30
0.0
 10
2483.008704503629
 20
-157.8557485964275
 30
0.0
 10
2517.012041122788
 20
-149.0564091390464
 30
0.0
 10
2550.943828866556
 20
-157.7455045093884
 30
0.0
 10
2576.24215636068
 20
-183.4170050129439
 30
0.0
 10
2581.6494901111
 20
-204.939947332961
 30
0.0
 10
2582.000395900462
 20
-216.9028040180406
 30
0.0
  0
SPLINE
  5
70115
330
70272
100
AcDbEntity
  8
Level 26 (Construction)
  6
Continuous
 62
     7
370
     0
100
AcDbSpline
210
0.0
220
0.0
230
1.0
 70
     9
 71
     3
 72
    19
 73
    15
 74
     0
 42
0.000000001
 43
0.0000000001
 40
0.0
 40
0.0
 40
0.0
 40
0.0
 40
0.0833333335273589
 40
0.1666666665890565
 40
0.2500000001164153
 40
0.3333333331781129
 40
0.4166666667054718
 40
0.4999999997671694
 40
0.5833333332945282
 40
0.6666666668218872
 40
0.7499999998835847
 40
0.8333333334109434
 40
0.9166666664726411
 40
1.0
 40
1.0
 40
1.0
 40
1.0
 10
2582.000395900462
 20
-216.9028040180407
 30
0.0
 10
2581.559229849251
 20
-228.9201673408956
 30
0.0
 10
2576.109159717717
 20
-250.6996594823795
 30
0.0
 10
2550.813743048507
 20
-276.0941735666715
 30
0.0
 10
2517.01544405867
 20
-284.7426832868168
 30
0.0
 10
2483.124916668307
 20
-275.9858627966898
 30
0.0
 10
2458.115980238363
 20
-251.1497647102005
 30
0.0
 10
2449.102172108232
 20
-217.0620128867193
 30
0.0
 10
2457.935545166491
 20
-182.951658139565
 30
0.0
 10
2483.008704503629
 20
-157.8557485964275
 30
0.0
 10
2517.012041122788
 20
-149.0564091390464
 30
0.0
 10
2550.943828866556
 20
-157.7455045093884
 30
0.0
 10
2576.24215636068
 20
-183.4170050129439
 30
0.0
 10
2581.6494901111
 20
-204.939947332961
 30
0.0
 10
2582.000395900462
 20
-216.9028040180407
 30
0.0
  0
SPLINE
  5
70116
330
70272
100
AcDbEntity
  8
Level 26 (Construction)
  6
Continuous
 62
     7
370
     0
100
AcDbSpline
210
0.0
220
0.0
230
1.0
 70
     9
 71
     3
 72
    19
 73
    15
 74
     0
 42
0.000000001
 43
0.0000000001
 40
0.0
 40
0.0
 40
0.0
 40
0.0
 40
0.0833333335273589
 40
0.1666666665890565
 40
0.2500000001164153
 40
0.3333333331781129
 40
0.4166666667054718
 40
0.4999999997671694
 40
0.5833333332945282
 40
0.6666666668218872
 40
0.7499999998835847
 40
0.8333333334109434
 40
0.9166666664726411
 40
1.0
 40
1.0
 40
1.0
 40
1.0
 10
2582.000395900462
 20
-216.9028040180406
 30
0.0
 10
2581.559229849251
 20
-228.9201673408956
 30
0.0
 10
2576.109159717717
 20
-250.6996594823795
 30
0.0
 10
2550.813743048506
 20
-276.0941735666715
 30
0.0
 10
2517.01544405867
 20
-284.7426832868168
 30
0.0
 10
2483.124916668307
 20
-275.9858627966898
 30
0.0
 10
2458.115980238363
 20
-251.1497647102005
 30
0.0
 10
2449.102172108232
 20
-217.0620128867193
 30
0.0
 10
2457.935545166491
 20
-182.951658139565
 30
0.0
 10
2483.008704503629
 20
-157.8557485964275
 30
0.0
 10
2517.012041122788
 20
-149.0564091390464
 30
0.0
 10
2550.943828866556
 20
-157.7455045093884
 30
0.0
 10
2576.24215636068
 20
-183.4170050129439
 30
0.0
 10
2581.6494901111
 20
-204.939947332961
 30
0.0
 10
2582.000395900462
 20
-216.9028040180406
 30
0.0
  0
SPLINE
  5
70117
330
70272
100
AcDbEntity
  8
Level 26 (Construction)
  6
Continuous
 62
     7
370
     0
100
AcDbSpline
210
0.0
220
0.0
230
1.0
 70
     9
 71
     3
 72
    19
 73
    15
 74
     0
 42
0.000000001
 43
0.0000000001
 40
0.0
 40
0.0
 40
0.0
 40
0.0
 40
0.0833333335273589
 40
0.1666666665890565
 40
0.2500000001164153
 40
0.3333333331781129
 40
0.4166666667054718
 40
0.4999999997671694
 40
0.5833333332945282
 40
0.6666666668218872
 40
0.7499999998835847
 40
0.8333333334109434
 40
0.9166666664726411
 40
1.0
 40
1.0
 40
1.0
 40
1.0
 10
2582.000395900462
 20
-216.9028040180406
 30
0.0
 10
2581.559229849251
 20
-228.9201673408956
 30
0.0
 10
2576.109159717717
 20
-250.6996594823795
 30
0.0
 10
2550.813743048506
 20
-276.0941735666715
 30
0.0
 10
2517.01544405867
 20
-284.7426832868168
 30
0.0
 10
2483.124916668307
 20
-275.9858627966898
 30
0.0
 10
2458.115980238363
 20
-251.1497647102005
 30
0.0
 10
2449.102172108232
 20
-217.0620128867193
 30
0.0
 10
2457.935545166491
 20
-182.951658139565
 30
0.0
 10
2483.008704503629
 20
-157.8557485964275
 30
0.0
 10
2517.012041122788
 20
-149.0564091390464
 30
0.0
 10
2550.943828866556
 20
-157.7455045093884
 30
0.0
 10
2576.24215636068
 20
-183.4170050129439
 30
0.0
 10
2581.6494901111
 20
-204.939947332961
 30
0.0
 10
2582.000395900462
 20
-216.9028040180406
 30
0.0
  0
SPLINE
  5
70118
330
70272
100
AcDbEntity
  8
Level 26 (Construction)
  6
Continuous
 62
     7
370
     0
100
AcDbSpline
210
0.0
220
0.0
230
1.0
 70
     9
 71
     3
 72
    19
 73
    15
 74
     0
 42
0.000000001
 43
0.0000000001
 40
0.0
 40
0.0
 40
0.0
 40
0.0
 40
0.0833333335273589
 40
0.1666666665890565
 40
0.2500000001164153
 40
0.3333333331781129
 40
0.4166666667054718
 40
0.4999999997671694
 40
0.5833333332945282
 40
0.6666666668218872
 40
0.7499999998835847
 40
0.8333333334109434
 40
0.9166666664726411
 40
1.0
 40
1.0
 40
1.0
 40
1.0
 10
2582.000395900462
 20
-216.9028040180406
 30
0.0
 10
2581.559229849251
 20
-228.9201673408956
 30
0.0
 10
2576.109159717717
 20
-250.6996594823795
 30
0.0
 10
2550.813743048506
 20
-276.0941735666715
 30
0.0
 10
2517.01544405867
 20
-284.7426832868168
 30
0.0
 10
2483.124916668307
 20
-275.9858627966898
 30
0.0
 10
2458.115980238363
 20
-251.1497647102005
 30
0.0
 10
2449.102172108232
 20
-217.0620128867193
 30
0.0
 10
2457.935545166491
 20
-182.951658139565
 30
0.0
 10
2483.008704503629
 20
-157.8557485964275
 30
0.0
 10
2517.012041122788
 20
-149.0564091390464
 30
0.0
 10
2550.943828866556
 20
-157.7455045093884
 30
0.0
 10
2576.24215636068
 20
-183.4170050129439
 30
0.0
 10
2581.6494901111
 20
-204.939947332961
 30
0.0
 10
2582.000395900462
 20
-216.9028040180406
 30
0.0
  0
SPLINE
  5
70119
330
70272
100
AcDbEntity
  8
Level 26 (Construction)
  6
Continuous
 62
     7
370
     0
100
AcDbSpline
210
0.0
220
0.0
230
1.0
 70
     9
 71
     3
 72
    19
 73
    15
 74
     0
 42
0.000000001
 43
0.0000000001
 40
0.0
 40
0.0
 40
0.0
 40
0.0
 40
0.0833333335273589
 40
0.1666666665890565
 40
0.2500000001164153
 40
0.3333333331781129
 40
0.4166666667054718
 40
0.4999999997671694
 40
0.5833333332945282
 40
0.6666666668218872
 40
0.7499999998835847
 40
0.8333333334109434
 40
0.9166666664726411
 40
1.0
 40
1.0
 40
1.0
 40
1.0
 10
2582.000395900462
 20
-216.9028040180406
 30
0.0
 10
2581.559229849251
 20
-228.9201673408956
 30
0.0
 10
2576.109159717717
 20
-250.6996594823795
 30
0.0
 10
2550.813743048506
 20
-276.0941735666715
 30
0.0
 10
2517.01544405867
 20
-284.7426832868168
 30
0.0
 10
2483.124916668307
 20
-275.9858627966898
 30
0.0
 10
2458.115980238363
 20
-251.1497647102005
 30
0.0
 10
2449.102172108232
 20
-217.0620128867193
 30
0.0
 10
2457.935545166491
 20
-182.951658139565
 30
0.0
 10
2483.008704503629
 20
-157.8557485964275
 30
0.0
 10
2517.012041122788
 20
-149.0564091390464
 30
0.0
 10
2550.943828866556
 20
-157.7455045093884
 30
0.0
 10
2576.24215636068
 20
-183.4170050129439
 30
0.0
 10
2581.6494901111
 20
-204.939947332961
 30
0.0
 10
2582.000395900462
 20
-216.9028040180406
 30
0.0
  0
SPLINE
  5
7011A
330
70272
100
AcDbEntity
  8
Level 26 (Construction)
  6
Continuous
 62
     7
370
     0
100
AcDbSpline
210
0.0
220
0.0
230
1.0
 70
     9
 71
     3
 72
    19
 73
    15
 74
     0
 42
0.000000001
 43
0.0000000001
 40
0.0
 40
0.0
 40
0.0
 40
0.0
 40
0.0833333335273589
 40
0.1666666665890565
 40
0.2500000001164153
 40
0.3333333331781129
 40
0.4166666667054718
 40
0.4999999997671694
 40
0.5833333332945282
 40
0.6666666668218872
 40
0.7499999998835847
 40
0.8333333334109434
 40
0.9166666664726411
 40
1.0
 40
1.0
 40
1.0
 40
1.0
 10
2582.000395900462
 20
-216.9028040180406
 30
0.0
 10
2581.559229849251
 20
-228.9201673408956
 30
0.0
 10
2576.109159717717
 20
-250.6996594823795
 30
0.0
 10
2550.813743048506
 20
-276.0941735666715
 30
0.0
 10
2517.01544405867
 20
-284.7426832868168
 30
0.0
 10
2483.124916668307
 20
-275.9858627966898
 30
0.0
 10
2458.115980238363
 20
-251.1497647102005
 30
0.0
 10
2449.102172108232
 20
-217.0620128867193
 30
0.0
 10
2457.935545166491
 20
-182.951658139565
 30
0.0
 10
2483.008704503629
 20
-157.8557485964275
 30
0.0
 10
2517.012041122788
 20
-149.0564091390464
 30
0.0
 10
2550.943828866556
 20
-157.7455045093884
 30
0.0
 10
2576.24215636068
 20
-183.4170050129439
 30
0.0
 10
2581.649490111101
 20
-204.939947332961
 30
0.0
 10
2582.000395900462
 20
-216.9028040180406
 30
0.0
  0
SPLINE
  5
7011B
330
70272
100
AcDbEntity
  8
Level 26 (Construction)
  6
Continuous
 62
     7
370
     0
100
AcDbSpline
210
0.0
220
0.0
230
1.0
 70
     9
 71
     3
 72
    19
 73
    15
 74
     0
 42
0.000000001
 43
0.0000000001
 40
0.0
 40
0.0
 40
0.0
 40
0.0
 40
0.0833333335273589
 40
0.1666666665890565
 40
0.2500000001164153
 40
0.3333333331781129
 40
0.4166666667054718
 40
0.4999999997671694
 40
0.5833333332945282
 40
0.6666666668218872
 40
0.7499999998835847
 40
0.8333333334109434
 40
0.9166666664726411
 40
1.0
 40
1.0
 40
1.0
 40
1.0
 10
2582.000395900462
 20
-216.9028040180406
 30
0.0
 10
2581.559229849251
 20
-228.9201673408956
 30
0.0
 10
2576.109159717717
 20
-250.6996594823795
 30
0.0
 10
2550.813743048506
 20
-276.0941735666715
 30
0.0
 10
2517.01544405867
 20
-284.7426832868168
 30
0.0
 10
2483.124916668307
 20
-275.9858627966898
 30
0.0
 10
2458.115980238363
 20
-251.1497647102005
 30
0.0
 10
2449.102172108232
 20
-217.0620128867193
 30
0.0
 10
2457.935545166491
 20
-182.951658139565
 30
0.0
 10
2483.008704503629
 20
-157.8557485964275
 30
0.0
 10
2517.012041122788
 20
-149.0564091390464
 30
0.0
 10
2550.943828866556
 20
-157.7455045093884
 30
0.0
 10
2576.24215636068
 20
-183.4170050129439
 30
0.0
 10
2581.6494901111
 20
-204.939947332961
 30
0.0
 10
2582.000395900462
 20
-216.9028040180406
 30
0.0
  0
ENDBLK
  5
70274
330
70272
100
AcDbEntity
  8
0
 62
    98
370
     0
100
AcDbBlockEnd
  0
BLOCK
  5
70276
330
70275
100
AcDbEntity
  8
0
 62
    98
370
     0
100
AcDbBlockBegin
  2
From Bspline Surface_2
 70
     0
 10
0.0
 20
0.0
 30
0.0
  3
From Bspline Surface_2
  1

  0
SPLINE
  5
6FEFA
330
70275
100
AcDbEntity
  8
Level 26 (Construction)
  6
Continuous
 62
     7
370
     0
100
AcDbSpline
210
0.0
220
0.0
230
1.0
 70
     9
 71
     3
 72
    19
 73
    15
 74
     0
 42
0.000000001
 43
0.0000000001
 40
0.0
 40
0.0
 40
0.0
 40
0.0
 40
0.0833333335273589
 40
0.1666666665890565
 40
0.2500000001164153
 40
0.3333333331781129
 40
0.4166666667054718
 40
0.4999999997671694
 40
0.5833333332945282
 40
0.6666666668218872
 40
0.7499999998835847
 40
0.8333333334109434
 40
0.9166666664726411
 40
1.0
 40
1.0
 40
1.0
 40
1.0
 10
2582.000395900462
 20
-216.9028040180406
 30
0.0
 10
2581.559229849251
 20
-228.9201673408956
 30
0.0
 10
2576.109159717717
 20
-250.6996594823795
 30
0.0
 10
2550.813743048506
 20
-276.0941735666715
 30
0.0
 10
2517.01544405867
 20
-284.7426832868168
 30
0.0
 10
2483.124916668307
 20
-275.9858627966898
 30
0.0
 10
2458.115980238363
 20
-251.1497647102005
 30
0.0
 10
2449.102172108232
 20
-217.0620128867193
 30
0.0
 10
2457.935545166491
 20
-182.951658139565
 30
0.0
 10
2483.008704503629
 20
-157.8557485964275
 30
0.0
 10
2517.012041122788
 20
-149.0564091390464
 30
0.0
 10
2550.943828866556
 20
-157.7455045093884
 30
0.0
 10
2576.24215636068
 20
-183.4170050129439
 30
0.0
 10
2581.6494901111
 20
-204.939947332961
 30
0.0
 10
2582.000395900462
 20
-216.9028040180406
 30
0.0
  0
SPLINE
  5
70126
330
70275
100
AcDbEntity
  8
Level 26 (Construction)
  6
Continuous
 62
     7
370
     0
100
AcDbSpline
210
0.0
220
0.0
230
1.0
 70
     9
 71
     3
 72
    19
 73
    15
 74
     0
 42
0.000000001
 43
0.0000000001
 40
0.0
 40
0.0
 40
0.0
 40
0.0
 40
0.0833333335273589
 40
0.1666666665890565
 40
0.2500000001164153
 40
0.3333333331781129
 40
0.4166666667054718
 40
0.4999999997671694
 40
0.5833333332945282
 40
0.6666666668218872
 40
0.7499999998835847
 40
0.8333333334109434
 40
0.9166666664726411
 40
1.0
 40
1.0
 40
1.0
 40
1.0
 10
2582.00039590046
 20
-216.9028040180406
 30
0.0
 10
2581.559229849251
 20
-228.9201673408956
 30
0.0
 10
2576.109159717717
 20
-250.6996594823795
 30
0.0
 10
2550.813743048506
 20
-276.0941735666715
 30
0.0
 10
2517.015444058669
 20
-284.7426832868168
 30
0.0
 10
2483.124916668307
 20
-275.9858627966898
 30
0.0
 10
2458.115980238363
 20
-251.1497647102005
 30
0.0
 10
2449.102172108231
 20
-217.0620128867193
 30
0.0
 10
2457.935545166491
 20
-182.951658139565
 30
0.0
 10
2483.008704503629
 20
-157.8557485964275
 30
0.0
 10
2517.012041122788
 20
-149.0564091390464
 30
0.0
 10
2550.943828866556
 20
-157.7455045093884
 30
0.0
 10
2576.24215636068
 20
-183.4170050129438
 30
0.0
 10
2581.6494901111
 20
-204.939947332961
 30
0.0
 10
2582.00039590046
 20
-216.9028040180406
 30
0.0
  0
SPLINE
  5
70127
330
70275
100
AcDbEntity
  8
Level 26 (Construction)
  6
Continuous
 62
     7
370
     0
100
AcDbSpline
210
0.0
220
0.0
230
1.0
 70
     9
 71
     3
 72
    19
 73
    15
 74
     0
 42
0.000000001
 43
0.0000000001
 40
0.0
 40
0.0
 40
0.0
 40
0.0
 40
0.0833333335273589
 40
0.1666666665890565
 40
0.2500000001164153
 40
0.3333333331781129
 40
0.4166666667054718
 40
0.4999999997671694
 40
0.5833333332945282
 40
0.6666666668218872
 40
0.7499999998835847
 40
0.8333333334109434
 40
0.9166666664726411
 40
1.0
 40
1.0
 40
1.0
 40
1.0
 10
2582.000395900462
 20
-216.9028040180406
 30
0.0
 10
2581.559229849251
 20
-228.9201673408956
 30
0.0
 10
2576.109159717717
 20
-250.6996594823795
 30
0.0
 10
2550.813743048506
 20
-276.0941735666715
 30
0.0
 10
2517.01544405867
 20
-284.7426832868168
 30
0.0
 10
2483.124916668307
 20
-275.9858627966898
 30
0.0
 10
2458.115980238363
 20
-251.1497647102005
 30
0.0
 10
2449.102172108232
 20
-217.0620128867193
 30
0.0
 10
2457.935545166491
 20
-182.951658139565
 30
0.0
 10
2483.008704503629
 20
-157.8557485964275
 30
0.0
 10
2517.012041122788
 20
-149.0564091390464
 30
0.0
 10
2550.943828866556
 20
-157.7455045093884
 30
0.0
 10
2576.24215636068
 20
-183.4170050129439
 30
0.0
 10
2581.6494901111
 20
-204.939947332961
 30
0.0
 10
2582.000395900462
 20
-216.9028040180406
 30
0.0
  0
SPLINE
  5
70128
330
70275
100
AcDbEntity
  8
Level 26 (Construction)
  6
Continuous
 62
     7
370
     0
100
AcDbSpline
210
0.0
220
0.0
230
1.0
 70
     9
 71
     3
 72
    19
 73
    15
 74
     0
 42
0.000000001
 43
0.0000000001
 40
0.0
 40
0.0
 40
0.0
 40
0.0
 40
0.0833333335273589
 40
0.1666666665890565
 40
0.2500000001164153
 40
0.3333333331781129
 40
0.4166666667054718
 40
0.4999999997671694
 40
0.5833333332945282
 40
0.6666666668218872
 40
0.7499999998835847
 40
0.8333333334109434
 40
0.9166666664726411
 40
1.0
 40
1.0
 40
1.0
 40
1.0
 10
2582.000395900462
 20
-216.9028040180407
 30
0.0
 10
2581.559229849251
 20
-228.9201673408956
 30
0.0
 10
2576.109159717717
 20
-250.6996594823795
 30
0.0
 10
2550.813743048507
 20
-276.0941735666715
 30
0.0
 10
2517.01544405867
 20
-284.7426832868168
 30
0.0
 10
2483.124916668307
 20
-275.9858627966898
 30
0.0
 10
2458.115980238363
 20
-251.1497647102005
 30
0.0
 10
2449.102172108232
 20
-217.0620128867193
 30
0.0
 10
2457.935545166491
 20
-182.951658139565
 30
0.0
 10
2483.008704503629
 20
-157.8557485964275
 30
0.0
 10
2517.012041122788
 20
-149.0564091390464
 30
0.0
 10
2550.943828866556
 20
-157.7455045093884
 30
0.0
 10
2576.24215636068
 20
-183.4170050129439
 30
0.0
 10
2581.6494901111
 20
-204.939947332961
 30
0.0
 10
2582.000395900462
 20
-216.9028040180407
 30
0.0
  0
SPLINE
  5
70129
330
70275
100
AcDbEntity
  8
Level 26 (Construction)
  6
Continuous
 62
     7
370
     0
100
AcDbSpline
210
0.0
220
0.0
230
1.0
 70
     9
 71
     3
 72
    19
 73
    15
 74
     0
 42
0.000000001
 43
0.0000000001
 40
0.0
 40
0.0
 40
0.0
 40
0.0
 40
0.0833333335273589
 40
0.1666666665890565
 40
0.2500000001164153
 40
0.3333333331781129
 40
0.4166666667054718
 40
0.4999999997671694
 40
0.5833333332945282
 40
0.6666666668218872
 40
0.7499999998835847
 40
0.8333333334109434
 40
0.9166666664726411
 40
1.0
 40
1.0
 40
1.0
 40
1.0
 10
2582.000395900462
 20
-216.9028040180406
 30
0.0
 10
2581.559229849251
 20
-228.9201673408956
 30
0.0
 10
2576.109159717717
 20
-250.6996594823795
 30
0.0
 10
2550.813743048506
 20
-276.0941735666715
 30
0.0
 10
2517.01544405867
 20
-284.7426832868168
 30
0.0
 10
2483.124916668307
 20
-275.9858627966898
 30
0.0
 10
2458.115980238363
 20
-251.1497647102005
 30
0.0
 10
2449.102172108232
 20
-217.0620128867193
 30
0.0
 10
2457.935545166491
 20
-182.951658139565
 30
0.0
 10
2483.008704503629
 20
-157.8557485964275
 30
0.0
 10
2517.012041122788
 20
-149.0564091390464
 30
0.0
 10
2550.943828866556
 20
-157.7455045093884
 30
0.0
 10
2576.24215636068
 20
-183.4170050129439
 30
0.0
 10
2581.6494901111
 20
-204.939947332961
 30
0.0
 10
2582.000395900462
 20
-216.9028040180406
 30
0.0
  0
SPLINE
  5
7012A
330
70275
100
AcDbEntity
  8
Level 26 (Construction)
  6
Continuous
 62
     7
370
     0
100
AcDbSpline
210
0.0
220
0.0
230
1.0
 70
     9
 71
     3
 72
    19
 73
    15
 74
     0
 42
0.000000001
 43
0.0000000001
 40
0.0
 40
0.0
 40
0.0
 40
0.0
 40
0.0833333335273589
 40
0.1666666665890565
 40
0.2500000001164153
 40
0.3333333331781129
 40
0.4166666667054718
 40
0.4999999997671694
 40
0.5833333332945282
 40
0.6666666668218872
 40
0.7499999998835847
 40
0.8333333334109434
 40
0.9166666664726411
 40
1.0
 40
1.0
 40
1.0
 40
1.0
 10
2582.000395900462
 20
-216.9028040180406
 30
0.0
 10
2581.559229849251
 20
-228.9201673408956
 30
0.0
 10
2576.109159717717
 20
-250.6996594823795
 30
0.0
 10
2550.813743048506
 20
-276.0941735666715
 30
0.0
 10
2517.01544405867
 20
-284.7426832868168
 30
0.0
 10
2483.124916668307
 20
-275.9858627966898
 30
0.0
 10
2458.115980238363
 20
-251.1497647102005
 30
0.0
 10
2449.102172108232
 20
-217.0620128867193
 30
0.0
 10
2457.935545166491
 20
-182.951658139565
 30
0.0
 10
2483.008704503629
 20
-157.8557485964275
 30
0.0
 10
2517.012041122788
 20
-149.0564091390464
 30
0.0
 10
2550.943828866556
 20
-157.7455045093884
 30
0.0
 10
2576.24215636068
 20
-183.4170050129439
 30
0.0
 10
2581.6494901111
 20
-204.939947332961
 30
0.0
 10
2582.000395900462
 20
-216.9028040180406
 30
0.0
  0
SPLINE
  5
7012B
330
70275
100
AcDbEntity
  8
Level 26 (Construction)
  6
Continuous
 62
     7
370
     0
100
AcDbSpline
210
0.0
220
0.0
230
1.0
 70
     9
 71
     3
 72
    19
 73
    15
 74
     0
 42
0.000000001
 43
0.0000000001
 40
0.0
 40
0.0
 40
0.0
 40
0.0
 40
0.0833333335273589
 40
0.1666666665890565
 40
0.2500000001164153
 40
0.3333333331781129
 40
0.4166666667054718
 40
0.4999999997671694
 40
0.5833333332945282
 40
0.6666666668218872
 40
0.7499999998835847
 40
0.8333333334109434
 40
0.9166666664726411
 40
1.0
 40
1.0
 40
1.0
 40
1.0
 10
2582.000395900462
 20
-216.9028040180406
 30
0.0
 10
2581.559229849251
 20
-228.9201673408956
 30
0.0
 10
2576.109159717717
 20
-250.6996594823795
 30
0.0
 10
2550.813743048506
 20
-276.0941735666715
 30
0.0
 10
2517.01544405867
 20
-284.7426832868168
 30
0.0
 10
2483.124916668307
 20
-275.9858627966898
 30
0.0
 10
2458.115980238363
 20
-251.1497647102005
 30
0.0
 10
2449.102172108232
 20
-217.0620128867193
 30
0.0
 10
2457.935545166491
 20
-182.951658139565
 30
0.0
 10
2483.008704503629
 20
-157.8557485964275
 30
0.0
 10
2517.012041122788
 20
-149.0564091390464
 30
0.0
 10
2550.943828866556
 20
-157.7455045093884
 30
0.0
 10
2576.24215636068
 20
-183.4170050129439
 30
0.0
 10
2581.6494901111
 20
-204.939947332961
 30
0.0
 10
2582.000395900462
 20
-216.9028040180406
 30
0.0
  0
SPLINE
  5
7012C
330
70275
100
AcDbEntity
  8
Level 26 (Construction)
  6
Continuous
 62
     7
370
     0
100
AcDbSpline
210
0.0
220
0.0
230
1.0
 70
     9
 71
     3
 72
    19
 73
    15
 74
     0
 42
0.000000001
 43
0.0000000001
 40
0.0
 40
0.0
 40
0.0
 40
0.0
 40
0.0833333335273589
 40
0.1666666665890565
 40
0.2500000001164153
 40
0.3333333331781129
 40
0.4166666667054718
 40
0.4999999997671694
 40
0.5833333332945282
 40
0.6666666668218872
 40
0.7499999998835847
 40
0.8333333334109434
 40
0.9166666664726411
 40
1.0
 40
1.0
 40
1.0
 40
1.0
 10
2582.000395900462
 20
-216.9028040180406
 30
0.0
 10
2581.559229849251
 20
-228.9201673408956
 30
0.0
 10
2576.109159717717
 20
-250.6996594823795
 30
0.0
 10
2550.813743048506
 20
-276.0941735666715
 30
0.0
 10
2517.01544405867
 20
-284.7426832868168
 30
0.0
 10
2483.124916668307
 20
-275.9858627966898
 30
0.0
 10
2458.115980238363
 20
-251.1497647102005
 30
0.0
 10
2449.102172108232
 20
-217.0620128867193
 30
0.0
 10
2457.935545166491
 20
-182.951658139565
 30
0.0
 10
2483.008704503629
 20
-157.8557485964275
 30
0.0
 10
2517.012041122788
 20
-149.0564091390464
 30
0.0
 10
2550.943828866556
 20
-157.7455045093884
 30
0.0
 10
2576.24215636068
 20
-183.4170050129439
 30
0.0
 10
2581.6494901111
 20
-204.939947332961
 30
0.0
 10
2582.000395900462
 20
-216.9028040180406
 30
0.0
  0
SPLINE
  5
7012D
330
70275
100
AcDbEntity
  8
Level 26 (Construction)
  6
Continuous
 62
     7
370
     0
100
AcDbSpline
210
0.0
220
0.0
230
1.0
 70
     9
 71
     3
 72
    19
 73
    15
 74
     0
 42
0.000000001
 43
0.0000000001
 40
0.0
 40
0.0
 40
0.0
 40
0.0
 40
0.0833333335273589
 40
0.1666666665890565
 40
0.2500000001164153
 40
0.3333333331781129
 40
0.4166666667054718
 40
0.4999999997671694
 40
0.5833333332945282
 40
0.6666666668218872
 40
0.7499999998835847
 40
0.8333333334109434
 40
0.9166666664726411
 40
1.0
 40
1.0
 40
1.0
 40
1.0
 10
2582.000395900462
 20
-216.9028040180406
 30
0.0
 10
2581.559229849251
 20
-228.9201673408956
 30
0.0
 10
2576.109159717717
 20
-250.6996594823795
 30
0.0
 10
2550.813743048506
 20
-276.0941735666715
 30
0.0
 10
2517.01544405867
 20
-284.7426832868168
 30
0.0
 10
2483.124916668307
 20
-275.9858627966898
 30
0.0
 10
2458.115980238363
 20
-251.1497647102005
 30
0.0
 10
2449.102172108232
 20
-217.0620128867193
 30
0.0
 10
2457.935545166491
 20
-182.951658139565
 30
0.0
 10
2483.008704503629
 20
-157.8557485964275
 30
0.0
 10
2517.012041122788
 20
-149.0564091390464
 30
0.0
 10
2550.943828866556
 20
-157.7455045093884
 30
0.0
 10
2576.24215636068
 20
-183.4170050129439
 30
0.0
 10
2581.649490111101
 20
-204.939947332961
 30
0.0
 10
2582.000395900462
 20
-216.9028040180406
 30
0.0
  0
SPLINE
  5
7012E
330
70275
100
AcDbEntity
  8
Level 26 (Construction)
  6
Continuous
 62
     7
370
     0
100
AcDbSpline
210
0.0
220
0.0
230
1.0
 70
     9
 71
     3
 72
    19
 73
    15
 74
     0
 42
0.000000001
 43
0.0000000001
 40
0.0
 40
0.0
 40
0.0
 40
0.0
 40
0.0833333335273589
 40
0.1666666665890565
 40
0.2500000001164153
 40
0.3333333331781129
 40
0.4166666667054718
 40
0.4999999997671694
 40
0.5833333332945282
 40
0.6666666668218872
 40
0.7499999998835847
 40
0.8333333334109434
 40
0.9166666664726411
 40
1.0
 40
1.0
 40
1.0
 40
1.0
 10
2582.000395900462
 20
-216.9028040180406
 30
0.0
 10
2581.559229849251
 20
-228.9201673408956
 30
0.0
 10
2576.109159717717
 20
-250.6996594823795
 30
0.0
 10
2550.813743048506
 20
-276.0941735666715
 30
0.0
 10
2517.01544405867
 20
-284.7426832868168
 30
0.0
 10
2483.124916668307
 20
-275.9858627966898
 30
0.0
 10
2458.115980238363
 20
-251.1497647102005
 30
0.0
 10
2449.102172108232
 20
-217.0620128867193
 30
0.0
 10
2457.935545166491
 20
-182.951658139565
 30
0.0
 10
2483.008704503629
 20
-157.8557485964275
 30
0.0
 10
2517.012041122788
 20
-149.0564091390464
 30
0.0
 10
2550.943828866556
 20
-157.7455045093884
 30
0.0
 10
2576.24215636068
 20
-183.4170050129439
 30
0.0
 10
2581.6494901111
 20
-204.939947332961
 30
0.0
 10
2582.000395900462
 20
-216.9028040180406
 30
0.0
  0
ENDBLK
  5
70277
330
70275
100
AcDbEntity
  8
0
 62
    98
370
     0
100
AcDbBlockEnd
  0
BLOCK
  5
70279
330
70278
100
AcDbEntity
  8
0
 62
    98
370
     0
100
AcDbBlockBegin
  2
From Bspline Surface_3
 70
     0
 10
0.0
 20
0.0
 30
0.0
  3
From Bspline Surface_3
  1

  0
SPLINE
  5
6FF0B
330
70278
100
AcDbEntity
  8
Level 26 (Construction)
  6
Continuous
 62
     7
370
     0
100
AcDbSpline
210
0.0
220
0.0
230
1.0
 70
     9
 71
     3
 72
    19
 73
    15
 74
     0
 42
0.000000001
 43
0.0000000001
 40
0.0
 40
0.0
 40
0.0
 40
0.0
 40
0.0833333335273589
 40
0.1666666665890565
 40
0.2500000001164153
 40
0.3333333331781129
 40
0.4166666667054718
 40
0.4999999997671694
 40
0.5833333332945282
 40
0.6666666668218872
 40
0.7499999998835847
 40
0.8333333334109434
 40
0.9166666664726411
 40
1.0
 40
1.0
 40
1.0
 40
1.0
 10
2582.000395900462
 20
-216.9028040180406
 30
0.0
 10
2581.559229849251
 20
-228.9201673408956
 30
0.0
 10
2576.109159717717
 20
-250.6996594823795
 30
0.0
 10
2550.813743048506
 20
-276.0941735666715
 30
0.0
 10
2517.01544405867
 20
-284.7426832868168
 30
0.0
 10
2483.124916668307
 20
-275.9858627966898
 30
0.0
 10
2458.115980238363
 20
-251.1497647102005
 30
0.0
 10
2449.102172108232
 20
-217.0620128867193
 30
0.0
 10
2457.935545166491
 20
-182.951658139565
 30
0.0
 10
2483.008704503629
 20
-157.8557485964275
 30
0.0
 10
2517.012041122788
 20
-149.0564091390464
 30
0.0
 10
2550.943828866556
 20
-157.7455045093884
 30
0.0
 10
2576.24215636068
 20
-183.4170050129439
 30
0.0
 10
2581.6494901111
 20
-204.939947332961
 30
0.0
 10
2582.000395900462
 20
-216.9028040180406
 30
0.0
  0
SPLINE
  5
70139
330
70278
100
AcDbEntity
  8
Level 26 (Construction)
  6
Continuous
 62
     7
370
     0
100
AcDbSpline
210
0.0
220
0.0
230
1.0
 70
     9
 71
     3
 72
    19
 73
    15
 74
     0
 42
0.000000001
 43
0.0000000001
 40
0.0
 40
0.0
 40
0.0
 40
0.0
 40
0.0833333335273589
 40
0.1666666665890565
 40
0.2500000001164153
 40
0.3333333331781129
 40
0.4166666667054718
 40
0.4999999997671694
 40
0.5833333332945282
 40
0.6666666668218872
 40
0.7499999998835847
 40
0.8333333334109434
 40
0.9166666664726411
 40
1.0
 40
1.0
 40
1.0
 40
1.0
 10
2582.00039590046
 20
-216.9028040180406
 30
0.0
 10
2581.559229849251
 20
-228.9201673408956
 30
0.0
 10
2576.109159717717
 20
-250.6996594823795
 30
0.0
 10
2550.813743048506
 20
-276.0941735666715
 30
0.0
 10
2517.015444058669
 20
-284.7426832868168
 30
0.0
 10
2483.124916668307
 20
-275.9858627966898
 30
0.0
 10
2458.115980238363
 20
-251.1497647102005
 30
0.0
 10
2449.102172108231
 20
-217.0620128867193
 30
0.0
 10
2457.935545166491
 20
-182.951658139565
 30
0.0
 10
2483.008704503629
 20
-157.8557485964275
 30
0.0
 10
2517.012041122788
 20
-149.0564091390464
 30
0.0
 10
2550.943828866556
 20
-157.7455045093884
 30
0.0
 10
2576.24215636068
 20
-183.4170050129438
 30
0.0
 10
2581.6494901111
 20
-204.939947332961
 30
0.0
 10
2582.00039590046
 20
-216.9028040180406
 30
0.0
  0
SPLINE
  5
7013A
330
70278
100
AcDbEntity
  8
Level 26 (Construction)
  6
Continuous
 62
     7
370
     0
100
AcDbSpline
210
0.0
220
0.0
230
1.0
 70
     9
 71
     3
 72
    19
 73
    15
 74
     0
 42
0.000000001
 43
0.0000000001
 40
0.0
 40
0.0
 40
0.0
 40
0.0
 40
0.0833333335273589
 40
0.1666666665890565
 40
0.2500000001164153
 40
0.3333333331781129
 40
0.4166666667054718
 40
0.4999999997671694
 40
0.5833333332945282
 40
0.6666666668218872
 40
0.7499999998835847
 40
0.8333333334109434
 40
0.9166666664726411
 40
1.0
 40
1.0
 40
1.0
 40
1.0
 10
2582.000395900462
 20
-216.9028040180406
 30
0.0
 10
2581.559229849251
 20
-228.9201673408956
 30
0.0
 10
2576.109159717717
 20
-250.6996594823795
 30
0.0
 10
2550.813743048506
 20
-276.0941735666715
 30
0.0
 10
2517.01544405867
 20
-284.7426832868168
 30
0.0
 10
2483.124916668307
 20
-275.9858627966898
 30
0.0
 10
2458.115980238363
 20
-251.1497647102005
 30
0.0
 10
2449.102172108232
 20
-217.0620128867193
 30
0.0
 10
2457.935545166491
 20
-182.951658139565
 30
0.0
 10
2483.008704503629
 20
-157.8557485964275
 30
0.0
 10
2517.012041122788
 20
-149.0564091390464
 30
0.0
 10
2550.943828866556
 20
-157.7455045093884
 30
0.0
 10
2576.24215636068
 20
-183.4170050129439
 30
0.0
 10
2581.6494901111
 20
-204.939947332961
 30
0.0
 10
2582.000395900462
 20
-216.9028040180406
 30
0.0
  0
SPLINE
  5
7013B
330
70278
100
AcDbEntity
  8
Level 26 (Construction)
  6
Continuous
 62
     7
370
     0
100
AcDbSpline
210
0.0
220
0.0
230
1.0
 70
     9
 71
     3
 72
    19
 73
    15
 74
     0
 42
0.000000001
 43
0.0000000001
 40
0.0
 40
0.0
 40
0.0
 40
0.0
 40
0.0833333335273589
 40
0.1666666665890565
 40
0.2500000001164153
 40
0.3333333331781129
 40
0.4166666667054718
 40
0.4999999997671694
 40
0.5833333332945282
 40
0.6666666668218872
 40
0.7499999998835847
 40
0.8333333334109434
 40
0.9166666664726411
 40
1.0
 40
1.0
 40
1.0
 40
1.0
 10
2582.000395900462
 20
-216.9028040180407
 30
0.0
 10
2581.559229849251
 20
-228.9201673408956
 30
0.0
 10
2576.109159717717
 20
-250.6996594823795
 30
0.0
 10
2550.813743048507
 20
-276.0941735666715
 30
0.0
 10
2517.01544405867
 20
-284.7426832868168
 30
0.0
 10
2483.124916668307
 20
-275.9858627966898
 30
0.0
 10
2458.115980238363
 20
-251.1497647102005
 30
0.0
 10
2449.102172108232
 20
-217.0620128867193
 30
0.0
 10
2457.935545166491
 20
-182.951658139565
 30
0.0
 10
2483.008704503629
 20
-157.8557485964275
 30
0.0
 10
2517.012041122788
 20
-149.0564091390464
 30
0.0
 10
2550.943828866556
 20
-157.7455045093884
 30
0.0
 10
2576.24215636068
 20
-183.4170050129439
 30
0.0
 10
2581.6494901111
 20
-204.939947332961
 30
0.0
 10
2582.000395900462
 20
-216.9028040180407
 30
0.0
  0
SPLINE
  5
7013C
330
70278
100
AcDbEntity
  8
Level 26 (Construction)
  6
Continuous
 62
     7
370
     0
100
AcDbSpline
210
0.0
220
0.0
230
1.0
 70
     9
 71
     3
 72
    19
 73
    15
 74
     0
 42
0.000000001
 43
0.0000000001
 40
0.0
 40
0.0
 40
0.0
 40
0.0
 40
0.0833333335273589
 40
0.1666666665890565
 40
0.2500000001164153
 40
0.3333333331781129
 40
0.4166666667054718
 40
0.4999999997671694
 40
0.5833333332945282
 40
0.6666666668218872
 40
0.7499999998835847
 40
0.8333333334109434
 40
0.9166666664726411
 40
1.0
 40
1.0
 40
1.0
 40
1.0
 10
2582.000395900462
 20
-216.9028040180406
 30
0.0
 10
2581.559229849251
 20
-228.9201673408956
 30
0.0
 10
2576.109159717717
 20
-250.6996594823795
 30
0.0
 10
2550.813743048506
 20
-276.0941735666715
 30
0.0
 10
2517.01544405867
 20
-284.7426832868168
 30
0.0
 10
2483.124916668307
 20
-275.9858627966898
 30
0.0
 10
2458.115980238363
 20
-251.1497647102005
 30
0.0
 10
2449.102172108232
 20
-217.0620128867193
 30
0.0
 10
2457.935545166491
 20
-182.951658139565
 30
0.0
 10
2483.008704503629
 20
-157.8557485964275
 30
0.0
 10
2517.012041122788
 20
-149.0564091390464
 30
0.0
 10
2550.943828866556
 20
-157.7455045093884
 30
0.0
 10
2576.24215636068
 20
-183.4170050129439
 30
0.0
 10
2581.6494901111
 20
-204.939947332961
 30
0.0
 10
2582.000395900462
 20
-216.9028040180406
 30
0.0
  0
SPLINE
  5
7013D
330
70278
100
AcDbEntity
  8
Level 26 (Construction)
  6
Continuous
 62
     7
370
     0
100
AcDbSpline
210
0.0
220
0.0
230
1.0
 70
     9
 71
     3
 72
    19
 73
    15
 74
     0
 42
0.000000001
 43
0.0000000001
 40
0.0
 40
0.0
 40
0.0
 40
0.0
 40
0.0833333335273589
 40
0.1666666665890565
 40
0.2500000001164153
 40
0.3333333331781129
 40
0.4166666667054718
 40
0.4999999997671694
 40
0.5833333332945282
 40
0.6666666668218872
 40
0.7499999998835847
 40
0.8333333334109434
 40
0.9166666664726411
 40
1.0
 40
1.0
 40
1.0
 40
1.0
 10
2582.000395900462
 20
-216.9028040180406
 30
0.0
 10
2581.559229849251
 20
-228.9201673408956
 30
0.0
 10
2576.109159717717
 20
-250.6996594823795
 30
0.0
 10
2550.813743048506
 20
-276.0941735666715
 30
0.0
 10
2517.01544405867
 20
-284.7426832868168
 30
0.0
 10
2483.124916668307
 20
-275.9858627966898
 30
0.0
 10
2458.115980238363
 20
-251.1497647102005
 30
0.0
 10
2449.102172108232
 20
-217.0620128867193
 30
0.0
 10
2457.935545166491
 20
-182.951658139565
 30
0.0
 10
2483.008704503629
 20
-157.8557485964275
 30
0.0
 10
2517.012041122788
 20
-149.0564091390464
 30
0.0
 10
2550.943828866556
 20
-157.7455045093884
 30
0.0
 10
2576.24215636068
 20
-183.4170050129439
 30
0.0
 10
2581.6494901111
 20
-204.939947332961
 30
0.0
 10
2582.000395900462
 20
-216.9028040180406
 30
0.0
  0
SPLINE
  5
7013E
330
70278
100
AcDbEntity
  8
Level 26 (Construction)
  6
Continuous
 62
     7
370
     0
100
AcDbSpline
210
0.0
220
0.0
230
1.0
 70
     9
 71
     3
 72
    19
 73
    15
 74
     0
 42
0.000000001
 43
0.0000000001
 40
0.0
 40
0.0
 40
0.0
 40
0.0
 40
0.0833333335273589
 40
0.1666666665890565
 40
0.2500000001164153
 40
0.3333333331781129
 40
0.4166666667054718
 40
0.4999999997671694
 40
0.5833333332945282
 40
0.6666666668218872
 40
0.7499999998835847
 40
0.8333333334109434
 40
0.9166666664726411
 40
1.0
 40
1.0
 40
1.0
 40
1.0
 10
2582.000395900462
 20
-216.9028040180406
 30
0.0
 10
2581.559229849251
 20
-228.9201673408956
 30
0.0
 10
2576.109159717717
 20
-250.6996594823795
 30
0.0
 10
2550.813743048506
 20
-276.0941735666715
 30
0.0
 10
2517.01544405867
 20
-284.7426832868168
 30
0.0
 10
2483.124916668307
 20
-275.9858627966898
 30
0.0
 10
2458.115980238363
 20
-251.1497647102005
 30
0.0
 10
2449.102172108232
 20
-217.0620128867193
 30
0.0
 10
2457.935545166491
 20
-182.951658139565
 30
0.0
 10
2483.008704503629
 20
-157.8557485964275
 30
0.0
 10
2517.012041122788
 20
-149.0564091390464
 30
0.0
 10
2550.943828866556
 20
-157.7455045093884
 30
0.0
 10
2576.24215636068
 20
-183.4170050129439
 30
0.0
 10
2581.6494901111
 20
-204.939947332961
 30
0.0
 10
2582.000395900462
 20
-216.9028040180406
 30
0.0
  0
SPLINE
  5
7013F
330
70278
100
AcDbEntity
  8
Level 26 (Construction)
  6
Continuous
 62
     7
370
     0
100
AcDbSpline
210
0.0
220
0.0
230
1.0
 70
     9
 71
     3
 72
    19
 73
    15
 74
     0
 42
0.000000001
 43
0.0000000001
 40
0.0
 40
0.0
 40
0.0
 40
0.0
 40
0.0833333335273589
 40
0.1666666665890565
 40
0.2500000001164153
 40
0.3333333331781129
 40
0.4166666667054718
 40
0.4999999997671694
 40
0.5833333332945282
 40
0.6666666668218872
 40
0.7499999998835847
 40
0.8333333334109434
 40
0.9166666664726411
 40
1.0
 40
1.0
 40
1.0
 40
1.0
 10
2582.000395900462
 20
-216.9028040180406
 30
0.0
 10
2581.559229849251
 20
-228.9201673408956
 30
0.0
 10
2576.109159717717
 20
-250.6996594823795
 30
0.0
 10
2550.813743048506
 20
-276.0941735666715
 30
0.0
 10
2517.01544405867
 20
-284.7426832868168
 30
0.0
 10
2483.124916668307
 20
-275.9858627966898
 30
0.0
 10
2458.115980238363
 20
-251.1497647102005
 30
0.0
 10
2449.102172108232
 20
-217.0620128867193
 30
0.0
 10
2457.935545166491
 20
-182.951658139565
 30
0.0
 10
2483.008704503629
 20
-157.8557485964275
 30
0.0
 10
2517.012041122788
 20
-149.0564091390464
 30
0.0
 10
2550.943828866556
 20
-157.7455045093884
 30
0.0
 10
2576.24215636068
 20
-183.4170050129439
 30
0.0
 10
2581.6494901111
 20
-204.939947332961
 30
0.0
 10
2582.000395900462
 20
-216.9028040180406
 30
0.0
  0
SPLINE
  5
70140
330
70278
100
AcDbEntity
  8
Level 26 (Construction)
  6
Continuous
 62
     7
370
     0
100
AcDbSpline
210
0.0
220
0.0
230
1.0
 70
     9
 71
     3
 72
    19
 73
    15
 74
     0
 42
0.000000001
 43
0.0000000001
 40
0.0
 40
0.0
 40
0.0
 40
0.0
 40
0.0833333335273589
 40
0.1666666665890565
 40
0.2500000001164153
 40
0.3333333331781129
 40
0.4166666667054718
 40
0.4999999997671694
 40
0.5833333332945282
 40
0.6666666668218872
 40
0.7499999998835847
 40
0.8333333334109434
 40
0.9166666664726411
 40
1.0
 40
1.0
 40
1.0
 40
1.0
 10
2582.000395900462
 20
-216.9028040180406
 30
0.0
 10
2581.559229849251
 20
-228.9201673408956
 30
0.0
 10
2576.109159717717
 20
-250.6996594823795
 30
0.0
 10
2550.813743048506
 20
-276.0941735666715
 30
0.0
 10
2517.01544405867
 20
-284.7426832868168
 30
0.0
 10
2483.124916668307
 20
-275.9858627966898
 30
0.0
 10
2458.115980238363
 20
-251.1497647102005
 30
0.0
 10
2449.102172108232
 20
-217.0620128867193
 30
0.0
 10
2457.935545166491
 20
-182.951658139565
 30
0.0
 10
2483.008704503629
 20
-157.8557485964275
 30
0.0
 10
2517.012041122788
 20
-149.0564091390464
 30
0.0
 10
2550.943828866556
 20
-157.7455045093884
 30
0.0
 10
2576.24215636068
 20
-183.4170050129439
 30
0.0
 10
2581.649490111101
 20
-204.939947332961
 30
0.0
 10
2582.000395900462
 20
-216.9028040180406
 30
0.0
  0
SPLINE
  5
70141
330
70278
100
AcDbEntity
  8
Level 26 (Construction)
  6
Continuous
 62
     7
370
     0
100
AcDbSpline
210
0.0
220
0.0
230
1.0
 70
     9
 71
     3
 72
    19
 73
    15
 74
     0
 42
0.000000001
 43
0.0000000001
 40
0.0
 40
0.0
 40
0.0
 40
0.0
 40
0.0833333335273589
 40
0.1666666665890565
 40
0.2500000001164153
 40
0.3333333331781129
 40
0.4166666667054718
 40
0.4999999997671694
 40
0.5833333332945282
 40
0.6666666668218872
 40
0.7499999998835847
 40
0.8333333334109434
 40
0.9166666664726411
 40
1.0
 40
1.0
 40
1.0
 40
1.0
 10
2582.000395900462
 20
-216.9028040180406
 30
0.0
 10
2581.559229849251
 20
-228.9201673408956
 30
0.0
 10
2576.109159717717
 20
-250.6996594823795
 30
0.0
 10
2550.813743048506
 20
-276.0941735666715
 30
0.0
 10
2517.01544405867
 20
-284.7426832868168
 30
0.0
 10
2483.124916668307
 20
-275.9858627966898
 30
0.0
 10
2458.115980238363
 20
-251.1497647102005
 30
0.0
 10
2449.102172108232
 20
-217.0620128867193
 30
0.0
 10
2457.935545166491
 20
-182.951658139565
 30
0.0
 10
2483.008704503629
 20
-157.8557485964275
 30
0.0
 10
2517.012041122788
 20
-149.0564091390464
 30
0.0
 10
2550.943828866556
 20
-157.7455045093884
 30
0.0
 10
2576.24215636068
 20
-183.4170050129439
 30
0.0
 10
2581.6494901111
 20
-204.939947332961
 30
0.0
 10
2582.000395900462
 20
-216.9028040180406
 30
0.0
  0
ENDBLK
  5
7027A
330
70278
100
AcDbEntity
  8
0
 62
    98
370
     0
100
AcDbBlockEnd
  0
BLOCK
  5
7027C
330
7027B
100
AcDbEntity
  8
0
 62
    98
370
     0
100
AcDbBlockBegin
  2
From Bspline Surface_4
 70
     0
 10
0.0
 20
0.0
 30
0.0
  3
From Bspline Surface_4
  1

  0
SPLINE
  5
6FF1C
330
7027B
100
AcDbEntity
  8
Level 26 (Construction)
  6
Continuous
 62
     7
370
     0
100
AcDbSpline
210
0.0
220
0.0
230
1.0
 70
     9
 71
     3
 72
    19
 73
    15
 74
     0
 42
0.000000001
 43
0.0000000001
 40
0.0
 40
0.0
 40
0.0
 40
0.0
 40
0.0833333335273589
 40
0.1666666665890565
 40
0.2500000001164153
 40
0.3333333331781129
 40
0.4166666667054718
 40
0.4999999997671694
 40
0.5833333332945282
 40
0.6666666668218872
 40
0.7499999998835847
 40
0.8333333334109434
 40
0.9166666664726411
 40
1.0
 40
1.0
 40
1.0
 40
1.0
 10
2582.000395900462
 20
-216.9028040180406
 30
0.0
 10
2581.559229849251
 20
-228.9201673408956
 30
0.0
 10
2576.109159717717
 20
-250.6996594823795
 30
0.0
 10
2550.813743048506
 20
-276.0941735666715
 30
0.0
 10
2517.01544405867
 20
-284.7426832868168
 30
0.0
 10
2483.124916668307
 20
-275.9858627966898
 30
0.0
 10
2458.115980238363
 20
-251.1497647102005
 30
0.0
 10
2449.102172108232
 20
-217.0620128867193
 30
0.0
 10
2457.935545166491
 20
-182.951658139565
 30
0.0
 10
2483.008704503629
 20
-157.8557485964275
 30
0.0
 10
2517.012041122788
 20
-149.0564091390464
 30
0.0
 10
2550.943828866556
 20
-157.7455045093884
 30
0.0
 10
2576.24215636068
 20
-183.4170050129439
 30
0.0
 10
2581.6494901111
 20
-204.939947332961
 30
0.0
 10
2582.000395900462
 20
-216.9028040180406
 30
0.0
  0
SPLINE
  5
7014C
330
7027B
100
AcDbEntity
  8
Level 26 (Construction)
  6
Continuous
 62
     7
370
     0
100
AcDbSpline
210
0.0
220
0.0
230
1.0
 70
     9
 71
     3
 72
    19
 73
    15
 74
     0
 42
0.000000001
 43
0.0000000001
 40
0.0
 40
0.0
 40
0.0
 40
0.0
 40
0.0833333335273589
 40
0.1666666665890565
 40
0.2500000001164153
 40
0.3333333331781129
 40
0.4166666667054718
 40
0.4999999997671694
 40
0.5833333332945282
 40
0.6666666668218872
 40
0.7499999998835847
 40
0.8333333334109434
 40
0.9166666664726411
 40
1.0
 40
1.0
 40
1.0
 40
1.0
 10
2582.00039590046
 20
-216.9028040180406
 30
0.0
 10
2581.559229849251
 20
-228.9201673408956
 30
0.0
 10
2576.109159717717
 20
-250.6996594823795
 30
0.0
 10
2550.813743048506
 20
-276.0941735666715
 30
0.0
 10
2517.015444058669
 20
-284.7426832868168
 30
0.0
 10
2483.124916668307
 20
-275.9858627966898
 30
0.0
 10
2458.115980238363
 20
-251.1497647102005
 30
0.0
 10
2449.102172108231
 20
-217.0620128867193
 30
0.0
 10
2457.935545166491
 20
-182.951658139565
 30
0.0
 10
2483.008704503629
 20
-157.8557485964275
 30
0.0
 10
2517.012041122788
 20
-149.0564091390464
 30
0.0
 10
2550.943828866556
 20
-157.7455045093884
 30
0.0
 10
2576.24215636068
 20
-183.4170050129438
 30
0.0
 10
2581.6494901111
 20
-204.939947332961
 30
0.0
 10
2582.00039590046
 20
-216.9028040180406
 30
0.0
  0
SPLINE
  5
7014D
330
7027B
100
AcDbEntity
  8
Level 26 (Construction)
  6
Continuous
 62
     7
370
     0
100
AcDbSpline
210
0.0
220
0.0
230
1.0
 70
     9
 71
     3
 72
    19
 73
    15
 74
     0
 42
0.000000001
 43
0.0000000001
 40
0.0
 40
0.0
 40
0.0
 40
0.0
 40
0.0833333335273589
 40
0.1666666665890565
 40
0.2500000001164153
 40
0.3333333331781129
 40
0.4166666667054718
 40
0.4999999997671694
 40
0.5833333332945282
 40
0.6666666668218872
 40
0.7499999998835847
 40
0.8333333334109434
 40
0.9166666664726411
 40
1.0
 40
1.0
 40
1.0
 40
1.0
 10
2582.000395900462
 20
-216.9028040180406
 30
0.0
 10
2581.559229849251
 20
-228.9201673408956
 30
0.0
 10
2576.109159717717
 20
-250.6996594823795
 30
0.0
 10
2550.813743048506
 20
-276.0941735666715
 30
0.0
 10
2517.01544405867
 20
-284.7426832868168
 30
0.0
 10
2483.124916668307
 20
-275.9858627966898
 30
0.0
 10
2458.115980238363
 20
-251.1497647102005
 30
0.0
 10
2449.102172108232
 20
-217.0620128867193
 30
0.0
 10
2457.935545166491
 20
-182.951658139565
 30
0.0
 10
2483.008704503629
 20
-157.8557485964275
 30
0.0
 10
2517.012041122788
 20
-149.0564091390464
 30
0.0
 10
2550.943828866556
 20
-157.7455045093884
 30
0.0
 10
2576.24215636068
 20
-183.4170050129439
 30
0.0
 10
2581.6494901111
 20
-204.939947332961
 30
0.0
 10
2582.000395900462
 20
-216.9028040180406
 30
0.0
  0
SPLINE
  5
7014E
330
7027B
100
AcDbEntity
  8
Level 26 (Construction)
  6
Continuous
 62
     7
370
     0
100
AcDbSpline
210
0.0
220
0.0
230
1.0
 70
     9
 71
     3
 72
    19
 73
    15
 74
     0
 42
0.000000001
 43
0.0000000001
 40
0.0
 40
0.0
 40
0.0
 40
0.0
 40
0.0833333335273589
 40
0.1666666665890565
 40
0.2500000001164153
 40
0.3333333331781129
 40
0.4166666667054718
 40
0.4999999997671694
 40
0.5833333332945282
 40
0.6666666668218872
 40
0.7499999998835847
 40
0.8333333334109434
 40
0.9166666664726411
 40
1.0
 40
1.0
 40
1.0
 40
1.0
 10
2582.000395900462
 20
-216.9028040180407
 30
0.0
 10
2581.559229849251
 20
-228.9201673408956
 30
0.0
 10
2576.109159717717
 20
-250.6996594823795
 30
0.0
 10
2550.813743048507
 20
-276.0941735666715
 30
0.0
 10
2517.01544405867
 20
-284.7426832868168
 30
0.0
 10
2483.124916668307
 20
-275.9858627966898
 30
0.0
 10
2458.115980238363
 20
-251.1497647102005
 30
0.0
 10
2449.102172108232
 20
-217.0620128867193
 30
0.0
 10
2457.935545166491
 20
-182.951658139565
 30
0.0
 10
2483.008704503629
 20
-157.8557485964275
 30
0.0
 10
2517.012041122788
 20
-149.0564091390464
 30
0.0
 10
2550.943828866556
 20
-157.7455045093884
 30
0.0
 10
2576.24215636068
 20
-183.4170050129439
 30
0.0
 10
2581.6494901111
 20
-204.939947332961
 30
0.0
 10
2582.000395900462
 20
-216.9028040180407
 30
0.0
  0
SPLINE
  5
7014F
330
7027B
100
AcDbEntity
  8
Level 26 (Construction)
  6
Continuous
 62
     7
370
     0
100
AcDbSpline
210
0.0
220
0.0
230
1.0
 70
     9
 71
     3
 72
    19
 73
    15
 74
     0
 42
0.000000001
 43
0.0000000001
 40
0.0
 40
0.0
 40
0.0
 40
0.0
 40
0.0833333335273589
 40
0.1666666665890565
 40
0.2500000001164153
 40
0.3333333331781129
 40
0.4166666667054718
 40
0.4999999997671694
 40
0.5833333332945282
 40
0.6666666668218872
 40
0.7499999998835847
 40
0.8333333334109434
 40
0.9166666664726411
 40
1.0
 40
1.0
 40
1.0
 40
1.0
 10
2582.000395900462
 20
-216.9028040180406
 30
0.0
 10
2581.559229849251
 20
-228.9201673408956
 30
0.0
 10
2576.109159717717
 20
-250.6996594823795
 30
0.0
 10
2550.813743048506
 20
-276.0941735666715
 30
0.0
 10
2517.01544405867
 20
-284.7426832868168
 30
0.0
 10
2483.124916668307
 20
-275.9858627966898
 30
0.0
 10
2458.115980238363
 20
-251.1497647102005
 30
0.0
 10
2449.102172108232
 20
-217.0620128867193
 30
0.0
 10
2457.935545166491
 20
-182.951658139565
 30
0.0
 10
2483.008704503629
 20
-157.8557485964275
 30
0.0
 10
2517.012041122788
 20
-149.0564091390464
 30
0.0
 10
2550.943828866556
 20
-157.7455045093884
 30
0.0
 10
2576.24215636068
 20
-183.4170050129439
 30
0.0
 10
2581.6494901111
 20
-204.939947332961
 30
0.0
 10
2582.000395900462
 20
-216.9028040180406
 30
0.0
  0
SPLINE
  5
70150
330
7027B
100
AcDbEntity
  8
Level 26 (Construction)
  6
Continuous
 62
     7
370
     0
100
AcDbSpline
210
0.0
220
0.0
230
1.0
 70
     9
 71
     3
 72
    19
 73
    15
 74
     0
 42
0.000000001
 43
0.0000000001
 40
0.0
 40
0.0
 40
0.0
 40
0.0
 40
0.0833333335273589
 40
0.1666666665890565
 40
0.2500000001164153
 40
0.3333333331781129
 40
0.4166666667054718
 40
0.4999999997671694
 40
0.5833333332945282
 40
0.6666666668218872
 40
0.7499999998835847
 40
0.8333333334109434
 40
0.9166666664726411
 40
1.0
 40
1.0
 40
1.0
 40
1.0
 10
2582.000395900462
 20
-216.9028040180406
 30
0.0
 10
2581.559229849251
 20
-228.9201673408956
 30
0.0
 10
2576.109159717717
 20
-250.6996594823795
 30
0.0
 10
2550.813743048506
 20
-276.0941735666715
 30
0.0
 10
2517.01544405867
 20
-284.7426832868168
 30
0.0
 10
2483.124916668307
 20
-275.9858627966898
 30
0.0
 10
2458.115980238363
 20
-251.1497647102005
 30
0.0
 10
2449.102172108232
 20
-217.0620128867193
 30
0.0
 10
2457.935545166491
 20
-182.951658139565
 30
0.0
 10
2483.008704503629
 20
-157.8557485964275
 30
0.0
 10
2517.012041122788
 20
-149.0564091390464
 30
0.0
 10
2550.943828866556
 20
-157.7455045093884
 30
0.0
 10
2576.24215636068
 20
-183.4170050129439
 30
0.0
 10
2581.6494901111
 20
-204.939947332961
 30
0.0
 10
2582.000395900462
 20
-216.9028040180406
 30
0.0
  0
SPLINE
  5
70151
330
7027B
100
AcDbEntity
  8
Level 26 (Construction)
  6
Continuous
 62
     7
370
     0
100
AcDbSpline
210
0.0
220
0.0
230
1.0
 70
     9
 71
     3
 72
    19
 73
    15
 74
     0
 42
0.000000001
 43
0.0000000001
 40
0.0
 40
0.0
 40
0.0
 40
0.0
 40
0.0833333335273589
 40
0.1666666665890565
 40
0.2500000001164153
 40
0.3333333331781129
 40
0.4166666667054718
 40
0.4999999997671694
 40
0.5833333332945282
 40
0.6666666668218872
 40
0.7499999998835847
 40
0.8333333334109434
 40
0.9166666664726411
 40
1.0
 40
1.0
 40
1.0
 40
1.0
 10
2582.000395900462
 20
-216.9028040180406
 30
0.0
 10
2581.559229849251
 20
-228.9201673408956
 30
0.0
 10
2576.109159717717
 20
-250.6996594823795
 30
0.0
 10
2550.813743048506
 20
-276.0941735666715
 30
0.0
 10
2517.01544405867
 20
-284.7426832868168
 30
0.0
 10
2483.124916668307
 20
-275.9858627966898
 30
0.0
 10
2458.115980238363
 20
-251.1497647102005
 30
0.0
 10
2449.102172108232
 20
-217.0620128867193
 30
0.0
 10
2457.935545166491
 20
-182.951658139565
 30
0.0
 10
2483.008704503629
 20
-157.8557485964275
 30
0.0
 10
2517.012041122788
 20
-149.0564091390464
 30
0.0
 10
2550.943828866556
 20
-157.7455045093884
 30
0.0
 10
2576.24215636068
 20
-183.4170050129439
 30
0.0
 10
2581.6494901111
 20
-204.939947332961
 30
0.0
 10
2582.000395900462
 20
-216.9028040180406
 30
0.0
  0
SPLINE
  5
70152
330
7027B
100
AcDbEntity
  8
Level 26 (Construction)
  6
Continuous
 62
     7
370
     0
100
AcDbSpline
210
0.0
220
0.0
230
1.0
 70
     9
 71
     3
 72
    19
 73
    15
 74
     0
 42
0.000000001
 43
0.0000000001
 40
0.0
 40
0.0
 40
0.0
 40
0.0
 40
0.0833333335273589
 40
0.1666666665890565
 40
0.2500000001164153
 40
0.3333333331781129
 40
0.4166666667054718
 40
0.4999999997671694
 40
0.5833333332945282
 40
0.6666666668218872
 40
0.7499999998835847
 40
0.8333333334109434
 40
0.9166666664726411
 40
1.0
 40
1.0
 40
1.0
 40
1.0
 10
2582.000395900462
 20
-216.9028040180406
 30
0.0
 10
2581.559229849251
 20
-228.9201673408956
 30
0.0
 10
2576.109159717717
 20
-250.6996594823795
 30
0.0
 10
2550.813743048506
 20
-276.0941735666715
 30
0.0
 10
2517.01544405867
 20
-284.7426832868168
 30
0.0
 10
2483.124916668307
 20
-275.9858627966898
 30
0.0
 10
2458.115980238363
 20
-251.1497647102005
 30
0.0
 10
2449.102172108232
 20
-217.0620128867193
 30
0.0
 10
2457.935545166491
 20
-182.951658139565
 30
0.0
 10
2483.008704503629
 20
-157.8557485964275
 30
0.0
 10
2517.012041122788
 20
-149.0564091390464
 30
0.0
 10
2550.943828866556
 20
-157.7455045093884
 30
0.0
 10
2576.24215636068
 20
-183.4170050129439
 30
0.0
 10
2581.6494901111
 20
-204.939947332961
 30
0.0
 10
2582.000395900462
 20
-216.9028040180406
 30
0.0
  0
SPLINE
  5
70153
330
7027B
100
AcDbEntity
  8
Level 26 (Construction)
  6
Continuous
 62
     7
370
     0
100
AcDbSpline
210
0.0
220
0.0
230
1.0
 70
     9
 71
     3
 72
    19
 73
    15
 74
     0
 42
0.000000001
 43
0.0000000001
 40
0.0
 40
0.0
 40
0.0
 40
0.0
 40
0.0833333335273589
 40
0.1666666665890565
 40
0.2500000001164153
 40
0.3333333331781129
 40
0.4166666667054718
 40
0.4999999997671694
 40
0.5833333332945282
 40
0.6666666668218872
 40
0.7499999998835847
 40
0.8333333334109434
 40
0.9166666664726411
 40
1.0
 40
1.0
 40
1.0
 40
1.0
 10
2582.000395900462
 20
-216.9028040180406
 30
0.0
 10
2581.559229849251
 20
-228.9201673408956
 30
0.0
 10
2576.109159717717
 20
-250.6996594823795
 30
0.0
 10
2550.813743048506
 20
-276.0941735666715
 30
0.0
 10
2517.01544405867
 20
-284.7426832868168
 30
0.0
 10
2483.124916668307
 20
-275.9858627966898
 30
0.0
 10
2458.115980238363
 20
-251.1497647102005
 30
0.0
 10
2449.102172108232
 20
-217.0620128867193
 30
0.0
 10
2457.935545166491
 20
-182.951658139565
 30
0.0
 10
2483.008704503629
 20
-157.8557485964275
 30
0.0
 10
2517.012041122788
 20
-149.0564091390464
 30
0.0
 10
2550.943828866556
 20
-157.7455045093884
 30
0.0
 10
2576.24215636068
 20
-183.4170050129439
 30
0.0
 10
2581.649490111101
 20
-204.939947332961
 30
0.0
 10
2582.000395900462
 20
-216.9028040180406
 30
0.0
  0
SPLINE
  5
70154
330
7027B
100
AcDbEntity
  8
Level 26 (Construction)
  6
Continuous
 62
     7
370
     0
100
AcDbSpline
210
0.0
220
0.0
230
1.0
 70
     9
 71
     3
 72
    19
 73
    15
 74
     0
 42
0.000000001
 43
0.0000000001
 40
0.0
 40
0.0
 40
0.0
 40
0.0
 40
0.0833333335273589
 40
0.1666666665890565
 40
0.2500000001164153
 40
0.3333333331781129
 40
0.4166666667054718
 40
0.4999999997671694
 40
0.5833333332945282
 40
0.6666666668218872
 40
0.7499999998835847
 40
0.8333333334109434
 40
0.9166666664726411
 40
1.0
 40
1.0
 40
1.0
 40
1.0
 10
2582.000395900462
 20
-216.9028040180406
 30
0.0
 10
2581.559229849251
 20
-228.9201673408956
 30
0.0
 10
2576.109159717717
 20
-250.6996594823795
 30
0.0
 10
2550.813743048506
 20
-276.0941735666715
 30
0.0
 10
2517.01544405867
 20
-284.7426832868168
 30
0.0
 10
2483.124916668307
 20
-275.9858627966898
 30
0.0
 10
2458.115980238363
 20
-251.1497647102005
 30
0.0
 10
2449.102172108232
 20
-217.0620128867193
 30
0.0
 10
2457.935545166491
 20
-182.951658139565
 30
0.0
 10
2483.008704503629
 20
-157.8557485964275
 30
0.0
 10
2517.012041122788
 20
-149.0564091390464
 30
0.0
 10
2550.943828866556
 20
-157.7455045093884
 30
0.0
 10
2576.24215636068
 20
-183.4170050129439
 30
0.0
 10
2581.6494901111
 20
-204.939947332961
 30
0.0
 10
2582.000395900462
 20
-216.9028040180406
 30
0.0
  0
ENDBLK
  5
7027D
330
7027B
100
AcDbEntity
  8
0
 62
    98
370
     0
100
AcDbBlockEnd
  0
BLOCK
  5
7027F
330
7027E
100
AcDbEntity
  8
0
 62
    98
370
     0
100
AcDbBlockBegin
  2
From Bspline Surface_5
 70
     0
 10
0.0
 20
0.0
 30
0.0
  3
From Bspline Surface_5
  1

  0
SPLINE
  5
6FF2D
330
7027E
100
AcDbEntity
  8
Level 26 (Construction)
  6
Continuous
 62
     7
370
     0
100
AcDbSpline
210
0.0
220
0.0
230
1.0
 70
     9
 71
     3
 72
    19
 73
    15
 74
     0
 42
0.000000001
 43
0.0000000001
 40
0.0
 40
0.0
 40
0.0
 40
0.0
 40
0.0833333335273589
 40
0.1666666665890565
 40
0.2500000001164153
 40
0.3333333331781129
 40
0.4166666667054718
 40
0.4999999997671694
 40
0.5833333332945282
 40
0.6666666668218872
 40
0.7499999998835847
 40
0.8333333334109434
 40
0.9166666664726411
 40
1.0
 40
1.0
 40
1.0
 40
1.0
 10
2582.000395900462
 20
-216.9028040180406
 30
0.0
 10
2581.559229849251
 20
-228.9201673408956
 30
0.0
 10
2576.109159717717
 20
-250.6996594823795
 30
0.0
 10
2550.813743048506
 20
-276.0941735666715
 30
0.0
 10
2517.01544405867
 20
-284.7426832868168
 30
0.0
 10
2483.124916668307
 20
-275.9858627966898
 30
0.0
 10
2458.115980238363
 20
-251.1497647102005
 30
0.0
 10
2449.102172108232
 20
-217.0620128867193
 30
0.0
 10
2457.935545166491
 20
-182.951658139565
 30
0.0
 10
2483.008704503629
 20
-157.8557485964275
 30
0.0
 10
2517.012041122788
 20
-149.0564091390464
 30
0.0
 10
2550.943828866556
 20
-157.7455045093884
 30
0.0
 10
2576.24215636068
 20
-183.4170050129439
 30
0.0
 10
2581.6494901111
 20
-204.939947332961
 30
0.0
 10
2582.000395900462
 20
-216.9028040180406
 30
0.0
  0
SPLINE
  5
7015F
330
7027E
100
AcDbEntity
  8
Level 26 (Construction)
  6
Continuous
 62
     7
370
     0
100
AcDbSpline
210
0.0
220
0.0
230
1.0
 70
     9
 71
     3
 72
    19
 73
    15
 74
     0
 42
0.000000001
 43
0.0000000001
 40
0.0
 40
0.0
 40
0.0
 40
0.0
 40
0.0833333335273589
 40
0.1666666665890565
 40
0.2500000001164153
 40
0.3333333331781129
 40
0.4166666667054718
 40
0.4999999997671694
 40
0.5833333332945282
 40
0.6666666668218872
 40
0.7499999998835847
 40
0.8333333334109434
 40
0.9166666664726411
 40
1.0
 40
1.0
 40
1.0
 40
1.0
 10
2582.00039590046
 20
-216.9028040180406
 30
0.0
 10
2581.559229849251
 20
-228.9201673408956
 30
0.0
 10
2576.109159717717
 20
-250.6996594823795
 30
0.0
 10
2550.813743048506
 20
-276.0941735666715
 30
0.0
 10
2517.015444058669
 20
-284.7426832868168
 30
0.0
 10
2483.124916668307
 20
-275.9858627966898
 30
0.0
 10
2458.115980238363
 20
-251.1497647102005
 30
0.0
 10
2449.102172108231
 20
-217.0620128867193
 30
0.0
 10
2457.935545166491
 20
-182.951658139565
 30
0.0
 10
2483.008704503629
 20
-157.8557485964275
 30
0.0
 10
2517.012041122788
 20
-149.0564091390464
 30
0.0
 10
2550.943828866556
 20
-157.7455045093884
 30
0.0
 10
2576.24215636068
 20
-183.4170050129438
 30
0.0
 10
2581.6494901111
 20
-204.939947332961
 30
0.0
 10
2582.00039590046
 20
-216.9028040180406
 30
0.0
  0
SPLINE
  5
70160
330
7027E
100
AcDbEntity
  8
Level 26 (Construction)
  6
Continuous
 62
     7
370
     0
100
AcDbSpline
210
0.0
220
0.0
230
1.0
 70
     9
 71
     3
 72
    19
 73
    15
 74
     0
 42
0.000000001
 43
0.0000000001
 40
0.0
 40
0.0
 40
0.0
 40
0.0
 40
0.0833333335273589
 40
0.1666666665890565
 40
0.2500000001164153
 40
0.3333333331781129
 40
0.4166666667054718
 40
0.4999999997671694
 40
0.5833333332945282
 40
0.6666666668218872
 40
0.7499999998835847
 40
0.8333333334109434
 40
0.9166666664726411
 40
1.0
 40
1.0
 40
1.0
 40
1.0
 10
2582.000395900462
 20
-216.9028040180406
 30
0.0
 10
2581.559229849251
 20
-228.9201673408956
 30
0.0
 10
2576.109159717717
 20
-250.6996594823795
 30
0.0
 10
2550.813743048506
 20
-276.0941735666715
 30
0.0
 10
2517.01544405867
 20
-284.7426832868168
 30
0.0
 10
2483.124916668307
 20
-275.9858627966898
 30
0.0
 10
2458.115980238363
 20
-251.1497647102005
 30
0.0
 10
2449.102172108232
 20
-217.0620128867193
 30
0.0
 10
2457.935545166491
 20
-182.951658139565
 30
0.0
 10
2483.008704503629
 20
-157.8557485964275
 30
0.0
 10
2517.012041122788
 20
-149.0564091390464
 30
0.0
 10
2550.943828866556
 20
-157.7455045093884
 30
0.0
 10
2576.24215636068
 20
-183.4170050129439
 30
0.0
 10
2581.6494901111
 20
-204.939947332961
 30
0.0
 10
2582.000395900462
 20
-216.9028040180406
 30
0.0
  0
SPLINE
  5
70161
330
7027E
100
AcDbEntity
  8
Level 26 (Construction)
  6
Continuous
 62
     7
370
     0
100
AcDbSpline
210
0.0
220
0.0
230
1.0
 70
     9
 71
     3
 72
    19
 73
    15
 74
     0
 42
0.000000001
 43
0.0000000001
 40
0.0
 40
0.0
 40
0.0
 40
0.0
 40
0.0833333335273589
 40
0.1666666665890565
 40
0.2500000001164153
 40
0.3333333331781129
 40
0.4166666667054718
 40
0.4999999997671694
 40
0.5833333332945282
 40
0.6666666668218872
 40
0.7499999998835847
 40
0.8333333334109434
 40
0.9166666664726411
 40
1.0
 40
1.0
 40
1.0
 40
1.0
 10
2582.000395900462
 20
-216.9028040180407
 30
0.0
 10
2581.559229849251
 20
-228.9201673408956
 30
0.0
 10
2576.109159717717
 20
-250.6996594823795
 30
0.0
 10
2550.813743048507
 20
-276.0941735666715
 30
0.0
 10
2517.01544405867
 20
-284.7426832868168
 30
0.0
 10
2483.124916668307
 20
-275.9858627966898
 30
0.0
 10
2458.115980238363
 20
-251.1497647102005
 30
0.0
 10
2449.102172108232
 20
-217.0620128867193
 30
0.0
 10
2457.935545166491
 20
-182.951658139565
 30
0.0
 10
2483.008704503629
 20
-157.8557485964275
 30
0.0
 10
2517.012041122788
 20
-149.0564091390464
 30
0.0
 10
2550.943828866556
 20
-157.7455045093884
 30
0.0
 10
2576.24215636068
 20
-183.4170050129439
 30
0.0
 10
2581.6494901111
 20
-204.939947332961
 30
0.0
 10
2582.000395900462
 20
-216.9028040180407
 30
0.0
  0
SPLINE
  5
70162
330
7027E
100
AcDbEntity
  8
Level 26 (Construction)
  6
Continuous
 62
     7
370
     0
100
AcDbSpline
210
0.0
220
0.0
230
1.0
 70
     9
 71
     3
 72
    19
 73
    15
 74
     0
 42
0.000000001
 43
0.0000000001
 40
0.0
 40
0.0
 40
0.0
 40
0.0
 40
0.0833333335273589
 40
0.1666666665890565
 40
0.2500000001164153
 40
0.3333333331781129
 40
0.4166666667054718
 40
0.4999999997671694
 40
0.5833333332945282
 40
0.6666666668218872
 40
0.7499999998835847
 40
0.8333333334109434
 40
0.9166666664726411
 40
1.0
 40
1.0
 40
1.0
 40
1.0
 10
2582.000395900462
 20
-216.9028040180406
 30
0.0
 10
2581.559229849251
 20
-228.9201673408956
 30
0.0
 10
2576.109159717717
 20
-250.6996594823795
 30
0.0
 10
2550.813743048506
 20
-276.0941735666715
 30
0.0
 10
2517.01544405867
 20
-284.7426832868168
 30
0.0
 10
2483.124916668307
 20
-275.9858627966898
 30
0.0
 10
2458.115980238363
 20
-251.1497647102005
 30
0.0
 10
2449.102172108232
 20
-217.0620128867193
 30
0.0
 10
2457.935545166491
 20
-182.951658139565
 30
0.0
 10
2483.008704503629
 20
-157.8557485964275
 30
0.0
 10
2517.012041122788
 20
-149.0564091390464
 30
0.0
 10
2550.943828866556
 20
-157.7455045093884
 30
0.0
 10
2576.24215636068
 20
-183.4170050129439
 30
0.0
 10
2581.6494901111
 20
-204.939947332961
 30
0.0
 10
2582.000395900462
 20
-216.9028040180406
 30
0.0
  0
SPLINE
  5
70163
330
7027E
100
AcDbEntity
  8
Level 26 (Construction)
  6
Continuous
 62
     7
370
     0
100
AcDbSpline
210
0.0
220
0.0
230
1.0
 70
     9
 71
     3
 72
    19
 73
    15
 74
     0
 42
0.000000001
 43
0.0000000001
 40
0.0
 40
0.0
 40
0.0
 40
0.0
 40
0.0833333335273589
 40
0.1666666665890565
 40
0.2500000001164153
 40
0.3333333331781129
 40
0.4166666667054718
 40
0.4999999997671694
 40
0.5833333332945282
 40
0.6666666668218872
 40
0.7499999998835847
 40
0.8333333334109434
 40
0.9166666664726411
 40
1.0
 40
1.0
 40
1.0
 40
1.0
 10
2582.000395900462
 20
-216.9028040180406
 30
0.0
 10
2581.559229849251
 20
-228.9201673408956
 30
0.0
 10
2576.109159717717
 20
-250.6996594823795
 30
0.0
 10
2550.813743048506
 20
-276.0941735666715
 30
0.0
 10
2517.01544405867
 20
-284.7426832868168
 30
0.0
 10
2483.124916668307
 20
-275.9858627966898
 30
0.0
 10
2458.115980238363
 20
-251.1497647102005
 30
0.0
 10
2449.102172108232
 20
-217.0620128867193
 30
0.0
 10
2457.935545166491
 20
-182.951658139565
 30
0.0
 10
2483.008704503629
 20
-157.8557485964275
 30
0.0
 10
2517.012041122788
 20
-149.0564091390464
 30
0.0
 10
2550.943828866556
 20
-157.7455045093884
 30
0.0
 10
2576.24215636068
 20
-183.4170050129439
 30
0.0
 10
2581.6494901111
 20
-204.939947332961
 30
0.0
 10
2582.000395900462
 20
-216.9028040180406
 30
0.0
  0
SPLINE
  5
70164
330
7027E
100
AcDbEntity
  8
Level 26 (Construction)
  6
Continuous
 62
     7
370
     0
100
AcDbSpline
210
0.0
220
0.0
230
1.0
 70
     9
 71
     3
 72
    19
 73
    15
 74
     0
 42
0.000000001
 43
0.0000000001
 40
0.0
 40
0.0
 40
0.0
 40
0.0
 40
0.0833333335273589
 40
0.1666666665890565
 40
0.2500000001164153
 40
0.3333333331781129
 40
0.4166666667054718
 40
0.4999999997671694
 40
0.5833333332945282
 40
0.6666666668218872
 40
0.7499999998835847
 40
0.8333333334109434
 40
0.9166666664726411
 40
1.0
 40
1.0
 40
1.0
 40
1.0
 10
2582.000395900462
 20
-216.9028040180406
 30
0.0
 10
2581.559229849251
 20
-228.9201673408956
 30
0.0
 10
2576.109159717717
 20
-250.6996594823795
 30
0.0
 10
2550.813743048506
 20
-276.0941735666715
 30
0.0
 10
2517.01544405867
 20
-284.7426832868168
 30
0.0
 10
2483.124916668307
 20
-275.9858627966898
 30
0.0
 10
2458.115980238363
 20
-251.1497647102005
 30
0.0
 10
2449.102172108232
 20
-217.0620128867193
 30
0.0
 10
2457.935545166491
 20
-182.951658139565
 30
0.0
 10
2483.008704503629
 20
-157.8557485964275
 30
0.0
 10
2517.012041122788
 20
-149.0564091390464
 30
0.0
 10
2550.943828866556
 20
-157.7455045093884
 30
0.0
 10
2576.24215636068
 20
-183.4170050129439
 30
0.0
 10
2581.6494901111
 20
-204.939947332961
 30
0.0
 10
2582.000395900462
 20
-216.9028040180406
 30
0.0
  0
SPLINE
  5
70165
330
7027E
100
AcDbEntity
  8
Level 26 (Construction)
  6
Continuous
 62
     7
370
     0
100
AcDbSpline
210
0.0
220
0.0
230
1.0
 70
     9
 71
     3
 72
    19
 73
    15
 74
     0
 42
0.000000001
 43
0.0000000001
 40
0.0
 40
0.0
 40
0.0
 40
0.0
 40
0.0833333335273589
 40
0.1666666665890565
 40
0.2500000001164153
 40
0.3333333331781129
 40
0.4166666667054718
 40
0.4999999997671694
 40
0.5833333332945282
 40
0.6666666668218872
 40
0.7499999998835847
 40
0.8333333334109434
 40
0.9166666664726411
 40
1.0
 40
1.0
 40
1.0
 40
1.0
 10
2582.000395900462
 20
-216.9028040180406
 30
0.0
 10
2581.559229849251
 20
-228.9201673408956
 30
0.0
 10
2576.109159717717
 20
-250.6996594823795
 30
0.0
 10
2550.813743048506
 20
-276.0941735666715
 30
0.0
 10
2517.01544405867
 20
-284.7426832868168
 30
0.0
 10
2483.124916668307
 20
-275.9858627966898
 30
0.0
 10
2458.115980238363
 20
-251.1497647102005
 30
0.0
 10
2449.102172108232
 20
-217.0620128867193
 30
0.0
 10
2457.935545166491
 20
-182.951658139565
 30
0.0
 10
2483.008704503629
 20
-157.8557485964275
 30
0.0
 10
2517.012041122788
 20
-149.0564091390464
 30
0.0
 10
2550.943828866556
 20
-157.7455045093884
 30
0.0
 10
2576.24215636068
 20
-183.4170050129439
 30
0.0
 10
2581.6494901111
 20
-204.939947332961
 30
0.0
 10
2582.000395900462
 20
-216.9028040180406
 30
0.0
  0
SPLINE
  5
70166
330
7027E
100
AcDbEntity
  8
Level 26 (Construction)
  6
Continuous
 62
     7
370
     0
100
AcDbSpline
210
0.0
220
0.0
230
1.0
 70
     9
 71
     3
 72
    19
 73
    15
 74
     0
 42
0.000000001
 43
0.0000000001
 40
0.0
 40
0.0
 40
0.0
 40
0.0
 40
0.0833333335273589
 40
0.1666666665890565
 40
0.2500000001164153
 40
0.3333333331781129
 40
0.4166666667054718
 40
0.4999999997671694
 40
0.5833333332945282
 40
0.6666666668218872
 40
0.7499999998835847
 40
0.8333333334109434
 40
0.9166666664726411
 40
1.0
 40
1.0
 40
1.0
 40
1.0
 10
2582.000395900462
 20
-216.9028040180406
 30
0.0
 10
2581.559229849251
 20
-228.9201673408956
 30
0.0
 10
2576.109159717717
 20
-250.6996594823795
 30
0.0
 10
2550.813743048506
 20
-276.0941735666715
 30
0.0
 10
2517.01544405867
 20
-284.7426832868168
 30
0.0
 10
2483.124916668307
 20
-275.9858627966898
 30
0.0
 10
2458.115980238363
 20
-251.1497647102005
 30
0.0
 10
2449.102172108232
 20
-217.0620128867193
 30
0.0
 10
2457.935545166491
 20
-182.951658139565
 30
0.0
 10
2483.008704503629
 20
-157.8557485964275
 30
0.0
 10
2517.012041122788
 20
-149.0564091390464
 30
0.0
 10
2550.943828866556
 20
-157.7455045093884
 30
0.0
 10
2576.24215636068
 20
-183.4170050129439
 30
0.0
 10
2581.649490111101
 20
-204.939947332961
 30
0.0
 10
2582.000395900462
 20
-216.9028040180406
 30
0.0
  0
SPLINE
  5
70167
330
7027E
100
AcDbEntity
  8
Level 26 (Construction)
  6
Continuous
 62
     7
370
     0
100
AcDbSpline
210
0.0
220
0.0
230
1.0
 70
     9
 71
     3
 72
    19
 73
    15
 74
     0
 42
0.000000001
 43
0.0000000001
 40
0.0
 40
0.0
 40
0.0
 40
0.0
 40
0.0833333335273589
 40
0.1666666665890565
 40
0.2500000001164153
 40
0.3333333331781129
 40
0.4166666667054718
 40
0.4999999997671694
 40
0.5833333332945282
 40
0.6666666668218872
 40
0.7499999998835847
 40
0.8333333334109434
 40
0.9166666664726411
 40
1.0
 40
1.0
 40
1.0
 40
1.0
 10
2582.000395900462
 20
-216.9028040180406
 30
0.0
 10
2581.559229849251
 20
-228.9201673408956
 30
0.0
 10
2576.109159717717
 20
-250.6996594823795
 30
0.0
 10
2550.813743048506
 20
-276.0941735666715
 30
0.0
 10
2517.01544405867
 20
-284.7426832868168
 30
0.0
 10
2483.124916668307
 20
-275.9858627966898
 30
0.0
 10
2458.115980238363
 20
-251.1497647102005
 30
0.0
 10
2449.102172108232
 20
-217.0620128867193
 30
0.0
 10
2457.935545166491
 20
-182.951658139565
 30
0.0
 10
2483.008704503629
 20
-157.8557485964275
 30
0.0
 10
2517.012041122788
 20
-149.0564091390464
 30
0.0
 10
2550.943828866556
 20
-157.7455045093884
 30
0.0
 10
2576.24215636068
 20
-183.4170050129439
 30
0.0
 10
2581.6494901111
 20
-204.939947332961
 30
0.0
 10
2582.000395900462
 20
-216.9028040180406
 30
0.0
  0
ENDBLK
  5
70280
330
7027E
100
AcDbEntity
  8
0
 62
    98
370
     0
100
AcDbBlockEnd
  0
BLOCK
  5
70282
330
70281
100
AcDbEntity
  8
0
 62
    98
370
     0
100
AcDbBlockBegin
  2
From Bspline Surface_6
 70
     0
 10
0.0
 20
0.0
 30
0.0
  3
From Bspline Surface_6
  1

  0
SPLINE
  5
6FF3E
330
70281
100
AcDbEntity
  8
Level 26 (Construction)
  6
Continuous
 62
     7
370
     0
100
AcDbSpline
210
0.0
220
0.0
230
1.0
 70
     9
 71
     3
 72
    19
 73
    15
 74
     0
 42
0.000000001
 43
0.0000000001
 40
0.0
 40
0.0
 40
0.0
 40
0.0
 40
0.0833333335273589
 40
0.1666666665890565
 40
0.2500000001164153
 40
0.3333333331781129
 40
0.4166666667054718
 40
0.4999999997671694
 40
0.5833333332945282
 40
0.6666666668218872
 40
0.7499999998835847
 40
0.8333333334109434
 40
0.9166666664726411
 40
1.0
 40
1.0
 40
1.0
 40
1.0
 10
2582.000395900462
 20
-216.9028040180406
 30
0.0
 10
2581.559229849251
 20
-228.9201673408956
 30
0.0
 10
2576.109159717717
 20
-250.6996594823795
 30
0.0
 10
2550.813743048506
 20
-276.0941735666715
 30
0.0
 10
2517.01544405867
 20
-284.7426832868168
 30
0.0
 10
2483.124916668307
 20
-275.9858627966898
 30
0.0
 10
2458.115980238363
 20
-251.1497647102005
 30
0.0
 10
2449.102172108232
 20
-217.0620128867193
 30
0.0
 10
2457.935545166491
 20
-182.951658139565
 30
0.0
 10
2483.008704503629
 20
-157.8557485964275
 30
0.0
 10
2517.012041122788
 20
-149.0564091390464
 30
0.0
 10
2550.943828866556
 20
-157.7455045093884
 30
0.0
 10
2576.24215636068
 20
-183.4170050129439
 30
0.0
 10
2581.6494901111
 20
-204.939947332961
 30
0.0
 10
2582.000395900462
 20
-216.9028040180406
 30
0.0
  0
SPLINE
  5
70172
330
70281
100
AcDbEntity
  8
Level 26 (Construction)
  6
Continuous
 62
     7
370
     0
100
AcDbSpline
210
0.0
220
0.0
230
1.0
 70
     9
 71
     3
 72
    19
 73
    15
 74
     0
 42
0.000000001
 43
0.0000000001
 40
0.0
 40
0.0
 40
0.0
 40
0.0
 40
0.0833333335273589
 40
0.1666666665890565
 40
0.2500000001164153
 40
0.3333333331781129
 40
0.4166666667054718
 40
0.4999999997671694
 40
0.5833333332945282
 40
0.6666666668218872
 40
0.7499999998835847
 40
0.8333333334109434
 40
0.9166666664726411
 40
1.0
 40
1.0
 40
1.0
 40
1.0
 10
2582.00039590046
 20
-216.9028040180406
 30
0.0
 10
2581.559229849251
 20
-228.9201673408956
 30
0.0
 10
2576.109159717717
 20
-250.6996594823795
 30
0.0
 10
2550.813743048506
 20
-276.0941735666715
 30
0.0
 10
2517.015444058669
 20
-284.7426832868168
 30
0.0
 10
2483.124916668307
 20
-275.9858627966898
 30
0.0
 10
2458.115980238363
 20
-251.1497647102005
 30
0.0
 10
2449.102172108231
 20
-217.0620128867193
 30
0.0
 10
2457.935545166491
 20
-182.951658139565
 30
0.0
 10
2483.008704503629
 20
-157.8557485964275
 30
0.0
 10
2517.012041122788
 20
-149.0564091390464
 30
0.0
 10
2550.943828866556
 20
-157.7455045093884
 30
0.0
 10
2576.24215636068
 20
-183.4170050129438
 30
0.0
 10
2581.6494901111
 20
-204.939947332961
 30
0.0
 10
2582.00039590046
 20
-216.9028040180406
 30
0.0
  0
SPLINE
  5
70173
330
70281
100
AcDbEntity
  8
Level 26 (Construction)
  6
Continuous
 62
     7
370
     0
100
AcDbSpline
210
0.0
220
0.0
230
1.0
 70
     9
 71
     3
 72
    19
 73
    15
 74
     0
 42
0.000000001
 43
0.0000000001
 40
0.0
 40
0.0
 40
0.0
 40
0.0
 40
0.0833333335273589
 40
0.1666666665890565
 40
0.2500000001164153
 40
0.3333333331781129
 40
0.4166666667054718
 40
0.4999999997671694
 40
0.5833333332945282
 40
0.6666666668218872
 40
0.7499999998835847
 40
0.8333333334109434
 40
0.9166666664726411
 40
1.0
 40
1.0
 40
1.0
 40
1.0
 10
2582.000395900462
 20
-216.9028040180406
 30
0.0
 10
2581.559229849251
 20
-228.9201673408956
 30
0.0
 10
2576.109159717717
 20
-250.6996594823795
 30
0.0
 10
2550.813743048506
 20
-276.0941735666715
 30
0.0
 10
2517.01544405867
 20
-284.7426832868168
 30
0.0
 10
2483.124916668307
 20
-275.9858627966898
 30
0.0
 10
2458.115980238363
 20
-251.1497647102005
 30
0.0
 10
2449.102172108232
 20
-217.0620128867193
 30
0.0
 10
2457.935545166491
 20
-182.951658139565
 30
0.0
 10
2483.008704503629
 20
-157.8557485964275
 30
0.0
 10
2517.012041122788
 20
-149.0564091390464
 30
0.0
 10
2550.943828866556
 20
-157.7455045093884
 30
0.0
 10
2576.24215636068
 20
-183.4170050129439
 30
0.0
 10
2581.6494901111
 20
-204.939947332961
 30
0.0
 10
2582.000395900462
 20
-216.9028040180406
 30
0.0
  0
SPLINE
  5
70174
330
70281
100
AcDbEntity
  8
Level 26 (Construction)
  6
Continuous
 62
     7
370
     0
100
AcDbSpline
210
0.0
220
0.0
230
1.0
 70
     9
 71
     3
 72
    19
 73
    15
 74
     0
 42
0.000000001
 43
0.0000000001
 40
0.0
 40
0.0
 40
0.0
 40
0.0
 40
0.0833333335273589
 40
0.1666666665890565
 40
0.2500000001164153
 40
0.3333333331781129
 40
0.4166666667054718
 40
0.4999999997671694
 40
0.5833333332945282
 40
0.6666666668218872
 40
0.7499999998835847
 40
0.8333333334109434
 40
0.9166666664726411
 40
1.0
 40
1.0
 40
1.0
 40
1.0
 10
2582.000395900462
 20
-216.9028040180407
 30
0.0
 10
2581.559229849251
 20
-228.9201673408956
 30
0.0
 10
2576.109159717717
 20
-250.6996594823795
 30
0.0
 10
2550.813743048507
 20
-276.0941735666715
 30
0.0
 10
2517.01544405867
 20
-284.7426832868168
 30
0.0
 10
2483.124916668307
 20
-275.9858627966898
 30
0.0
 10
2458.115980238363
 20
-251.1497647102005
 30
0.0
 10
2449.102172108232
 20
-217.0620128867193
 30
0.0
 10
2457.935545166491
 20
-182.951658139565
 30
0.0
 10
2483.008704503629
 20
-157.8557485964275
 30
0.0
 10
2517.012041122788
 20
-149.0564091390464
 30
0.0
 10
2550.943828866556
 20
-157.7455045093884
 30
0.0
 10
2576.24215636068
 20
-183.4170050129439
 30
0.0
 10
2581.6494901111
 20
-204.939947332961
 30
0.0
 10
2582.000395900462
 20
-216.9028040180407
 30
0.0
  0
SPLINE
  5
70175
330
70281
100
AcDbEntity
  8
Level 26 (Construction)
  6
Continuous
 62
     7
370
     0
100
AcDbSpline
210
0.0
220
0.0
230
1.0
 70
     9
 71
     3
 72
    19
 73
    15
 74
     0
 42
0.000000001
 43
0.0000000001
 40
0.0
 40
0.0
 40
0.0
 40
0.0
 40
0.0833333335273589
 40
0.1666666665890565
 40
0.2500000001164153
 40
0.3333333331781129
 40
0.4166666667054718
 40
0.4999999997671694
 40
0.5833333332945282
 40
0.6666666668218872
 40
0.7499999998835847
 40
0.8333333334109434
 40
0.9166666664726411
 40
1.0
 40
1.0
 40
1.0
 40
1.0
 10
2582.000395900462
 20
-216.9028040180406
 30
0.0
 10
2581.559229849251
 20
-228.9201673408956
 30
0.0
 10
2576.109159717717
 20
-250.6996594823795
 30
0.0
 10
2550.813743048506
 20
-276.0941735666715
 30
0.0
 10
2517.01544405867
 20
-284.7426832868168
 30
0.0
 10
2483.124916668307
 20
-275.9858627966898
 30
0.0
 10
2458.115980238363
 20
-251.1497647102005
 30
0.0
 10
2449.102172108232
 20
-217.0620128867193
 30
0.0
 10
2457.935545166491
 20
-182.951658139565
 30
0.0
 10
2483.008704503629
 20
-157.8557485964275
 30
0.0
 10
2517.012041122788
 20
-149.0564091390464
 30
0.0
 10
2550.943828866556
 20
-157.7455045093884
 30
0.0
 10
2576.24215636068
 20
-183.4170050129439
 30
0.0
 10
2581.6494901111
 20
-204.939947332961
 30
0.0
 10
2582.000395900462
 20
-216.9028040180406
 30
0.0
  0
SPLINE
  5
70176
330
70281
100
AcDbEntity
  8
Level 26 (Construction)
  6
Continuous
 62
     7
370
     0
100
AcDbSpline
210
0.0
220
0.0
230
1.0
 70
     9
 71
     3
 72
    19
 73
    15
 74
     0
 42
0.000000001
 43
0.0000000001
 40
0.0
 40
0.0
 40
0.0
 40
0.0
 40
0.0833333335273589
 40
0.1666666665890565
 40
0.2500000001164153
 40
0.3333333331781129
 40
0.4166666667054718
 40
0.4999999997671694
 40
0.5833333332945282
 40
0.6666666668218872
 40
0.7499999998835847
 40
0.8333333334109434
 40
0.9166666664726411
 40
1.0
 40
1.0
 40
1.0
 40
1.0
 10
2582.000395900462
 20
-216.9028040180406
 30
0.0
 10
2581.559229849251
 20
-228.9201673408956
 30
0.0
 10
2576.109159717717
 20
-250.6996594823795
 30
0.0
 10
2550.813743048506
 20
-276.0941735666715
 30
0.0
 10
2517.01544405867
 20
-284.7426832868168
 30
0.0
 10
2483.124916668307
 20
-275.9858627966898
 30
0.0
 10
2458.115980238363
 20
-251.1497647102005
 30
0.0
 10
2449.102172108232
 20
-217.0620128867193
 30
0.0
 10
2457.935545166491
 20
-182.951658139565
 30
0.0
 10
2483.008704503629
 20
-157.8557485964275
 30
0.0
 10
2517.012041122788
 20
-149.0564091390464
 30
0.0
 10
2550.943828866556
 20
-157.7455045093884
 30
0.0
 10
2576.24215636068
 20
-183.4170050129439
 30
0.0
 10
2581.6494901111
 20
-204.939947332961
 30
0.0
 10
2582.000395900462
 20
-216.9028040180406
 30
0.0
  0
SPLINE
  5
70177
330
70281
100
AcDbEntity
  8
Level 26 (Construction)
  6
Continuous
 62
     7
370
     0
100
AcDbSpline
210
0.0
220
0.0
230
1.0
 70
     9
 71
     3
 72
    19
 73
    15
 74
     0
 42
0.000000001
 43
0.0000000001
 40
0.0
 40
0.0
 40
0.0
 40
0.0
 40
0.0833333335273589
 40
0.1666666665890565
 40
0.2500000001164153
 40
0.3333333331781129
 40
0.4166666667054718
 40
0.4999999997671694
 40
0.5833333332945282
 40
0.6666666668218872
 40
0.7499999998835847
 40
0.8333333334109434
 40
0.9166666664726411
 40
1.0
 40
1.0
 40
1.0
 40
1.0
 10
2582.000395900462
 20
-216.9028040180406
 30
0.0
 10
2581.559229849251
 20
-228.9201673408956
 30
0.0
 10
2576.109159717717
 20
-250.6996594823795
 30
0.0
 10
2550.813743048506
 20
-276.0941735666715
 30
0.0
 10
2517.01544405867
 20
-284.7426832868168
 30
0.0
 10
2483.124916668307
 20
-275.9858627966898
 30
0.0
 10
2458.115980238363
 20
-251.1497647102005
 30
0.0
 10
2449.102172108232
 20
-217.0620128867193
 30
0.0
 10
2457.935545166491
 20
-182.951658139565
 30
0.0
 10
2483.008704503629
 20
-157.8557485964275
 30
0.0
 10
2517.012041122788
 20
-149.0564091390464
 30
0.0
 10
2550.943828866556
 20
-157.7455045093884
 30
0.0
 10
2576.24215636068
 20
-183.4170050129439
 30
0.0
 10
2581.6494901111
 20
-204.939947332961
 30
0.0
 10
2582.000395900462
 20
-216.9028040180406
 30
0.0
  0
SPLINE
  5
70178
330
70281
100
AcDbEntity
  8
Level 26 (Construction)
  6
Continuous
 62
     7
370
     0
100
AcDbSpline
210
0.0
220
0.0
230
1.0
 70
     9
 71
     3
 72
    19
 73
    15
 74
     0
 42
0.000000001
 43
0.0000000001
 40
0.0
 40
0.0
 40
0.0
 40
0.0
 40
0.0833333335273589
 40
0.1666666665890565
 40
0.2500000001164153
 40
0.3333333331781129
 40
0.4166666667054718
 40
0.4999999997671694
 40
0.5833333332945282
 40
0.6666666668218872
 40
0.7499999998835847
 40
0.8333333334109434
 40
0.9166666664726411
 40
1.0
 40
1.0
 40
1.0
 40
1.0
 10
2582.000395900462
 20
-216.9028040180406
 30
0.0
 10
2581.559229849251
 20
-228.9201673408956
 30
0.0
 10
2576.109159717717
 20
-250.6996594823795
 30
0.0
 10
2550.813743048506
 20
-276.0941735666715
 30
0.0
 10
2517.01544405867
 20
-284.7426832868168
 30
0.0
 10
2483.124916668307
 20
-275.9858627966898
 30
0.0
 10
2458.115980238363
 20
-251.1497647102005
 30
0.0
 10
2449.102172108232
 20
-217.0620128867193
 30
0.0
 10
2457.935545166491
 20
-182.951658139565
 30
0.0
 10
2483.008704503629
 20
-157.8557485964275
 30
0.0
 10
2517.012041122788
 20
-149.0564091390464
 30
0.0
 10
2550.943828866556
 20
-157.7455045093884
 30
0.0
 10
2576.24215636068
 20
-183.4170050129439
 30
0.0
 10
2581.6494901111
 20
-204.939947332961
 30
0.0
 10
2582.000395900462
 20
-216.9028040180406
 30
0.0
  0
SPLINE
  5
70179
330
70281
100
AcDbEntity
  8
Level 26 (Construction)
  6
Continuous
 62
     7
370
     0
100
AcDbSpline
210
0.0
220
0.0
230
1.0
 70
     9
 71
     3
 72
    19
 73
    15
 74
     0
 42
0.000000001
 43
0.0000000001
 40
0.0
 40
0.0
 40
0.0
 40
0.0
 40
0.0833333335273589
 40
0.1666666665890565
 40
0.2500000001164153
 40
0.3333333331781129
 40
0.4166666667054718
 40
0.4999999997671694
 40
0.5833333332945282
 40
0.6666666668218872
 40
0.7499999998835847
 40
0.8333333334109434
 40
0.9166666664726411
 40
1.0
 40
1.0
 40
1.0
 40
1.0
 10
2582.000395900462
 20
-216.9028040180406
 30
0.0
 10
2581.559229849251
 20
-228.9201673408956
 30
0.0
 10
2576.109159717717
 20
-250.6996594823795
 30
0.0
 10
2550.813743048506
 20
-276.0941735666715
 30
0.0
 10
2517.01544405867
 20
-284.7426832868168
 30
0.0
 10
2483.124916668307
 20
-275.9858627966898
 30
0.0
 10
2458.115980238363
 20
-251.1497647102005
 30
0.0
 10
2449.102172108232
 20
-217.0620128867193
 30
0.0
 10
2457.935545166491
 20
-182.951658139565
 30
0.0
 10
2483.008704503629
 20
-157.8557485964275
 30
0.0
 10
2517.012041122788
 20
-149.0564091390464
 30
0.0
 10
2550.943828866556
 20
-157.7455045093884
 30
0.0
 10
2576.24215636068
 20
-183.4170050129439
 30
0.0
 10
2581.649490111101
 20
-204.939947332961
 30
0.0
 10
2582.000395900462
 20
-216.9028040180406
 30
0.0
  0
SPLINE
  5
7017A
330
70281
100
AcDbEntity
  8
Level 26 (Construction)
  6
Continuous
 62
     7
370
     0
100
AcDbSpline
210
0.0
220
0.0
230
1.0
 70
     9
 71
     3
 72
    19
 73
    15
 74
     0
 42
0.000000001
 43
0.0000000001
 40
0.0
 40
0.0
 40
0.0
 40
0.0
 40
0.0833333335273589
 40
0.1666666665890565
 40
0.2500000001164153
 40
0.3333333331781129
 40
0.4166666667054718
 40
0.4999999997671694
 40
0.5833333332945282
 40
0.6666666668218872
 40
0.7499999998835847
 40
0.8333333334109434
 40
0.9166666664726411
 40
1.0
 40
1.0
 40
1.0
 40
1.0
 10
2582.000395900462
 20
-216.9028040180406
 30
0.0
 10
2581.559229849251
 20
-228.9201673408956
 30
0.0
 10
2576.109159717717
 20
-250.6996594823795
 30
0.0
 10
2550.813743048506
 20
-276.0941735666715
 30
0.0
 10
2517.01544405867
 20
-284.7426832868168
 30
0.0
 10
2483.124916668307
 20
-275.9858627966898
 30
0.0
 10
2458.115980238363
 20
-251.1497647102005
 30
0.0
 10
2449.102172108232
 20
-217.0620128867193
 30
0.0
 10
2457.935545166491
 20
-182.951658139565
 30
0.0
 10
2483.008704503629
 20
-157.8557485964275
 30
0.0
 10
2517.012041122788
 20
-149.0564091390464
 30
0.0
 10
2550.943828866556
 20
-157.7455045093884
 30
0.0
 10
2576.24215636068
 20
-183.4170050129439
 30
0.0
 10
2581.6494901111
 20
-204.939947332961
 30
0.0
 10
2582.000395900462
 20
-216.9028040180406
 30
0.0
  0
ENDBLK
  5
70283
330
70281
100
AcDbEntity
  8
0
 62
    98
370
     0
100
AcDbBlockEnd
  0
BLOCK
  5
70285
330
70284
100
AcDbEntity
  8
0
 62
    98
370
     0
100
AcDbBlockBegin
  2
From Bspline Surface_7
 70
     0
 10
0.0
 20
0.0
 30
0.0
  3
From Bspline Surface_7
  1

  0
SPLINE
  5
6FF4F
330
70284
100
AcDbEntity
  8
Level 26 (Construction)
  6
Continuous
 62
     7
370
     0
100
AcDbSpline
210
0.0
220
0.0
230
1.0
 70
     9
 71
     3
 72
    19
 73
    15
 74
     0
 42
0.000000001
 43
0.0000000001
 40
0.0
 40
0.0
 40
0.0
 40
0.0
 40
0.0833333335273589
 40
0.1666666665890565
 40
0.2500000001164153
 40
0.3333333331781129
 40
0.4166666667054718
 40
0.4999999997671694
 40
0.5833333332945282
 40
0.6666666668218872
 40
0.7499999998835847
 40
0.8333333334109434
 40
0.9166666664726411
 40
1.0
 40
1.0
 40
1.0
 40
1.0
 10
2582.000395900462
 20
-216.9028040180406
 30
0.0
 10
2581.559229849251
 20
-228.9201673408956
 30
0.0
 10
2576.109159717717
 20
-250.6996594823795
 30
0.0
 10
2550.813743048506
 20
-276.0941735666715
 30
0.0
 10
2517.01544405867
 20
-284.7426832868168
 30
0.0
 10
2483.124916668307
 20
-275.9858627966898
 30
0.0
 10
2458.115980238363
 20
-251.1497647102005
 30
0.0
 10
2449.102172108232
 20
-217.0620128867193
 30
0.0
 10
2457.935545166491
 20
-182.951658139565
 30
0.0
 10
2483.008704503629
 20
-157.8557485964275
 30
0.0
 10
2517.012041122788
 20
-149.0564091390464
 30
0.0
 10
2550.943828866556
 20
-157.7455045093884
 30
0.0
 10
2576.24215636068
 20
-183.4170050129439
 30
0.0
 10
2581.6494901111
 20
-204.939947332961
 30
0.0
 10
2582.000395900462
 20
-216.9028040180406
 30
0.0
  0
SPLINE
  5
70185
330
70284
100
AcDbEntity
  8
Level 26 (Construction)
  6
Continuous
 62
     7
370
     0
100
AcDbSpline
210
0.0
220
0.0
230
1.0
 70
     9
 71
     3
 72
    19
 73
    15
 74
     0
 42
0.000000001
 43
0.0000000001
 40
0.0
 40
0.0
 40
0.0
 40
0.0
 40
0.0833333335273589
 40
0.1666666665890565
 40
0.2500000001164153
 40
0.3333333331781129
 40
0.4166666667054718
 40
0.4999999997671694
 40
0.5833333332945282
 40
0.6666666668218872
 40
0.7499999998835847
 40
0.8333333334109434
 40
0.9166666664726411
 40
1.0
 40
1.0
 40
1.0
 40
1.0
 10
2582.00039590046
 20
-216.9028040180406
 30
0.0
 10
2581.559229849251
 20
-228.9201673408956
 30
0.0
 10
2576.109159717717
 20
-250.6996594823795
 30
0.0
 10
2550.813743048506
 20
-276.0941735666715
 30
0.0
 10
2517.015444058669
 20
-284.7426832868168
 30
0.0
 10
2483.124916668307
 20
-275.9858627966898
 30
0.0
 10
2458.115980238363
 20
-251.1497647102005
 30
0.0
 10
2449.102172108231
 20
-217.0620128867193
 30
0.0
 10
2457.935545166491
 20
-182.951658139565
 30
0.0
 10
2483.008704503629
 20
-157.8557485964275
 30
0.0
 10
2517.012041122788
 20
-149.0564091390464
 30
0.0
 10
2550.943828866556
 20
-157.7455045093884
 30
0.0
 10
2576.24215636068
 20
-183.4170050129438
 30
0.0
 10
2581.6494901111
 20
-204.939947332961
 30
0.0
 10
2582.00039590046
 20
-216.9028040180406
 30
0.0
  0
SPLINE
  5
70186
330
70284
100
AcDbEntity
  8
Level 26 (Construction)
  6
Continuous
 62
     7
370
     0
100
AcDbSpline
210
0.0
220
0.0
230
1.0
 70
     9
 71
     3
 72
    19
 73
    15
 74
     0
 42
0.000000001
 43
0.0000000001
 40
0.0
 40
0.0
 40
0.0
 40
0.0
 40
0.0833333335273589
 40
0.1666666665890565
 40
0.2500000001164153
 40
0.3333333331781129
 40
0.4166666667054718
 40
0.4999999997671694
 40
0.5833333332945282
 40
0.6666666668218872
 40
0.7499999998835847
 40
0.8333333334109434
 40
0.9166666664726411
 40
1.0
 40
1.0
 40
1.0
 40
1.0
 10
2582.000395900462
 20
-216.9028040180406
 30
0.0
 10
2581.559229849251
 20
-228.9201673408956
 30
0.0
 10
2576.109159717717
 20
-250.6996594823795
 30
0.0
 10
2550.813743048506
 20
-276.0941735666715
 30
0.0
 10
2517.01544405867
 20
-284.7426832868168
 30
0.0
 10
2483.124916668307
 20
-275.9858627966898
 30
0.0
 10
2458.115980238363
 20
-251.1497647102005
 30
0.0
 10
2449.102172108232
 20
-217.0620128867193
 30
0.0
 10
2457.935545166491
 20
-182.951658139565
 30
0.0
 10
2483.008704503629
 20
-157.8557485964275
 30
0.0
 10
2517.012041122788
 20
-149.0564091390464
 30
0.0
 10
2550.943828866556
 20
-157.7455045093884
 30
0.0
 10
2576.24215636068
 20
-183.4170050129439
 30
0.0
 10
2581.6494901111
 20
-204.939947332961
 30
0.0
 10
2582.000395900462
 20
-216.9028040180406
 30
0.0
  0
SPLINE
  5
70187
330
70284
100
AcDbEntity
  8
Level 26 (Construction)
  6
Continuous
 62
     7
370
     0
100
AcDbSpline
210
0.0
220
0.0
230
1.0
 70
     9
 71
     3
 72
    19
 73
    15
 74
     0
 42
0.000000001
 43
0.0000000001
 40
0.0
 40
0.0
 40
0.0
 40
0.0
 40
0.0833333335273589
 40
0.1666666665890565
 40
0.2500000001164153
 40
0.3333333331781129
 40
0.4166666667054718
 40
0.4999999997671694
 40
0.5833333332945282
 40
0.6666666668218872
 40
0.7499999998835847
 40
0.8333333334109434
 40
0.9166666664726411
 40
1.0
 40
1.0
 40
1.0
 40
1.0
 10
2582.000395900462
 20
-216.9028040180407
 30
0.0
 10
2581.559229849251
 20
-228.9201673408956
 30
0.0
 10
2576.109159717717
 20
-250.6996594823795
 30
0.0
 10
2550.813743048507
 20
-276.0941735666715
 30
0.0
 10
2517.01544405867
 20
-284.7426832868168
 30
0.0
 10
2483.124916668307
 20
-275.9858627966898
 30
0.0
 10
2458.115980238363
 20
-251.1497647102005
 30
0.0
 10
2449.102172108232
 20
-217.0620128867193
 30
0.0
 10
2457.935545166491
 20
-182.951658139565
 30
0.0
 10
2483.008704503629
 20
-157.8557485964275
 30
0.0
 10
2517.012041122788
 20
-149.0564091390464
 30
0.0
 10
2550.943828866556
 20
-157.7455045093884
 30
0.0
 10
2576.24215636068
 20
-183.4170050129439
 30
0.0
 10
2581.6494901111
 20
-204.939947332961
 30
0.0
 10
2582.000395900462
 20
-216.9028040180407
 30
0.0
  0
SPLINE
  5
70188
330
70284
100
AcDbEntity
  8
Level 26 (Construction)
  6
Continuous
 62
     7
370
     0
100
AcDbSpline
210
0.0
220
0.0
230
1.0
 70
     9
 71
     3
 72
    19
 73
    15
 74
     0
 42
0.000000001
 43
0.0000000001
 40
0.0
 40
0.0
 40
0.0
 40
0.0
 40
0.0833333335273589
 40
0.1666666665890565
 40
0.2500000001164153
 40
0.3333333331781129
 40
0.4166666667054718
 40
0.4999999997671694
 40
0.5833333332945282
 40
0.6666666668218872
 40
0.7499999998835847
 40
0.8333333334109434
 40
0.9166666664726411
 40
1.0
 40
1.0
 40
1.0
 40
1.0
 10
2582.000395900462
 20
-216.9028040180406
 30
0.0
 10
2581.559229849251
 20
-228.9201673408956
 30
0.0
 10
2576.109159717717
 20
-250.6996594823795
 30
0.0
 10
2550.813743048506
 20
-276.0941735666715
 30
0.0
 10
2517.01544405867
 20
-284.7426832868168
 30
0.0
 10
2483.124916668307
 20
-275.9858627966898
 30
0.0
 10
2458.115980238363
 20
-251.1497647102005
 30
0.0
 10
2449.102172108232
 20
-217.0620128867193
 30
0.0
 10
2457.935545166491
 20
-182.951658139565
 30
0.0
 10
2483.008704503629
 20
-157.8557485964275
 30
0.0
 10
2517.012041122788
 20
-149.0564091390464
 30
0.0
 10
2550.943828866556
 20
-157.7455045093884
 30
0.0
 10
2576.24215636068
 20
-183.4170050129439
 30
0.0
 10
2581.6494901111
 20
-204.939947332961
 30
0.0
 10
2582.000395900462
 20
-216.9028040180406
 30
0.0
  0
SPLINE
  5
70189
330
70284
100
AcDbEntity
  8
Level 26 (Construction)
  6
Continuous
 62
     7
370
     0
100
AcDbSpline
210
0.0
220
0.0
230
1.0
 70
     9
 71
     3
 72
    19
 73
    15
 74
     0
 42
0.000000001
 43
0.0000000001
 40
0.0
 40
0.0
 40
0.0
 40
0.0
 40
0.0833333335273589
 40
0.1666666665890565
 40
0.2500000001164153
 40
0.3333333331781129
 40
0.4166666667054718
 40
0.4999999997671694
 40
0.5833333332945282
 40
0.6666666668218872
 40
0.7499999998835847
 40
0.8333333334109434
 40
0.9166666664726411
 40
1.0
 40
1.0
 40
1.0
 40
1.0
 10
2582.000395900462
 20
-216.9028040180406
 30
0.0
 10
2581.559229849251
 20
-228.9201673408956
 30
0.0
 10
2576.109159717717
 20
-250.6996594823795
 30
0.0
 10
2550.813743048506
 20
-276.0941735666715
 30
0.0
 10
2517.01544405867
 20
-284.7426832868168
 30
0.0
 10
2483.124916668307
 20
-275.9858627966898
 30
0.0
 10
2458.115980238363
 20
-251.1497647102005
 30
0.0
 10
2449.102172108232
 20
-217.0620128867193
 30
0.0
 10
2457.935545166491
 20
-182.951658139565
 30
0.0
 10
2483.008704503629
 20
-157.8557485964275
 30
0.0
 10
2517.012041122788
 20
-149.0564091390464
 30
0.0
 10
2550.943828866556
 20
-157.7455045093884
 30
0.0
 10
2576.24215636068
 20
-183.4170050129439
 30
0.0
 10
2581.6494901111
 20
-204.939947332961
 30
0.0
 10
2582.000395900462
 20
-216.9028040180406
 30
0.0
  0
SPLINE
  5
7018A
330
70284
100
AcDbEntity
  8
Level 26 (Construction)
  6
Continuous
 62
     7
370
     0
100
AcDbSpline
210
0.0
220
0.0
230
1.0
 70
     9
 71
     3
 72
    19
 73
    15
 74
     0
 42
0.000000001
 43
0.0000000001
 40
0.0
 40
0.0
 40
0.0
 40
0.0
 40
0.0833333335273589
 40
0.1666666665890565
 40
0.2500000001164153
 40
0.3333333331781129
 40
0.4166666667054718
 40
0.4999999997671694
 40
0.5833333332945282
 40
0.6666666668218872
 40
0.7499999998835847
 40
0.8333333334109434
 40
0.9166666664726411
 40
1.0
 40
1.0
 40
1.0
 40
1.0
 10
2582.000395900462
 20
-216.9028040180406
 30
0.0
 10
2581.559229849251
 20
-228.9201673408956
 30
0.0
 10
2576.109159717717
 20
-250.6996594823795
 30
0.0
 10
2550.813743048506
 20
-276.0941735666715
 30
0.0
 10
2517.01544405867
 20
-284.7426832868168
 30
0.0
 10
2483.124916668307
 20
-275.9858627966898
 30
0.0
 10
2458.115980238363
 20
-251.1497647102005
 30
0.0
 10
2449.102172108232
 20
-217.0620128867193
 30
0.0
 10
2457.935545166491
 20
-182.951658139565
 30
0.0
 10
2483.008704503629
 20
-157.8557485964275
 30
0.0
 10
2517.012041122788
 20
-149.0564091390464
 30
0.0
 10
2550.943828866556
 20
-157.7455045093884
 30
0.0
 10
2576.24215636068
 20
-183.4170050129439
 30
0.0
 10
2581.6494901111
 20
-204.939947332961
 30
0.0
 10
2582.000395900462
 20
-216.9028040180406
 30
0.0
  0
SPLINE
  5
7018B
330
70284
100
AcDbEntity
  8
Level 26 (Construction)
  6
Continuous
 62
     7
370
     0
100
AcDbSpline
210
0.0
220
0.0
230
1.0
 70
     9
 71
     3
 72
    19
 73
    15
 74
     0
 42
0.000000001
 43
0.0000000001
 40
0.0
 40
0.0
 40
0.0
 40
0.0
 40
0.0833333335273589
 40
0.1666666665890565
 40
0.2500000001164153
 40
0.3333333331781129
 40
0.4166666667054718
 40
0.4999999997671694
 40
0.5833333332945282
 40
0.6666666668218872
 40
0.7499999998835847
 40
0.8333333334109434
 40
0.9166666664726411
 40
1.0
 40
1.0
 40
1.0
 40
1.0
 10
2582.000395900462
 20
-216.9028040180406
 30
0.0
 10
2581.559229849251
 20
-228.9201673408956
 30
0.0
 10
2576.109159717717
 20
-250.6996594823795
 30
0.0
 10
2550.813743048506
 20
-276.0941735666715
 30
0.0
 10
2517.01544405867
 20
-284.7426832868168
 30
0.0
 10
2483.124916668307
 20
-275.9858627966898
 30
0.0
 10
2458.115980238363
 20
-251.1497647102005
 30
0.0
 10
2449.102172108232
 20
-217.0620128867193
 30
0.0
 10
2457.935545166491
 20
-182.951658139565
 30
0.0
 10
2483.008704503629
 20
-157.8557485964275
 30
0.0
 10
2517.012041122788
 20
-149.0564091390464
 30
0.0
 10
2550.943828866556
 20
-157.7455045093884
 30
0.0
 10
2576.24215636068
 20
-183.4170050129439
 30
0.0
 10
2581.6494901111
 20
-204.939947332961
 30
0.0
 10
2582.000395900462
 20
-216.9028040180406
 30
0.0
  0
SPLINE
  5
7018C
330
70284
100
AcDbEntity
  8
Level 26 (Construction)
  6
Continuous
 62
     7
370
     0
100
AcDbSpline
210
0.0
220
0.0
230
1.0
 70
     9
 71
     3
 72
    19
 73
    15
 74
     0
 42
0.000000001
 43
0.0000000001
 40
0.0
 40
0.0
 40
0.0
 40
0.0
 40
0.0833333335273589
 40
0.1666666665890565
 40
0.2500000001164153
 40
0.3333333331781129
 40
0.4166666667054718
 40
0.4999999997671694
 40
0.5833333332945282
 40
0.6666666668218872
 40
0.7499999998835847
 40
0.8333333334109434
 40
0.9166666664726411
 40
1.0
 40
1.0
 40
1.0
 40
1.0
 10
2582.000395900462
 20
-216.9028040180406
 30
0.0
 10
2581.559229849251
 20
-228.9201673408956
 30
0.0
 10
2576.109159717717
 20
-250.6996594823795
 30
0.0
 10
2550.813743048506
 20
-276.0941735666715
 30
0.0
 10
2517.01544405867
 20
-284.7426832868168
 30
0.0
 10
2483.124916668307
 20
-275.9858627966898
 30
0.0
 10
2458.115980238363
 20
-251.1497647102005
 30
0.0
 10
2449.102172108232
 20
-217.0620128867193
 30
0.0
 10
2457.935545166491
 20
-182.951658139565
 30
0.0
 10
2483.008704503629
 20
-157.8557485964275
 30
0.0
 10
2517.012041122788
 20
-149.0564091390464
 30
0.0
 10
2550.943828866556
 20
-157.7455045093884
 30
0.0
 10
2576.24215636068
 20
-183.4170050129439
 30
0.0
 10
2581.649490111101
 20
-204.939947332961
 30
0.0
 10
2582.000395900462
 20
-216.9028040180406
 30
0.0
  0
SPLINE
  5
7018D
330
70284
100
AcDbEntity
  8
Level 26 (Construction)
  6
Continuous
 62
     7
370
     0
100
AcDbSpline
210
0.0
220
0.0
230
1.0
 70
     9
 71
     3
 72
    19
 73
    15
 74
     0
 42
0.000000001
 43
0.0000000001
 40
0.0
 40
0.0
 40
0.0
 40
0.0
 40
0.0833333335273589
 40
0.1666666665890565
 40
0.2500000001164153
 40
0.3333333331781129
 40
0.4166666667054718
 40
0.4999999997671694
 40
0.5833333332945282
 40
0.6666666668218872
 40
0.7499999998835847
 40
0.8333333334109434
 40
0.9166666664726411
 40
1.0
 40
1.0
 40
1.0
 40
1.0
 10
2582.000395900462
 20
-216.9028040180406
 30
0.0
 10
2581.559229849251
 20
-228.9201673408956
 30
0.0
 10
2576.109159717717
 20
-250.6996594823795
 30
0.0
 10
2550.813743048506
 20
-276.0941735666715
 30
0.0
 10
2517.01544405867
 20
-284.7426832868168
 30
0.0
 10
2483.124916668307
 20
-275.9858627966898
 30
0.0
 10
2458.115980238363
 20
-251.1497647102005
 30
0.0
 10
2449.102172108232
 20
-217.0620128867193
 30
0.0
 10
2457.935545166491
 20
-182.951658139565
 30
0.0
 10
2483.008704503629
 20
-157.8557485964275
 30
0.0
 10
2517.012041122788
 20
-149.0564091390464
 30
0.0
 10
2550.943828866556
 20
-157.7455045093884
 30
0.0
 10
2576.24215636068
 20
-183.4170050129439
 30
0.0
 10
2581.6494901111
 20
-204.939947332961
 30
0.0
 10
2582.000395900462
 20
-216.9028040180406
 30
0.0
  0
ENDBLK
  5
70286
330
70284
100
AcDbEntity
  8
0
 62
    98
370
     0
100
AcDbBlockEnd
  0
BLOCK
  5
70288
330
70287
100
AcDbEntity
  8
0
 62
    98
370
     0
100
AcDbBlockBegin
  2
From Solid_22
 70
     0
 10
0.0
 20
0.0
 30
0.0
  3
From Solid_22
  1

  0
LINE
  5
6FF61
330
70287
100
AcDbEntity
  8
Level 26
  6
Continuous
 62
   106
370
     0
100
AcDbLine
 10
2752.045606
 20
-227.102804
 30
0.0
 11
2789.288483
 21
-227.102804
 31
0.0
  0
LINE
  5
6FF62
330
70287
100
AcDbEntity
  8
Level 26
  6
Continuous
 62
   106
370
     0
100
AcDbLine
 10
2752.045606
 20
-227.102804
 30
0.0
 11
2802.000396
 21
-227.102804
 31
0.0
  0
LINE
  5
6FF63
330
70287
100
AcDbEntity
  8
Level 26
  6
Continuous
 62
   106
370
     0
100
AcDbLine
 10
2752.045606
 20
-206.602804
 30
0.0
 11
2789.288483
 21
-206.602804
 31
0.0
  0
LINE
  5
6FF64
330
70287
100
AcDbEntity
  8
Level 26
  6
Continuous
 62
   106
370
     0
100
AcDbLine
 10
2752.045606
 20
-206.602804
 30
0.0
 11
2802.000396
 21
-206.602804
 31
0.0
  0
LINE
  5
6FF65
330
70287
100
AcDbEntity
  8
Level 26
  6
Continuous
 62
   106
370
     0
100
AcDbLine
 10
2789.243273
 20
-227.102804
 30
0.0
 11
2789.243273
 21
-206.602804
 31
0.0
  0
LINE
  5
6FF66
330
70287
100
AcDbEntity
  8
Level 26
  6
Continuous
 62
   106
370
     0
100
AcDbLine
 10
2752.045606
 20
-227.102804
 30
0.0
 11
2752.045606
 21
-206.602804
 31
0.0
  0
LINE
  5
6FF67
330
70287
100
AcDbEntity
  8
Level 26
  6
Continuous
 62
   106
370
     0
100
AcDbLine
 10
2790.271388
 20
-227.102804
 30
0.0
 11
2790.271388
 21
-206.602804
 31
0.0
  0
ENDBLK
  5
70289
330
70287
100
AcDbEntity
  8
0
 62
    98
370
     0
100
AcDbBlockEnd
  0
BLOCK
  5
7028B
330
7028A
100
AcDbEntity
  8
0
 62
    98
370
     0
100
AcDbBlockBegin
  2
From Solid_23
 70
     0
 10
0.0
 20
0.0
 30
0.0
  3
From Solid_23
  1

  0
LINE
  5
6FF69
330
7028A
100
AcDbEntity
  8
Level 26 (Construction)
  6
Continuous
 62
     7
370
     0
100
AcDbLine
 10
2747.000396
 20
-227.002804
 30
0.0
 11
2807.000396
 21
-227.002804
 31
0.0
  0
LINE
  5
6FF6A
330
7028A
100
AcDbEntity
  8
Level 26 (Construction)
  6
Continuous
 62
     7
370
     0
100
AcDbLine
 10
2747.000396
 20
-206.702804
 30
0.0
 11
2807.000396
 21
-206.702804
 31
0.0
  0
LINE
  5
6FF6B
330
7028A
100
AcDbEntity
  8
Level 26
  6
Continuous
 62
     7
370
     0
100
AcDbLine
 10
2747.000396
 20
-227.002804
 30
0.0
 11
2747.000396
 21
-206.702804
 31
0.0
  0
LINE
  5
6FF6C
330
7028A
100
AcDbEntity
  8
Level 26
  6
Continuous
 62
     7
370
     0
100
AcDbLine
 10
2777.000396
 20
-227.002804
 30
0.0
 11
2777.000396
 21
-206.702804
 31
0.0
  0
LINE
  5
6FF6D
330
7028A
100
AcDbEntity
  8
Level 26
  6
Continuous
 62
     7
370
     0
100
AcDbLine
 10
2807.000396
 20
-227.002804
 30
0.0
 11
2807.000396
 21
-206.702804
 31
0.0
  0
LINE
  5
6FF6E
330
7028A
100
AcDbEntity
  8
Level 26
  6
Continuous
 62
     7
370
     0
100
AcDbLine
 10
2777.000396
 20
-227.002804
 30
0.0
 11
2777.000396
 21
-206.702804
 31
0.0
  0
ENDBLK
  5
7028C
330
7028A
100
AcDbEntity
  8
0
 62
    98
370
     0
100
AcDbBlockEnd
  0
ENDSEC
  0
SECTION
  2
ENTITIES
  0
INSERT
  5
6FD64
330
7019A
100
AcDbEntity
  8
Level 26
  6
Continuous
 62
     7
370
     0
100
AcDbBlockReference
  2
SE01
 10
2517.038549
 20
-216.902804
 30
0.0
  0
LWPOLYLINE
  5
6FF82
330
7019A
100
AcDbEntity
  8
Level 15
  6
DGN Style 2
 62
     7
370
    13
100
AcDbPolyline
 90
       17
 70
   129
 43
0.0
 10
1203.274772
 20
-1054.332895
 10
1098.945518
 20
-900.524532
 42
-0.150117
 10
892.038549
 20
-226.902804
 10
892.038549
 20
-206.902804
 42
-0.150117
 10
1098.945518
 20
466.718924
 10
1203.274761
 20
620.52727
 42
-0.220054
 10
2104.708105
 20
1162.803591
 10
2577.415815
 20
1214.232162
 42
-0.277459
 10
3749.508533
 20
672.520588
 10
3888.901662
 20
467.259728
 42
-0.150256
 10
4096.175677
 20
-206.902804
 10
4096.175677
 20
-226.902804
 42
-0.150256
 10
3888.901662
 20
-901.065336
 10
3749.508533
 20
-1106.326196
 42
-0.277459
 10
2577.415815
 20
-1648.03777
 10
2104.708105
 20
-1596.609199
 42
-0.220054
 10
1203.274772
 20
-1054.332895
  0
ENDSEC
  0
SECTION
  2
OBJECTS
  0
DICTIONARY
  5
701A1
330
0
100
AcDbDictionary
281
     1
  3
ACAD_COLOR
350
701DF
  3
ACAD_GROUP
350
701CC
  3
ACAD_LAYOUT
350
701AE
  3
ACAD_MATERIAL
350
701A3
  3
ACAD_MLEADERSTYLE
350
701E2
  3
ACAD_MLINESTYLE
350
701CD
  3
ACAD_PLOTSETTINGS
350
701CE
  3
ACAD_PLOTSTYLENAME
350
701A0
  3
ACAD_SCALELIST
350
701E0
  3
ACAD_TABLESTYLE
350
701E1
  3
ACAD_VISUALSTYLE
350
701C6
  3
ACDB_RECOMPOSE_DATA
350
7029B
  3
AcDbVariableDictionary
350
70291
  0
DICTIONARY
  5
701B9
330
701B8
100
AcDbDictionary
280
     1
281
     1
  3
ACAD_LAYERFILTERS
360
7020C
  3
ACAD_LAYERSTATES
360
701BA
  3
ACLYDICTIONARY
360
7020D
  0
DICTIONARY
  5
7019D
330
7019C
100
AcDbDictionary
280
     1
281
     1
  3
ADSK_XREC_LAYER_RECONCILED
360
7019E
  0
DICTIONARY
  5
7028D
330
7020E
100
AcDbDictionary
280
     1
281
     1
  3
ACAD_SORTENTS
360
7028E
  0
DICTIONARY
  5
701DF
102
{ACAD_REACTORS
330
701A1
102
}
330
701A1
100
AcDbDictionary
281
     1
  0
DICTIONARY
  5
701CC
102
{ACAD_REACTORS
330
701A1
102
}
330
701A1
100
AcDbDictionary
281
     1
  0
DICTIONARY
  5
701AE
102
{ACAD_REACTORS
330
701A1
102
}
330
701A1
100
AcDbDictionary
281
     1
  3
Layout1
350
701B4
  3
Model
350
701AD
  0
DICTIONARY
  5
701A3
102
{ACAD_REACTORS
330
701A1
102
}
330
701A1
100
AcDbDictionary
281
     1
  3
ByBlock
350
701D7
  3
ByLayer
350
701CF
  3
Global
350
701A2
  0
DICTIONARY
  5
701E2
102
{ACAD_REACTORS
330
701A1
102
}
330
701A1
100
AcDbDictionary
281
     1
  0
DICTIONARY
  5
701CD
102
{ACAD_REACTORS
330
701A1
102
}
330
701A1
100
AcDbDictionary
281
     1
  3
Standard
350
701E3
  0
DICTIONARY
  5
701CE
102
{ACAD_REACTORS
330
701A1
102
}
330
701A1
100
AcDbDictionary
281
     1
  0
ACDBDICTIONARYWDFLT
  5
701A0
102
{ACAD_REACTORS
330
701A1
102
}
330
701A1
100
AcDbDictionary
281
     1
  3
Normal
350
7019F
100
AcDbDictionaryWithDefault
340
7019F
  0
DICTIONARY
  5
701E0
102
{ACAD_REACTORS
330
701A1
102
}
330
701A1
100
AcDbDictionary
281
     1
  3
A0
350
701E8
  3
A1
350
701E9
  3
A2
350
701EA
  3
A3
350
701EB
  3
A4
350
701EC
  3
A5
350
701ED
  3
A6
350
701EE
  3
A7
350
701EF
  3
A8
350
701F0
  3
A9
350
701F1
  3
B0
350
701F2
  3
B1
350
701F3
  3
B2
350
701F4
  3
B3
350
701F5
  3
B4
350
701F6
  3
B5
350
701F7
  3
B6
350
701F8
  3
B7
350
701F9
  3
B8
350
701FA
  3
B9
350
701FB
  3
C0
350
701FC
  3
C1
350
701FD
  3
C2
350
701FE
  3
C3
350
701FF
  3
C4
350
70200
  3
C5
350
70201
  3
C6
350
70202
  3
C7
350
70203
  3
C8
350
70204
  3
C9
350
70205
  3
D0
350
70206
  3
D1
350
70207
  3
D2
350
70208
  0
DICTIONARY
  5
701E1
102
{ACAD_REACTORS
330
701A1
102
}
330
701A1
100
AcDbDictionary
281
     1
  3
Standard
350
701E4
  0
DICTIONARY
  5
701C6
102
{ACAD_REACTORS
330
701A1
102
}
330
701A1
100
AcDbDictionary
281
     1
  3
2dWireframe
350
701C5
  3
Realistic
350
701E6
  3
Wireframe
350
701E7
  0
XRECORD
  5
7029B
102
{ACAD_REACTORS
330
701A1
102
}
330
701A1
100
AcDbXrecord
280
     1
 90
        1
330
701E4
  0
DICTIONARY
  5
70291
102
{ACAD_REACTORS
330
701A1
102
}
330
701A1
100
AcDbDictionary
281
     1
  3
CANNOSCALE
350
70297
  3
CMLEADERSTYLE
350
70293
  3
CTABLESTYLE
350
70292
  3
CVIEWDETAILSTYLE
350
70294
  3
CVIEWSECTIONSTYLE
350
70295
  3
LAYEREVAL
350
70298
  3
LAYERNOTIFY
350
70299
  3
MSLTSCALE
350
70296
  0
DICTIONARY
  5
7020C
102
{ACAD_REACTORS
330
701B9
102
}
330
701B9
100
AcDbDictionary
281
     1
  0
DICTIONARY
  5
701BA
102
{ACAD_REACTORS
330
701B9
102
}
330
701B9
100
AcDbDictionary
281
     1
  0
DICTIONARY
  5
7020D
102
{ACAD_REACTORS
330
701B9
102
}
330
701B9
100
AcDbDictionary
281
     1
  0
XRECORD
  5
7019E
102
{ACAD_REACTORS
330
7019D
102
}
330
7019D
100
AcDbXrecord
280
     1
290
     1
  0
SORTENTSTABLE
  5
7028E
102
{ACAD_REACTORS
330
7028D
102
}
330
7028D
100
AcDbSortentsTable
330
7020E
331
70005
  5
70000
331
6FFFB
  5
6FFF6
331
6FFEF
  5
6FDAB
331
6FFF4
  5
6FFEF
331
6FD7A
  5
6FD7A
331
70002
  5
6FFFD
331
6FD6C
  5
6FD6C
331
6FFF8
  5
6FFF3
331
6FDA1
  5
6FEA7
331
6FFEC
  5
6FD9C
331
6FD67
  5
6FD67
331
6FFF1
  5
6FFEC
331
6FDAB
  5
6FEBF
331
6FD69
  5
6FD69
331
6FECB
  5
70004
331
6FFFF
  5
6FFFA
331
700FF
  5
700FF
331
6FFFC
  5
6FFF7
331
6FFF5
  5
6FFF0
331
6FDB0
  5
6FECB
331
70003
  5
6FFFE
331
6FFF9
  5
6FFF4
331
6FEBF
  5
70003
331
6FFED
  5
6FDA1
331
6FFF2
  5
6FFED
331
70000
  5
6FFFB
331
6FD6A
  5
6FD6A
331
6FD65
  5
6FD65
331
6FD9C
  5
6FDB0
331
6FD7F
  5
6FD7F
331
6FFFD
  5
6FFF8
331
6FDA6
  5
6FEB3
331
6FFF6
  5
6FFF1
331
70004
  5
6FFFF
331
6FFFA
  5
6FFF5
331
6FFEE
  5
6FDA6
331
6FEB3
  5
70002
331
6FFF3
  5
6FFEE
331
70001
  5
6FFFC
331
6FD6B
  5
6FD6B
331
6FD66
  5
6FD66
331
6FFF0
  5
6FED7
331
6FD75
  5
6FD75
331
6FD68
  5
6FD68
331
6FED7
  5
70005
331
6FEA7
  5
70001
331
6FFFE
  5
6FFF9
331
700FE
  5
700FE
331
6FFF7
  5
6FFF2
  0
LAYOUT
  5
701B4
102
{ACAD_XDICTIONARY
360
701B5
102
}
102
{ACAD_REACTORS
330
701AE
102
}
330
701AE
100
AcDbPlotSettings
  1

  2
none_device
  4
Letter_(8.50_x_11.00_Inches)
  6

 40
6.35
 41
6.35
 42
6.350006
 43
6.350006
 44
215.899994
 45
279.399994
 46
0.0
 47
0.0
 48
0.0
 49
0.0
140
0.0
141
0.0
142
1.0
143
1.0
 70
   688
 72
     0
 73
     1
 74
     5
  7

 75
    16
147
1.0
 76
     0
 77
     2
 78
   300
148
0.0
149
0.0
100
AcDbLayout
  1
Layout1
 70
     1
 71
     1
 10
-0.25
 20
-0.25
 11
10.75
 21
8.25
 12
0.0
 22
0.0
 32
0.0
 14
1.05
 24
0.8
 34
0.0
 15
9.45
 25
7.2
 35
0.0
146
0.0
 13
0.0
 23
0.0
 33
0.0
 16
1.0
 26
0.0
 36
0.0
 17
0.0
 27
1.0
 37
0.0
 76
     0
330
701B1
1001
ACAD_PSEXT
1000
None
1000
None
1000
Not applicable
1000
The layout will not be plotted unless a new plotter configuration name is selected.
1070
     0
  0
LAYOUT
  5
701AD
102
{ACAD_XDICTIONARY
360
701AF
102
}
102
{ACAD_REACTORS
330
701AE
102
}
330
701AE
100
AcDbPlotSettings
  1

  2
none_device
  4
ANSI_A_(8.50_x_11.00_Inches)
  6

 40
6.35
 41
19.049999
 42
6.350006
 43
19.049988
 44
215.899994
 45
279.399994
 46
0.0
 47
0.0
 48
0.0
 49
0.0
140
0.0
141
0.0
142
1.0
143
2.584895
 70
 11952
 72
     0
 73
     1
 74
     0
  7

 75
     0
147
0.386863
 76
     0
 77
     2
 78
   300
148
0.0
149
0.0
100
AcDbLayout
  1
Model
 70
     1
 71
     0
 10
0.0
 20
0.0
 11
12.0
 21
9.0
 12
0.0
 22
0.0
 32
0.0
 14
0.0
 24
0.0
 34
0.0
 15
0.0
 25
0.0
 35
0.0
146
0.0
 13
0.0
 23
0.0
 33
0.0
 16
1.0
 26
0.0
 36
0.0
 17
0.0
 27
1.0
 37
0.0
 76
     0
330
7019A
331
701C4
  0
MATERIAL
  5
701D7
102
{ACAD_XDICTIONARY
360
701D8
102
}
102
{ACAD_REACTORS
330
701A3
102
}
330
701A3
100
AcDbMaterial
  1
ByBlock
 72
     0
 43
0.020833
 43
0.0
 43
0.0
 43
0.0
 43
0.0
 43
0.020833
 43
0.0
 43
0.0
 43
0.0
 43
0.0
 43
1.0
 43
0.0
 43
0.0
 43
0.0
 43
0.0
 43
1.0
 77
     0
 47
0.020833
 47
0.0
 47
0.0
 47
0.0
 47
0.0
 47
0.020833
 47
0.0
 47
0.0
 47
0.0
 47
0.0
 47
1.0
 47
0.0
 47
0.0
 47
0.0
 47
0.0
 47
1.0
171
     0
 49
0.020833
 49
0.0
 49
0.0
 49
0.0
 49
0.0
 49
0.020833
 49
0.0
 49
0.0
 49
0.0
 49
0.0
 49
1.0
 49
0.0
 49
0.0
 49
0.0
 49
0.0
 49
1.0
175
     0
142
0.020833
142
0.0
142
0.0
142
0.0
142
0.0
142
0.020833
142
0.0
142
0.0
142
0.0
142
0.0
142
1.0
142
0.0
142
0.0
142
0.0
142
0.0
142
1.0
179
     0
144
0.020833
144
0.0
144
0.0
144
0.0
144
0.0
144
0.020833
144
0.0
144
0.0
144
0.0
144
0.0
144
1.0
144
0.0
144
0.0
144
0.0
144
0.0
144
1.0
147
0.020833
147
0.0
147
0.0
147
0.0
147
0.0
147
0.020833
147
0.0
147
0.0
147
0.0
147
0.0
147
1.0
147
0.0
147
0.0
147
0.0
147
0.0
147
1.0
  0
MATERIAL
  5
701CF
102
{ACAD_XDICTIONARY
360
701D0
102
}
102
{ACAD_REACTORS
330
701A3
102
}
330
701A3
100
AcDbMaterial
  1
ByLayer
 72
     0
 43
0.020833
 43
0.0
 43
0.0
 43
0.0
 43
0.0
 43
0.020833
 43
0.0
 43
0.0
 43
0.0
 43
0.0
 43
1.0
 43
0.0
 43
0.0
 43
0.0
 43
0.0
 43
1.0
 77
     0
 47
0.020833
 47
0.0
 47
0.0
 47
0.0
 47
0.0
 47
0.020833
 47
0.0
 47
0.0
 47
0.0
 47
0.0
 47
1.0
 47
0.0
 47
0.0
 47
0.0
 47
0.0
 47
1.0
171
     0
 49
0.020833
 49
0.0
 49
0.0
 49
0.0
 49
0.0
 49
0.020833
 49
0.0
 49
0.0
 49
0.0
 49
0.0
 49
1.0
 49
0.0
 49
0.0
 49
0.0
 49
0.0
 49
1.0
175
     0
142
0.020833
142
0.0
142
0.0
142
0.0
142
0.0
142
0.020833
142
0.0
142
0.0
142
0.0
142
0.0
142
1.0
142
0.0
142
0.0
142
0.0
142
0.0
142
1.0
179
     0
144
0.020833
144
0.0
144
0.0
144
0.0
144
0.0
144
0.020833
144
0.0
144
0.0
144
0.0
144
0.0
144
1.0
144
0.0
144
0.0
144
0.0
144
0.0
144
1.0
147
0.020833
147
0.0
147
0.0
147
0.0
147
0.0
147
0.020833
147
0.0
147
0.0
147
0.0
147
0.0
147
1.0
147
0.0
147
0.0
147
0.0
147
0.0
147
1.0
  0
MATERIAL
  5
701A2
102
{ACAD_XDICTIONARY
360
701A4
102
}
102
{ACAD_REACTORS
330
701A3
102
}
330
701A3
100
AcDbMaterial
  1
Global
 72
     0
 43
0.020833
 43
0.0
 43
0.0
 43
0.0
 43
0.0
 43
0.020833
 43
0.0
 43
0.0
 43
0.0
 43
0.0
 43
1.0
 43
0.0
 43
0.0
 43
0.0
 43
0.0
 43
1.0
 77
     0
 47
0.020833
 47
0.0
 47
0.0
 47
0.0
 47
0.0
 47
0.020833
 47
0.0
 47
0.0
 47
0.0
 47
0.0
 47
1.0
 47
0.0
 47
0.0
 47
0.0
 47
0.0
 47
1.0
171
     0
 49
0.020833
 49
0.0
 49
0.0
 49
0.0
 49
0.0
 49
0.020833
 49
0.0
 49
0.0
 49
0.0
 49
0.0
 49
1.0
 49
0.0
 49
0.0
 49
0.0
 49
0.0
 49
1.0
175
     0
142
0.020833
142
0.0
142
0.0
142
0.0
142
0.0
142
0.020833
142
0.0
142
0.0
142
0.0
142
0.0
142
1.0
142
0.0
142
0.0
142
0.0
142
0.0
142
1.0
179
     0
144
0.020833
144
0.0
144
0.0
144
0.0
144
0.0
144
0.020833
144
0.0
144
0.0
144
0.0
144
0.0
144
1.0
144
0.0
144
0.0
144
0.0
144
0.0
144
1.0
147
0.020833
147
0.0
147
0.0
147
0.0
147
0.0
147
0.020833
147
0.0
147
0.0
147
0.0
147
0.0
147
1.0
147
0.0
147
0.0
147
0.0
147
0.0
147
1.0
  0
MLINESTYLE
  5
701E3
102
{ACAD_REACTORS
330
701CD
102
}
330
701CD
100
AcDbMlineStyle
  2
STANDARD
 70
     0
  3

 62
   256
 51
90.0
 52
90.0
 71
     2
 49
0.5
 62
   256
  6
BYLAYER
 49
-0.5
 62
   256
  6
BYLAYER
  0
ACDBPLACEHOLDER
  5
7019F
102
{ACAD_REACTORS
330
701A0
102
}
330
701A0
  0
SCALE
  5
701E8
102
{ACAD_REACTORS
330
701E0
102
}
330
701E0
100
AcDbScale
 70
     0
300
1:1
140
1.0
141
1.0
290
     1
  0
SCALE
  5
701E9
102
{ACAD_REACTORS
330
701E0
102
}
330
701E0
100
AcDbScale
 70
     0
300
1:2
140
1.0
141
2.0
290
     0
  0
SCALE
  5
701EA
102
{ACAD_REACTORS
330
701E0
102
}
330
701E0
100
AcDbScale
 70
     0
300
1:4
140
1.0
141
4.0
290
     0
  0
SCALE
  5
701EB
102
{ACAD_REACTORS
330
701E0
102
}
330
701E0
100
AcDbScale
 70
     0
300
1:5
140
1.0
141
5.0
290
     0
  0
SCALE
  5
701EC
102
{ACAD_REACTORS
330
701E0
102
}
330
701E0
100
AcDbScale
 70
     0
300
1:8
140
1.0
141
8.0
290
     0
  0
SCALE
  5
701ED
102
{ACAD_REACTORS
330
701E0
102
}
330
701E0
100
AcDbScale
 70
     0
300
1:10
140
1.0
141
10.0
290
     0
  0
SCALE
  5
701EE
102
{ACAD_REACTORS
330
701E0
102
}
330
701E0
100
AcDbScale
 70
     0
300
1:16
140
1.0
141
16.0
290
     0
  0
SCALE
  5
701EF
102
{ACAD_REACTORS
330
701E0
102
}
330
701E0
100
AcDbScale
 70
     0
300
1:20
140
1.0
141
20.0
290
     0
  0
SCALE
  5
701F0
102
{ACAD_REACTORS
330
701E0
102
}
330
701E0
100
AcDbScale
 70
     0
300
1:30
140
1.0
141
30.0
290
     0
  0
SCALE
  5
701F1
102
{ACAD_REACTORS
330
701E0
102
}
330
701E0
100
AcDbScale
 70
     0
300
1:40
140
1.0
141
40.0
290
     0
  0
SCALE
  5
701F2
102
{ACAD_REACTORS
330
701E0
102
}
330
701E0
100
AcDbScale
 70
     0
300
1:50
140
1.0
141
50.0
290
     0
  0
SCALE
  5
701F3
102
{ACAD_REACTORS
330
701E0
102
}
330
701E0
100
AcDbScale
 70
     0
300
1:100
140
1.0
141
100.0
290
     0
  0
SCALE
  5
701F4
102
{ACAD_REACTORS
330
701E0
102
}
330
701E0
100
AcDbScale
 70
     0
300
2:1
140
2.0
141
1.0
290
     0
  0
SCALE
  5
701F5
102
{ACAD_REACTORS
330
701E0
102
}
330
701E0
100
AcDbScale
 70
     0
300
4:1
140
4.0
141
1.0
290
     0
  0
SCALE
  5
701F6
102
{ACAD_REACTORS
330
701E0
102
}
330
701E0
100
AcDbScale
 70
     0
300
8:1
140
8.0
141
1.0
290
     0
  0
SCALE
  5
701F7
102
{ACAD_REACTORS
330
701E0
102
}
330
701E0
100
AcDbScale
 70
     0
300
10:1
140
10.0
141
1.0
290
     0
  0
SCALE
  5
701F8
102
{ACAD_REACTORS
330
701E0
102
}
330
701E0
100
AcDbScale
 70
     0
300
100:1
140
100.0
141
1.0
290
     0
  0
SCALE
  5
701F9
102
{ACAD_REACTORS
330
701E0
102
}
330
701E0
100
AcDbScale
 70
     0
300
1/128" = 1'-0"
140
0.007813
141
12.0
290
     0
  0
SCALE
  5
701FA
102
{ACAD_REACTORS
330
701E0
102
}
330
701E0
100
AcDbScale
 70
     0
300
1/64" = 1'-0"
140
0.015625
141
12.0
290
     0
  0
SCALE
  5
701FB
102
{ACAD_REACTORS
330
701E0
102
}
330
701E0
100
AcDbScale
 70
     0
300
1/32" = 1'-0"
140
0.03125
141
12.0
290
     0
  0
SCALE
  5
701FC
102
{ACAD_REACTORS
330
701E0
102
}
330
701E0
100
AcDbScale
 70
     0
300
1/16" = 1'-0"
140
0.0625
141
12.0
290
     0
  0
SCALE
  5
701FD
102
{ACAD_REACTORS
330
701E0
102
}
330
701E0
100
AcDbScale
 70
     0
300
3/32" = 1'-0"
140
0.09375
141
12.0
290
     0
  0
SCALE
  5
701FE
102
{ACAD_REACTORS
330
701E0
102
}
330
701E0
100
AcDbScale
 70
     0
300
1/8" = 1'-0"
140
0.125
141
12.0
290
     0
  0
SCALE
  5
701FF
102
{ACAD_REACTORS
330
701E0
102
}
330
701E0
100
AcDbScale
 70
     0
300
3/16" = 1'-0"
140
0.1875
141
12.0
290
     0
  0
SCALE
  5
70200
102
{ACAD_REACTORS
330
701E0
102
}
330
701E0
100
AcDbScale
 70
     0
300
1/4" = 1'-0"
140
0.25
141
12.0
290
     0
  0
SCALE
  5
70201
102
{ACAD_REACTORS
330
701E0
102
}
330
701E0
100
AcDbScale
 70
     0
300
3/8" = 1'-0"
140
0.375
141
12.0
290
     0
  0
SCALE
  5
70202
102
{ACAD_REACTORS
330
701E0
102
}
330
701E0
100
AcDbScale
 70
     0
300
1/2" = 1'-0"
140
0.5
141
12.0
290
     0
  0
SCALE
  5
70203
102
{ACAD_REACTORS
330
701E0
102
}
330
701E0
100
AcDbScale
 70
     0
300
3/4" = 1'-0"
140
0.75
141
12.0
290
     0
  0
SCALE
  5
70204
102
{ACAD_REACTORS
330
701E0
102
}
330
701E0
100
AcDbScale
 70
     0
300
1" = 1'-0"
140
1.0
141
12.0
290
     0
  0
SCALE
  5
70205
102
{ACAD_REACTORS
330
701E0
102
}
330
701E0
100
AcDbScale
 70
     0
300
1-1/2" = 1'-0"
140
1.5
141
12.0
290
     0
  0
SCALE
  5
70206
102
{ACAD_REACTORS
330
701E0
102
}
330
701E0
100
AcDbScale
 70
     0
300
3" = 1'-0"
140
3.0
141
12.0
290
     0
  0
SCALE
  5
70207
102
{ACAD_REACTORS
330
701E0
102
}
330
701E0
100
AcDbScale
 70
     0
300
6" = 1'-0"
140
6.0
141
12.0
290
     0
  0
SCALE
  5
70208
102
{ACAD_REACTORS
330
701E0
102
}
330
701E0
100
AcDbScale
 70
     0
300
1'-0" = 1'-0"
140
12.0
141
12.0
290
     0
  0
TABLESTYLE
  5
701E4
102
{ACAD_XDICTIONARY
360
701E5
102
}
102
{ACAD_REACTORS
330
701E1
102
}
330
701E1
100
AcDbTableStyle
280
     0
  3
Standard
 70
     0
 71
     0
 40
0.06
 41
0.06
280
     0
281
     0
  7
Standard
140
0.18
170
     2
 62
     0
 63
     7
283
     0
 90
        4
 91
        0
  1

274
    -2
284
     1
 64
     0
275
    -2
285
     1
 65
     0
276
    -2
286
     1
 66
     0
277
    -2
287
     1
 67
     0
278
    -2
288
     1
 68
     0
279
    -2
289
     1
 69
     0
  7
Standard
140
0.25
170
     5
 62
     0
 63
     7
283
     0
 90
        4
 91
        0
  1

274
    -2
284
     1
 64
     0
275
    -2
285
     1
 65
     0
276
    -2
286
     1
 66
     0
277
    -2
287
     1
 67
     0
278
    -2
288
     1
 68
     0
279
    -2
289
     1
 69
     0
  7
Standard
140
0.18
170
     5
 62
     0
 63
     7
283
     0
 90
        4
 91
        0
  1

274
    -2
284
     1
 64
     0
275
    -2
285
     1
 65
     0
276
    -2
286
     1
 66
     0
277
    -2
287
     1
 67
     0
278
    -2
288
     1
 68
     0
279
    -2
289
     1
 69
     0
  0
VISUALSTYLE
  5
701C5
102
{ACAD_REACTORS
330
701C6
102
}
330
701C6
100
AcDbVisualStyle
  2
2dWireframe
 70
     4
177
     3
291
     0
 70
    58
 90
        0
176
     1
 90
        2
176
     1
 90
        0
176
     1
 90
        0
176
     1
 40
0.6
176
     1
 40
30.0
176
     1
 62
     7
420
 16777215
176
     1
 90
        1
176
     1
 90
        4
176
     1
 62
     7
176
     1
 62
   257
176
     1
 90
        1
176
     1
 90
        1
176
     1
 40
1.0
176
     1
 90
        0
176
     1
 62
   257
176
     1
 40
1.0
176
     1
 90
        1
176
     1
 90
        6
176
     1
 90
        2
176
     1
 62
     7
176
     1
 90
        5
176
     1
 90
        0
176
     1
 90
        0
176
     1
290
     0
176
     1
 90
        1
176
     1
 40
0.0
176
     1
 90
        0
176
     1
290
     1
176
     1
290
     1
176
     1
290
     0
176
     1
290
     0
176
     1
290
     0
176
     1
290
     0
176
     1
290
     0
176
     1
290
     0
176
     1
290
     0
176
     1
 90
       50
176
     1
 40
0.0
176
     1
 40
1.0
176
     1
 90
        0
176
     1
 62
    18
420
        0
176
     1
 90
       50
176
     1
 90
        3
176
     1
 62
     5
420
      255
176
     1
290
     0
176
     1
 90
       50
176
     1
 90
       50
176
     1
 90
       50
176
     1
290
     0
176
     1
 90
       50
176
     1
 62
   256
176
     0
 40
1.0
176
     0
 90
        2
176
     1
  1
strokes_ogs.tif
176
     1
290
     0
176
     1
 40
1.0
176
     1
 40
1.0
176
     1
  0
VISUALSTYLE
  5
701E6
102
{ACAD_REACTORS
330
701C6
102
}
330
701C6
100
AcDbVisualStyle
  2
Realistic
 70
     8
177
     3
291
     0
 70
    58
 90
        2
176
     1
 90
        2
176
     1
 90
        0
176
     1
 90
        0
176
     1
 40
0.6
176
     1
 40
30.0
176
     1
 62
     7
420
 16777215
176
     1
 90
        1
176
     1
 90
        0
176
     1
 62
     7
176
     1
 62
   257
176
     1
 90
        1
176
     1
 90
        1
176
     1
 40
1.0
176
     1
 90
        8
176
     1
 62
     8
420
  7895160
176
     1
 40
1.0
176
     1
 90
        1
176
     1
 90
        6
176
     1
 90
        2
176
     1
 62
     7
176
     1
 90
        5
176
     1
 90
        0
176
     1
 90
        0
176
     1
290
     0
176
     1
 90
       13
176
     1
 40
0.0
176
     1
 90
        0
176
     1
290
     0
176
     1
290
     1
176
     1
290
     1
176
     1
290
     0
176
     1
290
     0
176
     1
290
     0
176
     1
290
     0
176
     1
290
     0
176
     1
290
     0
176
     1
 90
       50
176
     1
 40
0.0
176
     1
 40
1.0
176
     1
 90
        0
176
     1
 62
    18
420
        0
176
     1
 90
       50
176
     1
 90
        3
176
     1
 62
     5
420
      255
176
     1
290
     0
176
     1
 90
       50
176
     1
 90
       50
176
     1
 90
       50
176
     1
290
     0
176
     1
 90
       50
176
     1
 62
   256
176
     0
 40
1.0
176
     0
 90
        2
176
     1
  1
strokes_ogs.tif
176
     1
290
     0
176
     1
 40
1.0
176
     1
 40
1.0
176
     1
  0
VISUALSTYLE
  5
701E7
102
{ACAD_REACTORS
330
701C6
102
}
330
701C6
100
AcDbVisualStyle
  2
Wireframe
 70
     5
177
     3
291
     0
 70
    58
 90
        0
176
     1
 90
        2
176
     1
 90
        0
176
     1
 90
        0
176
     1
 40
0.6
176
     1
 40
30.0
176
     1
 62
     7
420
 16777215
176
     1
 90
        1
176
     1
 90
        4
176
     1
 62
     7
176
     1
 62
   257
176
     1
 90
        1
176
     1
 90
        1
176
     1
 40
1.0
176
     1
 90
        0
176
     1
 62
   257
176
     1
 40
1.0
176
     1
 90
        1
176
     1
 90
        6
176
     1
 90
        2
176
     1
 62
     7
176
     1
 90
        3
176
     1
 90
        0
176
     1
 90
        0
176
     1
290
     0
176
     1
 90
        1
176
     1
 40
0.0
176
     1
 90
        0
176
     1
290
     0
176
     1
290
     1
176
     1
290
     1
176
     1
290
     0
176
     1
290
     0
176
     1
290
     0
176
     1
290
     0
176
     1
290
     0
176
     1
290
     0
176
     1
 90
       50
176
     1
 40
0.0
176
     1
 40
1.0
176
     1
 90
        0
176
     1
 62
    18
420
        0
176
     1
 90
       50
176
     1
 90
        3
176
     1
 62
     5
420
      255
176
     1
290
     0
176
     1
 90
       50
176
     1
 90
       50
176
     1
 90
       50
176
     1
290
     0
176
     1
 90
       50
176
     1
 62
   256
176
     0
 40
1.0
176
     0
 90
        2
176
     1
  1
strokes_ogs.tif
176
     1
290
     0
176
     1
 40
1.0
176
     1
 40
1.0
176
     1
  0
DICTIONARYVAR
  5
70297
102
{ACAD_REACTORS
330
70291
102
}
330
70291
100
DictionaryVariables
280
     0
  1
1:1
  0
DICTIONARYVAR
  5
70293
102
{ACAD_REACTORS
330
70291
102
}
330
70291
100
DictionaryVariables
280
     0
  1
STANDARD
  0
DICTIONARYVAR
  5
70292
102
{ACAD_REACTORS
330
70291
102
}
330
70291
100
DictionaryVariables
280
     0
  1
STANDARD
  0
DICTIONARYVAR
  5
70294
102
{ACAD_REACTORS
330
70291
102
}
330
70291
100
DictionaryVariables
280
     0
  1

  0
DICTIONARYVAR
  5
70295
102
{ACAD_REACTORS
330
70291
102
}
330
70291
100
DictionaryVariables
280
     0
  1

  0
DICTIONARYVAR
  5
70298
102
{ACAD_REACTORS
330
70291
102
}
330
70291
100
DictionaryVariables
280
     0
  1
1
  0
DICTIONARYVAR
  5
70299
102
{ACAD_REACTORS
330
70291
102
}
330
70291
100
DictionaryVariables
280
     0
  1
15
  0
DICTIONARYVAR
  5
70296
102
{ACAD_REACTORS
330
70291
102
}
330
70291
100
DictionaryVariables
280
     0
  1
0
  0
DICTIONARY
  5
701B5
330
701B4
100
AcDbDictionary
280
     1
281
     1
  0
DICTIONARY
  5
701AF
330
701AD
100
AcDbDictionary
280
     1
281
     1
  0
DICTIONARY
  5
701D8
330
701D7
100
AcDbDictionary
280
     1
281
     1
  3
BUMPTILE
360
701D9
  3
DIFFUSETILE
360
701DA
  3
OPACITYTILE
360
701DB
  3
REFLECTIONTILE
360
701DC
  3
REFRACTIONTILE
360
701DD
  3
SPECULARTILE
360
701DE
  0
DICTIONARY
  5
701D0
330
701CF
100
AcDbDictionary
280
     1
281
     1
  3
BUMPTILE
360
701D1
  3
DIFFUSETILE
360
701D2
  3
OPACITYTILE
360
701D3
  3
REFLECTIONTILE
360
701D4
  3
REFRACTIONTILE
360
701D5
  3
SPECULARTILE
360
701D6
  0
DICTIONARY
  5
701A4
330
701A2
100
AcDbDictionary
280
     1
281
     1
  3
BUMPTILE
360
701A5
  3
DIFFUSETILE
360
701A6
  3
OPACITYTILE
360
701A7
  3
REFLECTIONTILE
360
701A8
  3
REFRACTIONTILE
360
701A9
  3
SPECULARTILE
360
701AA
  0
DICTIONARY
  5
701E5
330
701E4
100
AcDbDictionary
280
     1
281
     1
  3
ACAD_ROUNDTRIP_2008_TABLESTYLE_CELLSTYLEMAP
360
7029A
  0
XRECORD
  5
701D9
102
{ACAD_REACTORS
330
701D8
102
}
330
701D8
100
AcDbXrecord
280
     1
270
     1
271
     1
  0
XRECORD
  5
701DA
102
{ACAD_REACTORS
330
701D8
102
}
330
701D8
100
AcDbXrecord
280
     1
270
     1
271
     1
  0
XRECORD
  5
701DB
102
{ACAD_REACTORS
330
701D8
102
}
330
701D8
100
AcDbXrecord
280
     1
270
     1
271
     1
  0
XRECORD
  5
701DC
102
{ACAD_REACTORS
330
701D8
102
}
330
701D8
100
AcDbXrecord
280
     1
270
     1
271
     1
  0
XRECORD
  5
701DD
102
{ACAD_REACTORS
330
701D8
102
}
330
701D8
100
AcDbXrecord
280
     1
270
     1
271
     1
  0
XRECORD
  5
701DE
102
{ACAD_REACTORS
330
701D8
102
}
330
701D8
100
AcDbXrecord
280
     1
270
     1
271
     1
  0
XRECORD
  5
701D1
102
{ACAD_REACTORS
330
701D0
102
}
330
701D0
100
AcDbXrecord
280
     1
270
     1
271
     1
  0
XRECORD
  5
701D2
102
{ACAD_REACTORS
330
701D0
102
}
330
701D0
100
AcDbXrecord
280
     1
270
     1
271
     1
  0
XRECORD
  5
701D3
102
{ACAD_REACTORS
330
701D0
102
}
330
701D0
100
AcDbXrecord
280
     1
270
     1
271
     1
  0
XRECORD
  5
701D4
102
{ACAD_REACTORS
330
701D0
102
}
330
701D0
100
AcDbXrecord
280
     1
270
     1
271
     1
  0
XRECORD
  5
701D5
102
{ACAD_REACTORS
330
701D0
102
}
330
701D0
100
AcDbXrecord
280
     1
270
     1
271
     1
  0
XRECORD
  5
701D6
102
{ACAD_REACTORS
330
701D0
102
}
330
701D0
100
AcDbXrecord
280
     1
270
     1
271
     1
  0
XRECORD
  5
701A5
102
{ACAD_REACTORS
330
701A4
102
}
330
701A4
100
AcDbXrecord
280
     1
270
     1
271
     1
  0
XRECORD
  5
701A6
102
{ACAD_REACTORS
330
701A4
102
}
330
701A4
100
AcDbXrecord
280
     1
270
     1
271
     1
  0
XRECORD
  5
701A7
102
{ACAD_REACTORS
330
701A4
102
}
330
701A4
100
AcDbXrecord
280
     1
270
     1
271
     1
  0
XRECORD
  5
701A8
102
{ACAD_REACTORS
330
701A4
102
}
330
701A4
100
AcDbXrecord
280
     1
270
     1
271
     1
  0
XRECORD
  5
701A9
102
{ACAD_REACTORS
330
701A4
102
}
330
701A4
100
AcDbXrecord
280
     1
270
     1
271
     1
  0
XRECORD
  5
701AA
102
{ACAD_REACTORS
330
701A4
102
}
330
701A4
100
AcDbXrecord
280
     1
270
     1
271
     1
  0
CELLSTYLEMAP
  5
7029A
102
{ACAD_REACTORS
330
701E5
102
}
330
701E5
100
AcDbCellStyleMap
 90
        3
300
CELLSTYLE
  1
TABLEFORMAT_BEGIN
 90
        5
170
     1
 91
        0
 92
    32768
 62
   257
 93
        1
300
CONTENTFORMAT
  1
CONTENTFORMAT_BEGIN
 90
        0
 91
        0
 92
        4
 93
        0
300

 40
0.0
140
1.0
 94
        5
 62
     0
340
701BC
144
0.25
309
CONTENTFORMAT_END
171
     0
 94
        6
 95
        1
302
GRIDFORMAT
  1
GRIDFORMAT_BEGIN
 90
        0
 91
        1
 62
     0
 92
       -2
340
0
 93
        0
 40
0.045
309
GRIDFORMAT_END
 95
        2
302
GRIDFORMAT
  1
GRIDFORMAT_BEGIN
 90
        0
 91
        1
 62
     0
 92
       -2
340
0
 93
        0
 40
0.045
309
GRIDFORMAT_END
 95
        4
302
GRIDFORMAT
  1
GRIDFORMAT_BEGIN
 90
        0
 91
        1
 62
     0
 92
       -2
340
0
 93
        0
 40
0.045
309
GRIDFORMAT_END
 95
        8
302
GRIDFORMAT
  1
GRIDFORMAT_BEGIN
 90
        0
 91
        1
 62
     0
 92
       -2
340
0
 93
        0
 40
0.045
309
GRIDFORMAT_END
 95
       16
302
GRIDFORMAT
  1
GRIDFORMAT_BEGIN
 90
        0
 91
        1
 62
     0
 92
       -2
340
0
 93
        0
 40
0.045
309
GRIDFORMAT_END
 95
       32
302
GRIDFORMAT
  1
GRIDFORMAT_BEGIN
 90
        0
 91
        1
 62
     0
 92
       -2
340
0
 93
        0
 40
0.045
309
GRIDFORMAT_END
309
TABLEFORMAT_END
  1
CELLSTYLE_BEGIN
 90
        1
 91
        1
300
_TITLE
309
CELLSTYLE_END
300
CELLSTYLE
  1
TABLEFORMAT_BEGIN
 90
        5
170
     1
 91
        0
 92
        0
 62
   257
 93
        1
300
CONTENTFORMAT
  1
CONTENTFORMAT_BEGIN
 90
        0
 91
        0
 92
        4
 93
        0
300

 40
0.0
140
1.0
 94
        5
 62
     0
340
701BC
144
0.18
309
CONTENTFORMAT_END
171
     0
 94
        6
 95
        1
302
GRIDFORMAT
  1
GRIDFORMAT_BEGIN
 90
        0
 91
        1
 62
     0
 92
       -2
340
0
 93
        0
 40
0.045
309
GRIDFORMAT_END
 95
        2
302
GRIDFORMAT
  1
GRIDFORMAT_BEGIN
 90
        0
 91
        1
 62
     0
 92
       -2
340
0
 93
        0
 40
0.045
309
GRIDFORMAT_END
 95
        4
302
GRIDFORMAT
  1
GRIDFORMAT_BEGIN
 90
        0
 91
        1
 62
     0
 92
       -2
340
0
 93
        0
 40
0.045
309
GRIDFORMAT_END
 95
        8
302
GRIDFORMAT
  1
GRIDFORMAT_BEGIN
 90
        0
 91
        1
 62
     0
 92
       -2
340
0
 93
        0
 40
0.045
309
GRIDFORMAT_END
 95
       16
302
GRIDFORMAT
  1
GRIDFORMAT_BEGIN
 90
        0
 91
        1
 62
     0
 92
       -2
340
0
 93
        0
 40
0.045
309
GRIDFORMAT_END
 95
       32
302
GRIDFORMAT
  1
GRIDFORMAT_BEGIN
 90
        0
 91
        1
 62
     0
 92
       -2
340
0
 93
        0
 40
0.045
309
GRIDFORMAT_END
309
TABLEFORMAT_END
  1
CELLSTYLE_BEGIN
 90
        2
 91
        1
300
_HEADER
309
CELLSTYLE_END
300
CELLSTYLE
  1
TABLEFORMAT_BEGIN
 90
        5
170
     1
 91
        0
 92
        0
 62
   257
 93
        1
300
CONTENTFORMAT
  1
CONTENTFORMAT_BEGIN
 90
        0
 91
        0
 92
        4
 93
        0
300

 40
0.0
140
1.0
 94
        2
 62
     0
340
701BC
144
0.18
309
CONTENTFORMAT_END
171
     0
 94
        6
 95
        1
302
GRIDFORMAT
  1
GRIDFORMAT_BEGIN
 90
        0
 91
        1
 62
     0
 92
       -2
340
0
 93
        0
 40
0.045
309
GRIDFORMAT_END
 95
        2
302
GRIDFORMAT
  1
GRIDFORMAT_BEGIN
 90
        0
 91
        1
 62
     0
 92
       -2
340
0
 93
        0
 40
0.045
309
GRIDFORMAT_END
 95
        4
302
GRIDFORMAT
  1
GRIDFORMAT_BEGIN
 90
        0
 91
        1
 62
     0
 92
       -2
340
0
 93
        0
 40
0.045
309
GRIDFORMAT_END
 95
        8
302
GRIDFORMAT
  1
GRIDFORMAT_BEGIN
 90
        0
 91
        1
 62
     0
 92
       -2
340
0
 93
        0
 40
0.045
309
GRIDFORMAT_END
 95
       16
302
GRIDFORMAT
  1
GRIDFORMAT_BEGIN
 90
        0
 91
        1
 62
     0
 92
       -2
340
0
 93
        0
 40
0.045
309
GRIDFORMAT_END
 95
       32
302
GRIDFORMAT
  1
GRIDFORMAT_BEGIN
 90
        0
 91
        1
 62
     0
 92
       -2
340
0
 93
        0
 40
0.045
309
GRIDFORMAT_END
309
TABLEFORMAT_END
  1
CELLSTYLE_BEGIN
 90
        3
 91
        2
300
_DATA
309
CELLSTYLE_END
  0
ENDSEC
  0
SECTION
  2
ACDSDATA
 70
     2
 71
     6
  0
ACDSSCHEMA
 90
        0
  1
AcDb_Thumbnail_Schema
  2
AcDbDs::ID
280
    10
 91
        8
  2
Thumbnail_Data
280
    15
 91
        0
101
ACDSRECORD
 95
        0
 90
        1
  2
AcDbDs::TreatedAsObjectData
280
     1
291
     1
101
ACDSRECORD
 95
        0
 90
        2
  2
AcDbDs::Legacy
280
     1
291
     1
101
ACDSRECORD
  1
AcDbDs::ID
 90
        3
  2
AcDs:Indexable
280
     1
291
     1
101
ACDSRECORD
  1
AcDbDs::ID
 90
        4
  2
AcDbDs::HandleAttribute
280
     7
282
     1
  0
ACDSSCHEMA
 90
        1
  1
AcDbDs::TreatedAsObjectDataSchema
  2
AcDbDs::TreatedAsObjectData
280
     1
 91
        0
  0
ACDSSCHEMA
 90
        2
  1
AcDbDs::LegacySchema
  2
AcDbDs::Legacy
280
     1
 91
        0
  0
ACDSSCHEMA
 90
        3
  1
AcDbDs::IndexedPropertySchema
  2
AcDs:Indexable
280
     1
 91
        0
  0
ACDSSCHEMA
 90
        4
  1
AcDbDs::HandleAttributeSchema
  2
AcDbDs::HandleAttribute
280
     7
 91
        1
284
     1
  0
ACDSRECORD
 90
        0
  2
AcDbDs::ID
280
    10
320
701B4
  2
Thumbnail_Data
280
    15
 94
     1183
310
89504E470D0A1A0A0000000D4948445200000100000000C508030000008CFEDCE700000300504C5445FFFFFF000000FFFFFF0000000000000000000000000000000000000000000000000000330000660000990000CC0000FF0033000033330033660033990033CC0033FF0066000066330066660066990066CC0066FF0099
310
000099330099660099990099CC0099FF00CC0000CC3300CC6600CC9900CCCC00CCFF00FF0000FF3300FF6600FF9900FFCC00FFFF3300003300333300663300993300CC3300FF3333003333333333663333993333CC3333FF3366003366333366663366993366CC3366FF3399003399333399663399993399CC3399FF33CC00
310
33CC3333CC6633CC9933CCCC33CCFF33FF0033FF3333FF6633FF9933FFCC33FFFF6600006600336600666600996600CC6600FF6633006633336633666633996633CC6633FF6666006666336666666666996666CC6666FF6699006699336699666699996699CC6699FF66CC0066CC3366CC6666CC9966CCCC66CCFF66FF0066
310
FF3366FF6666FF9966FFCC66FFFF9900009900339900669900999900CC9900FF9933009933339933669933999933CC9933FF9966009966339966669966999966CC9966FF9999009999339999669999999999CC9999FF99CC0099CC3399CC6699CC9999CCCC99CCFF99FF0099FF3399FF6699FF9999FFCC99FFFFCC0000CC00
310
33CC0066CC0099CC00CCCC00FFCC3300CC3333CC3366CC3399CC33CCCC33FFCC6600CC6633CC6666CC6699CC66CCCC66FFCC9900CC9933CC9966CC9999CC99CCCC99FFCCCC00CCCC33CCCC66CCCC99CCCCCCCCCCFFCCFF00CCFF33CCFF66CCFF99CCFFCCCCFFFFFF0000FF0033FF0066FF0099FF00CCFF00FFFF3300FF3333
310
FF3366FF3399FF33CCFF33FFFF6600FF6633FF6666FF6699FF66CCFF66FFFF9900FF9933FF9966FF9999FF99CCFF99FFFFCC00FFCC33FFCC66FFCC99FFCCCCFFCCFFFFFF00FFFF33FFFF66FFFF99FFFFCCFFFFFF0000000D0D0D1A1A1A2828283535354343435050505D5D5D6B6B6B787878868686939393A1A1A1AEAEAEBB
310
BBBBC9C9C9D6D6D6E4E4E4F1F1F1FFFFFF000000000000000000000000000000000000000000000000000000000000790CAC0F0000015A4944415478DAEDD8410A8340100440FFFFCCF9C09EE61E104224896014844D579F64F420A587DE592A3A632CD5C101100F500500C0F36ACDF6D636BFCEEBAEF9E9177D0788FBF600
310
000000000000004D1000000000000000100F50FB4F4C9E8B5578FAFF0300000000000000000000000000000000B00BD069000D0000000000000000A009020000000000000000000000000000000052013A0DA001000000000000000000A8C2000000000000000000000000000000402A40FC420400000000000000002016C0
310
5900000000000000000000000000000000C803885F88000000000000000000C402380B0000000000000000000000000000000000E2003A0DA0010000000000000000344100000000000000000000000000000000C0E7C660F21C04080D0000000000000000C01F54DE73151900000000000000D0AFCDCFB6227CDDAB1C9CD7
310
5DF3D32FAA0902000000C00A109E658C110DF0000E6CC6FBCCF8EC2E0000000049454E44AE426082
  0
ACDSRECORD
 90
        0
  2
AcDbDs::ID
280
    10
320
701AD
  2
Thumbnail_Data
280
    15
 94
     1017
310
89504E470D0A1A0A0000000D4948445200000100000000890803000000F46416F000000300504C5445FEFCF0000000FFFFFF0000000000000000000000000000000000000000000000000000330000660000990000CC0000FF0033000033330033660033990033CC0033FF0066000066330066660066990066CC0066FF0099
310
000099330099660099990099CC0099FF00CC0000CC3300CC6600CC9900CCCC00CCFF00FF0000FF3300FF6600FF9900FFCC00FFFF3300003300333300663300993300CC3300FF3333003333333333663333993333CC3333FF3366003366333366663366993366CC3366FF3399003399333399663399993399CC3399FF33CC00
310
33CC3333CC6633CC9933CCCC33CCFF33FF0033FF3333FF6633FF9933FFCC33FFFF6600006600336600666600996600CC6600FF6633006633336633666633996633CC6633FF6666006666336666666666996666CC6666FF6699006699336699666699996699CC6699FF66CC0066CC3366CC6666CC9966CCCC66CCFF66FF0066
310
FF3366FF6666FF9966FFCC66FFFF9900009900339900669900999900CC9900FF9933009933339933669933999933CC9933FF9966009966339966669966999966CC9966FF9999009999339999669999999999CC9999FF99CC0099CC3399CC6699CC9999CCCC99CCFF99FF0099FF3399FF6699FF9999FFCC99FFFFCC0000CC00
310
33CC0066CC0099CC00CCCC00FFCC3300CC3333CC3366CC3399CC33CCCC33FFCC6600CC6633CC6666CC6699CC66CCCC66FFCC9900CC9933CC9966CC9999CC99CCCC99FFCCCC00CCCC33CCCC66CCCC99CCCCCCCCCCFFCCFF00CCFF33CCFF66CCFF99CCFFCCCCFFFFFF0000FF0033FF0066FF0099FF00CCFF00FFFF3300FF3333
310
FF3366FF3399FF33CCFF33FFFF6600FF6633FF6666FF6699FF66CCFF66FFFF9900FF9933FF9966FF9999FF99CCFF99FFFFCC00FFCC33FFCC66FFCC99FFCCCCFFCCFFFFFF00FFFF33FFFF66FFFF99FFFFCCFFFFFF0000000D0D0D1A1A1A2828283535354343435050505D5D5D6B6B6B787878868686939393A1A1A1AEAEAEBB
310
BBBBC9C9C9D6D6D6E4E4E4F1F1F1FFFFFF0000000000000000000000000000000000000000000000000000000000007C77BAA7000000B44944415478DAEDD0310100000C0220FBB7B48931760C22903E1701020408102040800001020408102040800001020408102040800001020408102040800001020408102040800001
310
020408102040800001020408102040800001020408102040800001020408102040800001020408102040800001020408102040800001020408102040800001020408102040800001020408102040800001020408102040800001020408102040800001020408102040C099016B33700943E05F3C0000000049454E44AE4260
310
82
  0
ENDSEC
  0
EOF
