  0
SECTION
  2
HEADER
  9
$ACADVER
  1
AC1027
  9
$ACADMAINTVER
 70
    55
  9
$DWGCODEPAGE
  3
ANSI_1252
  9
$AUTHOR
  1
WAEngineering1
  9
$LASTSAVEDBY
  1
WAMarketing2
  9
$REQUIREDVERSIONS
160
                 0
  9
$INSBASE
 10
0.0
 20
0.0
 30
0.0
  9
$EXTMIN
 10
1238.039
 20
-1345.914
 30
0.0
  9
$EXTMAX
 10
4537.548
 20
1464.087
 30
0.0
  9
$LIMMIN
 10
-5780.047122
 20
-8608.754122
  9
$LIMMAX
 10
11555.634122
 20
8726.927122
  9
$ORTHOMODE
 70
     0
  9
$REGENMODE
 70
     1
  9
$FILLMODE
 70
     1
  9
$QTEXTMODE
 70
     0
  9
$MIRRTEXT
 70
     0
  9
$LTSCALE
 40
1.0
  9
$ATTMODE
 70
     1
  9
$TEXTSIZE
 40
100.0
  9
$TRACEWID
 40
0.05
  9
$TEXTSTYLE
  7
Standard
  9
$CLAYER
  8
Level 8
  9
$CELTYPE
  6
Continuous
  9
$CECOLOR
 62
    98
  9
$CELTSCALE
 40
1.0
  9
$DISPSILH
 70
     0
  9
$DIMSCALE
 40
1.0
  9
$DIMASZ
 40
0.18
  9
$DIMEXO
 40
0.0625
  9
$DIMDLI
 40
0.38
  9
$DIMRND
 40
0.0
  9
$DIMDLE
 40
0.0
  9
$DIMEXE
 40
0.18
  9
$DIMTP
 40
0.0
  9
$DIMTM
 40
0.0
  9
$DIMTXT
 40
0.18
  9
$DIMCEN
 40
0.09
  9
$DIMTSZ
 40
0.0
  9
$DIMTOL
 70
     0
  9
$DIMLIM
 70
     0
  9
$DIMTIH
 70
     1
  9
$DIMTOH
 70
     1
  9
$DIMSE1
 70
     0
  9
$DIMSE2
 70
     0
  9
$DIMTAD
 70
     0
  9
$DIMZIN
 70
     0
  9
$DIMBLK
  1

  9
$DIMASO
 70
     1
  9
$DIMSHO
 70
     1
  9
$DIMPOST
  1

  9
$DIMAPOST
  1

  9
$DIMALT
 70
     0
  9
$DIMALTD
 70
     2
  9
$DIMALTF
 40
25.4
  9
$DIMLFAC
 40
1.0
  9
$DIMTOFL
 70
     0
  9
$DIMTVP
 40
0.0
  9
$DIMTIX
 70
     0
  9
$DIMSOXD
 70
     0
  9
$DIMSAH
 70
     0
  9
$DIMBLK1
  1

  9
$DIMBLK2
  1

  9
$DIMSTYLE
  2
Standard
  9
$DIMCLRD
 70
     0
  9
$DIMCLRE
 70
     0
  9
$DIMCLRT
 70
     0
  9
$DIMTFAC
 40
1.0
  9
$DIMGAP
 40
0.09
  9
$DIMJUST
 70
     0
  9
$DIMSD1
 70
     0
  9
$DIMSD2
 70
     0
  9
$DIMTOLJ
 70
     1
  9
$DIMTZIN
 70
     0
  9
$DIMALTZ
 70
     0
  9
$DIMALTTZ
 70
     0
  9
$DIMUPT
 70
     0
  9
$DIMDEC
 70
     4
  9
$DIMTDEC
 70
     4
  9
$DIMALTU
 70
     2
  9
$DIMALTTD
 70
     2
  9
$DIMTXSTY
  7
Standard
  9
$DIMAUNIT
 70
     0
  9
$DIMADEC
 70
     0
  9
$DIMALTRND
 40
0.0
  9
$DIMAZIN
 70
     0
  9
$DIMDSEP
 70
    46
  9
$DIMATFIT
 70
     3
  9
$DIMFRAC
 70
     0
  9
$DIMLDRBLK
  1

  9
$DIMLUNIT
 70
     2
  9
$DIMLWD
 70
    -2
  9
$DIMLWE
 70
    -2
  9
$DIMTMOVE
 70
     0
  9
$DIMFXL
 40
1.0
  9
$DIMFXLON
 70
     0
  9
$DIMJOGANG
 40
0.785398
  9
$DIMTFILL
 70
     0
  9
$DIMTFILLCLR
 70
     0
  9
$DIMARCSYM
 70
     0
  9
$DIMLTYPE
  6

  9
$DIMLTEX1
  6

  9
$DIMLTEX2
  6

  9
$DIMTXTDIRECTION
 70
     0
  9
$LUNITS
 70
     2
  9
$LUPREC
 70
     0
  9
$SKETCHINC
 40
0.1
  9
$FILLETRAD
 40
0.0
  9
$AUNITS
 70
     0
  9
$AUPREC
 70
     0
  9
$MENU
  1
.
  9
$ELEVATION
 40
0.0
  9
$PELEVATION
 40
0.0
  9
$THICKNESS
 40
0.0
  9
$LIMCHECK
 70
     0
  9
$CHAMFERA
 40
0.0
  9
$CHAMFERB
 40
0.0
  9
$CHAMFERC
 40
0.0
  9
$CHAMFERD
 40
0.0
  9
$SKPOLY
 70
     0
  9
$TDCREATE
 40
2454145.111357350
  9
$TDUCREATE
 40
2454144.778024017
  9
$TDUPDATE
 40
2455657.145108565
  9
$TDUUPDATE
 40
2455656.811775231
  9
$TDINDWG
 40
0.0262176852
  9
$TDUSRTIMER
 40
0.0262175000
  9
$USRTIMER
 70
     1
  9
$ANGBASE
 50
0.0
  9
$ANGDIR
 70
     0
  9
$PDMODE
 70
     0
  9
$PDSIZE
 40
0.0
  9
$PLINEWID
 40
0.0
  9
$SPLFRAME
 70
     0
  9
$SPLINETYPE
 70
     6
  9
$SPLINESEGS
 70
     8
  9
$HANDSEED
  5
703AF
  9
$SURFTAB1
 70
     6
  9
$SURFTAB2
 70
     6
  9
$SURFTYPE
 70
     6
  9
$SURFU
 70
     6
  9
$SURFV
 70
     6
  9
$UCSBASE
  2

  9
$UCSNAME
  2

  9
$UCSORG
 10
0.0
 20
0.0
 30
0.0
  9
$UCSXDIR
 10
1.0
 20
0.0
 30
0.0
  9
$UCSYDIR
 10
0.0
 20
1.0
 30
0.0
  9
$UCSORTHOREF
  2

  9
$UCSORTHOVIEW
 70
     0
  9
$UCSORGTOP
 10
0.0
 20
0.0
 30
0.0
  9
$UCSORGBOTTOM
 10
0.0
 20
0.0
 30
0.0
  9
$UCSORGLEFT
 10
0.0
 20
0.0
 30
0.0
  9
$UCSORGRIGHT
 10
0.0
 20
0.0
 30
0.0
  9
$UCSORGFRONT
 10
0.0
 20
0.0
 30
0.0
  9
$UCSORGBACK
 10
0.0
 20
0.0
 30
0.0
  9
$PUCSBASE
  2

  9
$PUCSNAME
  2

  9
$PUCSORG
 10
0.0
 20
0.0
 30
0.0
  9
$PUCSXDIR
 10
1.0
 20
0.0
 30
0.0
  9
$PUCSYDIR
 10
0.0
 20
1.0
 30
0.0
  9
$PUCSORTHOREF
  2

  9
$PUCSORTHOVIEW
 70
     0
  9
$PUCSORGTOP
 10
0.0
 20
0.0
 30
0.0
  9
$PUCSORGBOTTOM
 10
0.0
 20
0.0
 30
0.0
  9
$PUCSORGLEFT
 10
0.0
 20
0.0
 30
0.0
  9
$PUCSORGRIGHT
 10
0.0
 20
0.0
 30
0.0
  9
$PUCSORGFRONT
 10
0.0
 20
0.0
 30
0.0
  9
$PUCSORGBACK
 10
0.0
 20
0.0
 30
0.0
  9
$USERI1
 70
     0
  9
$USERI2
 70
     0
  9
$USERI3
 70
     0
  9
$USERI4
 70
     0
  9
$USERI5
 70
     0
  9
$USERR1
 40
0.0
  9
$USERR2
 40
0.0
  9
$USERR3
 40
0.0
  9
$USERR4
 40
0.0
  9
$USERR5
 40
0.0
  9
$WORLDVIEW
 70
     1
  9
$SHADEDGE
 70
     3
  9
$SHADEDIF
 70
    70
  9
$TILEMODE
 70
     1
  9
$MAXACTVP
 70
    64
  9
$PINSBASE
 10
0.0
 20
0.0
 30
0.0
  9
$PLIMCHECK
 70
     0
  9
$PEXTMIN
 10
1.05
 20
0.8
 30
0.0
  9
$PEXTMAX
 10
9.45
 20
7.2
 30
0.0
  9
$PLIMMIN
 10
-0.25
 20
-0.25
  9
$PLIMMAX
 10
10.75
 20
8.25
  9
$UNITMODE
 70
     0
  9
$VISRETAIN
 70
     1
  9
$PLINEGEN
 70
     0
  9
$PSLTSCALE
 70
     0
  9
$TREEDEPTH
 70
  3020
  9
$CMLSTYLE
  2
Standard
  9
$CMLJUST
 70
     0
  9
$CMLSCALE
 40
1.0
  9
$PROXYGRAPHICS
 70
     1
  9
$MEASUREMENT
 70
     0
  9
$CELWEIGHT
370
     0
  9
$ENDCAPS
280
     0
  9
$JOINSTYLE
280
     0
  9
$LWDISPLAY
290
     1
  9
$INSUNITS
 70
     4
  9
$HYPERLINKBASE
  1

  9
$STYLESHEET
  1

  9
$XEDIT
290
     1
  9
$CEPSNTYPE
380
     0
  9
$PSTYLEMODE
290
     1
  9
$FINGERPRINTGUID
  2
{B4B9DF29-6D85-47A9-B684-C32ED41EECF3}
  9
$VERSIONGUID
  2
{5066CCA6-5121-4C7B-A04C-375F92FA871B}
  9
$EXTNAMES
290
     1
  9
$PSVPSCALE
 40
0.0
  9
$OLESTARTUP
290
     0
  9
$SORTENTS
280
   127
  9
$INDEXCTL
280
     0
  9
$HIDETEXT
280
     1
  9
$XCLIPFRAME
280
     0
  9
$HALOGAP
280
     0
  9
$OBSCOLOR
 70
   257
  9
$OBSLTYPE
280
     0
  9
$INTERSECTIONDISPLAY
280
     0
  9
$INTERSECTIONCOLOR
 70
   257
  9
$DIMASSOC
280
     1
  9
$PROJECTNAME
  1

  9
$CAMERADISPLAY
290
     0
  9
$LENSLENGTH
 40
50.0
  9
$CAMERAHEIGHT
 40
0.0
  9
$STEPSPERSEC
 40
2.0
  9
$STEPSIZE
 40
6.0
  9
$3DDWFPREC
 40
2.0
  9
$PSOLWIDTH
 40
0.25
  9
$PSOLHEIGHT
 40
4.0
  9
$LOFTANG1
 40
1.570796
  9
$LOFTANG2
 40
1.570796
  9
$LOFTMAG1
 40
0.0
  9
$LOFTMAG2
 40
0.0
  9
$LOFTPARAM
 70
     7
  9
$LOFTNORMALS
280
     1
  9
$LATITUDE
 40
37.795
  9
$LONGITUDE
 40
-122.394
  9
$NORTHDIRECTION
 40
0.0
  9
$TIMEZONE
 70
 -8000
  9
$LIGHTGLYPHDISPLAY
280
     1
  9
$TILEMODELIGHTSYNCH
280
     1
  9
$CMATERIAL
347
70297
  9
$SOLIDHIST
280
     1
  9
$SHOWHIST
280
     1
  9
$DWFFRAME
280
     2
  9
$DGNFRAME
280
     0
  9
$REALWORLDSCALE
290
     1
  9
$INTERFERECOLOR
 62
     1
  9
$INTERFEREOBJVS
345
702AE
  9
$INTERFEREVPVS
346
702AF
  9
$CSHADOW
280
     0
  9
$SHADOWPLANELOCATION
 40
0.0
  0
ENDSEC
  0
SECTION
  2
CLASSES
  0
CLASS
  1
ACDBDICTIONARYWDFLT
  2
AcDbDictionaryWithDefault
  3
ObjectDBX Classes
 90
        0
 91
        1
280
     0
281
     0
  0
CLASS
  1
DICTIONARYVAR
  2
AcDbDictionaryVar
  3
ObjectDBX Classes
 90
        0
 91
        8
280
     0
281
     0
  0
CLASS
  1
TABLESTYLE
  2
AcDbTableStyle
  3
ObjectDBX Classes
 90
     4095
 91
        1
280
     0
281
     0
  0
CLASS
  1
MATERIAL
  2
AcDbMaterial
  3
ObjectDBX Classes
 90
     1153
 91
        3
280
     0
281
     0
  0
CLASS
  1
VISUALSTYLE
  2
AcDbVisualStyle
  3
ObjectDBX Classes
 90
     4095
 91
        3
280
     0
281
     0
  0
CLASS
  1
SCALE
  2
AcDbScale
  3
ObjectDBX Classes
 90
     1153
 91
       33
280
     0
281
     0
  0
CLASS
  1
MLEADERSTYLE
  2
AcDbMLeaderStyle
  3
ACDB_MLEADERSTYLE_CLASS
 90
     4095
 91
        0
280
     0
281
     0
  0
CLASS
  1
EXACXREFPANELOBJECT
  2
ExAcXREFPanelObject
  3
EXAC_ESW
 90
     1025
 91
        0
280
     1
281
     0
  0
CLASS
  1
NPOCOLLECTION
  2
AcDbImpNonPersistentObjectsCollection
  3
ObjectDBX Classes
 90
     1153
 91
        0
280
     0
281
     0
  0
CLASS
  1
CELLSTYLEMAP
  2
AcDbCellStyleMap
  3
ObjectDBX Classes
 90
     1152
 91
        1
280
     0
281
     0
  0
CLASS
  1
ACDBSECTIONVIEWSTYLE
  2
AcDbSectionViewStyle
  3
ObjectDBX Classes
 90
     1025
 91
        0
280
     0
281
     0
  0
CLASS
  1
ACDBDETAILVIEWSTYLE
  2
AcDbDetailViewStyle
  3
ObjectDBX Classes
 90
     1025
 91
        0
280
     0
281
     0
  0
CLASS
  1
SORTENTSTABLE
  2
AcDbSortentsTable
  3
ObjectDBX Classes
 90
        0
 91
        1
280
     0
281
     0
  0
ENDSEC
  0
SECTION
  2
TABLES
  0
TABLE
  2
VPORT
  5
7028B
330
0
100
AcDbSymbolTable
 70
     2
  0
VPORT
  5
4B
330
7028B
100
AcDbSymbolTableRecord
100
AcDbViewportTableRecord
  2
*ACTIVE
 70
     0
 10
0.0
 20
0.0
 11
1.0
 21
1.0
 12
2887.7935
 22
59.0865
 13
0.0
 23
0.0
 14
1.0
 24
1.0
 15
1.0
 25
1.0
 16
0.0
 26
0.0
 36
1.0
 17
0.0
 27
0.0
 37
0.0
 40
2922.40104
 41
2.090493
 42
50.0
 43
0.0
 44
0.0
 50
0.0
 51
0.0
 71
     0
 72
   100
 73
     1
 74
     0
 75
     0
 76
     0
 77
     0
 78
     1
281
     0
 65
     1
110
0.0
120
0.0
130
0.0
111
1.0
121
0.0
131
0.0
112
0.0
122
1.0
132
0.0
 79
     0
146
0.0
 60
     3
 61
    10
292
     0
282
     1
141
0.0
142
0.0
 63
     7
421
 16777215
  0
ENDTAB
  0
TABLE
  2
LTYPE
  5
70286
330
0
100
AcDbSymbolTable
 70
     2
  0
LTYPE
  5
70287
330
70286
100
AcDbSymbolTableRecord
100
AcDbLinetypeTableRecord
  2
ByBlock
 70
     0
  3

 72
    65
 73
     0
 40
0.0
  0
LTYPE
  5
70288
330
70286
100
AcDbSymbolTableRecord
100
AcDbLinetypeTableRecord
  2
ByLayer
 70
     0
  3

 72
    65
 73
     0
 40
0.0
  0
LTYPE
  5
70273
330
70286
100
AcDbSymbolTableRecord
100
AcDbLinetypeTableRecord
  2
Continuous
 70
     0
  3
Solid line
 72
    65
 73
     0
 40
0.0
  0
LTYPE
  5
703A2
330
70286
100
AcDbSymbolTableRecord
100
AcDbLinetypeTableRecord
  2
DGN Style 2
 70
     0
  3
Dgn Style 2
 72
    65
 73
     2
 40
61.092576
 49
36.655546
 74
     0
 49
-24.43703
 74
     0
  0
ENDTAB
  0
TABLE
  2
LAYER
  5
70280
102
{ACAD_XDICTIONARY
360
70281
102
}
330
0
100
AcDbSymbolTable
 70
    66
  0
LAYER
  5
70264
102
{ACAD_XDICTIONARY
360
70265
102
}
330
70280
100
AcDbSymbolTableRecord
100
AcDbLayerTableRecord
  2
0
 70
     0
 62
     7
  6
Continuous
370
    -3
390
70267
347
7026A
348
0
1001
AcCmTransparency
1071
 33554687
  0
LAYER
  5
7
330
70280
100
AcDbSymbolTableRecord
100
AcDbLayerTableRecord
  2
Level 1
 70
     0
 62
     7
  6
Continuous
370
     0
390
70267
347
7026A
348
0
1001
AcCmTransparency
1071
 33554687
  0
LAYER
  5
8
330
70280
100
AcDbSymbolTableRecord
100
AcDbLayerTableRecord
  2
Level 2
 70
     0
 62
     7
  6
Continuous
370
     0
390
70267
347
7026A
348
0
1001
AcCmTransparency
1071
 33554687
  0
LAYER
  5
9
330
70280
100
AcDbSymbolTableRecord
100
AcDbLayerTableRecord
  2
Level 3
 70
     0
 62
     7
  6
Continuous
370
     0
390
70267
347
7026A
348
0
1001
AcCmTransparency
1071
 33554687
  0
LAYER
  5
A
330
70280
100
AcDbSymbolTableRecord
100
AcDbLayerTableRecord
  2
Level 4
 70
     0
 62
     7
  6
Continuous
370
     0
390
70267
347
7026A
348
0
1001
AcCmTransparency
1071
 33554687
  0
LAYER
  5
B
330
70280
100
AcDbSymbolTableRecord
100
AcDbLayerTableRecord
  2
Level 5
 70
     0
 62
     7
  6
Continuous
370
     0
390
70267
347
7026A
348
0
1001
AcCmTransparency
1071
 33554687
  0
LAYER
  5
C
330
70280
100
AcDbSymbolTableRecord
100
AcDbLayerTableRecord
  2
Level 6
 70
     0
 62
     7
  6
Continuous
370
     0
390
70267
347
7026A
348
0
1001
AcCmTransparency
1071
 33554687
  0
LAYER
  5
D
330
70280
100
AcDbSymbolTableRecord
100
AcDbLayerTableRecord
  2
Level 7
 70
     0
 62
     7
  6
Continuous
370
     0
390
70267
347
7026A
348
0
1001
AcCmTransparency
1071
 33554687
  0
LAYER
  5
E
330
70280
100
AcDbSymbolTableRecord
100
AcDbLayerTableRecord
  2
Level 8
 70
     0
 62
     7
  6
Continuous
370
     0
390
70267
347
7026A
348
0
1001
AcCmTransparency
1071
 33554687
  0
LAYER
  5
F
330
70280
100
AcDbSymbolTableRecord
100
AcDbLayerTableRecord
  2
Level 9
 70
     0
 62
     7
  6
Continuous
370
     0
390
70267
347
7026A
348
0
1001
AcCmTransparency
1071
 33554687
  0
LAYER
  5
10
330
70280
100
AcDbSymbolTableRecord
100
AcDbLayerTableRecord
  2
Level 10
 70
     0
 62
     7
  6
Continuous
370
     0
390
70267
347
7026A
348
0
1001
AcCmTransparency
1071
 33554687
  0
LAYER
  5
11
330
70280
100
AcDbSymbolTableRecord
100
AcDbLayerTableRecord
  2
Level 11
 70
     0
 62
     7
  6
Continuous
370
     0
390
70267
347
7026A
348
0
1001
AcCmTransparency
1071
 33554687
  0
LAYER
  5
12
330
70280
100
AcDbSymbolTableRecord
100
AcDbLayerTableRecord
  2
Level 12
 70
     0
 62
     7
  6
Continuous
370
     0
390
70267
347
7026A
348
0
1001
AcCmTransparency
1071
 33554687
  0
LAYER
  5
13
330
70280
100
AcDbSymbolTableRecord
100
AcDbLayerTableRecord
  2
Level 13
 70
     0
 62
     7
  6
Continuous
370
     0
390
70267
347
7026A
348
0
1001
AcCmTransparency
1071
 33554687
  0
LAYER
  5
14
330
70280
100
AcDbSymbolTableRecord
100
AcDbLayerTableRecord
  2
Level 14
 70
     0
 62
     7
  6
Continuous
370
     0
390
70267
347
7026A
348
0
1001
AcCmTransparency
1071
 33554687
  0
LAYER
  5
15
330
70280
100
AcDbSymbolTableRecord
100
AcDbLayerTableRecord
  2
Level 15
 70
     0
 62
     7
  6
Continuous
370
     0
390
70267
347
7026A
348
0
1001
AcCmTransparency
1071
 33554687
  0
LAYER
  5
16
330
70280
100
AcDbSymbolTableRecord
100
AcDbLayerTableRecord
  2
Level 16
 70
     0
 62
     7
  6
Continuous
370
     0
390
70267
347
7026A
348
0
1001
AcCmTransparency
1071
 33554687
  0
LAYER
  5
17
330
70280
100
AcDbSymbolTableRecord
100
AcDbLayerTableRecord
  2
Level 17
 70
     0
 62
     7
  6
Continuous
370
     0
390
70267
347
7026A
348
0
1001
AcCmTransparency
1071
 33554687
  0
LAYER
  5
18
330
70280
100
AcDbSymbolTableRecord
100
AcDbLayerTableRecord
  2
Level 18
 70
     0
 62
     7
  6
Continuous
370
     0
390
70267
347
7026A
348
0
1001
AcCmTransparency
1071
 33554687
  0
LAYER
  5
19
330
70280
100
AcDbSymbolTableRecord
100
AcDbLayerTableRecord
  2
Level 19
 70
     0
 62
     7
  6
Continuous
370
     0
390
70267
347
7026A
348
0
1001
AcCmTransparency
1071
 33554687
  0
LAYER
  5
1A
330
70280
100
AcDbSymbolTableRecord
100
AcDbLayerTableRecord
  2
Level 20
 70
     0
 62
     7
  6
Continuous
370
     0
390
70267
347
7026A
348
0
1001
AcCmTransparency
1071
 33554687
  0
LAYER
  5
1B
330
70280
100
AcDbSymbolTableRecord
100
AcDbLayerTableRecord
  2
Level 21
 70
     0
 62
     7
  6
Continuous
370
     0
390
70267
347
7026A
348
0
1001
AcCmTransparency
1071
 33554687
  0
LAYER
  5
1C
330
70280
100
AcDbSymbolTableRecord
100
AcDbLayerTableRecord
  2
Level 22
 70
     0
 62
     7
  6
Continuous
370
     0
390
70267
347
7026A
348
0
1001
AcCmTransparency
1071
 33554687
  0
LAYER
  5
1D
330
70280
100
AcDbSymbolTableRecord
100
AcDbLayerTableRecord
  2
Level 23
 70
     0
 62
     7
  6
Continuous
370
     0
390
70267
347
7026A
348
0
1001
AcCmTransparency
1071
 33554687
  0
LAYER
  5
1E
330
70280
100
AcDbSymbolTableRecord
100
AcDbLayerTableRecord
  2
Level 24
 70
     0
 62
     7
  6
Continuous
370
     0
390
70267
347
7026A
348
0
1001
AcCmTransparency
1071
 33554687
  0
LAYER
  5
1F
330
70280
100
AcDbSymbolTableRecord
100
AcDbLayerTableRecord
  2
Level 25
 70
     0
 62
     7
  6
Continuous
370
     0
390
70267
347
7026A
348
0
1001
AcCmTransparency
1071
 33554687
  0
LAYER
  5
20
330
70280
100
AcDbSymbolTableRecord
100
AcDbLayerTableRecord
  2
Level 26
 70
     0
 62
     7
  6
Continuous
370
     0
390
70267
347
7026A
348
0
1001
AcCmTransparency
1071
 33554687
  0
LAYER
  5
21
330
70280
100
AcDbSymbolTableRecord
100
AcDbLayerTableRecord
  2
Level 27
 70
     0
 62
     7
  6
Continuous
370
     0
390
70267
347
7026A
348
0
1001
AcCmTransparency
1071
 33554687
  0
LAYER
  5
22
330
70280
100
AcDbSymbolTableRecord
100
AcDbLayerTableRecord
  2
Level 28
 70
     0
 62
     7
  6
Continuous
370
     0
390
70267
347
7026A
348
0
1001
AcCmTransparency
1071
 33554687
  0
LAYER
  5
23
330
70280
100
AcDbSymbolTableRecord
100
AcDbLayerTableRecord
  2
Level 29
 70
     0
 62
     7
  6
Continuous
370
     0
390
70267
347
7026A
348
0
1001
AcCmTransparency
1071
 33554687
  0
LAYER
  5
24
330
70280
100
AcDbSymbolTableRecord
100
AcDbLayerTableRecord
  2
Level 30
 70
     0
 62
     7
  6
Continuous
370
     0
390
70267
347
7026A
348
0
1001
AcCmTransparency
1071
 33554687
  0
LAYER
  5
25
330
70280
100
AcDbSymbolTableRecord
100
AcDbLayerTableRecord
  2
Level 31
 70
     0
 62
     7
  6
Continuous
370
     0
390
70267
347
7026A
348
0
1001
AcCmTransparency
1071
 33554687
  0
LAYER
  5
26
330
70280
100
AcDbSymbolTableRecord
100
AcDbLayerTableRecord
  2
Level 32
 70
     0
 62
     7
  6
Continuous
370
     0
390
70267
347
7026A
348
0
1001
AcCmTransparency
1071
 33554687
  0
LAYER
  5
27
330
70280
100
AcDbSymbolTableRecord
100
AcDbLayerTableRecord
  2
Level 33
 70
     0
 62
     7
  6
Continuous
370
     0
390
70267
347
7026A
348
0
1001
AcCmTransparency
1071
 33554687
  0
LAYER
  5
28
330
70280
100
AcDbSymbolTableRecord
100
AcDbLayerTableRecord
  2
Level 34
 70
     0
 62
     7
  6
Continuous
370
     0
390
70267
347
7026A
348
0
1001
AcCmTransparency
1071
 33554687
  0
LAYER
  5
29
330
70280
100
AcDbSymbolTableRecord
100
AcDbLayerTableRecord
  2
Level 35
 70
     0
 62
     7
  6
Continuous
370
     0
390
70267
347
7026A
348
0
1001
AcCmTransparency
1071
 33554687
  0
LAYER
  5
2A
330
70280
100
AcDbSymbolTableRecord
100
AcDbLayerTableRecord
  2
Level 36
 70
     0
 62
     7
  6
Continuous
370
     0
390
70267
347
7026A
348
0
1001
AcCmTransparency
1071
 33554687
  0
LAYER
  5
2B
330
70280
100
AcDbSymbolTableRecord
100
AcDbLayerTableRecord
  2
Level 37
 70
     0
 62
     7
  6
Continuous
370
     0
390
70267
347
7026A
348
0
1001
AcCmTransparency
1071
 33554687
  0
LAYER
  5
2C
330
70280
100
AcDbSymbolTableRecord
100
AcDbLayerTableRecord
  2
Level 38
 70
     0
 62
     7
  6
Continuous
370
     0
390
70267
347
7026A
348
0
1001
AcCmTransparency
1071
 33554687
  0
LAYER
  5
2D
330
70280
100
AcDbSymbolTableRecord
100
AcDbLayerTableRecord
  2
Level 39
 70
     0
 62
     7
  6
Continuous
370
     0
390
70267
347
7026A
348
0
1001
AcCmTransparency
1071
 33554687
  0
LAYER
  5
2E
330
70280
100
AcDbSymbolTableRecord
100
AcDbLayerTableRecord
  2
Level 40
 70
     0
 62
     7
  6
Continuous
370
     0
390
70267
347
7026A
348
0
1001
AcCmTransparency
1071
 33554687
  0
LAYER
  5
2F
330
70280
100
AcDbSymbolTableRecord
100
AcDbLayerTableRecord
  2
Level 41
 70
     0
 62
     7
  6
Continuous
370
     0
390
70267
347
7026A
348
0
1001
AcCmTransparency
1071
 33554687
  0
LAYER
  5
30
330
70280
100
AcDbSymbolTableRecord
100
AcDbLayerTableRecord
  2
Level 42
 70
     0
 62
     7
  6
Continuous
370
     0
390
70267
347
7026A
348
0
1001
AcCmTransparency
1071
 33554687
  0
LAYER
  5
31
330
70280
100
AcDbSymbolTableRecord
100
AcDbLayerTableRecord
  2
Level 43
 70
     0
 62
     7
  6
Continuous
370
     0
390
70267
347
7026A
348
0
1001
AcCmTransparency
1071
 33554687
  0
LAYER
  5
32
330
70280
100
AcDbSymbolTableRecord
100
AcDbLayerTableRecord
  2
Level 44
 70
     0
 62
     7
  6
Continuous
370
     0
390
70267
347
7026A
348
0
1001
AcCmTransparency
1071
 33554687
  0
LAYER
  5
33
330
70280
100
AcDbSymbolTableRecord
100
AcDbLayerTableRecord
  2
Level 45
 70
     0
 62
     7
  6
Continuous
370
     0
390
70267
347
7026A
348
0
1001
AcCmTransparency
1071
 33554687
  0
LAYER
  5
34
330
70280
100
AcDbSymbolTableRecord
100
AcDbLayerTableRecord
  2
Level 46
 70
     0
 62
     7
  6
Continuous
370
     0
390
70267
347
7026A
348
0
1001
AcCmTransparency
1071
 33554687
  0
LAYER
  5
35
330
70280
100
AcDbSymbolTableRecord
100
AcDbLayerTableRecord
  2
Level 47
 70
     0
 62
     7
  6
Continuous
370
     0
390
70267
347
7026A
348
0
1001
AcCmTransparency
1071
 33554687
  0
LAYER
  5
36
330
70280
100
AcDbSymbolTableRecord
100
AcDbLayerTableRecord
  2
Level 48
 70
     0
 62
     7
  6
Continuous
370
     0
390
70267
347
7026A
348
0
1001
AcCmTransparency
1071
 33554687
  0
LAYER
  5
37
330
70280
100
AcDbSymbolTableRecord
100
AcDbLayerTableRecord
  2
Level 49
 70
     0
 62
     7
  6
Continuous
370
     0
390
70267
347
7026A
348
0
1001
AcCmTransparency
1071
 33554687
  0
LAYER
  5
38
330
70280
100
AcDbSymbolTableRecord
100
AcDbLayerTableRecord
  2
Level 50
 70
     0
 62
     7
  6
Continuous
370
     0
390
70267
347
7026A
348
0
1001
AcCmTransparency
1071
 33554687
  0
LAYER
  5
39
330
70280
100
AcDbSymbolTableRecord
100
AcDbLayerTableRecord
  2
Level 51
 70
     0
 62
     7
  6
Continuous
370
     0
390
70267
347
7026A
348
0
1001
AcCmTransparency
1071
 33554687
  0
LAYER
  5
3A
330
70280
100
AcDbSymbolTableRecord
100
AcDbLayerTableRecord
  2
Level 52
 70
     0
 62
     7
  6
Continuous
370
     0
390
70267
347
7026A
348
0
1001
AcCmTransparency
1071
 33554687
  0
LAYER
  5
3B
330
70280
100
AcDbSymbolTableRecord
100
AcDbLayerTableRecord
  2
Level 53
 70
     0
 62
     7
  6
Continuous
370
     0
390
70267
347
7026A
348
0
1001
AcCmTransparency
1071
 33554687
  0
LAYER
  5
3C
330
70280
100
AcDbSymbolTableRecord
100
AcDbLayerTableRecord
  2
Level 54
 70
     0
 62
     7
  6
Continuous
370
     0
390
70267
347
7026A
348
0
1001
AcCmTransparency
1071
 33554687
  0
LAYER
  5
3D
330
70280
100
AcDbSymbolTableRecord
100
AcDbLayerTableRecord
  2
Level 55
 70
     0
 62
     7
  6
Continuous
370
     0
390
70267
347
7026A
348
0
1001
AcCmTransparency
1071
 33554687
  0
LAYER
  5
3E
330
70280
100
AcDbSymbolTableRecord
100
AcDbLayerTableRecord
  2
Level 56
 70
     0
 62
     7
  6
Continuous
370
     0
390
70267
347
7026A
348
0
1001
AcCmTransparency
1071
 33554687
  0
LAYER
  5
3F
330
70280
100
AcDbSymbolTableRecord
100
AcDbLayerTableRecord
  2
Level 57
 70
     0
 62
     7
  6
Continuous
370
     0
390
70267
347
7026A
348
0
1001
AcCmTransparency
1071
 33554687
  0
LAYER
  5
40
330
70280
100
AcDbSymbolTableRecord
100
AcDbLayerTableRecord
  2
Level 58
 70
     0
 62
     7
  6
Continuous
370
     0
390
70267
347
7026A
348
0
1001
AcCmTransparency
1071
 33554687
  0
LAYER
  5
41
330
70280
100
AcDbSymbolTableRecord
100
AcDbLayerTableRecord
  2
Level 59
 70
     0
 62
     7
  6
Continuous
370
     0
390
70267
347
7026A
348
0
1001
AcCmTransparency
1071
 33554687
  0
LAYER
  5
42
330
70280
100
AcDbSymbolTableRecord
100
AcDbLayerTableRecord
  2
Level 60
 70
     0
 62
     7
  6
Continuous
370
     0
390
70267
347
7026A
348
0
1001
AcCmTransparency
1071
 33554687
  0
LAYER
  5
43
330
70280
100
AcDbSymbolTableRecord
100
AcDbLayerTableRecord
  2
Level 61
 70
     0
 62
     7
  6
Continuous
370
     0
390
70267
347
7026A
348
0
1001
AcCmTransparency
1071
 33554687
  0
LAYER
  5
44
330
70280
100
AcDbSymbolTableRecord
100
AcDbLayerTableRecord
  2
Level 62
 70
     0
 62
     7
  6
Continuous
370
     0
390
70267
347
7026A
348
0
1001
AcCmTransparency
1071
 33554687
  0
LAYER
  5
45
330
70280
100
AcDbSymbolTableRecord
100
AcDbLayerTableRecord
  2
Level 63
 70
     0
 62
     7
  6
Continuous
370
     0
390
70267
347
7026A
348
0
1001
AcCmTransparency
1071
 33554687
  0
LAYER
  5
50CA0
330
70280
100
AcDbSymbolTableRecord
100
AcDbLayerTableRecord
  2
25
 70
     0
 62
     7
  6
Continuous
370
     0
390
70267
347
7026A
348
0
1001
AcCmTransparency
1071
 33554687
  0
LAYER
  5
702D9
330
70280
100
AcDbSymbolTableRecord
100
AcDbLayerTableRecord
  2
Level 26 (Construction)
 70
     0
 62
     7
  6
Continuous
370
     0
390
70267
347
7026A
348
0
1001
AcCmTransparency
1071
 33554687
  0
ENDTAB
  0
TABLE
  2
STYLE
  5
70283
330
0
100
AcDbSymbolTable
 70
     1
  0
STYLE
  5
70284
330
70283
100
AcDbSymbolTableRecord
100
AcDbTextStyleTableRecord
  2
Standard
 70
     0
 40
0.0
 41
1.0
 50
0.0
 71
     0
 42
100.0
  3
txt
  4

  0
ENDTAB
  0
TABLE
  2
VIEW
  5
70289
330
0
100
AcDbSymbolTable
 70
     0
  0
ENDTAB
  0
TABLE
  2
UCS
  5
7028A
330
0
100
AcDbSymbolTable
 70
     0
  0
ENDTAB
  0
TABLE
  2
APPID
  5
7028F
330
0
100
AcDbSymbolTable
 70
     3
  0
APPID
  5
70290
330
7028F
100
AcDbSymbolTableRecord
100
AcDbRegAppTableRecord
  2
ACAD
 70
     0
  0
APPID
  5
7027F
330
7028F
100
AcDbSymbolTableRecord
100
AcDbRegAppTableRecord
  2
ACAD_PSEXT
 70
     0
  0
APPID
  5
702D3
330
7028F
100
AcDbSymbolTableRecord
100
AcDbRegAppTableRecord
  2
AcCmTransparency
 70
     0
  0
ENDTAB
  0
TABLE
  2
DIMSTYLE
  5
70291
330
0
100
AcDbSymbolTable
 70
     1
100
AcDbDimStyleTable
 71
     1
340
70292
  0
DIMSTYLE
105
70292
330
70291
100
AcDbSymbolTableRecord
100
AcDbDimStyleTableRecord
  2
Standard
 70
     0
340
70284
  0
ENDTAB
  0
TABLE
  2
BLOCK_RECORD
  5
70261
330
0
100
AcDbSymbolTable
 70
    67
  0
BLOCK_RECORD
  5
70262
330
70261
100
AcDbSymbolTableRecord
100
AcDbBlockTableRecord
  2
*Model_Space
340
70275
 70
     0
280
     1
281
     0
  0
BLOCK_RECORD
  5
70279
330
70261
100
AcDbSymbolTableRecord
100
AcDbBlockTableRecord
  2
*Paper_Space
340
7027C
 70
     0
280
     1
281
     0
  0
BLOCK_RECORD
  5
702D6
102
{ACAD_XDICTIONARY
360
703A0
102
}
330
70261
100
AcDbSymbolTableRecord
100
AcDbBlockTableRecord
  2
SE03
340
0
102
{BLKREFS
331
6FD64
102
}
 70
     0
280
     1
281
     0
  0
BLOCK_RECORD
  5
702DA
330
70261
100
AcDbSymbolTableRecord
100
AcDbBlockTableRecord
  2
From Surface
340
0
102
{BLKREFS
331
7009D
102
}
 70
     0
280
     1
281
     0
  0
BLOCK_RECORD
  5
702DD
330
70261
100
AcDbSymbolTableRecord
100
AcDbBlockTableRecord
  2
From Surface_1
340
0
102
{BLKREFS
331
7009E
102
}
 70
     0
280
     1
281
     0
  0
BLOCK_RECORD
  5
702E0
330
70261
100
AcDbSymbolTableRecord
100
AcDbBlockTableRecord
  2
From Surface_2
340
0
102
{BLKREFS
331
7009F
102
}
 70
     0
280
     1
281
     0
  0
BLOCK_RECORD
  5
702E3
330
70261
100
AcDbSymbolTableRecord
100
AcDbBlockTableRecord
  2
From Surface_3
340
0
102
{BLKREFS
331
700A0
102
}
 70
     0
280
     1
281
     0
  0
BLOCK_RECORD
  5
702E6
330
70261
100
AcDbSymbolTableRecord
100
AcDbBlockTableRecord
  2
From Surface_4
340
0
102
{BLKREFS
331
700A1
102
}
 70
     0
280
     1
281
     0
  0
BLOCK_RECORD
  5
702E9
330
70261
100
AcDbSymbolTableRecord
100
AcDbBlockTableRecord
  2
From Surface_5
340
0
102
{BLKREFS
331
700A2
102
}
 70
     0
280
     1
281
     0
  0
BLOCK_RECORD
  5
702EC
330
70261
100
AcDbSymbolTableRecord
100
AcDbBlockTableRecord
  2
From Surface_6
340
0
102
{BLKREFS
331
700A3
102
}
 70
     0
280
     1
281
     0
  0
BLOCK_RECORD
  5
702EF
330
70261
100
AcDbSymbolTableRecord
100
AcDbBlockTableRecord
  2
From Surface_7
340
0
102
{BLKREFS
331
700A4
102
}
 70
     0
280
     1
281
     0
  0
BLOCK_RECORD
  5
702F2
330
70261
100
AcDbSymbolTableRecord
100
AcDbBlockTableRecord
  2
From Surface_8
340
0
102
{BLKREFS
331
700A5
102
}
 70
     0
280
     1
281
     0
  0
BLOCK_RECORD
  5
702F5
330
70261
100
AcDbSymbolTableRecord
100
AcDbBlockTableRecord
  2
From Surface_9
340
0
102
{BLKREFS
331
700A6
102
}
 70
     0
280
     1
281
     0
  0
BLOCK_RECORD
  5
702F8
330
70261
100
AcDbSymbolTableRecord
100
AcDbBlockTableRecord
  2
From Surface_10
340
0
102
{BLKREFS
331
700A7
102
}
 70
     0
280
     1
281
     0
  0
BLOCK_RECORD
  5
702FB
330
70261
100
AcDbSymbolTableRecord
100
AcDbBlockTableRecord
  2
From Surface_11
340
0
102
{BLKREFS
331
700A8
102
}
 70
     0
280
     1
281
     0
  0
BLOCK_RECORD
  5
702FE
330
70261
100
AcDbSymbolTableRecord
100
AcDbBlockTableRecord
  2
From Surface_12
340
0
102
{BLKREFS
331
700A9
102
}
 70
     0
280
     1
281
     0
  0
BLOCK_RECORD
  5
70301
330
70261
100
AcDbSymbolTableRecord
100
AcDbBlockTableRecord
  2
From Surface_13
340
0
102
{BLKREFS
331
700AA
102
}
 70
     0
280
     1
281
     0
  0
BLOCK_RECORD
  5
70304
330
70261
100
AcDbSymbolTableRecord
100
AcDbBlockTableRecord
  2
From Surface_14
340
0
102
{BLKREFS
331
700AB
102
}
 70
     0
280
     1
281
     0
  0
BLOCK_RECORD
  5
70307
330
70261
100
AcDbSymbolTableRecord
100
AcDbBlockTableRecord
  2
From Surface_15
340
0
102
{BLKREFS
331
700AC
102
}
 70
     0
280
     1
281
     0
  0
BLOCK_RECORD
  5
7030A
330
70261
100
AcDbSymbolTableRecord
100
AcDbBlockTableRecord
  2
From Surface_16
340
0
102
{BLKREFS
331
700AD
102
}
 70
     0
280
     1
281
     0
  0
BLOCK_RECORD
  5
7030D
330
70261
100
AcDbSymbolTableRecord
100
AcDbBlockTableRecord
  2
From Surface_17
340
0
102
{BLKREFS
331
700AE
102
}
 70
     0
280
     1
281
     0
  0
BLOCK_RECORD
  5
70310
330
70261
100
AcDbSymbolTableRecord
100
AcDbBlockTableRecord
  2
From Surface_18
340
0
102
{BLKREFS
331
700AF
102
}
 70
     0
280
     1
281
     0
  0
BLOCK_RECORD
  5
70313
330
70261
100
AcDbSymbolTableRecord
100
AcDbBlockTableRecord
  2
From Surface_19
340
0
102
{BLKREFS
331
700B0
102
}
 70
     0
280
     1
281
     0
  0
BLOCK_RECORD
  5
70316
330
70261
100
AcDbSymbolTableRecord
100
AcDbBlockTableRecord
  2
From Surface_20
340
0
102
{BLKREFS
331
700B1
102
}
 70
     0
280
     1
281
     0
  0
BLOCK_RECORD
  5
70319
330
70261
100
AcDbSymbolTableRecord
100
AcDbBlockTableRecord
  2
From Surface_21
340
0
102
{BLKREFS
331
700B2
102
}
 70
     0
280
     1
281
     0
  0
BLOCK_RECORD
  5
7031C
330
70261
100
AcDbSymbolTableRecord
100
AcDbBlockTableRecord
  2
From Surface_22
340
0
102
{BLKREFS
331
700B3
102
}
 70
     0
280
     1
281
     0
  0
BLOCK_RECORD
  5
7031F
330
70261
100
AcDbSymbolTableRecord
100
AcDbBlockTableRecord
  2
From Surface_23
340
0
102
{BLKREFS
331
700B4
102
}
 70
     0
280
     1
281
     0
  0
BLOCK_RECORD
  5
70322
330
70261
100
AcDbSymbolTableRecord
100
AcDbBlockTableRecord
  2
From Surface_24
340
0
102
{BLKREFS
331
700B5
102
}
 70
     0
280
     1
281
     0
  0
BLOCK_RECORD
  5
70325
330
70261
100
AcDbSymbolTableRecord
100
AcDbBlockTableRecord
  2
From Surface_25
340
0
102
{BLKREFS
331
700B6
102
}
 70
     0
280
     1
281
     0
  0
BLOCK_RECORD
  5
70328
330
70261
100
AcDbSymbolTableRecord
100
AcDbBlockTableRecord
  2
From Surface_26
340
0
102
{BLKREFS
331
700B7
102
}
 70
     0
280
     1
281
     0
  0
BLOCK_RECORD
  5
7032B
330
70261
100
AcDbSymbolTableRecord
100
AcDbBlockTableRecord
  2
From Surface_27
340
0
102
{BLKREFS
331
700B8
102
}
 70
     0
280
     1
281
     0
  0
BLOCK_RECORD
  5
7032E
330
70261
100
AcDbSymbolTableRecord
100
AcDbBlockTableRecord
  2
From Surface_28
340
0
102
{BLKREFS
331
700B9
102
}
 70
     0
280
     1
281
     0
  0
BLOCK_RECORD
  5
70331
330
70261
100
AcDbSymbolTableRecord
100
AcDbBlockTableRecord
  2
From Surface_29
340
0
102
{BLKREFS
331
700BA
102
}
 70
     0
280
     1
281
     0
  0
BLOCK_RECORD
  5
70334
330
70261
100
AcDbSymbolTableRecord
100
AcDbBlockTableRecord
  2
From Surface_30
340
0
102
{BLKREFS
331
700BB
102
}
 70
     0
280
     1
281
     0
  0
BLOCK_RECORD
  5
70337
330
70261
100
AcDbSymbolTableRecord
100
AcDbBlockTableRecord
  2
From Surface_31
340
0
102
{BLKREFS
331
700BC
102
}
 70
     0
280
     1
281
     0
  0
BLOCK_RECORD
  5
7033A
330
70261
100
AcDbSymbolTableRecord
100
AcDbBlockTableRecord
  2
From Surface_32
340
0
102
{BLKREFS
331
700BD
102
}
 70
     0
280
     1
281
     0
  0
BLOCK_RECORD
  5
7033D
330
70261
100
AcDbSymbolTableRecord
100
AcDbBlockTableRecord
  2
From Surface_33
340
0
102
{BLKREFS
331
700BE
102
}
 70
     0
280
     1
281
     0
  0
BLOCK_RECORD
  5
70340
330
70261
100
AcDbSymbolTableRecord
100
AcDbBlockTableRecord
  2
From Surface_34
340
0
102
{BLKREFS
331
700BF
102
}
 70
     0
280
     1
281
     0
  0
BLOCK_RECORD
  5
70343
330
70261
100
AcDbSymbolTableRecord
100
AcDbBlockTableRecord
  2
From Surface_35
340
0
102
{BLKREFS
331
700C0
102
}
 70
     0
280
     1
281
     0
  0
BLOCK_RECORD
  5
70346
330
70261
100
AcDbSymbolTableRecord
100
AcDbBlockTableRecord
  2
From Surface_36
340
0
102
{BLKREFS
331
700C1
102
}
 70
     0
280
     1
281
     0
  0
BLOCK_RECORD
  5
70349
330
70261
100
AcDbSymbolTableRecord
100
AcDbBlockTableRecord
  2
From Surface_37
340
0
102
{BLKREFS
331
700C2
102
}
 70
     0
280
     1
281
     0
  0
BLOCK_RECORD
  5
7034C
330
70261
100
AcDbSymbolTableRecord
100
AcDbBlockTableRecord
  2
From Surface_38
340
0
102
{BLKREFS
331
700C3
102
}
 70
     0
280
     1
281
     0
  0
BLOCK_RECORD
  5
7034F
330
70261
100
AcDbSymbolTableRecord
100
AcDbBlockTableRecord
  2
From Surface_39
340
0
102
{BLKREFS
331
700C4
102
}
 70
     0
280
     1
281
     0
  0
BLOCK_RECORD
  5
70352
330
70261
100
AcDbSymbolTableRecord
100
AcDbBlockTableRecord
  2
From Surface_40
340
0
102
{BLKREFS
331
700C5
102
}
 70
     0
280
     1
281
     0
  0
BLOCK_RECORD
  5
70355
330
70261
100
AcDbSymbolTableRecord
100
AcDbBlockTableRecord
  2
From Surface_41
340
0
102
{BLKREFS
331
700C6
102
}
 70
     0
280
     1
281
     0
  0
BLOCK_RECORD
  5
70358
330
70261
100
AcDbSymbolTableRecord
100
AcDbBlockTableRecord
  2
From Surface_42
340
0
102
{BLKREFS
331
700C7
102
}
 70
     0
280
     1
281
     0
  0
BLOCK_RECORD
  5
7035B
330
70261
100
AcDbSymbolTableRecord
100
AcDbBlockTableRecord
  2
From Surface_43
340
0
102
{BLKREFS
331
700C8
102
}
 70
     0
280
     1
281
     0
  0
BLOCK_RECORD
  5
7035E
330
70261
100
AcDbSymbolTableRecord
100
AcDbBlockTableRecord
  2
From Surface_44
340
0
102
{BLKREFS
331
700C9
102
}
 70
     0
280
     1
281
     0
  0
BLOCK_RECORD
  5
70361
330
70261
100
AcDbSymbolTableRecord
100
AcDbBlockTableRecord
  2
From Surface_45
340
0
102
{BLKREFS
331
700CA
102
}
 70
     0
280
     1
281
     0
  0
BLOCK_RECORD
  5
70364
330
70261
100
AcDbSymbolTableRecord
100
AcDbBlockTableRecord
  2
From Solid
340
0
102
{BLKREFS
331
700CB
102
}
 70
     0
280
     1
281
     0
  0
BLOCK_RECORD
  5
70367
330
70261
100
AcDbSymbolTableRecord
100
AcDbBlockTableRecord
  2
From Solid_1
340
0
102
{BLKREFS
331
700CC
102
}
 70
     0
280
     1
281
     0
  0
BLOCK_RECORD
  5
7036A
330
70261
100
AcDbSymbolTableRecord
100
AcDbBlockTableRecord
  2
From Solid_2
340
0
102
{BLKREFS
331
700CD
102
}
 70
     0
280
     1
281
     0
  0
BLOCK_RECORD
  5
7036D
330
70261
100
AcDbSymbolTableRecord
100
AcDbBlockTableRecord
  2
*U50
340
0
102
{BLKREFS
331
6FF25
102
}
 70
     0
280
     1
281
     0
  0
BLOCK_RECORD
  5
70370
330
70261
100
AcDbSymbolTableRecord
100
AcDbBlockTableRecord
  2
From Bspline Surface
340
0
102
{BLKREFS
331
700CE
102
}
 70
     0
280
     1
281
     0
  0
BLOCK_RECORD
  5
70373
330
70261
100
AcDbSymbolTableRecord
100
AcDbBlockTableRecord
  2
From Bspline Surface_1
340
0
102
{BLKREFS
331
700ED
102
}
 70
     0
280
     1
281
     0
  0
BLOCK_RECORD
  5
70376
330
70261
100
AcDbSymbolTableRecord
100
AcDbBlockTableRecord
  2
From Bspline Surface_2
340
0
102
{BLKREFS
331
7010C
102
}
 70
     0
280
     1
281
     0
  0
BLOCK_RECORD
  5
70379
330
70261
100
AcDbSymbolTableRecord
100
AcDbBlockTableRecord
  2
From Bspline Surface_3
340
0
102
{BLKREFS
331
7012B
102
}
 70
     0
280
     1
281
     0
  0
BLOCK_RECORD
  5
7037C
330
70261
100
AcDbSymbolTableRecord
100
AcDbBlockTableRecord
  2
From Bspline Surface_4
340
0
102
{BLKREFS
331
7014A
102
}
 70
     0
280
     1
281
     0
  0
BLOCK_RECORD
  5
7037F
330
70261
100
AcDbSymbolTableRecord
100
AcDbBlockTableRecord
  2
From Bspline Surface_5
340
0
102
{BLKREFS
331
70169
102
}
 70
     0
280
     1
281
     0
  0
BLOCK_RECORD
  5
70382
330
70261
100
AcDbSymbolTableRecord
100
AcDbBlockTableRecord
  2
From Bspline Surface_6
340
0
102
{BLKREFS
331
70188
102
}
 70
     0
280
     1
281
     0
  0
BLOCK_RECORD
  5
70385
330
70261
100
AcDbSymbolTableRecord
100
AcDbBlockTableRecord
  2
From Bspline Surface_7
340
0
102
{BLKREFS
331
701A7
102
}
 70
     0
280
     1
281
     0
  0
BLOCK_RECORD
  5
70388
330
70261
100
AcDbSymbolTableRecord
100
AcDbBlockTableRecord
  2
*U59
340
0
102
{BLKREFS
331
6FFAE
102
}
 70
     0
280
     1
281
     0
  0
BLOCK_RECORD
  5
7038B
330
70261
100
AcDbSymbolTableRecord
100
AcDbBlockTableRecord
  2
*U60
340
0
102
{BLKREFS
331
6FFBA
102
}
 70
     0
280
     1
281
     0
  0
BLOCK_RECORD
  5
7038E
330
70261
100
AcDbSymbolTableRecord
100
AcDbBlockTableRecord
  2
*U61
340
0
102
{BLKREFS
331
6FFC6
102
}
 70
     0
280
     1
281
     0
  0
BLOCK_RECORD
  5
70391
330
70261
100
AcDbSymbolTableRecord
100
AcDbBlockTableRecord
  2
*U62
340
0
102
{BLKREFS
331
6FFD2
102
}
 70
     0
280
     1
281
     0
  0
BLOCK_RECORD
  5
70394
330
70261
100
AcDbSymbolTableRecord
100
AcDbBlockTableRecord
  2
*U63
340
0
102
{BLKREFS
331
6FFDE
102
}
 70
     0
280
     1
281
     0
  0
BLOCK_RECORD
  5
70397
330
70261
100
AcDbSymbolTableRecord
100
AcDbBlockTableRecord
  2
*U64
340
0
102
{BLKREFS
331
6FFEA
102
}
 70
     0
280
     1
281
     0
  0
BLOCK_RECORD
  5
7039A
330
70261
100
AcDbSymbolTableRecord
100
AcDbBlockTableRecord
  2
From Solid_3
340
0
102
{BLKREFS
331
701C6
102
}
 70
     0
280
     1
281
     0
  0
BLOCK_RECORD
  5
7039D
330
70261
100
AcDbSymbolTableRecord
100
AcDbBlockTableRecord
  2
From Solid_4
340
0
102
{BLKREFS
331
701C7
102
}
 70
     0
280
     1
281
     0
  0
ENDTAB
  0
ENDSEC
  0
SECTION
  2
BLOCKS
  0
BLOCK
  5
70263
330
70262
100
AcDbEntity
  8
0
100
AcDbBlockBegin
  2
*Model_Space
 70
     0
 10
0.0
 20
0.0
 30
0.0
  3
*Model_Space
  1

  0
ENDBLK
  5
70274
330
70262
100
AcDbEntity
  8
0
100
AcDbBlockEnd
  0
BLOCK
  5
7027A
330
70279
100
AcDbEntity
 67
     1
  8
0
100
AcDbBlockBegin
  2
*Paper_Space
 70
     0
 10
0.0
 20
0.0
 30
0.0
  3
*Paper_Space
  1

  0
ENDBLK
  5
7027B
330
70279
100
AcDbEntity
 67
     1
  8
0
100
AcDbBlockEnd
  0
BLOCK
  5
702D7
330
702D6
100
AcDbEntity
  8
0
 62
    98
370
     0
100
AcDbBlockBegin
  2
SE03
 70
     0
 10
0.0
 20
0.0
 30
0.0
  3
SE03
  1

  0
LWPOLYLINE
  5
6FD65
330
702D6
100
AcDbEntity
  8
Level 26
  6
Continuous
 62
   133
370
     0
100
AcDbPolyline
 90
        5
 70
   129
 43
0.0
 10
100.0
 20
-185.0
 10
100.0
 20
185.0
 10
100.0
 20
185.0
 10
100.0
 20
-185.0
 10
100.0
 20
-185.0
  0
LWPOLYLINE
  5
6FD66
330
702D6
100
AcDbEntity
  8
Level 26
  6
Continuous
 62
   133
370
     0
100
AcDbPolyline
 90
        5
 70
   129
 43
0.0
 10
-100.0
 20
185.0
 10
-100.0
 20
-185.0
 10
-100.0
 20
-185.0
 10
-100.0
 20
185.0
 10
-100.0
 20
185.0
  0
LWPOLYLINE
  5
6FD67
330
702D6
100
AcDbEntity
  8
Level 26
  6
Continuous
 62
   152
370
     0
100
AcDbPolyline
 90
        5
 70
   129
 43
0.0
 10
100.0
 20
205.0
 10
-100.0
 20
205.0
 10
-100.0
 20
185.0
 10
100.0
 20
185.0
 10
100.0
 20
205.0
  0
LWPOLYLINE
  5
6FD68
330
702D6
100
AcDbEntity
  8
Level 26
  6
Continuous
 62
   152
370
     0
100
AcDbPolyline
 90
        5
 70
   129
 43
0.0
 10
-395.064853
 20
205.0
 10
-352.911377
 20
205.0
 10
-352.911387
 20
185.0
 10
-395.064853
 20
185.0
 10
-395.064853
 20
205.0
  0
LWPOLYLINE
  5
6FD69
330
702D6
100
AcDbEntity
  8
Level 26
  6
Continuous
 62
   152
370
     0
100
AcDbPolyline
 90
        5
 70
   129
 43
0.0
 10
-298.060976
 20
205.0
 10
-278.420433
 20
205.0
 10
-278.420433
 20
185.0
 10
-298.060976
 20
185.0
 10
-298.060976
 20
205.0
  0
LWPOLYLINE
  5
6FD6A
330
702D6
100
AcDbEntity
  8
Level 26
  6
Continuous
 62
   152
370
     0
100
AcDbPolyline
 90
        5
 70
   129
 43
0.0
 10
113.723404
 20
205.0
 10
232.87234
 20
205.0
 10
232.87234
 20
185.0
 10
113.723405
 20
185.0
 10
113.723404
 20
205.0
  0
LWPOLYLINE
  5
6FD6B
330
702D6
100
AcDbEntity
  8
Level 26
  6
Continuous
 62
   152
370
     0
100
AcDbPolyline
 90
        5
 70
   129
 43
0.0
 10
323.397588
 20
205.0
 10
328.560568
 20
205.0
 10
328.560568
 20
185.0
 10
323.397589
 20
185.0
 10
323.397588
 20
205.0
  0
LWPOLYLINE
  5
6FD6C
330
702D6
100
AcDbEntity
  8
Level 26
  6
Continuous
 62
   152
370
     0
100
AcDbPolyline
 90
        5
 70
   129
 43
0.0
 10
426.156648
 20
205.0
 10
360.950387
 20
205.0
 10
360.950387
 20
185.0
 10
426.156648
 20
185.0
 10
426.156648
 20
205.0
  0
LWPOLYLINE
  5
6FD6D
330
702D6
100
AcDbEntity
  8
Level 26
  6
Continuous
 62
   152
370
     0
100
AcDbPolyline
 90
        5
 70
   129
 43
0.0
 10
316.363766
 20
205.0
 10
304.516847
 20
205.0
 10
304.516847
 20
185.0
 10
316.363766
 20
185.0
 10
316.363766
 20
205.0
  0
LWPOLYLINE
  5
6FD6E
330
702D6
100
AcDbEntity
  8
Level 26
  6
Continuous
 62
   152
370
     0
100
AcDbPolyline
 90
        5
 70
   129
 43
0.0
 10
429.865963
 20
205.0
 10
360.246453
 20
205.0
 10
360.246453
 20
185.0
 10
429.865963
 20
185.0
 10
429.865963
 20
205.0
  0
LWPOLYLINE
  5
6FD6F
330
702D6
100
AcDbEntity
  8
Level 26
  6
Continuous
 62
     7
370
     0
100
AcDbPolyline
 90
        5
 70
   129
 43
0.0
 10
312.448657
 20
205.0
 10
312.448657
 20
205.0
 10
312.448657
 20
185.0
 10
312.448657
 20
185.0
 10
312.448657
 20
205.0
  0
LWPOLYLINE
  5
6FD70
330
702D6
100
AcDbEntity
  8
Level 26
  6
Continuous
 62
     7
370
     0
100
AcDbPolyline
 90
        5
 70
   129
 43
0.0
 10
307.448657
 20
205.0
 10
312.448657
 20
205.0
 10
312.448657
 20
185.0
 10
307.448657
 20
185.0
 10
307.448657
 20
205.0
  0
LWPOLYLINE
  5
6FD71
330
702D6
100
AcDbEntity
  8
Level 26
  6
Continuous
 62
     7
370
     0
100
AcDbPolyline
 90
        5
 70
   129
 43
0.0
 10
307.448657
 20
205.0
 10
307.448657
 20
205.0
 10
307.448657
 20
185.0
 10
307.448657
 20
185.0
 10
307.448657
 20
205.0
  0
LWPOLYLINE
  5
6FD72
330
702D6
100
AcDbEntity
  8
Level 26
  6
Continuous
 62
     7
370
     0
100
AcDbPolyline
 90
        5
 70
   129
 43
0.0
 10
312.448657
 20
205.0
 10
307.448657
 20
205.0
 10
307.448657
 20
185.0
 10
312.448657
 20
185.0
 10
312.448657
 20
205.0
  0
LWPOLYLINE
  5
6FD73
330
702D6
100
AcDbEntity
  8
Level 26
  6
Continuous
 62
     7
370
     0
100
AcDbPolyline
 90
        5
 70
   129
 43
0.0
 10
312.448657
 20
205.0
 10
312.448657
 20
205.0
 10
312.448657
 20
185.0
 10
312.448657
 20
185.0
 10
312.448657
 20
205.0
  0
LWPOLYLINE
  5
6FD74
330
702D6
100
AcDbEntity
  8
Level 26
  6
Continuous
 62
   152
370
     0
100
AcDbPolyline
 90
        5
 70
   129
 43
0.0
 10
100.0
 20
-205.0
 10
-100.0
 20
-205.0
 10
-100.0
 20
-185.0
 10
100.0
 20
-185.0
 10
100.0
 20
-205.0
  0
LWPOLYLINE
  5
6FD75
330
702D6
100
AcDbEntity
  8
Level 26
  6
Continuous
 62
   152
370
     0
100
AcDbPolyline
 90
        5
 70
   129
 43
0.0
 10
-395.064853
 20
-205.0
 10
-352.911377
 20
-205.0
 10
-352.911387
 20
-185.0
 10
-395.064853
 20
-185.0
 10
-395.064853
 20
-205.0
  0
LWPOLYLINE
  5
6FD76
330
702D6
100
AcDbEntity
  8
Level 26
  6
Continuous
 62
   152
370
     0
100
AcDbPolyline
 90
        5
 70
   129
 43
0.0
 10
-298.060976
 20
-205.0
 10
-278.420433
 20
-205.0
 10
-278.420433
 20
-185.0
 10
-298.060976
 20
-185.0
 10
-298.060976
 20
-205.0
  0
LWPOLYLINE
  5
6FD77
330
702D6
100
AcDbEntity
  8
Level 26
  6
Continuous
 62
   152
370
     0
100
AcDbPolyline
 90
        5
 70
   129
 43
0.0
 10
113.723404
 20
-205.0
 10
232.87234
 20
-205.0
 10
232.87234
 20
-185.0
 10
113.723405
 20
-185.0
 10
113.723404
 20
-205.0
  0
LWPOLYLINE
  5
6FD78
330
702D6
100
AcDbEntity
  8
Level 26
  6
Continuous
 62
   152
370
     0
100
AcDbPolyline
 90
        5
 70
   129
 43
0.0
 10
323.397588
 20
-205.0
 10
328.560568
 20
-205.0
 10
328.560568
 20
-185.0
 10
323.397589
 20
-185.0
 10
323.397588
 20
-205.0
  0
LWPOLYLINE
  5
6FD79
330
702D6
100
AcDbEntity
  8
Level 26
  6
Continuous
 62
   152
370
     0
100
AcDbPolyline
 90
        5
 70
   129
 43
0.0
 10
426.156648
 20
-205.0
 10
360.950387
 20
-205.0
 10
360.950387
 20
-185.0
 10
426.156648
 20
-185.0
 10
426.156648
 20
-205.0
  0
LWPOLYLINE
  5
6FD7A
330
702D6
100
AcDbEntity
  8
Level 26
  6
Continuous
 62
   152
370
     0
100
AcDbPolyline
 90
        5
 70
   129
 43
0.0
 10
316.363766
 20
-205.0
 10
304.516847
 20
-205.0
 10
304.516847
 20
-185.0
 10
316.363766
 20
-185.0
 10
316.363766
 20
-205.0
  0
LWPOLYLINE
  5
6FD7B
330
702D6
100
AcDbEntity
  8
Level 26
  6
Continuous
 62
   152
370
     0
100
AcDbPolyline
 90
        5
 70
   129
 43
0.0
 10
429.865963
 20
-205.0
 10
360.246453
 20
-205.0
 10
360.246453
 20
-185.0
 10
429.865963
 20
-185.0
 10
429.865963
 20
-205.0
  0
LWPOLYLINE
  5
6FD7C
330
702D6
100
AcDbEntity
  8
Level 26
  6
Continuous
 62
     7
370
     0
100
AcDbPolyline
 90
        5
 70
   129
 43
0.0
 10
312.448657
 20
-205.0
 10
312.448657
 20
-205.0
 10
312.448657
 20
-185.0
 10
312.448657
 20
-185.0
 10
312.448657
 20
-205.0
  0
LWPOLYLINE
  5
6FD7D
330
702D6
100
AcDbEntity
  8
Level 26
  6
Continuous
 62
     7
370
     0
100
AcDbPolyline
 90
        5
 70
   129
 43
0.0
 10
307.448657
 20
-205.0
 10
312.448657
 20
-205.0
 10
312.448657
 20
-185.0
 10
307.448657
 20
-185.0
 10
307.448657
 20
-205.0
  0
LWPOLYLINE
  5
6FD7E
330
702D6
100
AcDbEntity
  8
Level 26
  6
Continuous
 62
     7
370
     0
100
AcDbPolyline
 90
        5
 70
   129
 43
0.0
 10
307.448657
 20
-205.0
 10
307.448657
 20
-205.0
 10
307.448657
 20
-185.0
 10
307.448657
 20
-185.0
 10
307.448657
 20
-205.0
  0
LWPOLYLINE
  5
6FD7F
330
702D6
100
AcDbEntity
  8
Level 26
  6
Continuous
 62
     7
370
     0
100
AcDbPolyline
 90
        5
 70
   129
 43
0.0
 10
312.448657
 20
-205.0
 10
307.448657
 20
-205.0
 10
307.448657
 20
-185.0
 10
312.448657
 20
-185.0
 10
312.448657
 20
-205.0
  0
LWPOLYLINE
  5
6FD80
330
702D6
100
AcDbEntity
  8
Level 26
  6
Continuous
 62
     7
370
     0
100
AcDbPolyline
 90
        5
 70
   129
 43
0.0
 10
312.448657
 20
-205.0
 10
312.448657
 20
-205.0
 10
312.448657
 20
-185.0
 10
312.448657
 20
-185.0
 10
312.448657
 20
-205.0
  0
LWPOLYLINE
  5
6FD81
330
702D6
100
AcDbEntity
  8
Level 26
  6
Continuous
 62
   133
370
     0
100
AcDbPolyline
 90
        5
 70
   129
 43
0.0
 10
-100.0
 20
185.0
 10
-100.0
 20
-185.0
 10
100.0
 20
-185.0
 10
100.0
 20
185.0
 10
-100.0
 20
185.0
  0
LWPOLYLINE
  5
6FD86
330
702D6
100
AcDbEntity
  8
Level 26
  6
Continuous
 62
   152
370
     0
100
AcDbPolyline
 90
       47
 70
   129
 43
0.0
 10
113.723405
 20
185.0
 10
232.87234
 20
185.0
 10
323.397589
 20
185.0
 10
232.87234
 20
185.0
 10
323.397589
 20
185.0
 10
328.560568
 20
185.0
 10
360.950387
 20
185.0
 10
328.560568
 20
185.0
 10
360.950387
 20
185.0
 10
426.156648
 20
185.0
 10
455.227397
 20
185.0
 10
455.491824
 20
185.0
 10
429.865963
 20
185.0
 10
455.25892
 20
185.0
 10
429.865963
 20
185.0
 10
360.246453
 20
185.0
 10
316.363766
 20
185.0
 10
304.516847
 20
185.0
 10
165.0
 20
185.0
 10
304.516847
 20
185.0
 10
165.0
 20
185.0
 10
-260.694589
 20
185.0
 10
-352.911387
 20
185.0
 10
-260.694589
 20
185.0
 10
-352.911387
 20
185.0
 10
-395.064853
 20
185.0
 10
-445.0
 20
185.0
 10
-414.407785
 20
185.0
 10
-383.815569
 20
185.0
 10
-342.673046
 20
185.0
 10
-385.586211
 20
185.0
 10
-342.673046
 20
185.0
 10
-335.409581
 20
185.0
 10
-298.060976
 20
185.0
 10
-278.420433
 20
185.0
 10
-244.457212
 20
185.0
 10
-278.420433
 20
185.0
 10
-244.457212
 20
185.0
 10
-117.579573
 20
185.0
 10
-90.128012
 20
185.0
 10
-117.579573
 20
185.0
 10
-90.128012
 20
185.0
 10
-57.720756
 20
185.0
 10
93.458642
 20
185.0
 10
-57.720756
 20
185.0
 10
93.458642
 20
185.0
 10
113.723405
 20
185.0
  0
SPLINE
  5
6FDA2
330
702D6
100
AcDbEntity
  8
Level 26 (Construction)
  6
Continuous
 62
     7
370
     0
100
AcDbSpline
210
0.0
220
0.0
230
1.0
 70
    24
 71
     2
 72
     9
 73
     6
 74
     0
 42
0.000000001
 43
0.0000000001
 40
0.0
 40
0.0
 40
0.0
 40
0.25
 40
0.5
 40
0.75
 40
1.0
 40
1.0
 40
1.0
 10
452.4712590105896
 20
185.0
 30
0.0
 10
414.5484709921565
 20
185.0
 30
0.0
 10
367.5096280098883
 20
185.0
 30
0.0
 10
339.4321789910582
 20
185.0
 30
0.0
 10
331.4100509964296
 20
185.0
 30
0.0
 10
312.4486570024724
 20
185.0
 30
0.0
  0
SPLINE
  5
6FDA4
330
702D6
100
AcDbEntity
  8
Level 26 (Construction)
  6
Continuous
 62
     7
370
     0
100
AcDbSpline
210
0.0
220
0.0
230
1.0
 70
    24
 71
     2
 72
     9
 73
     6
 74
     0
 42
0.000000001
 43
0.0000000001
 40
0.0
 40
0.0
 40
0.0
 40
0.25
 40
0.5
 40
0.75
 40
1.0
 40
1.0
 40
1.0
 10
452.4712590105896
 20
185.0
 30
0.0
 10
414.5484709921565
 20
185.0
 30
0.0
 10
367.5096280098883
 20
185.0
 30
0.0
 10
339.4321789910582
 20
185.0
 30
0.0
 10
331.4100509964296
 20
185.0
 30
0.0
 10
312.4486570024724
 20
185.0
 30
0.0
  0
SPLINE
  5
6FDA6
330
702D6
100
AcDbEntity
  8
Level 26
  6
Continuous
 62
     7
370
     0
100
AcDbSpline
210
0.0
220
0.0
230
1.0
 70
    24
 71
     2
 72
     9
 73
     6
 74
     0
 42
0.000000001
 43
0.0000000001
 40
0.0
 40
0.0
 40
0.0
 40
0.25
 40
0.5
 40
0.75
 40
1.0
 40
1.0
 40
1.0
 10
452.4712590105896
 20
185.0
 30
0.0
 10
414.5484709921565
 20
185.0
 30
0.0
 10
367.5096280098883
 20
185.0
 30
0.0
 10
339.4321789910582
 20
185.0
 30
0.0
 10
331.4100509964296
 20
185.0
 30
0.0
 10
312.4486570024724
 20
185.0
 30
0.0
  0
SPLINE
  5
6FDA8
330
702D6
100
AcDbEntity
  8
Level 26
  6
Continuous
 62
     7
370
     0
100
AcDbSpline
210
0.0
220
0.0
230
1.0
 70
    24
 71
     2
 72
     9
 73
     6
 74
     0
 42
0.000000001
 43
0.0000000001
 40
0.0
 40
0.0
 40
0.0
 40
0.25
 40
0.5
 40
0.75
 40
1.0
 40
1.0
 40
1.0
 10
452.4712590105896
 20
185.0
 30
0.0
 10
414.5484709921565
 20
185.0
 30
0.0
 10
367.5096280098883
 20
185.0
 30
0.0
 10
339.4321789910582
 20
185.0
 30
0.0
 10
331.4100509964296
 20
185.0
 30
0.0
 10
312.4486570024724
 20
185.0
 30
0.0
  0
LWPOLYLINE
  5
6FDAA
330
702D6
100
AcDbEntity
  8
Level 26
  6
Continuous
 62
   152
370
     0
100
AcDbPolyline
 90
       47
 70
   129
 43
0.0
 10
113.723404
 20
205.0
 10
232.87234
 20
205.0
 10
323.397588
 20
205.0
 10
232.87234
 20
205.0
 10
323.397588
 20
205.0
 10
328.560568
 20
205.0
 10
360.950387
 20
205.0
 10
328.560568
 20
205.0
 10
360.950387
 20
205.0
 10
426.156648
 20
205.0
 10
455.227397
 20
205.0
 10
455.491824
 20
205.0
 10
429.865963
 20
205.0
 10
455.25892
 20
205.0
 10
429.865963
 20
205.0
 10
360.246453
 20
205.0
 10
316.363766
 20
205.0
 10
304.516847
 20
205.0
 10
165.0
 20
205.0
 10
304.516847
 20
205.0
 10
165.0
 20
205.0
 10
-260.694589
 20
205.0
 10
-352.911377
 20
205.0
 10
-260.694589
 20
205.0
 10
-352.911377
 20
205.0
 10
-395.064853
 20
205.0
 10
-445.0
 20
205.0
 10
-414.407785
 20
205.0
 10
-383.815569
 20
205.0
 10
-342.673046
 20
205.0
 10
-385.586211
 20
205.0
 10
-342.673046
 20
205.0
 10
-335.409581
 20
205.0
 10
-298.060976
 20
205.0
 10
-278.420433
 20
205.0
 10
-244.457212
 20
205.0
 10
-278.420433
 20
205.0
 10
-244.457212
 20
205.0
 10
-117.579573
 20
205.0
 10
-90.128012
 20
205.0
 10
-117.579573
 20
205.0
 10
-90.128012
 20
205.0
 10
-57.720756
 20
205.0
 10
93.458642
 20
205.0
 10
-57.720756
 20
205.0
 10
93.458642
 20
205.0
 10
113.723404
 20
205.0
  0
SPLINE
  5
6FDC6
330
702D6
100
AcDbEntity
  8
Level 26 (Construction)
  6
Continuous
 62
     7
370
     0
100
AcDbSpline
210
0.0
220
0.0
230
1.0
 70
    24
 71
     2
 72
     9
 73
     6
 74
     0
 42
0.000000001
 43
0.0000000001
 40
0.0
 40
0.0
 40
0.0
 40
0.25
 40
0.5
 40
0.75
 40
1.0
 40
1.0
 40
1.0
 10
452.4712590105896
 20
205.0
 30
0.0
 10
414.5484709921565
 20
205.0
 30
0.0
 10
367.5096280098883
 20
205.0
 30
0.0
 10
339.4321789910582
 20
205.0
 30
0.0
 10
331.4100509964296
 20
205.0
 30
0.0
 10
312.4486570024724
 20
205.0
 30
0.0
  0
SPLINE
  5
6FDC8
330
702D6
100
AcDbEntity
  8
Level 26 (Construction)
  6
Continuous
 62
     7
370
     0
100
AcDbSpline
210
0.0
220
0.0
230
1.0
 70
    24
 71
     2
 72
     9
 73
     6
 74
     0
 42
0.000000001
 43
0.0000000001
 40
0.0
 40
0.0
 40
0.0
 40
0.25
 40
0.5
 40
0.75
 40
1.0
 40
1.0
 40
1.0
 10
452.4712590105896
 20
205.2
 30
0.0
 10
414.5484709921565
 20
205.2
 30
0.0
 10
367.5096280098883
 20
205.2
 30
0.0
 10
339.4321789910582
 20
205.2
 30
0.0
 10
331.4100509964296
 20
205.2
 30
0.0
 10
312.4486570024724
 20
205.2
 30
0.0
  0
INSERT
  5
7009D
330
702D6
100
AcDbEntity
  8
Level 26
  6
Continuous
 62
   152
370
     0
100
AcDbBlockReference
  2
From Surface
 10
-2882.056075
 20
-59.086057
 30
0.0
  0
INSERT
  5
7009E
330
702D6
100
AcDbEntity
  8
Level 26
  6
Continuous
 62
   152
370
     0
100
AcDbBlockReference
  2
From Surface_1
 10
-2882.056075
 20
-59.086057
 30
0.0
  0
INSERT
  5
7009F
330
702D6
100
AcDbEntity
  8
Level 26
  6
Continuous
 62
   152
370
     0
100
AcDbBlockReference
  2
From Surface_2
 10
-2882.056075
 20
-59.086057
 30
0.0
  0
INSERT
  5
700A0
330
702D6
100
AcDbEntity
  8
Level 26
  6
Continuous
 62
   152
370
     0
100
AcDbBlockReference
  2
From Surface_3
 10
-2882.056075
 20
-59.086057
 30
0.0
  0
INSERT
  5
700A1
330
702D6
100
AcDbEntity
  8
Level 26
  6
Continuous
 62
   152
370
     0
100
AcDbBlockReference
  2
From Surface_4
 10
-2882.056075
 20
-59.086057
 30
0.0
  0
INSERT
  5
700A2
330
702D6
100
AcDbEntity
  8
Level 26
  6
Continuous
 62
   152
370
     0
100
AcDbBlockReference
  2
From Surface_5
 10
-2882.056075
 20
-59.086057
 30
0.0
  0
INSERT
  5
700A3
330
702D6
100
AcDbEntity
  8
Level 26
  6
Continuous
 62
   152
370
     0
100
AcDbBlockReference
  2
From Surface_6
 10
-2882.056075
 20
-59.086057
 30
0.0
  0
INSERT
  5
700A4
330
702D6
100
AcDbEntity
  8
Level 26
  6
Continuous
 62
   152
370
     0
100
AcDbBlockReference
  2
From Surface_7
 10
-2882.056075
 20
-59.086057
 30
0.0
  0
INSERT
  5
700A5
330
702D6
100
AcDbEntity
  8
Level 26
  6
Continuous
 62
   152
370
     0
100
AcDbBlockReference
  2
From Surface_8
 10
-2882.056075
 20
-59.086057
 30
0.0
  0
INSERT
  5
700A6
330
702D6
100
AcDbEntity
  8
Level 26
  6
Continuous
 62
     7
370
     0
100
AcDbBlockReference
  2
From Surface_9
 10
-2882.056075
 20
-59.086057
 30
0.0
  0
INSERT
  5
700A7
330
702D6
100
AcDbEntity
  8
Level 26
  6
Continuous
 62
   152
370
     0
100
AcDbBlockReference
  2
From Surface_10
 10
-2882.056075
 20
-59.086057
 30
0.0
  0
INSERT
  5
700A8
330
702D6
100
AcDbEntity
  8
Level 26
  6
Continuous
 62
   152
370
     0
100
AcDbBlockReference
  2
From Surface_11
 10
-2882.056075
 20
-59.086057
 30
0.0
  0
INSERT
  5
700A9
330
702D6
100
AcDbEntity
  8
Level 26
  6
Continuous
 62
   152
370
     0
100
AcDbBlockReference
  2
From Surface_12
 10
-2882.056075
 20
-59.086057
 30
0.0
  0
INSERT
  5
700AA
330
702D6
100
AcDbEntity
  8
Level 26
  6
Continuous
 62
   152
370
     0
100
AcDbBlockReference
  2
From Surface_13
 10
-2882.056075
 20
-59.086057
 30
0.0
  0
INSERT
  5
700AB
330
702D6
100
AcDbEntity
  8
Level 26
  6
Continuous
 62
   152
370
     0
100
AcDbBlockReference
  2
From Surface_14
 10
-2882.056075
 20
-59.086057
 30
0.0
  0
INSERT
  5
700AC
330
702D6
100
AcDbEntity
  8
Level 26
  6
Continuous
 62
   152
370
     0
100
AcDbBlockReference
  2
From Surface_15
 10
-2882.056075
 20
-59.086057
 30
0.0
  0
INSERT
  5
700AD
330
702D6
100
AcDbEntity
  8
Level 26
  6
Continuous
 62
   152
370
     0
100
AcDbBlockReference
  2
From Surface_16
 10
-2882.056075
 20
-59.086057
 30
0.0
  0
INSERT
  5
700AE
330
702D6
100
AcDbEntity
  8
Level 26
  6
Continuous
 62
   152
370
     0
100
AcDbBlockReference
  2
From Surface_17
 10
-2882.056075
 20
-59.086057
 30
0.0
  0
INSERT
  5
700AF
330
702D6
100
AcDbEntity
  8
Level 26
  6
Continuous
 62
   152
370
     0
100
AcDbBlockReference
  2
From Surface_18
 10
-2882.056075
 20
-59.086057
 30
0.0
  0
INSERT
  5
700B0
330
702D6
100
AcDbEntity
  8
Level 26
  6
Continuous
 62
   152
370
     0
100
AcDbBlockReference
  2
From Surface_19
 10
-2882.056075
 20
-59.086057
 30
0.0
  0
INSERT
  5
700B1
330
702D6
100
AcDbEntity
  8
Level 26
  6
Continuous
 62
     7
370
     0
100
AcDbBlockReference
  2
From Surface_20
 10
-2882.056075
 20
-59.086057
 30
0.0
  0
INSERT
  5
700B2
330
702D6
100
AcDbEntity
  8
Level 26
  6
Continuous
 62
     7
370
     0
100
AcDbBlockReference
  2
From Surface_21
 10
-2882.056075
 20
-59.086057
 30
0.0
  0
INSERT
  5
700B3
330
702D6
100
AcDbEntity
  8
Level 26
  6
Continuous
 62
     7
370
     0
100
AcDbBlockReference
  2
From Surface_22
 10
-2882.056075
 20
-59.086057
 30
0.0
  0
LWPOLYLINE
  5
6FE49
330
702D6
100
AcDbEntity
  8
Level 26
  6
Continuous
 62
   152
370
     0
100
AcDbPolyline
 90
       47
 70
   129
 43
0.0
 10
113.723405
 20
-185.0
 10
232.87234
 20
-185.0
 10
323.397589
 20
-185.0
 10
232.87234
 20
-185.0
 10
323.397589
 20
-185.0
 10
328.560568
 20
-185.0
 10
360.950387
 20
-185.0
 10
328.560568
 20
-185.0
 10
360.950387
 20
-185.0
 10
426.156648
 20
-185.0
 10
455.227397
 20
-185.0
 10
455.491824
 20
-185.0
 10
429.865963
 20
-185.0
 10
455.25892
 20
-185.0
 10
429.865963
 20
-185.0
 10
360.246453
 20
-185.0
 10
316.363766
 20
-185.0
 10
304.516847
 20
-185.0
 10
165.0
 20
-185.0
 10
304.516847
 20
-185.0
 10
165.0
 20
-185.0
 10
-260.694589
 20
-185.0
 10
-352.911387
 20
-185.0
 10
-260.694589
 20
-185.0
 10
-352.911387
 20
-185.0
 10
-395.064853
 20
-185.0
 10
-445.0
 20
-185.0
 10
-414.407785
 20
-185.0
 10
-383.815569
 20
-185.0
 10
-342.673046
 20
-185.0
 10
-385.586211
 20
-185.0
 10
-342.673046
 20
-185.0
 10
-335.409581
 20
-185.0
 10
-298.060976
 20
-185.0
 10
-278.420433
 20
-185.0
 10
-244.457212
 20
-185.0
 10
-278.420433
 20
-185.0
 10
-244.457212
 20
-185.0
 10
-117.579573
 20
-185.0
 10
-90.128012
 20
-185.0
 10
-117.579573
 20
-185.0
 10
-90.128012
 20
-185.0
 10
-57.720756
 20
-185.0
 10
93.458642
 20
-185.0
 10
-57.720756
 20
-185.0
 10
93.458642
 20
-185.0
 10
113.723405
 20
-185.0
  0
SPLINE
  5
6FE65
330
702D6
100
AcDbEntity
  8
Level 26 (Construction)
  6
Continuous
 62
     7
370
     0
100
AcDbSpline
210
0.0
220
0.0
230
1.0
 70
    24
 71
     2
 72
     9
 73
     6
 74
     0
 42
0.000000001
 43
0.0000000001
 40
0.0
 40
0.0
 40
0.0
 40
0.25
 40
0.5
 40
0.75
 40
1.0
 40
1.0
 40
1.0
 10
452.4712590105896
 20
-185.0
 30
0.0
 10
414.5484709921565
 20
-185.0
 30
0.0
 10
367.5096280098883
 20
-185.0
 30
0.0
 10
339.4321789910582
 20
-185.0
 30
0.0
 10
331.4100509964296
 20
-185.0
 30
0.0
 10
312.4486570024724
 20
-185.0
 30
0.0
  0
SPLINE
  5
6FE67
330
702D6
100
AcDbEntity
  8
Level 26 (Construction)
  6
Continuous
 62
     7
370
     0
100
AcDbSpline
210
0.0
220
0.0
230
1.0
 70
    24
 71
     2
 72
     9
 73
     6
 74
     0
 42
0.000000001
 43
0.0000000001
 40
0.0
 40
0.0
 40
0.0
 40
0.25
 40
0.5
 40
0.75
 40
1.0
 40
1.0
 40
1.0
 10
452.4712590105896
 20
-185.0
 30
0.0
 10
414.5484709921565
 20
-185.0
 30
0.0
 10
367.5096280098883
 20
-185.0
 30
0.0
 10
339.4321789910582
 20
-185.0
 30
0.0
 10
331.4100509964296
 20
-185.0
 30
0.0
 10
312.4486570024724
 20
-185.0
 30
0.0
  0
SPLINE
  5
6FE69
330
702D6
100
AcDbEntity
  8
Level 26
  6
Continuous
 62
     7
370
     0
100
AcDbSpline
210
0.0
220
0.0
230
1.0
 70
    24
 71
     2
 72
     9
 73
     6
 74
     0
 42
0.000000001
 43
0.0000000001
 40
0.0
 40
0.0
 40
0.0
 40
0.25
 40
0.5
 40
0.75
 40
1.0
 40
1.0
 40
1.0
 10
452.4712590105896
 20
-185.0
 30
0.0
 10
414.5484709921565
 20
-185.0
 30
0.0
 10
367.5096280098883
 20
-185.0
 30
0.0
 10
339.4321789910582
 20
-185.0
 30
0.0
 10
331.4100509964296
 20
-185.0
 30
0.0
 10
312.4486570024724
 20
-185.0
 30
0.0
  0
SPLINE
  5
6FE6B
330
702D6
100
AcDbEntity
  8
Level 26
  6
Continuous
 62
     7
370
     0
100
AcDbSpline
210
0.0
220
0.0
230
1.0
 70
    24
 71
     2
 72
     9
 73
     6
 74
     0
 42
0.000000001
 43
0.0000000001
 40
0.0
 40
0.0
 40
0.0
 40
0.25
 40
0.5
 40
0.75
 40
1.0
 40
1.0
 40
1.0
 10
452.4712590105896
 20
-185.0
 30
0.0
 10
414.5484709921565
 20
-185.0
 30
0.0
 10
367.5096280098883
 20
-185.0
 30
0.0
 10
339.4321789910582
 20
-185.0
 30
0.0
 10
331.4100509964296
 20
-185.0
 30
0.0
 10
312.4486570024724
 20
-185.0
 30
0.0
  0
SPLINE
  5
6FE6D
330
702D6
100
AcDbEntity
  8
Level 26
  6
Continuous
 62
     7
370
     0
100
AcDbSpline
210
0.0
220
0.0
230
1.0
 70
    24
 71
     2
 72
     9
 73
     6
 74
     0
 42
0.000000001
 43
0.0000000001
 40
0.0
 40
0.0
 40
0.0
 40
0.25
 40
0.5
 40
0.75
 40
1.0
 40
1.0
 40
1.0
 10
452.4712590105896
 20
-205.0
 30
0.0
 10
414.5484709921565
 20
-205.0
 30
0.0
 10
367.5096280098883
 20
-205.0
 30
0.0
 10
339.4321789910582
 20
-205.0
 30
0.0
 10
331.4100509964296
 20
-205.0
 30
0.0
 10
312.4486570024724
 20
-205.0
 30
0.0
  0
SPLINE
  5
6FE6F
330
702D6
100
AcDbEntity
  8
Level 26
  6
Continuous
 62
     7
370
     0
100
AcDbSpline
210
0.0
220
0.0
230
1.0
 70
    24
 71
     2
 72
     9
 73
     6
 74
     0
 42
0.000000001
 43
0.0000000001
 40
0.0
 40
0.0
 40
0.0
 40
0.25
 40
0.5
 40
0.75
 40
1.0
 40
1.0
 40
1.0
 10
452.4712590105896
 20
-205.0
 30
0.0
 10
414.5484709921565
 20
-205.0
 30
0.0
 10
367.5096280098883
 20
-205.0
 30
0.0
 10
339.4321789910582
 20
-205.0
 30
0.0
 10
331.4100509964296
 20
-205.0
 30
0.0
 10
312.4486570024724
 20
-205.0
 30
0.0
  0
LWPOLYLINE
  5
6FE71
330
702D6
100
AcDbEntity
  8
Level 26
  6
Continuous
 62
   152
370
     0
100
AcDbPolyline
 90
       47
 70
   129
 43
0.0
 10
113.723404
 20
-205.0
 10
232.87234
 20
-205.0
 10
323.397588
 20
-205.0
 10
232.87234
 20
-205.0
 10
323.397588
 20
-205.0
 10
328.560568
 20
-205.0
 10
360.950387
 20
-205.0
 10
328.560568
 20
-205.0
 10
360.950387
 20
-205.0
 10
426.156648
 20
-205.0
 10
455.227397
 20
-205.0
 10
455.491824
 20
-205.0
 10
429.865963
 20
-205.0
 10
455.25892
 20
-205.0
 10
429.865963
 20
-205.0
 10
360.246453
 20
-205.0
 10
316.363766
 20
-205.0
 10
304.516847
 20
-205.0
 10
165.0
 20
-205.0
 10
304.516847
 20
-205.0
 10
165.0
 20
-205.0
 10
-260.694589
 20
-205.0
 10
-352.911377
 20
-205.0
 10
-260.694589
 20
-205.0
 10
-352.911377
 20
-205.0
 10
-395.064853
 20
-205.0
 10
-445.0
 20
-205.0
 10
-414.407785
 20
-205.0
 10
-383.815569
 20
-205.0
 10
-342.673046
 20
-205.0
 10
-385.586211
 20
-205.0
 10
-342.673046
 20
-205.0
 10
-335.409581
 20
-205.0
 10
-298.060976
 20
-205.0
 10
-278.420433
 20
-205.0
 10
-244.457212
 20
-205.0
 10
-278.420433
 20
-205.0
 10
-244.457212
 20
-205.0
 10
-117.579573
 20
-205.0
 10
-90.128012
 20
-205.0
 10
-117.579573
 20
-205.0
 10
-90.128012
 20
-205.0
 10
-57.720756
 20
-205.0
 10
93.458642
 20
-205.0
 10
-57.720756
 20
-205.0
 10
93.458642
 20
-205.0
 10
113.723404
 20
-205.0
  0
SPLINE
  5
6FE8D
330
702D6
100
AcDbEntity
  8
Level 26 (Construction)
  6
Continuous
 62
     7
370
     0
100
AcDbSpline
210
0.0
220
0.0
230
1.0
 70
    24
 71
     2
 72
     9
 73
     6
 74
     0
 42
0.000000001
 43
0.0000000001
 40
0.0
 40
0.0
 40
0.0
 40
0.25
 40
0.5
 40
0.75
 40
1.0
 40
1.0
 40
1.0
 10
452.4712590105896
 20
-205.0
 30
0.0
 10
414.5484709921565
 20
-205.0
 30
0.0
 10
367.5096280098883
 20
-205.0
 30
0.0
 10
339.4321789910582
 20
-205.0
 30
0.0
 10
331.4100509964296
 20
-205.0
 30
0.0
 10
312.4486570024724
 20
-205.0
 30
0.0
  0
SPLINE
  5
6FE8F
330
702D6
100
AcDbEntity
  8
Level 26 (Construction)
  6
Continuous
 62
     7
370
     0
100
AcDbSpline
210
0.0
220
0.0
230
1.0
 70
    24
 71
     2
 72
     9
 73
     6
 74
     0
 42
0.000000001
 43
0.0000000001
 40
0.0
 40
0.0
 40
0.0
 40
0.25
 40
0.5
 40
0.75
 40
1.0
 40
1.0
 40
1.0
 10
452.4712590105896
 20
-205.0
 30
0.0
 10
414.5484709921565
 20
-205.0
 30
0.0
 10
367.5096280098883
 20
-205.0
 30
0.0
 10
339.4321789910582
 20
-205.0
 30
0.0
 10
331.4100509964296
 20
-205.0
 30
0.0
 10
312.4486570024724
 20
-205.0
 30
0.0
  0
INSERT
  5
700B4
330
702D6
100
AcDbEntity
  8
Level 26
  6
Continuous
 62
   152
370
     0
100
AcDbBlockReference
  2
From Surface_23
 10
-2882.056075
 20
-59.086057
 30
0.0
  0
INSERT
  5
700B5
330
702D6
100
AcDbEntity
  8
Level 26
  6
Continuous
 62
   152
370
     0
100
AcDbBlockReference
  2
From Surface_24
 10
-2882.056075
 20
-59.086057
 30
0.0
  0
INSERT
  5
700B6
330
702D6
100
AcDbEntity
  8
Level 26
  6
Continuous
 62
   152
370
     0
100
AcDbBlockReference
  2
From Surface_25
 10
-2882.056075
 20
-59.086057
 30
0.0
  0
INSERT
  5
700B7
330
702D6
100
AcDbEntity
  8
Level 26
  6
Continuous
 62
   152
370
     0
100
AcDbBlockReference
  2
From Surface_26
 10
-2882.056075
 20
-59.086057
 30
0.0
  0
INSERT
  5
700B8
330
702D6
100
AcDbEntity
  8
Level 26
  6
Continuous
 62
   152
370
     0
100
AcDbBlockReference
  2
From Surface_27
 10
-2882.056075
 20
-59.086057
 30
0.0
  0
INSERT
  5
700B9
330
702D6
100
AcDbEntity
  8
Level 26
  6
Continuous
 62
   152
370
     0
100
AcDbBlockReference
  2
From Surface_28
 10
-2882.056075
 20
-59.086057
 30
0.0
  0
INSERT
  5
700BA
330
702D6
100
AcDbEntity
  8
Level 26
  6
Continuous
 62
   152
370
     0
100
AcDbBlockReference
  2
From Surface_29
 10
-2882.056075
 20
-59.086057
 30
0.0
  0
INSERT
  5
700BB
330
702D6
100
AcDbEntity
  8
Level 26
  6
Continuous
 62
   152
370
     0
100
AcDbBlockReference
  2
From Surface_30
 10
-2882.056075
 20
-59.086057
 30
0.0
  0
INSERT
  5
700BC
330
702D6
100
AcDbEntity
  8
Level 26
  6
Continuous
 62
   152
370
     0
100
AcDbBlockReference
  2
From Surface_31
 10
-2882.056075
 20
-59.086057
 30
0.0
  0
INSERT
  5
700BD
330
702D6
100
AcDbEntity
  8
Level 26
  6
Continuous
 62
     7
370
     0
100
AcDbBlockReference
  2
From Surface_32
 10
-2882.056075
 20
-59.086057
 30
0.0
  0
INSERT
  5
700BE
330
702D6
100
AcDbEntity
  8
Level 26
  6
Continuous
 62
   152
370
     0
100
AcDbBlockReference
  2
From Surface_33
 10
-2882.056075
 20
-59.086057
 30
0.0
  0
INSERT
  5
700BF
330
702D6
100
AcDbEntity
  8
Level 26
  6
Continuous
 62
   152
370
     0
100
AcDbBlockReference
  2
From Surface_34
 10
-2882.056075
 20
-59.086057
 30
0.0
  0
INSERT
  5
700C0
330
702D6
100
AcDbEntity
  8
Level 26
  6
Continuous
 62
   152
370
     0
100
AcDbBlockReference
  2
From Surface_35
 10
-2882.056075
 20
-59.086057
 30
0.0
  0
INSERT
  5
700C1
330
702D6
100
AcDbEntity
  8
Level 26
  6
Continuous
 62
   152
370
     0
100
AcDbBlockReference
  2
From Surface_36
 10
-2882.056075
 20
-59.086057
 30
0.0
  0
INSERT
  5
700C2
330
702D6
100
AcDbEntity
  8
Level 26
  6
Continuous
 62
   152
370
     0
100
AcDbBlockReference
  2
From Surface_37
 10
-2882.056075
 20
-59.086057
 30
0.0
  0
INSERT
  5
700C3
330
702D6
100
AcDbEntity
  8
Level 26
  6
Continuous
 62
   152
370
     0
100
AcDbBlockReference
  2
From Surface_38
 10
-2882.056075
 20
-59.086057
 30
0.0
  0
INSERT
  5
700C4
330
702D6
100
AcDbEntity
  8
Level 26
  6
Continuous
 62
   152
370
     0
100
AcDbBlockReference
  2
From Surface_39
 10
-2882.056075
 20
-59.086057
 30
0.0
  0
INSERT
  5
700C5
330
702D6
100
AcDbEntity
  8
Level 26
  6
Continuous
 62
   152
370
     0
100
AcDbBlockReference
  2
From Surface_40
 10
-2882.056075
 20
-59.086057
 30
0.0
  0
INSERT
  5
700C6
330
702D6
100
AcDbEntity
  8
Level 26
  6
Continuous
 62
   152
370
     0
100
AcDbBlockReference
  2
From Surface_41
 10
-2882.056075
 20
-59.086057
 30
0.0
  0
INSERT
  5
700C7
330
702D6
100
AcDbEntity
  8
Level 26
  6
Continuous
 62
   152
370
     0
100
AcDbBlockReference
  2
From Surface_42
 10
-2882.056075
 20
-59.086057
 30
0.0
  0
INSERT
  5
700C8
330
702D6
100
AcDbEntity
  8
Level 26
  6
Continuous
 62
     7
370
     0
100
AcDbBlockReference
  2
From Surface_43
 10
-2882.056075
 20
-59.086057
 30
0.0
  0
INSERT
  5
700C9
330
702D6
100
AcDbEntity
  8
Level 26
  6
Continuous
 62
     7
370
     0
100
AcDbBlockReference
  2
From Surface_44
 10
-2882.056075
 20
-59.086057
 30
0.0
  0
INSERT
  5
700CA
330
702D6
100
AcDbEntity
  8
Level 26
  6
Continuous
 62
     7
370
     0
100
AcDbBlockReference
  2
From Surface_45
 10
-2882.056075
 20
-59.086057
 30
0.0
  0
INSERT
  5
700CB
330
702D6
100
AcDbEntity
  8
Level 26
  6
Continuous
 62
    40
370
     0
100
AcDbBlockReference
  2
From Solid
 10
-2882.056075
 20
-59.086057
 30
0.0
  0
INSERT
  5
700CC
330
702D6
100
AcDbEntity
  8
Level 26
  6
Continuous
 62
    40
370
     0
100
AcDbBlockReference
  2
From Solid_1
 10
-2882.056075
 20
-59.086057
 30
0.0
  0
INSERT
  5
700CD
330
702D6
100
AcDbEntity
  8
Level 26
  6
Continuous
 62
    40
370
     0
100
AcDbBlockReference
  2
From Solid_2
 10
-2882.056075
 20
-59.086057
 30
0.0
  0
INSERT
  5
6FF25
330
702D6
100
AcDbEntity
  8
Level 26
  6
Continuous
 62
     7
370
     0
100
AcDbBlockReference
  2
*U50
 10
-1.449
 20
0.003
 30
0.0
  0
INSERT
  5
6FFAE
330
702D6
100
AcDbEntity
  8
Level 26
  6
Continuous
 62
    40
370
     0
100
AcDbBlockReference
  2
*U59
 10
-386.171
 20
183.8
 30
0.0
  0
INSERT
  5
6FFBA
330
702D6
100
AcDbEntity
  8
Level 26
  6
Continuous
 62
    40
370
     0
100
AcDbBlockReference
  2
*U60
 10
266.756
 20
183.8
 30
0.0
  0
INSERT
  5
6FFC6
330
702D6
100
AcDbEntity
  8
Level 26
  6
Continuous
 62
    40
370
     0
100
AcDbBlockReference
  2
*U61
 10
203.193
 20
183.8
 30
0.0
  0
INSERT
  5
6FFD2
330
702D6
100
AcDbEntity
  8
Level 26
  6
Continuous
 62
    40
370
     0
100
AcDbBlockReference
  2
*U62
 10
266.756
 20
-183.8
 30
0.0
  0
INSERT
  5
6FFDE
330
702D6
100
AcDbEntity
  8
Level 26
  6
Continuous
 62
    40
370
     0
100
AcDbBlockReference
  2
*U63
 10
203.193
 20
-183.8
 30
0.0
  0
INSERT
  5
6FFEA
330
702D6
100
AcDbEntity
  8
Level 26
  6
Continuous
 62
    40
370
     0
100
AcDbBlockReference
  2
*U64
 10
-386.171
 20
-183.8
 30
0.0
  0
SPLINE
  5
6FFF6
330
702D6
100
AcDbEntity
  8
Level 26 (Construction)
  6
Continuous
 62
     7
370
     0
100
AcDbSpline
210
0.0
220
0.0
230
1.0
 70
    25
 71
     2
 72
    28
 73
    25
 74
     0
 42
0.000000001
 43
0.0000000001
 40
0.0
 40
0.0
 40
0.0
 40
0.0277777777777778
 40
0.0555555555555556
 40
0.0833333333333333
 40
0.1111111111111111
 40
0.1111111111111111
 40
0.2222222222222222
 40
0.2222222222222222
 40
0.3333333333333333
 40
0.3333333333333333
 40
0.4444444444444445
 40
0.4444444444444445
 40
0.5555555555555555
 40
0.5555555555555555
 40
0.6666666666666666
 40
0.6666666666666666
 40
0.6944444444444445
 40
0.7222222222222222
 40
0.75
 40
0.7777777777777777
 40
0.7777777777777777
 40
0.8888888888888889
 40
0.8888888888888889
 40
1.0
 40
1.0
 40
1.0
 10
452.4712590105896
 20
205.2
 30
0.0
 10
414.5484709921565
 20
205.2
 30
0.0
 10
367.5096280098883
 20
205.2
 30
0.0
 10
339.4321789910582
 20
205.2
 30
0.0
 10
331.4100509964296
 20
205.2
 30
0.0
 10
312.4486570024724
 20
205.2
 30
0.0
 10
312.4486570024724
 20
205.2
 30
0.0
 10
312.4486570024724
 20
205.2
 30
0.0
 10
309.9486570024724
 20
205.2
 30
0.0
 10
307.4486570024724
 20
205.2
 30
0.0
 10
307.4486570024724
 20
205.2
 30
0.0
 10
307.4486570024724
 20
205.2
 30
0.0
 10
309.9486570024724
 20
205.2
 30
0.0
 10
312.4486570024724
 20
205.2
 30
0.0
 10
312.4486570024724
 20
205.2
 30
0.0
 10
312.4486570024724
 20
205.2
 30
0.0
 10
331.4100509964296
 20
205.2
 30
0.0
 10
339.4321789910582
 20
205.2
 30
0.0
 10
367.5096280098883
 20
205.2
 30
0.0
 10
414.5484709921565
 20
205.2
 30
0.0
 10
452.4712590105896
 20
205.2
 30
0.0
 10
453.3996310000002
 20
205.2
 30
0.0
 10
454.328003
 20
205.2
 30
0.0
 10
453.3996310052948
 20
205.2
 30
0.0
 10
452.4712590105896
 20
205.2
 30
0.0
  0
SPLINE
  5
70001
330
702D6
100
AcDbEntity
  8
Level 26 (Construction)
  6
Continuous
 62
     7
370
     0
100
AcDbSpline
210
0.0
220
0.0
230
1.0
 70
    25
 71
     2
 72
    28
 73
    25
 74
     0
 42
0.000000001
 43
0.0000000001
 40
0.0
 40
0.0
 40
0.0
 40
0.0277777777777778
 40
0.0555555555555556
 40
0.0833333333333333
 40
0.1111111111111111
 40
0.1111111111111111
 40
0.2222222222222222
 40
0.2222222222222222
 40
0.3333333333333333
 40
0.3333333333333333
 40
0.4444444444444445
 40
0.4444444444444445
 40
0.5555555555555555
 40
0.5555555555555555
 40
0.6666666666666666
 40
0.6666666666666666
 40
0.6944444444444445
 40
0.7222222222222222
 40
0.75
 40
0.7777777777777777
 40
0.7777777777777777
 40
0.8888888888888889
 40
0.8888888888888889
 40
1.0
 40
1.0
 40
1.0
 10
452.4712590105896
 20
184.6
 30
0.0
 10
414.5484709921565
 20
184.6
 30
0.0
 10
367.5096280098883
 20
184.6
 30
0.0
 10
339.4321789910582
 20
184.6
 30
0.0
 10
331.4100509964296
 20
184.6
 30
0.0
 10
312.4486570024724
 20
184.6
 30
0.0
 10
312.4486570024724
 20
184.6
 30
0.0
 10
312.4486570024724
 20
184.6
 30
0.0
 10
309.9486570024724
 20
184.6
 30
0.0
 10
307.4486570024724
 20
184.6
 30
0.0
 10
307.4486570024724
 20
184.6
 30
0.0
 10
307.4486570024724
 20
184.6
 30
0.0
 10
309.9486570024724
 20
184.6
 30
0.0
 10
312.4486570024724
 20
184.6
 30
0.0
 10
312.4486570024724
 20
184.6
 30
0.0
 10
312.4486570024724
 20
184.6
 30
0.0
 10
331.4100509964296
 20
184.6
 30
0.0
 10
339.4321789910582
 20
184.6
 30
0.0
 10
367.5096280098883
 20
184.6
 30
0.0
 10
414.5484709921565
 20
184.6
 30
0.0
 10
452.4712590105896
 20
184.6
 30
0.0
 10
453.3996310000002
 20
184.6
 30
0.0
 10
454.328003
 20
184.6
 30
0.0
 10
453.3996310052948
 20
184.6
 30
0.0
 10
452.4712590105896
 20
184.6
 30
0.0
  0
SPLINE
  5
7000C
330
702D6
100
AcDbEntity
  8
Level 26 (Construction)
  6
Continuous
 62
     7
370
     0
100
AcDbSpline
210
0.0
220
0.0
230
1.0
 70
     9
 71
     2
 72
    28
 73
    25
 74
     0
 42
0.000000001
 43
0.0000000001
 40
0.0
 40
0.0
 40
0.0
 40
0.0277777777777778
 40
0.0555555555555556
 40
0.0833333333333333
 40
0.1111111111111111
 40
0.1111111111111111
 40
0.2222222222222222
 40
0.2222222222222222
 40
0.3333333333333333
 40
0.3333333333333333
 40
0.4444444444444445
 40
0.4444444444444445
 40
0.5555555555555555
 40
0.5555555555555555
 40
0.6666666666666666
 40
0.6666666666666666
 40
0.6944444444444445
 40
0.7222222222222222
 40
0.75
 40
0.7777777777777777
 40
0.7777777777777777
 40
0.8888888888888889
 40
0.8888888888888889
 40
1.0
 40
1.0
 40
1.0
 10
452.4712590105896
 20
-205.3
 30
0.0
 10
414.5484709921565
 20
-205.3
 30
0.0
 10
367.5096280098883
 20
-205.3
 30
0.0
 10
339.4321789910582
 20
-205.3
 30
0.0
 10
331.4100509964296
 20
-205.3
 30
0.0
 10
312.4486570024724
 20
-205.3
 30
0.0
 10
312.4486570024724
 20
-205.3
 30
0.0
 10
312.4486570024724
 20
-205.3
 30
0.0
 10
309.9486570024724
 20
-205.3
 30
0.0
 10
307.4486570024724
 20
-205.3
 30
0.0
 10
307.4486570024724
 20
-205.3
 30
0.0
 10
307.4486570024724
 20
-205.3
 30
0.0
 10
309.9486570024724
 20
-205.3
 30
0.0
 10
312.4486570024724
 20
-205.3
 30
0.0
 10
312.4486570024724
 20
-205.3
 30
0.0
 10
312.4486570024724
 20
-205.3
 30
0.0
 10
331.4100509964296
 20
-205.3
 30
0.0
 10
339.4321789910582
 20
-205.3
 30
0.0
 10
367.5096280098883
 20
-205.3
 30
0.0
 10
414.5484709921565
 20
-205.3
 30
0.0
 10
452.4712590105896
 20
-205.3
 30
0.0
 10
453.3996310000002
 20
-205.3000000060806
 30
0.0
 10
454.328003
 20
-205.3000000060806
 30
0.0
 10
453.3996310052948
 20
-205.3000000030403
 30
0.0
 10
452.4712590105896
 20
-205.3
 30
0.0
  0
SPLINE
  5
70017
330
702D6
100
AcDbEntity
  8
Level 26 (Construction)
  6
Continuous
 62
     7
370
     0
100
AcDbSpline
210
0.0
220
0.0
230
1.0
 70
     9
 71
     2
 72
    28
 73
    25
 74
     0
 42
0.000000001
 43
0.0000000001
 40
0.0
 40
0.0
 40
0.0
 40
0.0277777777777778
 40
0.0555555555555556
 40
0.0833333333333333
 40
0.1111111111111111
 40
0.1111111111111111
 40
0.2222222222222222
 40
0.2222222222222222
 40
0.3333333333333333
 40
0.3333333333333333
 40
0.4444444444444445
 40
0.4444444444444445
 40
0.5555555555555555
 40
0.5555555555555555
 40
0.6666666666666666
 40
0.6666666666666666
 40
0.6944444444444445
 40
0.7222222222222222
 40
0.75
 40
0.7777777777777777
 40
0.7777777777777777
 40
0.8888888888888889
 40
0.8888888888888889
 40
1.0
 40
1.0
 40
1.0
 10
452.4712590105896
 20
-184.7
 30
0.0
 10
414.5484709921565
 20
-184.7
 30
0.0
 10
367.5096280098883
 20
-184.7
 30
0.0
 10
339.4321789910582
 20
-184.7
 30
0.0
 10
331.4100509964296
 20
-184.7
 30
0.0
 10
312.4486570024724
 20
-184.7
 30
0.0
 10
312.4486570024724
 20
-184.7
 30
0.0
 10
312.4486570024724
 20
-184.7
 30
0.0
 10
309.9486570024724
 20
-184.7
 30
0.0
 10
307.4486570024724
 20
-184.7
 30
0.0
 10
307.4486570024724
 20
-184.7
 30
0.0
 10
307.4486570024724
 20
-184.7
 30
0.0
 10
309.9486570024724
 20
-184.7
 30
0.0
 10
312.4486570024724
 20
-184.7
 30
0.0
 10
312.4486570024724
 20
-184.7
 30
0.0
 10
312.4486570024724
 20
-184.7
 30
0.0
 10
331.4100509964296
 20
-184.7
 30
0.0
 10
339.4321789910582
 20
-184.7
 30
0.0
 10
367.5096280098883
 20
-184.7
 30
0.0
 10
414.5484709921565
 20
-184.7
 30
0.0
 10
452.4712590105896
 20
-184.7
 30
0.0
 10
453.3996310000002
 20
-184.7000000060806
 30
0.0
 10
454.328003
 20
-184.7000000060806
 30
0.0
 10
453.3996310052948
 20
-184.7000000030403
 30
0.0
 10
452.4712590105896
 20
-184.7
 30
0.0
  0
INSERT
  5
701C6
330
702D6
100
AcDbEntity
  8
Level 26
  6
Continuous
 62
     7
370
     0
100
AcDbBlockReference
  2
From Solid_3
 10
-2882.056075
 20
-59.086057
 30
0.0
  0
INSERT
  5
701C7
330
702D6
100
AcDbEntity
  8
Level 26
  6
Continuous
 62
     7
370
     0
100
AcDbBlockReference
  2
From Solid_4
 10
-2882.056075
 20
-59.086057
 30
0.0
  0
ENDBLK
  5
702D8
330
702D6
100
AcDbEntity
  8
0
 62
    98
370
     0
100
AcDbBlockEnd
  0
BLOCK
  5
702DB
330
702DA
100
AcDbEntity
  8
0
 62
    98
370
     0
100
AcDbBlockBegin
  2
From Surface
 70
     0
 10
0.0
 20
0.0
 30
0.0
  3
From Surface
  1

  0
LINE
  5
6FDCB
330
702DA
100
AcDbEntity
  8
Level 26
  6
Continuous
 62
   152
370
     0
100
AcDbLine
 10
2975.514717
 20
264.086057
 30
0.0
 11
2995.779479
 21
264.086057
 31
0.0
  0
LINE
  5
6FDCC
330
702DA
100
AcDbEntity
  8
Level 26
  6
Continuous
 62
   152
370
     0
100
AcDbLine
 10
2975.514717
 20
244.086057
 30
0.0
 11
2995.779479
 21
244.086057
 31
0.0
  0
LINE
  5
6FDCD
330
702DA
100
AcDbEntity
  8
Level 26
  6
Continuous
 62
   152
370
     0
100
AcDbLine
 10
2995.779479
 20
264.086057
 30
0.0
 11
2995.779479
 21
244.086057
 31
0.0
  0
LINE
  5
6FDCE
330
702DA
100
AcDbEntity
  8
Level 26
  6
Continuous
 62
   152
370
     0
100
AcDbLine
 10
2975.514717
 20
264.086057
 30
0.0
 11
2975.514717
 21
244.086057
 31
0.0
  0
ENDBLK
  5
702DC
330
702DA
100
AcDbEntity
  8
0
 62
    98
370
     0
100
AcDbBlockEnd
  0
BLOCK
  5
702DE
330
702DD
100
AcDbEntity
  8
0
 62
    98
370
     0
100
AcDbBlockBegin
  2
From Surface_1
 70
     0
 10
0.0
 20
0.0
 30
0.0
  3
From Surface_1
  1

  0
LINE
  5
6FDD0
330
702DD
100
AcDbEntity
  8
Level 26
  6
Continuous
 62
   152
370
     0
100
AcDbLine
 10
2791.928063
 20
264.086057
 30
0.0
 11
2824.335319
 21
264.086057
 31
0.0
  0
LINE
  5
6FDD1
330
702DD
100
AcDbEntity
  8
Level 26
  6
Continuous
 62
   152
370
     0
100
AcDbLine
 10
2791.928063
 20
244.086057
 30
0.0
 11
2824.335319
 21
244.086057
 31
0.0
  0
LINE
  5
6FDD2
330
702DD
100
AcDbEntity
  8
Level 26
  6
Continuous
 62
   152
370
     0
100
AcDbLine
 10
2791.928063
 20
264.086057
 30
0.0
 11
2791.928063
 21
244.086057
 31
0.0
  0
LINE
  5
6FDD3
330
702DD
100
AcDbEntity
  8
Level 26
  6
Continuous
 62
   152
370
     0
100
AcDbLine
 10
2824.335319
 20
264.086057
 30
0.0
 11
2824.335319
 21
244.086057
 31
0.0
  0
ENDBLK
  5
702DF
330
702DD
100
AcDbEntity
  8
0
 62
    98
370
     0
100
AcDbBlockEnd
  0
BLOCK
  5
702E1
330
702E0
100
AcDbEntity
  8
0
 62
    98
370
     0
100
AcDbBlockBegin
  2
From Surface_2
 70
     0
 10
0.0
 20
0.0
 30
0.0
  3
From Surface_2
  1

  0
LINE
  5
6FDD5
330
702E0
100
AcDbEntity
  8
Level 26
  6
Continuous
 62
   152
370
     0
100
AcDbLine
 10
2637.598863
 20
264.086057
 30
0.0
 11
2603.635642
 21
264.086057
 31
0.0
  0
LINE
  5
6FDD6
330
702E0
100
AcDbEntity
  8
Level 26
  6
Continuous
 62
   152
370
     0
100
AcDbLine
 10
2637.598863
 20
244.086057
 30
0.0
 11
2603.635642
 21
244.086057
 31
0.0
  0
LINE
  5
6FDD7
330
702E0
100
AcDbEntity
  8
Level 26
  6
Continuous
 62
   152
370
     0
100
AcDbLine
 10
2637.598863
 20
264.086057
 30
0.0
 11
2637.598863
 21
244.086057
 31
0.0
  0
LINE
  5
6FDD8
330
702E0
100
AcDbEntity
  8
Level 26
  6
Continuous
 62
   152
370
     0
100
AcDbLine
 10
2603.635642
 20
264.086057
 30
0.0
 11
2603.635642
 21
244.086057
 31
0.0
  0
ENDBLK
  5
702E2
330
702E0
100
AcDbEntity
  8
0
 62
    98
370
     0
100
AcDbBlockEnd
  0
BLOCK
  5
702E4
330
702E3
100
AcDbEntity
  8
0
 62
    98
370
     0
100
AcDbBlockBegin
  2
From Surface_3
 70
     0
 10
0.0
 20
0.0
 30
0.0
  3
From Surface_3
  1

  0
LINE
  5
6FDDA
330
702E3
100
AcDbEntity
  8
Level 26
  6
Continuous
 62
   152
370
     0
100
AcDbLine
 10
2546.646494
 20
264.086057
 30
0.0
 11
2583.995099
 21
264.086057
 31
0.0
  0
LINE
  5
6FDDB
330
702E3
100
AcDbEntity
  8
Level 26
  6
Continuous
 62
   152
370
     0
100
AcDbLine
 10
2546.646494
 20
244.086057
 30
0.0
 11
2583.995099
 21
244.086057
 31
0.0
  0
LINE
  5
6FDDC
330
702E3
100
AcDbEntity
  8
Level 26
  6
Continuous
 62
   152
370
     0
100
AcDbLine
 10
2546.646494
 20
264.086057
 30
0.0
 11
2546.646494
 21
244.086057
 31
0.0
  0
LINE
  5
6FDDD
330
702E3
100
AcDbEntity
  8
Level 26
  6
Continuous
 62
   152
370
     0
100
AcDbLine
 10
2583.995099
 20
264.086057
 30
0.0
 11
2583.995099
 21
244.086057
 31
0.0
  0
ENDBLK
  5
702E5
330
702E3
100
AcDbEntity
  8
0
 62
    98
370
     0
100
AcDbBlockEnd
  0
BLOCK
  5
702E7
330
702E6
100
AcDbEntity
  8
0
 62
    98
370
     0
100
AcDbBlockBegin
  2
From Surface_4
 70
     0
 10
0.0
 20
0.0
 30
0.0
  3
From Surface_4
  1

  0
LINE
  5
6FDDF
330
702E6
100
AcDbEntity
  8
Level 26
  6
Continuous
 62
   152
370
     0
100
AcDbLine
 10
2486.991222
 20
264.086057
 30
0.0
 11
2437.056075
 21
264.086057
 31
0.0
  0
LINE
  5
6FDE0
330
702E6
100
AcDbEntity
  8
Level 26
  6
Continuous
 62
   152
370
     0
100
AcDbLine
 10
2486.991222
 20
244.086057
 30
0.0
 11
2437.056075
 21
244.086057
 31
0.0
  0
LINE
  5
6FDE1
330
702E6
100
AcDbEntity
  8
Level 26
  6
Continuous
 62
   152
370
     0
100
AcDbLine
 10
2486.991222
 20
264.086057
 30
0.0
 11
2486.991222
 21
244.086057
 31
0.0
  0
LINE
  5
6FDE2
330
702E6
100
AcDbEntity
  8
Level 26
  6
Continuous
 62
   152
370
     0
100
AcDbLine
 10
2467.64829
 20
264.086057
 30
0.0
 11
2467.64829
 21
244.086057
 31
0.0
  0
ENDBLK
  5
702E8
330
702E6
100
AcDbEntity
  8
0
 62
    98
370
     0
100
AcDbBlockEnd
  0
BLOCK
  5
702EA
330
702E9
100
AcDbEntity
  8
0
 62
    98
370
     0
100
AcDbBlockBegin
  2
From Surface_5
 70
     0
 10
0.0
 20
0.0
 30
0.0
  3
From Surface_5
  1

  0
LINE
  5
6FDE4
330
702E9
100
AcDbEntity
  8
Level 26
  6
Continuous
 62
   152
370
     0
100
AcDbLine
 10
2529.144698
 20
264.086057
 30
0.0
 11
2621.361486
 21
264.086057
 31
0.0
  0
LINE
  5
6FDE5
330
702E9
100
AcDbEntity
  8
Level 26
  6
Continuous
 62
   152
370
     0
100
AcDbLine
 10
2529.144698
 20
244.086057
 30
0.0
 11
2621.361486
 21
244.086057
 31
0.0
  0
LINE
  5
6FDE6
330
702E9
100
AcDbEntity
  8
Level 26
  6
Continuous
 62
   152
370
     0
100
AcDbLine
 10
2529.144698
 20
264.086057
 30
0.0
 11
2529.144698
 21
244.086057
 31
0.0
  0
LINE
  5
6FDE7
330
702E9
100
AcDbEntity
  8
Level 26
  6
Continuous
 62
   152
370
     0
100
AcDbLine
 10
2621.361486
 20
264.086057
 30
0.0
 11
2621.361486
 21
244.086057
 31
0.0
  0
ENDBLK
  5
702EB
330
702E9
100
AcDbEntity
  8
0
 62
    98
370
     0
100
AcDbBlockEnd
  0
BLOCK
  5
702ED
330
702EC
100
AcDbEntity
  8
0
 62
    98
370
     0
100
AcDbBlockBegin
  2
From Surface_6
 70
     0
 10
0.0
 20
0.0
 30
0.0
  3
From Surface_6
  1

  0
LINE
  5
6FDE9
330
702EC
100
AcDbEntity
  8
Level 26
  6
Continuous
 62
   152
370
     0
100
AcDbLine
 10
3047.056075
 20
264.086057
 30
0.0
 11
3186.572922
 21
264.086057
 31
0.0
  0
LINE
  5
6FDEA
330
702EC
100
AcDbEntity
  8
Level 26
  6
Continuous
 62
   152
370
     0
100
AcDbLine
 10
3047.056075
 20
244.086057
 30
0.0
 11
3186.572922
 21
244.086057
 31
0.0
  0
LINE
  5
6FDEB
330
702EC
100
AcDbEntity
  8
Level 26
  6
Continuous
 62
   152
370
     0
100
AcDbLine
 10
3186.572922
 20
264.086057
 30
0.0
 11
3186.572922
 21
244.086057
 31
0.0
  0
LINE
  5
6FDEC
330
702EC
100
AcDbEntity
  8
Level 26
  6
Continuous
 62
   152
370
     0
100
AcDbLine
 10
3047.056075
 20
264.086057
 30
0.0
 11
3047.056075
 21
244.086057
 31
0.0
  0
ENDBLK
  5
702EE
330
702EC
100
AcDbEntity
  8
0
 62
    98
370
     0
100
AcDbBlockEnd
  0
BLOCK
  5
702F0
330
702EF
100
AcDbEntity
  8
0
 62
    98
370
     0
100
AcDbBlockBegin
  2
From Surface_7
 70
     0
 10
0.0
 20
0.0
 30
0.0
  3
From Surface_7
  1

  0
LINE
  5
6FDEE
330
702EF
100
AcDbEntity
  8
Level 26
  6
Continuous
 62
   152
370
     0
100
AcDbLine
 10
3242.302528
 20
264.086057
 30
0.0
 11
3198.419841
 21
264.086057
 31
0.0
  0
LINE
  5
6FDEF
330
702EF
100
AcDbEntity
  8
Level 26
  6
Continuous
 62
   152
370
     0
100
AcDbLine
 10
3242.302528
 20
244.086057
 30
0.0
 11
3198.419841
 21
244.086057
 31
0.0
  0
LINE
  5
6FDF0
330
702EF
100
AcDbEntity
  8
Level 26
  6
Continuous
 62
   152
370
     0
100
AcDbLine
 10
3198.419841
 20
264.086057
 30
0.0
 11
3198.419841
 21
244.086057
 31
0.0
  0
LINE
  5
6FDF1
330
702EF
100
AcDbEntity
  8
Level 26
  6
Continuous
 62
   152
370
     0
100
AcDbLine
 10
3242.302528
 20
264.086057
 30
0.0
 11
3242.302528
 21
244.086057
 31
0.0
  0
ENDBLK
  5
702F1
330
702EF
100
AcDbEntity
  8
0
 62
    98
370
     0
100
AcDbBlockEnd
  0
BLOCK
  5
702F3
330
702F2
100
AcDbEntity
  8
0
 62
    98
370
     0
100
AcDbBlockBegin
  2
From Surface_8
 70
     0
 10
0.0
 20
0.0
 30
0.0
  3
From Surface_8
  1

  0
LINE
  5
6FDF3
330
702F2
100
AcDbEntity
  8
Level 26
  6
Continuous
 62
   152
370
     0
100
AcDbLine
 10
3311.922038
 20
264.086057
 30
0.0
 11
3337.314995
 21
264.086057
 31
0.0
  0
LINE
  5
6FDF4
330
702F2
100
AcDbEntity
  8
Level 26
  6
Continuous
 62
   152
370
     0
100
AcDbLine
 10
3311.922038
 20
244.086057
 30
0.0
 11
3337.314995
 21
244.086057
 31
0.0
  0
LINE
  5
6FDF5
330
702F2
100
AcDbEntity
  8
Level 26
  6
Continuous
 62
   152
370
     0
100
AcDbLine
 10
3337.314995
 20
264.086057
 30
0.0
 11
3337.314995
 21
244.086057
 31
0.0
  0
LINE
  5
6FDF6
330
702F2
100
AcDbEntity
  8
Level 26
  6
Continuous
 62
   152
370
     0
100
AcDbLine
 10
3311.922038
 20
264.086057
 30
0.0
 11
3311.922038
 21
244.086057
 31
0.0
  0
ENDBLK
  5
702F4
330
702F2
100
AcDbEntity
  8
0
 62
    98
370
     0
100
AcDbBlockEnd
  0
BLOCK
  5
702F6
330
702F5
100
AcDbEntity
  8
0
 62
    98
370
     0
100
AcDbBlockBegin
  2
From Surface_9
 70
     0
 10
0.0
 20
0.0
 30
0.0
  3
From Surface_9
  1

  0
LINE
  5
6FDF8
330
702F5
100
AcDbEntity
  8
Level 26
  6
Continuous
 62
     7
370
     0
100
AcDbLine
 10
3337.283472
 20
264.086057
 30
0.0
 11
3337.5479
 21
264.086057
 31
0.0
  0
LINE
  5
6FDF9
330
702F5
100
AcDbEntity
  8
Level 26
  6
Continuous
 62
     7
370
     0
100
AcDbLine
 10
3337.283472
 20
244.086057
 30
0.0
 11
3337.5479
 21
244.086057
 31
0.0
  0
LINE
  5
6FDFA
330
702F5
100
AcDbEntity
  8
Level 26
  6
Continuous
 62
     7
370
     0
100
AcDbLine
 10
3337.314995
 20
264.086057
 30
0.0
 11
3337.314995
 21
244.086057
 31
0.0
  0
LINE
  5
6FDFB
330
702F5
100
AcDbEntity
  8
Level 26
  6
Continuous
 62
     7
370
     0
100
AcDbLine
 10
3337.283472
 20
264.086057
 30
0.0
 11
3337.283472
 21
244.086057
 31
0.0
  0
ENDBLK
  5
702F7
330
702F5
100
AcDbEntity
  8
0
 62
    98
370
     0
100
AcDbBlockEnd
  0
BLOCK
  5
702F9
330
702F8
100
AcDbEntity
  8
0
 62
    98
370
     0
100
AcDbBlockBegin
  2
From Surface_10
 70
     0
 10
0.0
 20
0.0
 30
0.0
  3
From Surface_10
  1

  0
LINE
  5
6FDFD
330
702F8
100
AcDbEntity
  8
Level 26
  6
Continuous
 62
   152
370
     0
100
AcDbLine
 10
3308.212723
 20
264.086057
 30
0.0
 11
3337.283472
 21
264.086057
 31
0.0
  0
LINE
  5
6FDFE
330
702F8
100
AcDbEntity
  8
Level 26
  6
Continuous
 62
   152
370
     0
100
AcDbLine
 10
3308.212723
 20
244.086057
 30
0.0
 11
3337.283472
 21
244.086057
 31
0.0
  0
LINE
  5
6FDFF
330
702F8
100
AcDbEntity
  8
Level 26
  6
Continuous
 62
   152
370
     0
100
AcDbLine
 10
3308.212723
 20
264.086057
 30
0.0
 11
3308.212723
 21
244.086057
 31
0.0
  0
LINE
  5
6FE00
330
702F8
100
AcDbEntity
  8
Level 26
  6
Continuous
 62
   152
370
     0
100
AcDbLine
 10
3337.283472
 20
264.086057
 30
0.0
 11
3337.283472
 21
244.086057
 31
0.0
  0
ENDBLK
  5
702FA
330
702F8
100
AcDbEntity
  8
0
 62
    98
370
     0
100
AcDbBlockEnd
  0
BLOCK
  5
702FC
330
702FB
100
AcDbEntity
  8
0
 62
    98
370
     0
100
AcDbBlockBegin
  2
From Surface_11
 70
     0
 10
0.0
 20
0.0
 30
0.0
  3
From Surface_11
  1

  0
LINE
  5
6FE02
330
702FB
100
AcDbEntity
  8
Level 26
  6
Continuous
 62
   152
370
     0
100
AcDbLine
 10
3243.006462
 20
264.086057
 30
0.0
 11
3210.616643
 21
264.086057
 31
0.0
  0
LINE
  5
6FE03
330
702FB
100
AcDbEntity
  8
Level 26
  6
Continuous
 62
   152
370
     0
100
AcDbLine
 10
3243.006462
 20
244.086057
 30
0.0
 11
3210.616643
 21
244.086057
 31
0.0
  0
LINE
  5
6FE04
330
702FB
100
AcDbEntity
  8
Level 26
  6
Continuous
 62
   152
370
     0
100
AcDbLine
 10
3243.006462
 20
264.086057
 30
0.0
 11
3243.006462
 21
244.086057
 31
0.0
  0
LINE
  5
6FE05
330
702FB
100
AcDbEntity
  8
Level 26
  6
Continuous
 62
   152
370
     0
100
AcDbLine
 10
3210.616643
 20
264.086057
 30
0.0
 11
3210.616643
 21
244.086057
 31
0.0
  0
ENDBLK
  5
702FD
330
702FB
100
AcDbEntity
  8
0
 62
    98
370
     0
100
AcDbBlockEnd
  0
BLOCK
  5
702FF
330
702FE
100
AcDbEntity
  8
0
 62
    98
370
     0
100
AcDbBlockBegin
  2
From Surface_12
 70
     0
 10
0.0
 20
0.0
 30
0.0
  3
From Surface_12
  1

  0
LINE
  5
6FE07
330
702FE
100
AcDbEntity
  8
Level 26
  6
Continuous
 62
   152
370
     0
100
AcDbLine
 10
3205.453663
 20
264.086057
 30
0.0
 11
3114.928415
 21
264.086057
 31
0.0
  0
LINE
  5
6FE08
330
702FE
100
AcDbEntity
  8
Level 26
  6
Continuous
 62
   152
370
     0
100
AcDbLine
 10
3205.453663
 20
244.086057
 30
0.0
 11
3114.928415
 21
244.086057
 31
0.0
  0
LINE
  5
6FE09
330
702FE
100
AcDbEntity
  8
Level 26
  6
Continuous
 62
   152
370
     0
100
AcDbLine
 10
3114.928415
 20
264.086057
 30
0.0
 11
3114.928415
 21
244.086057
 31
0.0
  0
LINE
  5
6FE0A
330
702FE
100
AcDbEntity
  8
Level 26
  6
Continuous
 62
   152
370
     0
100
AcDbLine
 10
3205.453663
 20
264.086057
 30
0.0
 11
3205.453663
 21
244.086057
 31
0.0
  0
ENDBLK
  5
70300
330
702FE
100
AcDbEntity
  8
0
 62
    98
370
     0
100
AcDbBlockEnd
  0
BLOCK
  5
70302
330
70301
100
AcDbEntity
  8
0
 62
    98
370
     0
100
AcDbBlockBegin
  2
From Surface_13
 70
     0
 10
0.0
 20
0.0
 30
0.0
  3
From Surface_13
  1

  0
LINE
  5
6FE0C
330
70301
100
AcDbEntity
  8
Level 26
  6
Continuous
 62
   152
370
     0
100
AcDbLine
 10
2467.64829
 20
264.086057
 30
0.0
 11
2498.240506
 21
264.086057
 31
0.0
  0
LINE
  5
6FE0D
330
70301
100
AcDbEntity
  8
Level 26
  6
Continuous
 62
   152
370
     0
100
AcDbLine
 10
2467.64829
 20
244.086057
 30
0.0
 11
2498.240506
 21
244.086057
 31
0.0
  0
LINE
  5
6FE0E
330
70301
100
AcDbEntity
  8
Level 26
  6
Continuous
 62
   152
370
     0
100
AcDbLine
 10
2467.64829
 20
264.086057
 30
0.0
 11
2467.64829
 21
244.086057
 31
0.0
  0
LINE
  5
6FE0F
330
70301
100
AcDbEntity
  8
Level 26
  6
Continuous
 62
   152
370
     0
100
AcDbLine
 10
2497.355185
 20
264.086057
 30
0.0
 11
2497.355185
 21
244.086057
 31
0.0
  0
ENDBLK
  5
70303
330
70301
100
AcDbEntity
  8
0
 62
    98
370
     0
100
AcDbBlockEnd
  0
BLOCK
  5
70305
330
70304
100
AcDbEntity
  8
0
 62
    98
370
     0
100
AcDbBlockBegin
  2
From Surface_14
 70
     0
 10
0.0
 20
0.0
 30
0.0
  3
From Surface_14
  1

  0
LINE
  5
6FE11
330
70304
100
AcDbEntity
  8
Level 26
  6
Continuous
 62
   152
370
     0
100
AcDbLine
 10
2539.383029
 20
264.086057
 30
0.0
 11
2546.646494
 21
264.086057
 31
0.0
  0
LINE
  5
6FE12
330
70304
100
AcDbEntity
  8
Level 26
  6
Continuous
 62
   152
370
     0
100
AcDbLine
 10
2539.383029
 20
244.086057
 30
0.0
 11
2546.646494
 21
244.086057
 31
0.0
  0
LINE
  5
6FE13
330
70304
100
AcDbEntity
  8
Level 26
  6
Continuous
 62
   152
370
     0
100
AcDbLine
 10
2546.646494
 20
264.086057
 30
0.0
 11
2546.646494
 21
244.086057
 31
0.0
  0
LINE
  5
6FE14
330
70304
100
AcDbEntity
  8
Level 26
  6
Continuous
 62
   152
370
     0
100
AcDbLine
 10
2539.383029
 20
264.086057
 30
0.0
 11
2539.383029
 21
244.086057
 31
0.0
  0
ENDBLK
  5
70306
330
70304
100
AcDbEntity
  8
0
 62
    98
370
     0
100
AcDbBlockEnd
  0
BLOCK
  5
70308
330
70307
100
AcDbEntity
  8
0
 62
    98
370
     0
100
AcDbBlockBegin
  2
From Surface_15
 70
     0
 10
0.0
 20
0.0
 30
0.0
  3
From Surface_15
  1

  0
LINE
  5
6FE16
330
70307
100
AcDbEntity
  8
Level 26
  6
Continuous
 62
   152
370
     0
100
AcDbLine
 10
2539.383029
 20
264.086057
 30
0.0
 11
2496.469865
 21
264.086057
 31
0.0
  0
LINE
  5
6FE17
330
70307
100
AcDbEntity
  8
Level 26
  6
Continuous
 62
   152
370
     0
100
AcDbLine
 10
2539.383029
 20
244.086057
 30
0.0
 11
2496.469865
 21
244.086057
 31
0.0
  0
LINE
  5
6FE18
330
70307
100
AcDbEntity
  8
Level 26
  6
Continuous
 62
   152
370
     0
100
AcDbLine
 10
2497.355185
 20
264.086057
 30
0.0
 11
2497.355185
 21
244.086057
 31
0.0
  0
LINE
  5
6FE19
330
70307
100
AcDbEntity
  8
Level 26
  6
Continuous
 62
   152
370
     0
100
AcDbLine
 10
2539.383029
 20
264.086057
 30
0.0
 11
2539.383029
 21
244.086057
 31
0.0
  0
ENDBLK
  5
70309
330
70307
100
AcDbEntity
  8
0
 62
    98
370
     0
100
AcDbBlockEnd
  0
BLOCK
  5
7030B
330
7030A
100
AcDbEntity
  8
0
 62
    98
370
     0
100
AcDbBlockBegin
  2
From Surface_16
 70
     0
 10
0.0
 20
0.0
 30
0.0
  3
From Surface_16
  1

  0
LINE
  5
6FE1B
330
7030A
100
AcDbEntity
  8
Level 26
  6
Continuous
 62
   152
370
     0
100
AcDbLine
 10
2791.928063
 20
264.086057
 30
0.0
 11
2764.476502
 21
264.086057
 31
0.0
  0
LINE
  5
6FE1C
330
7030A
100
AcDbEntity
  8
Level 26
  6
Continuous
 62
   152
370
     0
100
AcDbLine
 10
2791.928063
 20
244.086057
 30
0.0
 11
2764.476502
 21
244.086057
 31
0.0
  0
LINE
  5
6FE1D
330
7030A
100
AcDbEntity
  8
Level 26
  6
Continuous
 62
   152
370
     0
100
AcDbLine
 10
2764.476502
 20
264.086057
 30
0.0
 11
2764.476502
 21
244.086057
 31
0.0
  0
LINE
  5
6FE1E
330
7030A
100
AcDbEntity
  8
Level 26
  6
Continuous
 62
   152
370
     0
100
AcDbLine
 10
2791.928063
 20
264.086057
 30
0.0
 11
2791.928063
 21
244.086057
 31
0.0
  0
ENDBLK
  5
7030C
330
7030A
100
AcDbEntity
  8
0
 62
    98
370
     0
100
AcDbBlockEnd
  0
BLOCK
  5
7030E
330
7030D
100
AcDbEntity
  8
0
 62
    98
370
     0
100
AcDbBlockBegin
  2
From Surface_17
 70
     0
 10
0.0
 20
0.0
 30
0.0
  3
From Surface_17
  1

  0
LINE
  5
6FE20
330
7030D
100
AcDbEntity
  8
Level 26
  6
Continuous
 62
   152
370
     0
100
AcDbLine
 10
2637.598863
 20
264.086057
 30
0.0
 11
2764.476502
 21
264.086057
 31
0.0
  0
LINE
  5
6FE21
330
7030D
100
AcDbEntity
  8
Level 26
  6
Continuous
 62
   152
370
     0
100
AcDbLine
 10
2637.598863
 20
244.086057
 30
0.0
 11
2764.476502
 21
244.086057
 31
0.0
  0
LINE
  5
6FE22
330
7030D
100
AcDbEntity
  8
Level 26
  6
Continuous
 62
   152
370
     0
100
AcDbLine
 10
2764.476502
 20
264.086057
 30
0.0
 11
2764.476502
 21
244.086057
 31
0.0
  0
LINE
  5
6FE23
330
7030D
100
AcDbEntity
  8
Level 26
  6
Continuous
 62
   152
370
     0
100
AcDbLine
 10
2637.598863
 20
264.086057
 30
0.0
 11
2637.598863
 21
244.086057
 31
0.0
  0
ENDBLK
  5
7030F
330
7030D
100
AcDbEntity
  8
0
 62
    98
370
     0
100
AcDbBlockEnd
  0
BLOCK
  5
70311
330
70310
100
AcDbEntity
  8
0
 62
    98
370
     0
100
AcDbBlockBegin
  2
From Surface_18
 70
     0
 10
0.0
 20
0.0
 30
0.0
  3
From Surface_18
  1

  0
LINE
  5
6FE25
330
70310
100
AcDbEntity
  8
Level 26
  6
Continuous
 62
   152
370
     0
100
AcDbLine
 10
2975.514717
 20
264.086057
 30
0.0
 11
2824.335319
 21
264.086057
 31
0.0
  0
LINE
  5
6FE26
330
70310
100
AcDbEntity
  8
Level 26
  6
Continuous
 62
   152
370
     0
100
AcDbLine
 10
2975.514717
 20
244.086057
 30
0.0
 11
2824.335319
 21
244.086057
 31
0.0
  0
LINE
  5
6FE27
330
70310
100
AcDbEntity
  8
Level 26
  6
Continuous
 62
   152
370
     0
100
AcDbLine
 10
2824.335319
 20
264.086057
 30
0.0
 11
2824.335319
 21
244.086057
 31
0.0
  0
LINE
  5
6FE28
330
70310
100
AcDbEntity
  8
Level 26
  6
Continuous
 62
   152
370
     0
100
AcDbLine
 10
2975.514717
 20
264.086057
 30
0.0
 11
2975.514717
 21
244.086057
 31
0.0
  0
ENDBLK
  5
70312
330
70310
100
AcDbEntity
  8
0
 62
    98
370
     0
100
AcDbBlockEnd
  0
BLOCK
  5
70314
330
70313
100
AcDbEntity
  8
0
 62
    98
370
     0
100
AcDbBlockBegin
  2
From Surface_19
 70
     0
 10
0.0
 20
0.0
 30
0.0
  3
From Surface_19
  1

  0
LINE
  5
6FE2A
330
70313
100
AcDbEntity
  8
Level 26
  6
Continuous
 62
   152
370
     0
100
AcDbLine
 10
3047.056075
 20
264.086057
 30
0.0
 11
2621.361486
 21
264.086057
 31
0.0
  0
LINE
  5
6FE2B
330
70313
100
AcDbEntity
  8
Level 26
  6
Continuous
 62
   152
370
     0
100
AcDbLine
 10
3047.056075
 20
244.086057
 30
0.0
 11
2621.361486
 21
244.086057
 31
0.0
  0
LINE
  5
6FE2C
330
70313
100
AcDbEntity
  8
Level 26
  6
Continuous
 62
   152
370
     0
100
AcDbLine
 10
3047.056075
 20
264.086057
 30
0.0
 11
3047.056075
 21
244.086057
 31
0.0
  0
LINE
  5
6FE2D
330
70313
100
AcDbEntity
  8
Level 26
  6
Continuous
 62
   152
370
     0
100
AcDbLine
 10
2621.361486
 20
264.086057
 30
0.0
 11
2621.361486
 21
244.086057
 31
0.0
  0
ENDBLK
  5
70315
330
70313
100
AcDbEntity
  8
0
 62
    98
370
     0
100
AcDbBlockEnd
  0
BLOCK
  5
70317
330
70316
100
AcDbEntity
  8
0
 62
    98
370
     0
100
AcDbBlockBegin
  2
From Surface_20
 70
     0
 10
0.0
 20
0.0
 30
0.0
  3
From Surface_20
  1

  0
LINE
  5
6FE2F
330
70316
100
AcDbEntity
  8
Level 26
  6
Continuous
 62
     7
370
     0
100
AcDbLine
 10
3334.527334
 20
264.086057
 30
0.0
 11
3336.384078
 21
264.086057
 31
0.0
  0
LINE
  5
6FE30
330
70316
100
AcDbEntity
  8
Level 26
  6
Continuous
 62
     7
370
     0
100
AcDbLine
 10
3334.527334
 20
244.086057
 30
0.0
 11
3336.384078
 21
244.086057
 31
0.0
  0
LINE
  5
6FE31
330
70316
100
AcDbEntity
  8
Level 26
  6
Continuous
 62
     7
370
     0
100
AcDbLine
 10
3334.527334
 20
264.086057
 30
0.0
 11
3334.527334
 21
244.086057
 31
0.0
  0
LINE
  5
6FE32
330
70316
100
AcDbEntity
  8
Level 26
  6
Continuous
 62
     7
370
     0
100
AcDbLine
 10
3334.527334
 20
264.086057
 30
0.0
 11
3334.527334
 21
244.086057
 31
0.0
  0
ENDBLK
  5
70318
330
70316
100
AcDbEntity
  8
0
 62
    98
370
     0
100
AcDbBlockEnd
  0
BLOCK
  5
7031A
330
70319
100
AcDbEntity
  8
0
 62
    98
370
     0
100
AcDbBlockBegin
  2
From Surface_21
 70
     0
 10
0.0
 20
0.0
 30
0.0
  3
From Surface_21
  1

  0
SPLINE
  5
6FE34
330
70319
100
AcDbEntity
  8
Level 26
  6
Continuous
 62
     7
370
     0
100
AcDbSpline
210
0.0
220
0.0
230
1.0
 70
    24
 71
     2
 72
     9
 73
     6
 74
     0
 42
0.000000001
 43
0.0000000001
 40
0.0
 40
0.0
 40
0.0
 40
0.25
 40
0.5
 40
0.75
 40
1.0
 40
1.0
 40
1.0
 10
3334.527334266077
 20
264.0860572199989
 30
0.0
 10
3296.604546247644
 20
264.0860572199989
 30
0.0
 10
3249.565703265375
 20
264.0860572199989
 30
0.0
 10
3221.488254246545
 20
264.0860572199989
 30
0.0
 10
3213.466126251917
 20
264.0860572199989
 30
0.0
 10
3194.504732257959
 20
264.0860572199989
 30
0.0
  0
SPLINE
  5
6FE36
330
70319
100
AcDbEntity
  8
Level 26
  6
Continuous
 62
     7
370
     0
100
AcDbSpline
210
0.0
220
0.0
230
1.0
 70
    24
 71
     2
 72
     9
 73
     6
 74
     0
 42
0.000000001
 43
0.0000000001
 40
0.0
 40
0.0
 40
0.0
 40
0.25
 40
0.5
 40
0.75
 40
1.0
 40
1.0
 40
1.0
 10
3334.527334266077
 20
244.0860572199989
 30
0.0
 10
3296.604546247644
 20
244.0860572199989
 30
0.0
 10
3249.565703265375
 20
244.0860572199989
 30
0.0
 10
3221.488254246545
 20
244.0860572199989
 30
0.0
 10
3213.466126251917
 20
244.0860572199989
 30
0.0
 10
3194.504732257959
 20
244.0860572199989
 30
0.0
  0
LINE
  5
6FE38
330
70319
100
AcDbEntity
  8
Level 26
  6
Continuous
 62
     7
370
     0
100
AcDbLine
 10
3334.527334
 20
264.086057
 30
0.0
 11
3334.527334
 21
244.086057
 31
0.0
  0
LINE
  5
6FE39
330
70319
100
AcDbEntity
  8
Level 26
  6
Continuous
 62
     7
370
     0
100
AcDbLine
 10
3283.069028
 20
264.086057
 30
0.0
 11
3283.069028
 21
244.086057
 31
0.0
  0
LINE
  5
6FE3A
330
70319
100
AcDbEntity
  8
Level 26
  6
Continuous
 62
     7
370
     0
100
AcDbLine
 10
3248.27487
 20
264.086057
 30
0.0
 11
3248.27487
 21
244.086057
 31
0.0
  0
LINE
  5
6FE3B
330
70319
100
AcDbEntity
  8
Level 26
  6
Continuous
 62
     7
370
     0
100
AcDbLine
 10
3225.900425
 20
264.086057
 30
0.0
 11
3225.900425
 21
244.086057
 31
0.0
  0
LINE
  5
6FE3C
330
70319
100
AcDbEntity
  8
Level 26
  6
Continuous
 62
     7
370
     0
100
AcDbLine
 10
3215.274751
 20
264.086057
 30
0.0
 11
3215.274751
 21
244.086057
 31
0.0
  0
LINE
  5
6FE3D
330
70319
100
AcDbEntity
  8
Level 26
  6
Continuous
 62
     7
370
     0
100
AcDbLine
 10
3194.504732
 20
264.086057
 30
0.0
 11
3194.504732
 21
244.086057
 31
0.0
  0
ENDBLK
  5
7031B
330
70319
100
AcDbEntity
  8
0
 62
    98
370
     0
100
AcDbBlockEnd
  0
BLOCK
  5
7031D
330
7031C
100
AcDbEntity
  8
0
 62
    98
370
     0
100
AcDbBlockBegin
  2
From Surface_22
 70
     0
 10
0.0
 20
0.0
 30
0.0
  3
From Surface_22
  1

  0
SPLINE
  5
6FE3F
330
7031C
100
AcDbEntity
  8
Level 26
  6
Continuous
 62
     7
370
     0
100
AcDbSpline
210
0.0
220
0.0
230
1.0
 70
    24
 71
     2
 72
     9
 73
     6
 74
     0
 42
0.000000001
 43
0.0000000001
 40
0.0
 40
0.0
 40
0.0
 40
0.25
 40
0.5
 40
0.75
 40
1.0
 40
1.0
 40
1.0
 10
3334.527334266077
 20
264.0860572199989
 30
0.0
 10
3296.604546247644
 20
264.0860572199989
 30
0.0
 10
3249.565703265375
 20
264.0860572199989
 30
0.0
 10
3221.488254246545
 20
264.0860572199989
 30
0.0
 10
3213.466126251917
 20
264.0860572199989
 30
0.0
 10
3194.504732257959
 20
264.0860572199989
 30
0.0
  0
SPLINE
  5
6FE41
330
7031C
100
AcDbEntity
  8
Level 26
  6
Continuous
 62
     7
370
     0
100
AcDbSpline
210
0.0
220
0.0
230
1.0
 70
    24
 71
     2
 72
     9
 73
     6
 74
     0
 42
0.000000001
 43
0.0000000001
 40
0.0
 40
0.0
 40
0.0
 40
0.25
 40
0.5
 40
0.75
 40
1.0
 40
1.0
 40
1.0
 10
3334.527334266077
 20
244.0860572199989
 30
0.0
 10
3296.604546247644
 20
244.0860572199989
 30
0.0
 10
3249.565703265375
 20
244.0860572199989
 30
0.0
 10
3221.488254246545
 20
244.0860572199989
 30
0.0
 10
3213.466126251917
 20
244.0860572199989
 30
0.0
 10
3194.504732257959
 20
244.0860572199989
 30
0.0
  0
LINE
  5
6FE43
330
7031C
100
AcDbEntity
  8
Level 26
  6
Continuous
 62
     7
370
     0
100
AcDbLine
 10
3334.527334
 20
264.086057
 30
0.0
 11
3334.527334
 21
244.086057
 31
0.0
  0
LINE
  5
6FE44
330
7031C
100
AcDbEntity
  8
Level 26
  6
Continuous
 62
     7
370
     0
100
AcDbLine
 10
3283.069028
 20
264.086057
 30
0.0
 11
3283.069028
 21
244.086057
 31
0.0
  0
LINE
  5
6FE45
330
7031C
100
AcDbEntity
  8
Level 26
  6
Continuous
 62
     7
370
     0
100
AcDbLine
 10
3248.27487
 20
264.086057
 30
0.0
 11
3248.27487
 21
244.086057
 31
0.0
  0
LINE
  5
6FE46
330
7031C
100
AcDbEntity
  8
Level 26
  6
Continuous
 62
     7
370
     0
100
AcDbLine
 10
3225.900425
 20
264.086057
 30
0.0
 11
3225.900425
 21
244.086057
 31
0.0
  0
LINE
  5
6FE47
330
7031C
100
AcDbEntity
  8
Level 26
  6
Continuous
 62
     7
370
     0
100
AcDbLine
 10
3215.274751
 20
264.086057
 30
0.0
 11
3215.274751
 21
244.086057
 31
0.0
  0
LINE
  5
6FE48
330
7031C
100
AcDbEntity
  8
Level 26
  6
Continuous
 62
     7
370
     0
100
AcDbLine
 10
3194.504732
 20
264.086057
 30
0.0
 11
3194.504732
 21
244.086057
 31
0.0
  0
ENDBLK
  5
7031E
330
7031C
100
AcDbEntity
  8
0
 62
    98
370
     0
100
AcDbBlockEnd
  0
BLOCK
  5
70320
330
7031F
100
AcDbEntity
  8
0
 62
    98
370
     0
100
AcDbBlockBegin
  2
From Surface_23
 70
     0
 10
0.0
 20
0.0
 30
0.0
  3
From Surface_23
  1

  0
LINE
  5
6FE92
330
7031F
100
AcDbEntity
  8
Level 26
  6
Continuous
 62
   152
370
     0
100
AcDbLine
 10
2975.514717
 20
-145.913943
 30
0.0
 11
2995.779479
 21
-145.913943
 31
0.0
  0
LINE
  5
6FE93
330
7031F
100
AcDbEntity
  8
Level 26
  6
Continuous
 62
   152
370
     0
100
AcDbLine
 10
2975.514717
 20
-125.913943
 30
0.0
 11
2995.779479
 21
-125.913943
 31
0.0
  0
LINE
  5
6FE94
330
7031F
100
AcDbEntity
  8
Level 26
  6
Continuous
 62
   152
370
     0
100
AcDbLine
 10
2995.779479
 20
-145.913943
 30
0.0
 11
2995.779479
 21
-125.913943
 31
0.0
  0
LINE
  5
6FE95
330
7031F
100
AcDbEntity
  8
Level 26
  6
Continuous
 62
   152
370
     0
100
AcDbLine
 10
2975.514717
 20
-145.913943
 30
0.0
 11
2975.514717
 21
-125.913943
 31
0.0
  0
ENDBLK
  5
70321
330
7031F
100
AcDbEntity
  8
0
 62
    98
370
     0
100
AcDbBlockEnd
  0
BLOCK
  5
70323
330
70322
100
AcDbEntity
  8
0
 62
    98
370
     0
100
AcDbBlockBegin
  2
From Surface_24
 70
     0
 10
0.0
 20
0.0
 30
0.0
  3
From Surface_24
  1

  0
LINE
  5
6FE97
330
70322
100
AcDbEntity
  8
Level 26
  6
Continuous
 62
   152
370
     0
100
AcDbLine
 10
2791.928063
 20
-145.913943
 30
0.0
 11
2824.335319
 21
-145.913943
 31
0.0
  0
LINE
  5
6FE98
330
70322
100
AcDbEntity
  8
Level 26
  6
Continuous
 62
   152
370
     0
100
AcDbLine
 10
2791.928063
 20
-125.913943
 30
0.0
 11
2824.335319
 21
-125.913943
 31
0.0
  0
LINE
  5
6FE99
330
70322
100
AcDbEntity
  8
Level 26
  6
Continuous
 62
   152
370
     0
100
AcDbLine
 10
2791.928063
 20
-145.913943
 30
0.0
 11
2791.928063
 21
-125.913943
 31
0.0
  0
LINE
  5
6FE9A
330
70322
100
AcDbEntity
  8
Level 26
  6
Continuous
 62
   152
370
     0
100
AcDbLine
 10
2824.335319
 20
-145.913943
 30
0.0
 11
2824.335319
 21
-125.913943
 31
0.0
  0
ENDBLK
  5
70324
330
70322
100
AcDbEntity
  8
0
 62
    98
370
     0
100
AcDbBlockEnd
  0
BLOCK
  5
70326
330
70325
100
AcDbEntity
  8
0
 62
    98
370
     0
100
AcDbBlockBegin
  2
From Surface_25
 70
     0
 10
0.0
 20
0.0
 30
0.0
  3
From Surface_25
  1

  0
LINE
  5
6FE9C
330
70325
100
AcDbEntity
  8
Level 26
  6
Continuous
 62
   152
370
     0
100
AcDbLine
 10
2637.598863
 20
-145.913943
 30
0.0
 11
2603.635642
 21
-145.913943
 31
0.0
  0
LINE
  5
6FE9D
330
70325
100
AcDbEntity
  8
Level 26
  6
Continuous
 62
   152
370
     0
100
AcDbLine
 10
2637.598863
 20
-125.913943
 30
0.0
 11
2603.635642
 21
-125.913943
 31
0.0
  0
LINE
  5
6FE9E
330
70325
100
AcDbEntity
  8
Level 26
  6
Continuous
 62
   152
370
     0
100
AcDbLine
 10
2637.598863
 20
-145.913943
 30
0.0
 11
2637.598863
 21
-125.913943
 31
0.0
  0
LINE
  5
6FE9F
330
70325
100
AcDbEntity
  8
Level 26
  6
Continuous
 62
   152
370
     0
100
AcDbLine
 10
2603.635642
 20
-145.913943
 30
0.0
 11
2603.635642
 21
-125.913943
 31
0.0
  0
ENDBLK
  5
70327
330
70325
100
AcDbEntity
  8
0
 62
    98
370
     0
100
AcDbBlockEnd
  0
BLOCK
  5
70329
330
70328
100
AcDbEntity
  8
0
 62
    98
370
     0
100
AcDbBlockBegin
  2
From Surface_26
 70
     0
 10
0.0
 20
0.0
 30
0.0
  3
From Surface_26
  1

  0
LINE
  5
6FEA1
330
70328
100
AcDbEntity
  8
Level 26
  6
Continuous
 62
   152
370
     0
100
AcDbLine
 10
2546.646494
 20
-145.913943
 30
0.0
 11
2583.995099
 21
-145.913943
 31
0.0
  0
LINE
  5
6FEA2
330
70328
100
AcDbEntity
  8
Level 26
  6
Continuous
 62
   152
370
     0
100
AcDbLine
 10
2546.646494
 20
-125.913943
 30
0.0
 11
2583.995099
 21
-125.913943
 31
0.0
  0
LINE
  5
6FEA3
330
70328
100
AcDbEntity
  8
Level 26
  6
Continuous
 62
   152
370
     0
100
AcDbLine
 10
2546.646494
 20
-145.913943
 30
0.0
 11
2546.646494
 21
-125.913943
 31
0.0
  0
LINE
  5
6FEA4
330
70328
100
AcDbEntity
  8
Level 26
  6
Continuous
 62
   152
370
     0
100
AcDbLine
 10
2583.995099
 20
-145.913943
 30
0.0
 11
2583.995099
 21
-125.913943
 31
0.0
  0
ENDBLK
  5
7032A
330
70328
100
AcDbEntity
  8
0
 62
    98
370
     0
100
AcDbBlockEnd
  0
BLOCK
  5
7032C
330
7032B
100
AcDbEntity
  8
0
 62
    98
370
     0
100
AcDbBlockBegin
  2
From Surface_27
 70
     0
 10
0.0
 20
0.0
 30
0.0
  3
From Surface_27
  1

  0
LINE
  5
6FEA6
330
7032B
100
AcDbEntity
  8
Level 26
  6
Continuous
 62
   152
370
     0
100
AcDbLine
 10
2486.991222
 20
-145.913943
 30
0.0
 11
2437.056075
 21
-145.913943
 31
0.0
  0
LINE
  5
6FEA7
330
7032B
100
AcDbEntity
  8
Level 26
  6
Continuous
 62
   152
370
     0
100
AcDbLine
 10
2486.991222
 20
-125.913943
 30
0.0
 11
2437.056075
 21
-125.913943
 31
0.0
  0
LINE
  5
6FEA8
330
7032B
100
AcDbEntity
  8
Level 26
  6
Continuous
 62
   152
370
     0
100
AcDbLine
 10
2486.991222
 20
-145.913943
 30
0.0
 11
2486.991222
 21
-125.913943
 31
0.0
  0
LINE
  5
6FEA9
330
7032B
100
AcDbEntity
  8
Level 26
  6
Continuous
 62
   152
370
     0
100
AcDbLine
 10
2467.64829
 20
-145.913943
 30
0.0
 11
2467.64829
 21
-125.913943
 31
0.0
  0
ENDBLK
  5
7032D
330
7032B
100
AcDbEntity
  8
0
 62
    98
370
     0
100
AcDbBlockEnd
  0
BLOCK
  5
7032F
330
7032E
100
AcDbEntity
  8
0
 62
    98
370
     0
100
AcDbBlockBegin
  2
From Surface_28
 70
     0
 10
0.0
 20
0.0
 30
0.0
  3
From Surface_28
  1

  0
LINE
  5
6FEAB
330
7032E
100
AcDbEntity
  8
Level 26
  6
Continuous
 62
   152
370
     0
100
AcDbLine
 10
2529.144698
 20
-145.913943
 30
0.0
 11
2621.361486
 21
-145.913943
 31
0.0
  0
LINE
  5
6FEAC
330
7032E
100
AcDbEntity
  8
Level 26
  6
Continuous
 62
   152
370
     0
100
AcDbLine
 10
2529.144698
 20
-125.913943
 30
0.0
 11
2621.361486
 21
-125.913943
 31
0.0
  0
LINE
  5
6FEAD
330
7032E
100
AcDbEntity
  8
Level 26
  6
Continuous
 62
   152
370
     0
100
AcDbLine
 10
2529.144698
 20
-145.913943
 30
0.0
 11
2529.144698
 21
-125.913943
 31
0.0
  0
LINE
  5
6FEAE
330
7032E
100
AcDbEntity
  8
Level 26
  6
Continuous
 62
   152
370
     0
100
AcDbLine
 10
2621.361486
 20
-145.913943
 30
0.0
 11
2621.361486
 21
-125.913943
 31
0.0
  0
ENDBLK
  5
70330
330
7032E
100
AcDbEntity
  8
0
 62
    98
370
     0
100
AcDbBlockEnd
  0
BLOCK
  5
70332
330
70331
100
AcDbEntity
  8
0
 62
    98
370
     0
100
AcDbBlockBegin
  2
From Surface_29
 70
     0
 10
0.0
 20
0.0
 30
0.0
  3
From Surface_29
  1

  0
LINE
  5
6FEB0
330
70331
100
AcDbEntity
  8
Level 26
  6
Continuous
 62
   152
370
     0
100
AcDbLine
 10
3047.056075
 20
-145.913943
 30
0.0
 11
3186.572922
 21
-145.913943
 31
0.0
  0
LINE
  5
6FEB1
330
70331
100
AcDbEntity
  8
Level 26
  6
Continuous
 62
   152
370
     0
100
AcDbLine
 10
3047.056075
 20
-125.913943
 30
0.0
 11
3186.572922
 21
-125.913943
 31
0.0
  0
LINE
  5
6FEB2
330
70331
100
AcDbEntity
  8
Level 26
  6
Continuous
 62
   152
370
     0
100
AcDbLine
 10
3186.572922
 20
-145.913943
 30
0.0
 11
3186.572922
 21
-125.913943
 31
0.0
  0
LINE
  5
6FEB3
330
70331
100
AcDbEntity
  8
Level 26
  6
Continuous
 62
   152
370
     0
100
AcDbLine
 10
3047.056075
 20
-145.913943
 30
0.0
 11
3047.056075
 21
-125.913943
 31
0.0
  0
ENDBLK
  5
70333
330
70331
100
AcDbEntity
  8
0
 62
    98
370
     0
100
AcDbBlockEnd
  0
BLOCK
  5
70335
330
70334
100
AcDbEntity
  8
0
 62
    98
370
     0
100
AcDbBlockBegin
  2
From Surface_30
 70
     0
 10
0.0
 20
0.0
 30
0.0
  3
From Surface_30
  1

  0
LINE
  5
6FEB5
330
70334
100
AcDbEntity
  8
Level 26
  6
Continuous
 62
   152
370
     0
100
AcDbLine
 10
3242.302528
 20
-145.913943
 30
0.0
 11
3198.419841
 21
-145.913943
 31
0.0
  0
LINE
  5
6FEB6
330
70334
100
AcDbEntity
  8
Level 26
  6
Continuous
 62
   152
370
     0
100
AcDbLine
 10
3242.302528
 20
-125.913943
 30
0.0
 11
3198.419841
 21
-125.913943
 31
0.0
  0
LINE
  5
6FEB7
330
70334
100
AcDbEntity
  8
Level 26
  6
Continuous
 62
   152
370
     0
100
AcDbLine
 10
3198.419841
 20
-145.913943
 30
0.0
 11
3198.419841
 21
-125.913943
 31
0.0
  0
LINE
  5
6FEB8
330
70334
100
AcDbEntity
  8
Level 26
  6
Continuous
 62
   152
370
     0
100
AcDbLine
 10
3242.302528
 20
-145.913943
 30
0.0
 11
3242.302528
 21
-125.913943
 31
0.0
  0
ENDBLK
  5
70336
330
70334
100
AcDbEntity
  8
0
 62
    98
370
     0
100
AcDbBlockEnd
  0
BLOCK
  5
70338
330
70337
100
AcDbEntity
  8
0
 62
    98
370
     0
100
AcDbBlockBegin
  2
From Surface_31
 70
     0
 10
0.0
 20
0.0
 30
0.0
  3
From Surface_31
  1

  0
LINE
  5
6FEBA
330
70337
100
AcDbEntity
  8
Level 26
  6
Continuous
 62
   152
370
     0
100
AcDbLine
 10
3311.922038
 20
-145.913943
 30
0.0
 11
3337.314995
 21
-145.913943
 31
0.0
  0
LINE
  5
6FEBB
330
70337
100
AcDbEntity
  8
Level 26
  6
Continuous
 62
   152
370
     0
100
AcDbLine
 10
3311.922038
 20
-125.913943
 30
0.0
 11
3337.314995
 21
-125.913943
 31
0.0
  0
LINE
  5
6FEBC
330
70337
100
AcDbEntity
  8
Level 26
  6
Continuous
 62
   152
370
     0
100
AcDbLine
 10
3337.314995
 20
-145.913943
 30
0.0
 11
3337.314995
 21
-125.913943
 31
0.0
  0
LINE
  5
6FEBD
330
70337
100
AcDbEntity
  8
Level 26
  6
Continuous
 62
   152
370
     0
100
AcDbLine
 10
3311.922038
 20
-145.913943
 30
0.0
 11
3311.922038
 21
-125.913943
 31
0.0
  0
ENDBLK
  5
70339
330
70337
100
AcDbEntity
  8
0
 62
    98
370
     0
100
AcDbBlockEnd
  0
BLOCK
  5
7033B
330
7033A
100
AcDbEntity
  8
0
 62
    98
370
     0
100
AcDbBlockBegin
  2
From Surface_32
 70
     0
 10
0.0
 20
0.0
 30
0.0
  3
From Surface_32
  1

  0
LINE
  5
6FEBF
330
7033A
100
AcDbEntity
  8
Level 26
  6
Continuous
 62
     7
370
     0
100
AcDbLine
 10
3337.283472
 20
-145.913943
 30
0.0
 11
3337.5479
 21
-145.913943
 31
0.0
  0
LINE
  5
6FEC0
330
7033A
100
AcDbEntity
  8
Level 26
  6
Continuous
 62
     7
370
     0
100
AcDbLine
 10
3337.283472
 20
-125.913943
 30
0.0
 11
3337.5479
 21
-125.913943
 31
0.0
  0
LINE
  5
6FEC1
330
7033A
100
AcDbEntity
  8
Level 26
  6
Continuous
 62
     7
370
     0
100
AcDbLine
 10
3337.314995
 20
-145.913943
 30
0.0
 11
3337.314995
 21
-125.913943
 31
0.0
  0
LINE
  5
6FEC2
330
7033A
100
AcDbEntity
  8
Level 26
  6
Continuous
 62
     7
370
     0
100
AcDbLine
 10
3337.283472
 20
-145.913943
 30
0.0
 11
3337.283472
 21
-125.913943
 31
0.0
  0
ENDBLK
  5
7033C
330
7033A
100
AcDbEntity
  8
0
 62
    98
370
     0
100
AcDbBlockEnd
  0
BLOCK
  5
7033E
330
7033D
100
AcDbEntity
  8
0
 62
    98
370
     0
100
AcDbBlockBegin
  2
From Surface_33
 70
     0
 10
0.0
 20
0.0
 30
0.0
  3
From Surface_33
  1

  0
LINE
  5
6FEC4
330
7033D
100
AcDbEntity
  8
Level 26
  6
Continuous
 62
   152
370
     0
100
AcDbLine
 10
3308.212723
 20
-145.913943
 30
0.0
 11
3337.283472
 21
-145.913943
 31
0.0
  0
LINE
  5
6FEC5
330
7033D
100
AcDbEntity
  8
Level 26
  6
Continuous
 62
   152
370
     0
100
AcDbLine
 10
3308.212723
 20
-125.913943
 30
0.0
 11
3337.283472
 21
-125.913943
 31
0.0
  0
LINE
  5
6FEC6
330
7033D
100
AcDbEntity
  8
Level 26
  6
Continuous
 62
   152
370
     0
100
AcDbLine
 10
3308.212723
 20
-145.913943
 30
0.0
 11
3308.212723
 21
-125.913943
 31
0.0
  0
LINE
  5
6FEC7
330
7033D
100
AcDbEntity
  8
Level 26
  6
Continuous
 62
   152
370
     0
100
AcDbLine
 10
3337.283472
 20
-145.913943
 30
0.0
 11
3337.283472
 21
-125.913943
 31
0.0
  0
ENDBLK
  5
7033F
330
7033D
100
AcDbEntity
  8
0
 62
    98
370
     0
100
AcDbBlockEnd
  0
BLOCK
  5
70341
330
70340
100
AcDbEntity
  8
0
 62
    98
370
     0
100
AcDbBlockBegin
  2
From Surface_34
 70
     0
 10
0.0
 20
0.0
 30
0.0
  3
From Surface_34
  1

  0
LINE
  5
6FEC9
330
70340
100
AcDbEntity
  8
Level 26
  6
Continuous
 62
   152
370
     0
100
AcDbLine
 10
3243.006462
 20
-145.913943
 30
0.0
 11
3210.616643
 21
-145.913943
 31
0.0
  0
LINE
  5
6FECA
330
70340
100
AcDbEntity
  8
Level 26
  6
Continuous
 62
   152
370
     0
100
AcDbLine
 10
3243.006462
 20
-125.913943
 30
0.0
 11
3210.616643
 21
-125.913943
 31
0.0
  0
LINE
  5
6FECB
330
70340
100
AcDbEntity
  8
Level 26
  6
Continuous
 62
   152
370
     0
100
AcDbLine
 10
3243.006462
 20
-145.913943
 30
0.0
 11
3243.006462
 21
-125.913943
 31
0.0
  0
LINE
  5
6FECC
330
70340
100
AcDbEntity
  8
Level 26
  6
Continuous
 62
   152
370
     0
100
AcDbLine
 10
3210.616643
 20
-145.913943
 30
0.0
 11
3210.616643
 21
-125.913943
 31
0.0
  0
ENDBLK
  5
70342
330
70340
100
AcDbEntity
  8
0
 62
    98
370
     0
100
AcDbBlockEnd
  0
BLOCK
  5
70344
330
70343
100
AcDbEntity
  8
0
 62
    98
370
     0
100
AcDbBlockBegin
  2
From Surface_35
 70
     0
 10
0.0
 20
0.0
 30
0.0
  3
From Surface_35
  1

  0
LINE
  5
6FECE
330
70343
100
AcDbEntity
  8
Level 26
  6
Continuous
 62
   152
370
     0
100
AcDbLine
 10
3205.453663
 20
-145.913943
 30
0.0
 11
3114.928415
 21
-145.913943
 31
0.0
  0
LINE
  5
6FECF
330
70343
100
AcDbEntity
  8
Level 26
  6
Continuous
 62
   152
370
     0
100
AcDbLine
 10
3205.453663
 20
-125.913943
 30
0.0
 11
3114.928415
 21
-125.913943
 31
0.0
  0
LINE
  5
6FED0
330
70343
100
AcDbEntity
  8
Level 26
  6
Continuous
 62
   152
370
     0
100
AcDbLine
 10
3114.928415
 20
-145.913943
 30
0.0
 11
3114.928415
 21
-125.913943
 31
0.0
  0
LINE
  5
6FED1
330
70343
100
AcDbEntity
  8
Level 26
  6
Continuous
 62
   152
370
     0
100
AcDbLine
 10
3205.453663
 20
-145.913943
 30
0.0
 11
3205.453663
 21
-125.913943
 31
0.0
  0
ENDBLK
  5
70345
330
70343
100
AcDbEntity
  8
0
 62
    98
370
     0
100
AcDbBlockEnd
  0
BLOCK
  5
70347
330
70346
100
AcDbEntity
  8
0
 62
    98
370
     0
100
AcDbBlockBegin
  2
From Surface_36
 70
     0
 10
0.0
 20
0.0
 30
0.0
  3
From Surface_36
  1

  0
LINE
  5
6FED3
330
70346
100
AcDbEntity
  8
Level 26
  6
Continuous
 62
   152
370
     0
100
AcDbLine
 10
2467.64829
 20
-145.913943
 30
0.0
 11
2498.240506
 21
-145.913943
 31
0.0
  0
LINE
  5
6FED4
330
70346
100
AcDbEntity
  8
Level 26
  6
Continuous
 62
   152
370
     0
100
AcDbLine
 10
2467.64829
 20
-125.913943
 30
0.0
 11
2498.240506
 21
-125.913943
 31
0.0
  0
LINE
  5
6FED5
330
70346
100
AcDbEntity
  8
Level 26
  6
Continuous
 62
   152
370
     0
100
AcDbLine
 10
2467.64829
 20
-145.913943
 30
0.0
 11
2467.64829
 21
-125.913943
 31
0.0
  0
LINE
  5
6FED6
330
70346
100
AcDbEntity
  8
Level 26
  6
Continuous
 62
   152
370
     0
100
AcDbLine
 10
2497.355185
 20
-145.913943
 30
0.0
 11
2497.355185
 21
-125.913943
 31
0.0
  0
ENDBLK
  5
70348
330
70346
100
AcDbEntity
  8
0
 62
    98
370
     0
100
AcDbBlockEnd
  0
BLOCK
  5
7034A
330
70349
100
AcDbEntity
  8
0
 62
    98
370
     0
100
AcDbBlockBegin
  2
From Surface_37
 70
     0
 10
0.0
 20
0.0
 30
0.0
  3
From Surface_37
  1

  0
LINE
  5
6FED8
330
70349
100
AcDbEntity
  8
Level 26
  6
Continuous
 62
   152
370
     0
100
AcDbLine
 10
2539.383029
 20
-145.913943
 30
0.0
 11
2546.646494
 21
-145.913943
 31
0.0
  0
LINE
  5
6FED9
330
70349
100
AcDbEntity
  8
Level 26
  6
Continuous
 62
   152
370
     0
100
AcDbLine
 10
2539.383029
 20
-125.913943
 30
0.0
 11
2546.646494
 21
-125.913943
 31
0.0
  0
LINE
  5
6FEDA
330
70349
100
AcDbEntity
  8
Level 26
  6
Continuous
 62
   152
370
     0
100
AcDbLine
 10
2546.646494
 20
-145.913943
 30
0.0
 11
2546.646494
 21
-125.913943
 31
0.0
  0
LINE
  5
6FEDB
330
70349
100
AcDbEntity
  8
Level 26
  6
Continuous
 62
   152
370
     0
100
AcDbLine
 10
2539.383029
 20
-145.913943
 30
0.0
 11
2539.383029
 21
-125.913943
 31
0.0
  0
ENDBLK
  5
7034B
330
70349
100
AcDbEntity
  8
0
 62
    98
370
     0
100
AcDbBlockEnd
  0
BLOCK
  5
7034D
330
7034C
100
AcDbEntity
  8
0
 62
    98
370
     0
100
AcDbBlockBegin
  2
From Surface_38
 70
     0
 10
0.0
 20
0.0
 30
0.0
  3
From Surface_38
  1

  0
LINE
  5
6FEDD
330
7034C
100
AcDbEntity
  8
Level 26
  6
Continuous
 62
   152
370
     0
100
AcDbLine
 10
2539.383029
 20
-145.913943
 30
0.0
 11
2496.469865
 21
-145.913943
 31
0.0
  0
LINE
  5
6FEDE
330
7034C
100
AcDbEntity
  8
Level 26
  6
Continuous
 62
   152
370
     0
100
AcDbLine
 10
2539.383029
 20
-125.913943
 30
0.0
 11
2496.469865
 21
-125.913943
 31
0.0
  0
LINE
  5
6FEDF
330
7034C
100
AcDbEntity
  8
Level 26
  6
Continuous
 62
   152
370
     0
100
AcDbLine
 10
2497.355185
 20
-145.913943
 30
0.0
 11
2497.355185
 21
-125.913943
 31
0.0
  0
LINE
  5
6FEE0
330
7034C
100
AcDbEntity
  8
Level 26
  6
Continuous
 62
   152
370
     0
100
AcDbLine
 10
2539.383029
 20
-145.913943
 30
0.0
 11
2539.383029
 21
-125.913943
 31
0.0
  0
ENDBLK
  5
7034E
330
7034C
100
AcDbEntity
  8
0
 62
    98
370
     0
100
AcDbBlockEnd
  0
BLOCK
  5
70350
330
7034F
100
AcDbEntity
  8
0
 62
    98
370
     0
100
AcDbBlockBegin
  2
From Surface_39
 70
     0
 10
0.0
 20
0.0
 30
0.0
  3
From Surface_39
  1

  0
LINE
  5
6FEE2
330
7034F
100
AcDbEntity
  8
Level 26
  6
Continuous
 62
   152
370
     0
100
AcDbLine
 10
2791.928063
 20
-145.913943
 30
0.0
 11
2764.476502
 21
-145.913943
 31
0.0
  0
LINE
  5
6FEE3
330
7034F
100
AcDbEntity
  8
Level 26
  6
Continuous
 62
   152
370
     0
100
AcDbLine
 10
2791.928063
 20
-125.913943
 30
0.0
 11
2764.476502
 21
-125.913943
 31
0.0
  0
LINE
  5
6FEE4
330
7034F
100
AcDbEntity
  8
Level 26
  6
Continuous
 62
   152
370
     0
100
AcDbLine
 10
2764.476502
 20
-145.913943
 30
0.0
 11
2764.476502
 21
-125.913943
 31
0.0
  0
LINE
  5
6FEE5
330
7034F
100
AcDbEntity
  8
Level 26
  6
Continuous
 62
   152
370
     0
100
AcDbLine
 10
2791.928063
 20
-145.913943
 30
0.0
 11
2791.928063
 21
-125.913943
 31
0.0
  0
ENDBLK
  5
70351
330
7034F
100
AcDbEntity
  8
0
 62
    98
370
     0
100
AcDbBlockEnd
  0
BLOCK
  5
70353
330
70352
100
AcDbEntity
  8
0
 62
    98
370
     0
100
AcDbBlockBegin
  2
From Surface_40
 70
     0
 10
0.0
 20
0.0
 30
0.0
  3
From Surface_40
  1

  0
LINE
  5
6FEE7
330
70352
100
AcDbEntity
  8
Level 26
  6
Continuous
 62
   152
370
     0
100
AcDbLine
 10
2637.598863
 20
-145.913943
 30
0.0
 11
2764.476502
 21
-145.913943
 31
0.0
  0
LINE
  5
6FEE8
330
70352
100
AcDbEntity
  8
Level 26
  6
Continuous
 62
   152
370
     0
100
AcDbLine
 10
2637.598863
 20
-125.913943
 30
0.0
 11
2764.476502
 21
-125.913943
 31
0.0
  0
LINE
  5
6FEE9
330
70352
100
AcDbEntity
  8
Level 26
  6
Continuous
 62
   152
370
     0
100
AcDbLine
 10
2764.476502
 20
-145.913943
 30
0.0
 11
2764.476502
 21
-125.913943
 31
0.0
  0
LINE
  5
6FEEA
330
70352
100
AcDbEntity
  8
Level 26
  6
Continuous
 62
   152
370
     0
100
AcDbLine
 10
2637.598863
 20
-145.913943
 30
0.0
 11
2637.598863
 21
-125.913943
 31
0.0
  0
ENDBLK
  5
70354
330
70352
100
AcDbEntity
  8
0
 62
    98
370
     0
100
AcDbBlockEnd
  0
BLOCK
  5
70356
330
70355
100
AcDbEntity
  8
0
 62
    98
370
     0
100
AcDbBlockBegin
  2
From Surface_41
 70
     0
 10
0.0
 20
0.0
 30
0.0
  3
From Surface_41
  1

  0
LINE
  5
6FEEC
330
70355
100
AcDbEntity
  8
Level 26
  6
Continuous
 62
   152
370
     0
100
AcDbLine
 10
2975.514717
 20
-145.913943
 30
0.0
 11
2824.335319
 21
-145.913943
 31
0.0
  0
LINE
  5
6FEED
330
70355
100
AcDbEntity
  8
Level 26
  6
Continuous
 62
   152
370
     0
100
AcDbLine
 10
2975.514717
 20
-125.913943
 30
0.0
 11
2824.335319
 21
-125.913943
 31
0.0
  0
LINE
  5
6FEEE
330
70355
100
AcDbEntity
  8
Level 26
  6
Continuous
 62
   152
370
     0
100
AcDbLine
 10
2824.335319
 20
-145.913943
 30
0.0
 11
2824.335319
 21
-125.913943
 31
0.0
  0
LINE
  5
6FEEF
330
70355
100
AcDbEntity
  8
Level 26
  6
Continuous
 62
   152
370
     0
100
AcDbLine
 10
2975.514717
 20
-145.913943
 30
0.0
 11
2975.514717
 21
-125.913943
 31
0.0
  0
ENDBLK
  5
70357
330
70355
100
AcDbEntity
  8
0
 62
    98
370
     0
100
AcDbBlockEnd
  0
BLOCK
  5
70359
330
70358
100
AcDbEntity
  8
0
 62
    98
370
     0
100
AcDbBlockBegin
  2
From Surface_42
 70
     0
 10
0.0
 20
0.0
 30
0.0
  3
From Surface_42
  1

  0
LINE
  5
6FEF1
330
70358
100
AcDbEntity
  8
Level 26
  6
Continuous
 62
   152
370
     0
100
AcDbLine
 10
3047.056075
 20
-145.913943
 30
0.0
 11
2621.361486
 21
-145.913943
 31
0.0
  0
LINE
  5
6FEF2
330
70358
100
AcDbEntity
  8
Level 26
  6
Continuous
 62
   152
370
     0
100
AcDbLine
 10
3047.056075
 20
-125.913943
 30
0.0
 11
2621.361486
 21
-125.913943
 31
0.0
  0
LINE
  5
6FEF3
330
70358
100
AcDbEntity
  8
Level 26
  6
Continuous
 62
   152
370
     0
100
AcDbLine
 10
3047.056075
 20
-145.913943
 30
0.0
 11
3047.056075
 21
-125.913943
 31
0.0
  0
LINE
  5
6FEF4
330
70358
100
AcDbEntity
  8
Level 26
  6
Continuous
 62
   152
370
     0
100
AcDbLine
 10
2621.361486
 20
-145.913943
 30
0.0
 11
2621.361486
 21
-125.913943
 31
0.0
  0
ENDBLK
  5
7035A
330
70358
100
AcDbEntity
  8
0
 62
    98
370
     0
100
AcDbBlockEnd
  0
BLOCK
  5
7035C
330
7035B
100
AcDbEntity
  8
0
 62
    98
370
     0
100
AcDbBlockBegin
  2
From Surface_43
 70
     0
 10
0.0
 20
0.0
 30
0.0
  3
From Surface_43
  1

  0
LINE
  5
6FEF6
330
7035B
100
AcDbEntity
  8
Level 26
  6
Continuous
 62
     7
370
     0
100
AcDbLine
 10
3334.527334
 20
-145.913943
 30
0.0
 11
3336.384078
 21
-145.913943
 31
0.0
  0
LINE
  5
6FEF7
330
7035B
100
AcDbEntity
  8
Level 26
  6
Continuous
 62
     7
370
     0
100
AcDbLine
 10
3334.527334
 20
-125.913943
 30
0.0
 11
3336.384078
 21
-125.913943
 31
0.0
  0
LINE
  5
6FEF8
330
7035B
100
AcDbEntity
  8
Level 26
  6
Continuous
 62
     7
370
     0
100
AcDbLine
 10
3334.527334
 20
-145.913943
 30
0.0
 11
3334.527334
 21
-125.913943
 31
0.0
  0
LINE
  5
6FEF9
330
7035B
100
AcDbEntity
  8
Level 26
  6
Continuous
 62
     7
370
     0
100
AcDbLine
 10
3334.527334
 20
-145.913943
 30
0.0
 11
3334.527334
 21
-125.913943
 31
0.0
  0
ENDBLK
  5
7035D
330
7035B
100
AcDbEntity
  8
0
 62
    98
370
     0
100
AcDbBlockEnd
  0
BLOCK
  5
7035F
330
7035E
100
AcDbEntity
  8
0
 62
    98
370
     0
100
AcDbBlockBegin
  2
From Surface_44
 70
     0
 10
0.0
 20
0.0
 30
0.0
  3
From Surface_44
  1

  0
SPLINE
  5
6FEFB
330
7035E
100
AcDbEntity
  8
Level 26
  6
Continuous
 62
     7
370
     0
100
AcDbSpline
210
0.0
220
0.0
230
1.0
 70
    24
 71
     2
 72
     9
 73
     6
 74
     0
 42
0.000000001
 43
0.0000000001
 40
0.0
 40
0.0
 40
0.0
 40
0.25
 40
0.5
 40
0.75
 40
1.0
 40
1.0
 40
1.0
 10
3334.527334266077
 20
-145.9139427800011
 30
0.0
 10
3296.604546247644
 20
-145.9139427800011
 30
0.0
 10
3249.565703265375
 20
-145.9139427800011
 30
0.0
 10
3221.488254246545
 20
-145.9139427800011
 30
0.0
 10
3213.466126251917
 20
-145.9139427800011
 30
0.0
 10
3194.504732257959
 20
-145.9139427800011
 30
0.0
  0
SPLINE
  5
6FEFD
330
7035E
100
AcDbEntity
  8
Level 26
  6
Continuous
 62
     7
370
     0
100
AcDbSpline
210
0.0
220
0.0
230
1.0
 70
    24
 71
     2
 72
     9
 73
     6
 74
     0
 42
0.000000001
 43
0.0000000001
 40
0.0
 40
0.0
 40
0.0
 40
0.25
 40
0.5
 40
0.75
 40
1.0
 40
1.0
 40
1.0
 10
3334.527334266077
 20
-125.9139427800011
 30
0.0
 10
3296.604546247644
 20
-125.9139427800011
 30
0.0
 10
3249.565703265375
 20
-125.9139427800011
 30
0.0
 10
3221.488254246545
 20
-125.9139427800011
 30
0.0
 10
3213.466126251917
 20
-125.9139427800011
 30
0.0
 10
3194.504732257959
 20
-125.9139427800011
 30
0.0
  0
LINE
  5
6FEFF
330
7035E
100
AcDbEntity
  8
Level 26
  6
Continuous
 62
     7
370
     0
100
AcDbLine
 10
3334.527334
 20
-145.913943
 30
0.0
 11
3334.527334
 21
-125.913943
 31
0.0
  0
LINE
  5
6FF00
330
7035E
100
AcDbEntity
  8
Level 26
  6
Continuous
 62
     7
370
     0
100
AcDbLine
 10
3283.069028
 20
-145.913943
 30
0.0
 11
3283.069028
 21
-125.913943
 31
0.0
  0
LINE
  5
6FF01
330
7035E
100
AcDbEntity
  8
Level 26
  6
Continuous
 62
     7
370
     0
100
AcDbLine
 10
3248.27487
 20
-145.913943
 30
0.0
 11
3248.27487
 21
-125.913943
 31
0.0
  0
LINE
  5
6FF02
330
7035E
100
AcDbEntity
  8
Level 26
  6
Continuous
 62
     7
370
     0
100
AcDbLine
 10
3225.900425
 20
-145.913943
 30
0.0
 11
3225.900425
 21
-125.913943
 31
0.0
  0
LINE
  5
6FF03
330
7035E
100
AcDbEntity
  8
Level 26
  6
Continuous
 62
     7
370
     0
100
AcDbLine
 10
3215.274751
 20
-145.913943
 30
0.0
 11
3215.274751
 21
-125.913943
 31
0.0
  0
LINE
  5
6FF04
330
7035E
100
AcDbEntity
  8
Level 26
  6
Continuous
 62
     7
370
     0
100
AcDbLine
 10
3194.504732
 20
-145.913943
 30
0.0
 11
3194.504732
 21
-125.913943
 31
0.0
  0
ENDBLK
  5
70360
330
7035E
100
AcDbEntity
  8
0
 62
    98
370
     0
100
AcDbBlockEnd
  0
BLOCK
  5
70362
330
70361
100
AcDbEntity
  8
0
 62
    98
370
     0
100
AcDbBlockBegin
  2
From Surface_45
 70
     0
 10
0.0
 20
0.0
 30
0.0
  3
From Surface_45
  1

  0
SPLINE
  5
6FF06
330
70361
100
AcDbEntity
  8
Level 26
  6
Continuous
 62
     7
370
     0
100
AcDbSpline
210
0.0
220
0.0
230
1.0
 70
    24
 71
     2
 72
     9
 73
     6
 74
     0
 42
0.000000001
 43
0.0000000001
 40
0.0
 40
0.0
 40
0.0
 40
0.25
 40
0.5
 40
0.75
 40
1.0
 40
1.0
 40
1.0
 10
3334.527334266077
 20
-145.9139427800011
 30
0.0
 10
3296.604546247644
 20
-145.9139427800011
 30
0.0
 10
3249.565703265375
 20
-145.9139427800011
 30
0.0
 10
3221.488254246545
 20
-145.9139427800011
 30
0.0
 10
3213.466126251917
 20
-145.9139427800011
 30
0.0
 10
3194.504732257959
 20
-145.9139427800011
 30
0.0
  0
SPLINE
  5
6FF08
330
70361
100
AcDbEntity
  8
Level 26
  6
Continuous
 62
     7
370
     0
100
AcDbSpline
210
0.0
220
0.0
230
1.0
 70
    24
 71
     2
 72
     9
 73
     6
 74
     0
 42
0.000000001
 43
0.0000000001
 40
0.0
 40
0.0
 40
0.0
 40
0.25
 40
0.5
 40
0.75
 40
1.0
 40
1.0
 40
1.0
 10
3334.527334266077
 20
-125.9139427800011
 30
0.0
 10
3296.604546247644
 20
-125.9139427800011
 30
0.0
 10
3249.565703265375
 20
-125.9139427800011
 30
0.0
 10
3221.488254246545
 20
-125.9139427800011
 30
0.0
 10
3213.466126251917
 20
-125.9139427800011
 30
0.0
 10
3194.504732257959
 20
-125.9139427800011
 30
0.0
  0
LINE
  5
6FF0A
330
70361
100
AcDbEntity
  8
Level 26
  6
Continuous
 62
     7
370
     0
100
AcDbLine
 10
3334.527334
 20
-145.913943
 30
0.0
 11
3334.527334
 21
-125.913943
 31
0.0
  0
LINE
  5
6FF0B
330
70361
100
AcDbEntity
  8
Level 26
  6
Continuous
 62
     7
370
     0
100
AcDbLine
 10
3283.069028
 20
-145.913943
 30
0.0
 11
3283.069028
 21
-125.913943
 31
0.0
  0
LINE
  5
6FF0C
330
70361
100
AcDbEntity
  8
Level 26
  6
Continuous
 62
     7
370
     0
100
AcDbLine
 10
3248.27487
 20
-145.913943
 30
0.0
 11
3248.27487
 21
-125.913943
 31
0.0
  0
LINE
  5
6FF0D
330
70361
100
AcDbEntity
  8
Level 26
  6
Continuous
 62
     7
370
     0
100
AcDbLine
 10
3225.900425
 20
-145.913943
 30
0.0
 11
3225.900425
 21
-125.913943
 31
0.0
  0
LINE
  5
6FF0E
330
70361
100
AcDbEntity
  8
Level 26
  6
Continuous
 62
     7
370
     0
100
AcDbLine
 10
3215.274751
 20
-145.913943
 30
0.0
 11
3215.274751
 21
-125.913943
 31
0.0
  0
LINE
  5
6FF0F
330
70361
100
AcDbEntity
  8
Level 26
  6
Continuous
 62
     7
370
     0
100
AcDbLine
 10
3194.504732
 20
-145.913943
 30
0.0
 11
3194.504732
 21
-125.913943
 31
0.0
  0
ENDBLK
  5
70363
330
70361
100
AcDbEntity
  8
0
 62
    98
370
     0
100
AcDbBlockEnd
  0
BLOCK
  5
70365
330
70364
100
AcDbEntity
  8
0
 62
    98
370
     0
100
AcDbBlockBegin
  2
From Solid
 70
     0
 10
0.0
 20
0.0
 30
0.0
  3
From Solid
  1

  0
LINE
  5
6FF11
330
70364
100
AcDbEntity
  8
Level 26
  6
Continuous
 62
    40
370
     0
100
AcDbLine
 10
2482.434453
 20
-125.913943
 30
0.0
 11
2509.334451
 21
-125.913943
 31
0.0
  0
LINE
  5
6FF12
330
70364
100
AcDbEntity
  8
Level 26
  6
Continuous
 62
    40
370
     0
100
AcDbLine
 10
2482.434453
 20
244.086057
 30
0.0
 11
2509.334451
 21
244.086057
 31
0.0
  0
LINE
  5
6FF13
330
70364
100
AcDbEntity
  8
Level 26
  6
Continuous
 62
    40
370
     0
100
AcDbLine
 10
2487.238959
 20
-125.913943
 30
0.0
 11
2487.238959
 21
244.086057
 31
0.0
  0
LINE
  5
6FF14
330
70364
100
AcDbEntity
  8
Level 26
  6
Continuous
 62
    40
370
     0
100
AcDbLine
 10
2506.187749
 20
-125.913943
 30
0.0
 11
2506.187749
 21
244.086057
 31
0.0
  0
LINE
  5
6FF15
330
70364
100
AcDbEntity
  8
Level 26
  6
Continuous
 62
    40
370
     0
100
AcDbLine
 10
2504.529945
 20
-125.913943
 30
0.0
 11
2504.529945
 21
244.086057
 31
0.0
  0
LINE
  5
6FF16
330
70364
100
AcDbEntity
  8
Level 26
  6
Continuous
 62
    40
370
     0
100
AcDbLine
 10
2485.581155
 20
-125.913943
 30
0.0
 11
2485.581155
 21
244.086057
 31
0.0
  0
ENDBLK
  5
70366
330
70364
100
AcDbEntity
  8
0
 62
    98
370
     0
100
AcDbBlockEnd
  0
BLOCK
  5
70368
330
70367
100
AcDbEntity
  8
0
 62
    98
370
     0
100
AcDbBlockBegin
  2
From Solid_1
 70
     0
 10
0.0
 20
0.0
 30
0.0
  3
From Solid_1
  1

  0
LINE
  5
6FF18
330
70367
100
AcDbEntity
  8
Level 26
  6
Continuous
 62
    40
370
     0
100
AcDbLine
 10
3135.362889
 20
-125.913943
 30
0.0
 11
3162.26289
 21
-125.913943
 31
0.0
  0
LINE
  5
6FF19
330
70367
100
AcDbEntity
  8
Level 26
  6
Continuous
 62
    40
370
     0
100
AcDbLine
 10
3135.362889
 20
244.086057
 30
0.0
 11
3162.26289
 21
244.086057
 31
0.0
  0
LINE
  5
6FF1A
330
70367
100
AcDbEntity
  8
Level 26
  6
Continuous
 62
    40
370
     0
100
AcDbLine
 10
3144.212718
 20
-125.913943
 30
0.0
 11
3144.212718
 21
244.086057
 31
0.0
  0
LINE
  5
6FF1B
330
70367
100
AcDbEntity
  8
Level 26
  6
Continuous
 62
    40
370
     0
100
AcDbLine
 10
3161.451755
 20
-125.913943
 30
0.0
 11
3161.451755
 21
244.086057
 31
0.0
  0
LINE
  5
6FF1C
330
70367
100
AcDbEntity
  8
Level 26
  6
Continuous
 62
    40
370
     0
100
AcDbLine
 10
3153.41306
 20
-125.913943
 30
0.0
 11
3153.41306
 21
244.086057
 31
0.0
  0
LINE
  5
6FF1D
330
70367
100
AcDbEntity
  8
Level 26
  6
Continuous
 62
    40
370
     0
100
AcDbLine
 10
3136.174023
 20
-125.913943
 30
0.0
 11
3136.174023
 21
244.086057
 31
0.0
  0
ENDBLK
  5
70369
330
70367
100
AcDbEntity
  8
0
 62
    98
370
     0
100
AcDbBlockEnd
  0
BLOCK
  5
7036B
330
7036A
100
AcDbEntity
  8
0
 62
    98
370
     0
100
AcDbBlockBegin
  2
From Solid_2
 70
     0
 10
0.0
 20
0.0
 30
0.0
  3
From Solid_2
  1

  0
LINE
  5
6FF1F
330
7036A
100
AcDbEntity
  8
Level 26
  6
Continuous
 62
    40
370
     0
100
AcDbLine
 10
3071.799372
 20
-125.913943
 30
0.0
 11
3098.699371
 21
-125.913943
 31
0.0
  0
LINE
  5
6FF20
330
7036A
100
AcDbEntity
  8
Level 26
  6
Continuous
 62
    40
370
     0
100
AcDbLine
 10
3071.799372
 20
244.086057
 30
0.0
 11
3098.699371
 21
244.086057
 31
0.0
  0
LINE
  5
6FF21
330
7036A
100
AcDbEntity
  8
Level 26
  6
Continuous
 62
    40
370
     0
100
AcDbLine
 10
3073.60133
 20
-125.913943
 30
0.0
 11
3073.60133
 21
244.086057
 31
0.0
  0
LINE
  5
6FF22
330
7036A
100
AcDbEntity
  8
Level 26
  6
Continuous
 62
    40
370
     0
100
AcDbLine
 10
3091.974371
 20
-125.913943
 30
0.0
 11
3091.974371
 21
244.086057
 31
0.0
  0
LINE
  5
6FF23
330
7036A
100
AcDbEntity
  8
Level 26
  6
Continuous
 62
    40
370
     0
100
AcDbLine
 10
3096.897412
 20
-125.913943
 30
0.0
 11
3096.897412
 21
244.086057
 31
0.0
  0
LINE
  5
6FF24
330
7036A
100
AcDbEntity
  8
Level 26
  6
Continuous
 62
    40
370
     0
100
AcDbLine
 10
3078.524371
 20
-125.913943
 30
0.0
 11
3078.524371
 21
244.086057
 31
0.0
  0
ENDBLK
  5
7036C
330
7036A
100
AcDbEntity
  8
0
 62
    98
370
     0
100
AcDbBlockEnd
  0
BLOCK
  5
7036E
330
7036D
100
AcDbEntity
  8
0
 62
    98
370
     0
100
AcDbBlockBegin
  2
*U50
 70
     1
 10
0.0
 20
0.0
 30
0.0
  3
*U50
  1

  0
INSERT
  5
700CE
330
7036D
100
AcDbEntity
  8
Level 26
  6
Continuous
 62
     7
370
     0
100
AcDbBlockReference
  2
From Bspline Surface
 10
-2880.607075
 20
-59.089057
 30
0.0
  0
INSERT
  5
700ED
330
7036D
100
AcDbEntity
  8
Level 26
  6
Continuous
 62
     7
370
     0
100
AcDbBlockReference
  2
From Bspline Surface_1
 10
-2880.607075
 20
-59.089057
 30
0.0
  0
INSERT
  5
7010C
330
7036D
100
AcDbEntity
  8
Level 26
  6
Continuous
 62
     7
370
     0
100
AcDbBlockReference
  2
From Bspline Surface_2
 10
-2880.607075
 20
-59.089057
 30
0.0
  0
INSERT
  5
7012B
330
7036D
100
AcDbEntity
  8
Level 26
  6
Continuous
 62
     7
370
     0
100
AcDbBlockReference
  2
From Bspline Surface_3
 10
-2880.607075
 20
-59.089057
 30
0.0
  0
INSERT
  5
7014A
330
7036D
100
AcDbEntity
  8
Level 26
  6
Continuous
 62
     7
370
     0
100
AcDbBlockReference
  2
From Bspline Surface_4
 10
-2880.607075
 20
-59.089057
 30
0.0
  0
INSERT
  5
70169
330
7036D
100
AcDbEntity
  8
Level 26
  6
Continuous
 62
     7
370
     0
100
AcDbBlockReference
  2
From Bspline Surface_5
 10
-2880.607075
 20
-59.089057
 30
0.0
  0
INSERT
  5
70188
330
7036D
100
AcDbEntity
  8
Level 26
  6
Continuous
 62
     7
370
     0
100
AcDbBlockReference
  2
From Bspline Surface_6
 10
-2880.607075
 20
-59.089057
 30
0.0
  0
INSERT
  5
701A7
330
7036D
100
AcDbEntity
  8
Level 26
  6
Continuous
 62
     7
370
     0
100
AcDbBlockReference
  2
From Bspline Surface_7
 10
-2880.607075
 20
-59.089057
 30
0.0
  0
ENDBLK
  5
7036F
330
7036D
100
AcDbEntity
  8
0
 62
    98
370
     0
100
AcDbBlockEnd
  0
BLOCK
  5
70371
330
70370
100
AcDbEntity
  8
0
 62
    98
370
     0
100
AcDbBlockBegin
  2
From Bspline Surface
 70
     0
 10
0.0
 20
0.0
 30
0.0
  3
From Bspline Surface
  1

  0
SPLINE
  5
6FF26
330
70370
100
AcDbEntity
  8
Level 26 (Construction)
  6
Continuous
 62
     7
370
     0
100
AcDbSpline
210
0.0
220
0.0
230
1.0
 70
     9
 71
     3
 72
    19
 73
    15
 74
     0
 42
0.000000001
 43
0.0000000001
 40
0.0
 40
0.0
 40
0.0
 40
0.0
 40
0.0833333335273589
 40
0.1666666665890565
 40
0.2500000001164153
 40
0.3333333331781129
 40
0.4166666667054718
 40
0.4999999997671694
 40
0.5833333332945282
 40
0.6666666668218872
 40
0.7499999998835847
 40
0.8333333334109434
 40
0.9166666664726411
 40
1.0
 40
1.0
 40
1.0
 40
1.0
 10
2947.056075255487
 20
59.08605721999891
 30
0.0
 10
2946.614909204278
 20
47.06869389714394
 30
0.0
 10
2941.164839072743
 20
25.28920175565966
 30
0.0
 10
2915.869422403532
 20
-0.1053123286319897
 30
0.0
 10
2882.071123413695
 20
-8.753822048777713
 30
0.0
 10
2848.180596023333
 20
0.002998441349715
 30
0.0
 10
2823.171659593389
 20
24.83909652783908
 30
0.0
 10
2814.157851463257
 20
58.92684835132025
 30
0.0
 10
2822.991224521517
 20
93.03720309847406
 30
0.0
 10
2848.064383858655
 20
118.1331126416121
 30
0.0
 10
2882.067720477815
 20
126.9324520989926
 30
0.0
 10
2915.999508221581
 20
118.2433567286506
 30
0.0
 10
2941.297835715707
 20
92.57185622509569
 30
0.0
 10
2946.705169466126
 20
71.04891390507855
 30
0.0
 10
2947.056075255487
 20
59.08605721999891
 30
0.0
  0
SPLINE
  5
701C8
330
70370
100
AcDbEntity
  8
Level 26 (Construction)
  6
Continuous
 62
     7
370
     0
100
AcDbSpline
210
0.0
220
0.0
230
1.0
 70
     9
 71
     3
 72
    19
 73
    15
 74
     0
 42
0.000000001
 43
0.0000000001
 40
0.0
 40
0.0
 40
0.0
 40
0.0
 40
0.0833333335273589
 40
0.1666666665890565
 40
0.2500000001164153
 40
0.3333333331781129
 40
0.4166666667054718
 40
0.4999999997671694
 40
0.5833333332945282
 40
0.6666666668218872
 40
0.7499999998835847
 40
0.8333333334109434
 40
0.9166666664726411
 40
1.0
 40
1.0
 40
1.0
 40
1.0
 10
2947.056075255487
 20
59.08605721999891
 30
0.0
 10
2946.614909204278
 20
47.06869389714393
 30
0.0
 10
2941.164839072743
 20
25.28920175565966
 30
0.0
 10
2915.869422403532
 20
-0.1053123286319896
 30
0.0
 10
2882.071123413695
 20
-8.753822048777713
 30
0.0
 10
2848.180596023333
 20
0.002998441349715
 30
0.0
 10
2823.171659593388
 20
24.83909652783908
 30
0.0
 10
2814.157851463257
 20
58.92684835132024
 30
0.0
 10
2822.991224521517
 20
93.03720309847404
 30
0.0
 10
2848.064383858655
 20
118.1331126416121
 30
0.0
 10
2882.067720477815
 20
126.9324520989926
 30
0.0
 10
2915.99950822158
 20
118.2433567286506
 30
0.0
 10
2941.297835715706
 20
92.57185622509569
 30
0.0
 10
2946.705169466126
 20
71.04891390507855
 30
0.0
 10
2947.056075255487
 20
59.08605721999891
 30
0.0
  0
SPLINE
  5
701C9
330
70370
100
AcDbEntity
  8
Level 26 (Construction)
  6
Continuous
 62
     7
370
     0
100
AcDbSpline
210
0.0
220
0.0
230
1.0
 70
     9
 71
     3
 72
    19
 73
    15
 74
     0
 42
0.000000001
 43
0.0000000001
 40
0.0
 40
0.0
 40
0.0
 40
0.0
 40
0.0833333335273589
 40
0.1666666665890565
 40
0.2500000001164153
 40
0.3333333331781129
 40
0.4166666667054718
 40
0.4999999997671694
 40
0.5833333332945282
 40
0.6666666668218872
 40
0.7499999998835847
 40
0.8333333334109434
 40
0.9166666664726411
 40
1.0
 40
1.0
 40
1.0
 40
1.0
 10
2947.056075255487
 20
59.08605721999891
 30
0.0
 10
2946.614909204278
 20
47.06869389714394
 30
0.0
 10
2941.164839072743
 20
25.28920175565966
 30
0.0
 10
2915.869422403532
 20
-0.1053123286319897
 30
0.0
 10
2882.071123413695
 20
-8.753822048777713
 30
0.0
 10
2848.180596023333
 20
0.002998441349715
 30
0.0
 10
2823.171659593389
 20
24.83909652783908
 30
0.0
 10
2814.157851463257
 20
58.92684835132025
 30
0.0
 10
2822.991224521517
 20
93.03720309847406
 30
0.0
 10
2848.064383858655
 20
118.1331126416121
 30
0.0
 10
2882.067720477815
 20
126.9324520989926
 30
0.0
 10
2915.999508221581
 20
118.2433567286506
 30
0.0
 10
2941.297835715707
 20
92.57185622509569
 30
0.0
 10
2946.705169466126
 20
71.04891390507855
 30
0.0
 10
2947.056075255487
 20
59.08605721999891
 30
0.0
  0
SPLINE
  5
701CA
330
70370
100
AcDbEntity
  8
Level 26 (Construction)
  6
Continuous
 62
     7
370
     0
100
AcDbSpline
210
0.0
220
0.0
230
1.0
 70
     9
 71
     3
 72
    19
 73
    15
 74
     0
 42
0.000000001
 43
0.0000000001
 40
0.0
 40
0.0
 40
0.0
 40
0.0
 40
0.0833333335273589
 40
0.1666666665890565
 40
0.2500000001164153
 40
0.3333333331781129
 40
0.4166666667054718
 40
0.4999999997671694
 40
0.5833333332945282
 40
0.6666666668218872
 40
0.7499999998835847
 40
0.8333333334109434
 40
0.9166666664726411
 40
1.0
 40
1.0
 40
1.0
 40
1.0
 10
2947.056075255487
 20
59.08605721999891
 30
0.0
 10
2946.614909204278
 20
47.06869389714394
 30
0.0
 10
2941.164839072743
 20
25.28920175565966
 30
0.0
 10
2915.869422403532
 20
-0.1053123286319897
 30
0.0
 10
2882.071123413695
 20
-8.753822048777713
 30
0.0
 10
2848.180596023333
 20
0.002998441349715
 30
0.0
 10
2823.171659593389
 20
24.83909652783908
 30
0.0
 10
2814.157851463257
 20
58.92684835132025
 30
0.0
 10
2822.991224521517
 20
93.03720309847406
 30
0.0
 10
2848.064383858655
 20
118.1331126416121
 30
0.0
 10
2882.067720477815
 20
126.9324520989926
 30
0.0
 10
2915.999508221581
 20
118.2433567286506
 30
0.0
 10
2941.297835715707
 20
92.57185622509569
 30
0.0
 10
2946.705169466126
 20
71.04891390507855
 30
0.0
 10
2947.056075255487
 20
59.08605721999891
 30
0.0
  0
SPLINE
  5
701CB
330
70370
100
AcDbEntity
  8
Level 26 (Construction)
  6
Continuous
 62
     7
370
     0
100
AcDbSpline
210
0.0
220
0.0
230
1.0
 70
     9
 71
     3
 72
    19
 73
    15
 74
     0
 42
0.000000001
 43
0.0000000001
 40
0.0
 40
0.0
 40
0.0
 40
0.0
 40
0.0833333335273589
 40
0.1666666665890565
 40
0.2500000001164153
 40
0.3333333331781129
 40
0.4166666667054718
 40
0.4999999997671694
 40
0.5833333332945282
 40
0.6666666668218872
 40
0.7499999998835847
 40
0.8333333334109434
 40
0.9166666664726411
 40
1.0
 40
1.0
 40
1.0
 40
1.0
 10
2947.056075255487
 20
59.08605721999891
 30
0.0
 10
2946.614909204278
 20
47.06869389714394
 30
0.0
 10
2941.164839072743
 20
25.28920175565966
 30
0.0
 10
2915.869422403532
 20
-0.1053123286319897
 30
0.0
 10
2882.071123413695
 20
-8.753822048777713
 30
0.0
 10
2848.180596023333
 20
0.002998441349715
 30
0.0
 10
2823.171659593389
 20
24.83909652783908
 30
0.0
 10
2814.157851463257
 20
58.92684835132025
 30
0.0
 10
2822.991224521517
 20
93.03720309847406
 30
0.0
 10
2848.064383858655
 20
118.1331126416121
 30
0.0
 10
2882.067720477815
 20
126.9324520989926
 30
0.0
 10
2915.999508221581
 20
118.2433567286506
 30
0.0
 10
2941.297835715707
 20
92.57185622509569
 30
0.0
 10
2946.705169466126
 20
71.04891390507855
 30
0.0
 10
2947.056075255487
 20
59.08605721999891
 30
0.0
  0
SPLINE
  5
701CC
330
70370
100
AcDbEntity
  8
Level 26 (Construction)
  6
Continuous
 62
     7
370
     0
100
AcDbSpline
210
0.0
220
0.0
230
1.0
 70
     9
 71
     3
 72
    19
 73
    15
 74
     0
 42
0.000000001
 43
0.0000000001
 40
0.0
 40
0.0
 40
0.0
 40
0.0
 40
0.0833333335273589
 40
0.1666666665890565
 40
0.2500000001164153
 40
0.3333333331781129
 40
0.4166666667054718
 40
0.4999999997671694
 40
0.5833333332945282
 40
0.6666666668218872
 40
0.7499999998835847
 40
0.8333333334109434
 40
0.9166666664726411
 40
1.0
 40
1.0
 40
1.0
 40
1.0
 10
2947.056075255487
 20
59.08605721999891
 30
0.0
 10
2946.614909204278
 20
47.06869389714394
 30
0.0
 10
2941.164839072743
 20
25.28920175565966
 30
0.0
 10
2915.869422403532
 20
-0.1053123286319897
 30
0.0
 10
2882.071123413695
 20
-8.753822048777713
 30
0.0
 10
2848.180596023333
 20
0.002998441349715
 30
0.0
 10
2823.171659593389
 20
24.83909652783908
 30
0.0
 10
2814.157851463257
 20
58.92684835132025
 30
0.0
 10
2822.991224521517
 20
93.03720309847406
 30
0.0
 10
2848.064383858655
 20
118.1331126416121
 30
0.0
 10
2882.067720477815
 20
126.9324520989926
 30
0.0
 10
2915.999508221581
 20
118.2433567286506
 30
0.0
 10
2941.297835715707
 20
92.57185622509569
 30
0.0
 10
2946.705169466126
 20
71.04891390507855
 30
0.0
 10
2947.056075255487
 20
59.08605721999891
 30
0.0
  0
SPLINE
  5
701CD
330
70370
100
AcDbEntity
  8
Level 26 (Construction)
  6
Continuous
 62
     7
370
     0
100
AcDbSpline
210
0.0
220
0.0
230
1.0
 70
     9
 71
     3
 72
    19
 73
    15
 74
     0
 42
0.000000001
 43
0.0000000001
 40
0.0
 40
0.0
 40
0.0
 40
0.0
 40
0.0833333335273589
 40
0.1666666665890565
 40
0.2500000001164153
 40
0.3333333331781129
 40
0.4166666667054718
 40
0.4999999997671694
 40
0.5833333332945282
 40
0.6666666668218872
 40
0.7499999998835847
 40
0.8333333334109434
 40
0.9166666664726411
 40
1.0
 40
1.0
 40
1.0
 40
1.0
 10
2947.056075255487
 20
59.08605721999891
 30
0.0
 10
2946.614909204278
 20
47.06869389714394
 30
0.0
 10
2941.164839072743
 20
25.28920175565966
 30
0.0
 10
2915.869422403532
 20
-0.1053123286319897
 30
0.0
 10
2882.071123413695
 20
-8.753822048777713
 30
0.0
 10
2848.180596023333
 20
0.002998441349715
 30
0.0
 10
2823.171659593389
 20
24.83909652783908
 30
0.0
 10
2814.157851463257
 20
58.92684835132025
 30
0.0
 10
2822.991224521517
 20
93.03720309847406
 30
0.0
 10
2848.064383858655
 20
118.1331126416121
 30
0.0
 10
2882.067720477815
 20
126.9324520989926
 30
0.0
 10
2915.999508221581
 20
118.2433567286506
 30
0.0
 10
2941.297835715707
 20
92.57185622509569
 30
0.0
 10
2946.705169466126
 20
71.04891390507855
 30
0.0
 10
2947.056075255487
 20
59.08605721999891
 30
0.0
  0
SPLINE
  5
701CE
330
70370
100
AcDbEntity
  8
Level 26 (Construction)
  6
Continuous
 62
     7
370
     0
100
AcDbSpline
210
0.0
220
0.0
230
1.0
 70
     9
 71
     3
 72
    19
 73
    15
 74
     0
 42
0.000000001
 43
0.0000000001
 40
0.0
 40
0.0
 40
0.0
 40
0.0
 40
0.0833333335273589
 40
0.1666666665890565
 40
0.2500000001164153
 40
0.3333333331781129
 40
0.4166666667054718
 40
0.4999999997671694
 40
0.5833333332945282
 40
0.6666666668218872
 40
0.7499999998835847
 40
0.8333333334109434
 40
0.9166666664726411
 40
1.0
 40
1.0
 40
1.0
 40
1.0
 10
2947.056075255487
 20
59.08605721999891
 30
0.0
 10
2946.614909204278
 20
47.06869389714394
 30
0.0
 10
2941.164839072743
 20
25.28920175565966
 30
0.0
 10
2915.869422403532
 20
-0.1053123286319897
 30
0.0
 10
2882.071123413695
 20
-8.753822048777713
 30
0.0
 10
2848.180596023333
 20
0.002998441349715
 30
0.0
 10
2823.171659593389
 20
24.83909652783908
 30
0.0
 10
2814.157851463257
 20
58.92684835132025
 30
0.0
 10
2822.991224521517
 20
93.03720309847406
 30
0.0
 10
2848.064383858655
 20
118.1331126416121
 30
0.0
 10
2882.067720477815
 20
126.9324520989926
 30
0.0
 10
2915.999508221581
 20
118.2433567286506
 30
0.0
 10
2941.297835715707
 20
92.57185622509569
 30
0.0
 10
2946.705169466126
 20
71.04891390507855
 30
0.0
 10
2947.056075255487
 20
59.08605721999891
 30
0.0
  0
SPLINE
  5
701CF
330
70370
100
AcDbEntity
  8
Level 26 (Construction)
  6
Continuous
 62
     7
370
     0
100
AcDbSpline
210
0.0
220
0.0
230
1.0
 70
     9
 71
     3
 72
    19
 73
    15
 74
     0
 42
0.000000001
 43
0.0000000001
 40
0.0
 40
0.0
 40
0.0
 40
0.0
 40
0.0833333335273589
 40
0.1666666665890565
 40
0.2500000001164153
 40
0.3333333331781129
 40
0.4166666667054718
 40
0.4999999997671694
 40
0.5833333332945282
 40
0.6666666668218872
 40
0.7499999998835847
 40
0.8333333334109434
 40
0.9166666664726411
 40
1.0
 40
1.0
 40
1.0
 40
1.0
 10
2947.056075255487
 20
59.08605721999891
 30
0.0
 10
2946.614909204278
 20
47.06869389714394
 30
0.0
 10
2941.164839072743
 20
25.28920175565966
 30
0.0
 10
2915.869422403532
 20
-0.1053123286319897
 30
0.0
 10
2882.071123413695
 20
-8.753822048777713
 30
0.0
 10
2848.180596023333
 20
0.002998441349715
 30
0.0
 10
2823.171659593389
 20
24.83909652783908
 30
0.0
 10
2814.157851463257
 20
58.92684835132025
 30
0.0
 10
2822.991224521517
 20
93.03720309847406
 30
0.0
 10
2848.064383858655
 20
118.1331126416121
 30
0.0
 10
2882.067720477815
 20
126.9324520989926
 30
0.0
 10
2915.999508221581
 20
118.2433567286506
 30
0.0
 10
2941.297835715707
 20
92.57185622509569
 30
0.0
 10
2946.705169466126
 20
71.04891390507855
 30
0.0
 10
2947.056075255487
 20
59.08605721999891
 30
0.0
  0
SPLINE
  5
701D0
330
70370
100
AcDbEntity
  8
Level 26 (Construction)
  6
Continuous
 62
     7
370
     0
100
AcDbSpline
210
0.0
220
0.0
230
1.0
 70
     9
 71
     3
 72
    19
 73
    15
 74
     0
 42
0.000000001
 43
0.0000000001
 40
0.0
 40
0.0
 40
0.0
 40
0.0
 40
0.0833333335273589
 40
0.1666666665890565
 40
0.2500000001164153
 40
0.3333333331781129
 40
0.4166666667054718
 40
0.4999999997671694
 40
0.5833333332945282
 40
0.6666666668218872
 40
0.7499999998835847
 40
0.8333333334109434
 40
0.9166666664726411
 40
1.0
 40
1.0
 40
1.0
 40
1.0
 10
2947.056075255487
 20
59.08605721999891
 30
0.0
 10
2946.614909204278
 20
47.06869389714394
 30
0.0
 10
2941.164839072743
 20
25.28920175565966
 30
0.0
 10
2915.869422403532
 20
-0.1053123286319897
 30
0.0
 10
2882.071123413695
 20
-8.753822048777713
 30
0.0
 10
2848.180596023333
 20
0.002998441349715
 30
0.0
 10
2823.171659593389
 20
24.83909652783908
 30
0.0
 10
2814.157851463257
 20
58.92684835132025
 30
0.0
 10
2822.991224521517
 20
93.03720309847406
 30
0.0
 10
2848.064383858655
 20
118.1331126416121
 30
0.0
 10
2882.067720477815
 20
126.9324520989926
 30
0.0
 10
2915.999508221581
 20
118.2433567286506
 30
0.0
 10
2941.297835715707
 20
92.57185622509569
 30
0.0
 10
2946.705169466126
 20
71.04891390507855
 30
0.0
 10
2947.056075255487
 20
59.08605721999891
 30
0.0
  0
ENDBLK
  5
70372
330
70370
100
AcDbEntity
  8
0
 62
    98
370
     0
100
AcDbBlockEnd
  0
BLOCK
  5
70374
330
70373
100
AcDbEntity
  8
0
 62
    98
370
     0
100
AcDbBlockBegin
  2
From Bspline Surface_1
 70
     0
 10
0.0
 20
0.0
 30
0.0
  3
From Bspline Surface_1
  1

  0
SPLINE
  5
6FF37
330
70373
100
AcDbEntity
  8
Level 26 (Construction)
  6
Continuous
 62
     7
370
     0
100
AcDbSpline
210
0.0
220
0.0
230
1.0
 70
     9
 71
     3
 72
    19
 73
    15
 74
     0
 42
0.000000001
 43
0.0000000001
 40
0.0
 40
0.0
 40
0.0
 40
0.0
 40
0.0833333335273589
 40
0.1666666665890565
 40
0.2500000001164153
 40
0.3333333331781129
 40
0.4166666667054718
 40
0.4999999997671694
 40
0.5833333332945282
 40
0.6666666668218872
 40
0.7499999998835847
 40
0.8333333334109434
 40
0.9166666664726411
 40
1.0
 40
1.0
 40
1.0
 40
1.0
 10
2947.056075255487
 20
59.08605721999891
 30
0.0
 10
2946.614909204278
 20
47.06869389714394
 30
0.0
 10
2941.164839072743
 20
25.28920175565966
 30
0.0
 10
2915.869422403532
 20
-0.1053123286319897
 30
0.0
 10
2882.071123413695
 20
-8.753822048777713
 30
0.0
 10
2848.180596023333
 20
0.002998441349715
 30
0.0
 10
2823.171659593389
 20
24.83909652783908
 30
0.0
 10
2814.157851463257
 20
58.92684835132025
 30
0.0
 10
2822.991224521517
 20
93.03720309847406
 30
0.0
 10
2848.064383858655
 20
118.1331126416121
 30
0.0
 10
2882.067720477815
 20
126.9324520989926
 30
0.0
 10
2915.999508221581
 20
118.2433567286506
 30
0.0
 10
2941.297835715707
 20
92.57185622509569
 30
0.0
 10
2946.705169466126
 20
71.04891390507855
 30
0.0
 10
2947.056075255487
 20
59.08605721999891
 30
0.0
  0
SPLINE
  5
701DB
330
70373
100
AcDbEntity
  8
Level 26 (Construction)
  6
Continuous
 62
     7
370
     0
100
AcDbSpline
210
0.0
220
0.0
230
1.0
 70
     9
 71
     3
 72
    19
 73
    15
 74
     0
 42
0.000000001
 43
0.0000000001
 40
0.0
 40
0.0
 40
0.0
 40
0.0
 40
0.0833333335273589
 40
0.1666666665890565
 40
0.2500000001164153
 40
0.3333333331781129
 40
0.4166666667054718
 40
0.4999999997671694
 40
0.5833333332945282
 40
0.6666666668218872
 40
0.7499999998835847
 40
0.8333333334109434
 40
0.9166666664726411
 40
1.0
 40
1.0
 40
1.0
 40
1.0
 10
2947.056075255487
 20
59.08605721999891
 30
0.0
 10
2946.614909204278
 20
47.06869389714393
 30
0.0
 10
2941.164839072743
 20
25.28920175565966
 30
0.0
 10
2915.869422403532
 20
-0.1053123286319896
 30
0.0
 10
2882.071123413695
 20
-8.753822048777713
 30
0.0
 10
2848.180596023333
 20
0.002998441349715
 30
0.0
 10
2823.171659593388
 20
24.83909652783908
 30
0.0
 10
2814.157851463257
 20
58.92684835132024
 30
0.0
 10
2822.991224521517
 20
93.03720309847404
 30
0.0
 10
2848.064383858655
 20
118.1331126416121
 30
0.0
 10
2882.067720477815
 20
126.9324520989926
 30
0.0
 10
2915.99950822158
 20
118.2433567286506
 30
0.0
 10
2941.297835715706
 20
92.57185622509569
 30
0.0
 10
2946.705169466126
 20
71.04891390507855
 30
0.0
 10
2947.056075255487
 20
59.08605721999891
 30
0.0
  0
SPLINE
  5
701DC
330
70373
100
AcDbEntity
  8
Level 26 (Construction)
  6
Continuous
 62
     7
370
     0
100
AcDbSpline
210
0.0
220
0.0
230
1.0
 70
     9
 71
     3
 72
    19
 73
    15
 74
     0
 42
0.000000001
 43
0.0000000001
 40
0.0
 40
0.0
 40
0.0
 40
0.0
 40
0.0833333335273589
 40
0.1666666665890565
 40
0.2500000001164153
 40
0.3333333331781129
 40
0.4166666667054718
 40
0.4999999997671694
 40
0.5833333332945282
 40
0.6666666668218872
 40
0.7499999998835847
 40
0.8333333334109434
 40
0.9166666664726411
 40
1.0
 40
1.0
 40
1.0
 40
1.0
 10
2947.056075255487
 20
59.08605721999891
 30
0.0
 10
2946.614909204278
 20
47.06869389714394
 30
0.0
 10
2941.164839072743
 20
25.28920175565966
 30
0.0
 10
2915.869422403532
 20
-0.1053123286319897
 30
0.0
 10
2882.071123413695
 20
-8.753822048777713
 30
0.0
 10
2848.180596023333
 20
0.002998441349715
 30
0.0
 10
2823.171659593389
 20
24.83909652783908
 30
0.0
 10
2814.157851463257
 20
58.92684835132025
 30
0.0
 10
2822.991224521517
 20
93.03720309847406
 30
0.0
 10
2848.064383858655
 20
118.1331126416121
 30
0.0
 10
2882.067720477815
 20
126.9324520989926
 30
0.0
 10
2915.999508221581
 20
118.2433567286506
 30
0.0
 10
2941.297835715707
 20
92.57185622509569
 30
0.0
 10
2946.705169466126
 20
71.04891390507855
 30
0.0
 10
2947.056075255487
 20
59.08605721999891
 30
0.0
  0
SPLINE
  5
701DD
330
70373
100
AcDbEntity
  8
Level 26 (Construction)
  6
Continuous
 62
     7
370
     0
100
AcDbSpline
210
0.0
220
0.0
230
1.0
 70
     9
 71
     3
 72
    19
 73
    15
 74
     0
 42
0.000000001
 43
0.0000000001
 40
0.0
 40
0.0
 40
0.0
 40
0.0
 40
0.0833333335273589
 40
0.1666666665890565
 40
0.2500000001164153
 40
0.3333333331781129
 40
0.4166666667054718
 40
0.4999999997671694
 40
0.5833333332945282
 40
0.6666666668218872
 40
0.7499999998835847
 40
0.8333333334109434
 40
0.9166666664726411
 40
1.0
 40
1.0
 40
1.0
 40
1.0
 10
2947.056075255487
 20
59.08605721999891
 30
0.0
 10
2946.614909204278
 20
47.06869389714394
 30
0.0
 10
2941.164839072743
 20
25.28920175565966
 30
0.0
 10
2915.869422403532
 20
-0.1053123286319897
 30
0.0
 10
2882.071123413695
 20
-8.753822048777713
 30
0.0
 10
2848.180596023333
 20
0.002998441349715
 30
0.0
 10
2823.171659593389
 20
24.83909652783908
 30
0.0
 10
2814.157851463257
 20
58.92684835132025
 30
0.0
 10
2822.991224521517
 20
93.03720309847406
 30
0.0
 10
2848.064383858655
 20
118.1331126416121
 30
0.0
 10
2882.067720477815
 20
126.9324520989926
 30
0.0
 10
2915.999508221581
 20
118.2433567286506
 30
0.0
 10
2941.297835715707
 20
92.57185622509569
 30
0.0
 10
2946.705169466126
 20
71.04891390507855
 30
0.0
 10
2947.056075255487
 20
59.08605721999891
 30
0.0
  0
SPLINE
  5
701DE
330
70373
100
AcDbEntity
  8
Level 26 (Construction)
  6
Continuous
 62
     7
370
     0
100
AcDbSpline
210
0.0
220
0.0
230
1.0
 70
     9
 71
     3
 72
    19
 73
    15
 74
     0
 42
0.000000001
 43
0.0000000001
 40
0.0
 40
0.0
 40
0.0
 40
0.0
 40
0.0833333335273589
 40
0.1666666665890565
 40
0.2500000001164153
 40
0.3333333331781129
 40
0.4166666667054718
 40
0.4999999997671694
 40
0.5833333332945282
 40
0.6666666668218872
 40
0.7499999998835847
 40
0.8333333334109434
 40
0.9166666664726411
 40
1.0
 40
1.0
 40
1.0
 40
1.0
 10
2947.056075255487
 20
59.08605721999891
 30
0.0
 10
2946.614909204278
 20
47.06869389714394
 30
0.0
 10
2941.164839072743
 20
25.28920175565966
 30
0.0
 10
2915.869422403532
 20
-0.1053123286319897
 30
0.0
 10
2882.071123413695
 20
-8.753822048777713
 30
0.0
 10
2848.180596023333
 20
0.002998441349715
 30
0.0
 10
2823.171659593389
 20
24.83909652783908
 30
0.0
 10
2814.157851463257
 20
58.92684835132025
 30
0.0
 10
2822.991224521517
 20
93.03720309847406
 30
0.0
 10
2848.064383858655
 20
118.1331126416121
 30
0.0
 10
2882.067720477815
 20
126.9324520989926
 30
0.0
 10
2915.999508221581
 20
118.2433567286506
 30
0.0
 10
2941.297835715707
 20
92.57185622509569
 30
0.0
 10
2946.705169466126
 20
71.04891390507855
 30
0.0
 10
2947.056075255487
 20
59.08605721999891
 30
0.0
  0
SPLINE
  5
701DF
330
70373
100
AcDbEntity
  8
Level 26 (Construction)
  6
Continuous
 62
     7
370
     0
100
AcDbSpline
210
0.0
220
0.0
230
1.0
 70
     9
 71
     3
 72
    19
 73
    15
 74
     0
 42
0.000000001
 43
0.0000000001
 40
0.0
 40
0.0
 40
0.0
 40
0.0
 40
0.0833333335273589
 40
0.1666666665890565
 40
0.2500000001164153
 40
0.3333333331781129
 40
0.4166666667054718
 40
0.4999999997671694
 40
0.5833333332945282
 40
0.6666666668218872
 40
0.7499999998835847
 40
0.8333333334109434
 40
0.9166666664726411
 40
1.0
 40
1.0
 40
1.0
 40
1.0
 10
2947.056075255487
 20
59.08605721999891
 30
0.0
 10
2946.614909204278
 20
47.06869389714394
 30
0.0
 10
2941.164839072743
 20
25.28920175565966
 30
0.0
 10
2915.869422403532
 20
-0.1053123286319897
 30
0.0
 10
2882.071123413695
 20
-8.753822048777713
 30
0.0
 10
2848.180596023333
 20
0.002998441349715
 30
0.0
 10
2823.171659593389
 20
24.83909652783908
 30
0.0
 10
2814.157851463257
 20
58.92684835132025
 30
0.0
 10
2822.991224521517
 20
93.03720309847406
 30
0.0
 10
2848.064383858655
 20
118.1331126416121
 30
0.0
 10
2882.067720477815
 20
126.9324520989926
 30
0.0
 10
2915.999508221581
 20
118.2433567286506
 30
0.0
 10
2941.297835715707
 20
92.57185622509569
 30
0.0
 10
2946.705169466126
 20
71.04891390507855
 30
0.0
 10
2947.056075255487
 20
59.08605721999891
 30
0.0
  0
SPLINE
  5
701E0
330
70373
100
AcDbEntity
  8
Level 26 (Construction)
  6
Continuous
 62
     7
370
     0
100
AcDbSpline
210
0.0
220
0.0
230
1.0
 70
     9
 71
     3
 72
    19
 73
    15
 74
     0
 42
0.000000001
 43
0.0000000001
 40
0.0
 40
0.0
 40
0.0
 40
0.0
 40
0.0833333335273589
 40
0.1666666665890565
 40
0.2500000001164153
 40
0.3333333331781129
 40
0.4166666667054718
 40
0.4999999997671694
 40
0.5833333332945282
 40
0.6666666668218872
 40
0.7499999998835847
 40
0.8333333334109434
 40
0.9166666664726411
 40
1.0
 40
1.0
 40
1.0
 40
1.0
 10
2947.056075255487
 20
59.08605721999891
 30
0.0
 10
2946.614909204278
 20
47.06869389714394
 30
0.0
 10
2941.164839072743
 20
25.28920175565966
 30
0.0
 10
2915.869422403532
 20
-0.1053123286319897
 30
0.0
 10
2882.071123413695
 20
-8.753822048777713
 30
0.0
 10
2848.180596023333
 20
0.002998441349715
 30
0.0
 10
2823.171659593389
 20
24.83909652783908
 30
0.0
 10
2814.157851463257
 20
58.92684835132025
 30
0.0
 10
2822.991224521517
 20
93.03720309847406
 30
0.0
 10
2848.064383858655
 20
118.1331126416121
 30
0.0
 10
2882.067720477815
 20
126.9324520989926
 30
0.0
 10
2915.999508221581
 20
118.2433567286506
 30
0.0
 10
2941.297835715707
 20
92.57185622509569
 30
0.0
 10
2946.705169466126
 20
71.04891390507855
 30
0.0
 10
2947.056075255487
 20
59.08605721999891
 30
0.0
  0
SPLINE
  5
701E1
330
70373
100
AcDbEntity
  8
Level 26 (Construction)
  6
Continuous
 62
     7
370
     0
100
AcDbSpline
210
0.0
220
0.0
230
1.0
 70
     9
 71
     3
 72
    19
 73
    15
 74
     0
 42
0.000000001
 43
0.0000000001
 40
0.0
 40
0.0
 40
0.0
 40
0.0
 40
0.0833333335273589
 40
0.1666666665890565
 40
0.2500000001164153
 40
0.3333333331781129
 40
0.4166666667054718
 40
0.4999999997671694
 40
0.5833333332945282
 40
0.6666666668218872
 40
0.7499999998835847
 40
0.8333333334109434
 40
0.9166666664726411
 40
1.0
 40
1.0
 40
1.0
 40
1.0
 10
2947.056075255487
 20
59.08605721999891
 30
0.0
 10
2946.614909204278
 20
47.06869389714394
 30
0.0
 10
2941.164839072743
 20
25.28920175565966
 30
0.0
 10
2915.869422403532
 20
-0.1053123286319897
 30
0.0
 10
2882.071123413695
 20
-8.753822048777713
 30
0.0
 10
2848.180596023333
 20
0.002998441349715
 30
0.0
 10
2823.171659593389
 20
24.83909652783908
 30
0.0
 10
2814.157851463257
 20
58.92684835132025
 30
0.0
 10
2822.991224521517
 20
93.03720309847406
 30
0.0
 10
2848.064383858655
 20
118.1331126416121
 30
0.0
 10
2882.067720477815
 20
126.9324520989926
 30
0.0
 10
2915.999508221581
 20
118.2433567286506
 30
0.0
 10
2941.297835715707
 20
92.57185622509569
 30
0.0
 10
2946.705169466126
 20
71.04891390507855
 30
0.0
 10
2947.056075255487
 20
59.08605721999891
 30
0.0
  0
SPLINE
  5
701E2
330
70373
100
AcDbEntity
  8
Level 26 (Construction)
  6
Continuous
 62
     7
370
     0
100
AcDbSpline
210
0.0
220
0.0
230
1.0
 70
     9
 71
     3
 72
    19
 73
    15
 74
     0
 42
0.000000001
 43
0.0000000001
 40
0.0
 40
0.0
 40
0.0
 40
0.0
 40
0.0833333335273589
 40
0.1666666665890565
 40
0.2500000001164153
 40
0.3333333331781129
 40
0.4166666667054718
 40
0.4999999997671694
 40
0.5833333332945282
 40
0.6666666668218872
 40
0.7499999998835847
 40
0.8333333334109434
 40
0.9166666664726411
 40
1.0
 40
1.0
 40
1.0
 40
1.0
 10
2947.056075255487
 20
59.08605721999891
 30
0.0
 10
2946.614909204278
 20
47.06869389714394
 30
0.0
 10
2941.164839072743
 20
25.28920175565966
 30
0.0
 10
2915.869422403532
 20
-0.1053123286319897
 30
0.0
 10
2882.071123413695
 20
-8.753822048777713
 30
0.0
 10
2848.180596023333
 20
0.002998441349715
 30
0.0
 10
2823.171659593389
 20
24.83909652783908
 30
0.0
 10
2814.157851463257
 20
58.92684835132025
 30
0.0
 10
2822.991224521517
 20
93.03720309847406
 30
0.0
 10
2848.064383858655
 20
118.1331126416121
 30
0.0
 10
2882.067720477815
 20
126.9324520989926
 30
0.0
 10
2915.999508221581
 20
118.2433567286506
 30
0.0
 10
2941.297835715707
 20
92.57185622509569
 30
0.0
 10
2946.705169466126
 20
71.04891390507855
 30
0.0
 10
2947.056075255487
 20
59.08605721999891
 30
0.0
  0
SPLINE
  5
701E3
330
70373
100
AcDbEntity
  8
Level 26 (Construction)
  6
Continuous
 62
     7
370
     0
100
AcDbSpline
210
0.0
220
0.0
230
1.0
 70
     9
 71
     3
 72
    19
 73
    15
 74
     0
 42
0.000000001
 43
0.0000000001
 40
0.0
 40
0.0
 40
0.0
 40
0.0
 40
0.0833333335273589
 40
0.1666666665890565
 40
0.2500000001164153
 40
0.3333333331781129
 40
0.4166666667054718
 40
0.4999999997671694
 40
0.5833333332945282
 40
0.6666666668218872
 40
0.7499999998835847
 40
0.8333333334109434
 40
0.9166666664726411
 40
1.0
 40
1.0
 40
1.0
 40
1.0
 10
2947.056075255487
 20
59.08605721999891
 30
0.0
 10
2946.614909204278
 20
47.06869389714394
 30
0.0
 10
2941.164839072743
 20
25.28920175565966
 30
0.0
 10
2915.869422403532
 20
-0.1053123286319897
 30
0.0
 10
2882.071123413695
 20
-8.753822048777713
 30
0.0
 10
2848.180596023333
 20
0.002998441349715
 30
0.0
 10
2823.171659593389
 20
24.83909652783908
 30
0.0
 10
2814.157851463257
 20
58.92684835132025
 30
0.0
 10
2822.991224521517
 20
93.03720309847406
 30
0.0
 10
2848.064383858655
 20
118.1331126416121
 30
0.0
 10
2882.067720477815
 20
126.9324520989926
 30
0.0
 10
2915.999508221581
 20
118.2433567286506
 30
0.0
 10
2941.297835715707
 20
92.57185622509569
 30
0.0
 10
2946.705169466126
 20
71.04891390507855
 30
0.0
 10
2947.056075255487
 20
59.08605721999891
 30
0.0
  0
ENDBLK
  5
70375
330
70373
100
AcDbEntity
  8
0
 62
    98
370
     0
100
AcDbBlockEnd
  0
BLOCK
  5
70377
330
70376
100
AcDbEntity
  8
0
 62
    98
370
     0
100
AcDbBlockBegin
  2
From Bspline Surface_2
 70
     0
 10
0.0
 20
0.0
 30
0.0
  3
From Bspline Surface_2
  1

  0
SPLINE
  5
6FF48
330
70376
100
AcDbEntity
  8
Level 26 (Construction)
  6
Continuous
 62
     7
370
     0
100
AcDbSpline
210
0.0
220
0.0
230
1.0
 70
     9
 71
     3
 72
    19
 73
    15
 74
     0
 42
0.000000001
 43
0.0000000001
 40
0.0
 40
0.0
 40
0.0
 40
0.0
 40
0.0833333335273589
 40
0.1666666665890565
 40
0.2500000001164153
 40
0.3333333331781129
 40
0.4166666667054718
 40
0.4999999997671694
 40
0.5833333332945282
 40
0.6666666668218872
 40
0.7499999998835847
 40
0.8333333334109434
 40
0.9166666664726411
 40
1.0
 40
1.0
 40
1.0
 40
1.0
 10
2947.056075255487
 20
59.08605721999891
 30
0.0
 10
2946.614909204278
 20
47.06869389714394
 30
0.0
 10
2941.164839072743
 20
25.28920175565966
 30
0.0
 10
2915.869422403532
 20
-0.1053123286319897
 30
0.0
 10
2882.071123413695
 20
-8.753822048777713
 30
0.0
 10
2848.180596023333
 20
0.002998441349715
 30
0.0
 10
2823.171659593389
 20
24.83909652783908
 30
0.0
 10
2814.157851463257
 20
58.92684835132025
 30
0.0
 10
2822.991224521517
 20
93.03720309847406
 30
0.0
 10
2848.064383858655
 20
118.1331126416121
 30
0.0
 10
2882.067720477815
 20
126.9324520989926
 30
0.0
 10
2915.999508221581
 20
118.2433567286506
 30
0.0
 10
2941.297835715707
 20
92.57185622509569
 30
0.0
 10
2946.705169466126
 20
71.04891390507855
 30
0.0
 10
2947.056075255487
 20
59.08605721999891
 30
0.0
  0
SPLINE
  5
701EE
330
70376
100
AcDbEntity
  8
Level 26 (Construction)
  6
Continuous
 62
     7
370
     0
100
AcDbSpline
210
0.0
220
0.0
230
1.0
 70
     9
 71
     3
 72
    19
 73
    15
 74
     0
 42
0.000000001
 43
0.0000000001
 40
0.0
 40
0.0
 40
0.0
 40
0.0
 40
0.0833333335273589
 40
0.1666666665890565
 40
0.2500000001164153
 40
0.3333333331781129
 40
0.4166666667054718
 40
0.4999999997671694
 40
0.5833333332945282
 40
0.6666666668218872
 40
0.7499999998835847
 40
0.8333333334109434
 40
0.9166666664726411
 40
1.0
 40
1.0
 40
1.0
 40
1.0
 10
2947.056075255487
 20
59.08605721999891
 30
0.0
 10
2946.614909204278
 20
47.06869389714393
 30
0.0
 10
2941.164839072743
 20
25.28920175565966
 30
0.0
 10
2915.869422403532
 20
-0.1053123286319896
 30
0.0
 10
2882.071123413695
 20
-8.753822048777713
 30
0.0
 10
2848.180596023333
 20
0.002998441349715
 30
0.0
 10
2823.171659593388
 20
24.83909652783908
 30
0.0
 10
2814.157851463257
 20
58.92684835132024
 30
0.0
 10
2822.991224521517
 20
93.03720309847404
 30
0.0
 10
2848.064383858655
 20
118.1331126416121
 30
0.0
 10
2882.067720477815
 20
126.9324520989926
 30
0.0
 10
2915.99950822158
 20
118.2433567286506
 30
0.0
 10
2941.297835715706
 20
92.57185622509569
 30
0.0
 10
2946.705169466126
 20
71.04891390507855
 30
0.0
 10
2947.056075255487
 20
59.08605721999891
 30
0.0
  0
SPLINE
  5
701EF
330
70376
100
AcDbEntity
  8
Level 26 (Construction)
  6
Continuous
 62
     7
370
     0
100
AcDbSpline
210
0.0
220
0.0
230
1.0
 70
     9
 71
     3
 72
    19
 73
    15
 74
     0
 42
0.000000001
 43
0.0000000001
 40
0.0
 40
0.0
 40
0.0
 40
0.0
 40
0.0833333335273589
 40
0.1666666665890565
 40
0.2500000001164153
 40
0.3333333331781129
 40
0.4166666667054718
 40
0.4999999997671694
 40
0.5833333332945282
 40
0.6666666668218872
 40
0.7499999998835847
 40
0.8333333334109434
 40
0.9166666664726411
 40
1.0
 40
1.0
 40
1.0
 40
1.0
 10
2947.056075255487
 20
59.08605721999891
 30
0.0
 10
2946.614909204278
 20
47.06869389714394
 30
0.0
 10
2941.164839072743
 20
25.28920175565966
 30
0.0
 10
2915.869422403532
 20
-0.1053123286319897
 30
0.0
 10
2882.071123413695
 20
-8.753822048777713
 30
0.0
 10
2848.180596023333
 20
0.002998441349715
 30
0.0
 10
2823.171659593389
 20
24.83909652783908
 30
0.0
 10
2814.157851463257
 20
58.92684835132025
 30
0.0
 10
2822.991224521517
 20
93.03720309847406
 30
0.0
 10
2848.064383858655
 20
118.1331126416121
 30
0.0
 10
2882.067720477815
 20
126.9324520989926
 30
0.0
 10
2915.999508221581
 20
118.2433567286506
 30
0.0
 10
2941.297835715707
 20
92.57185622509569
 30
0.0
 10
2946.705169466126
 20
71.04891390507855
 30
0.0
 10
2947.056075255487
 20
59.08605721999891
 30
0.0
  0
SPLINE
  5
701F0
330
70376
100
AcDbEntity
  8
Level 26 (Construction)
  6
Continuous
 62
     7
370
     0
100
AcDbSpline
210
0.0
220
0.0
230
1.0
 70
     9
 71
     3
 72
    19
 73
    15
 74
     0
 42
0.000000001
 43
0.0000000001
 40
0.0
 40
0.0
 40
0.0
 40
0.0
 40
0.0833333335273589
 40
0.1666666665890565
 40
0.2500000001164153
 40
0.3333333331781129
 40
0.4166666667054718
 40
0.4999999997671694
 40
0.5833333332945282
 40
0.6666666668218872
 40
0.7499999998835847
 40
0.8333333334109434
 40
0.9166666664726411
 40
1.0
 40
1.0
 40
1.0
 40
1.0
 10
2947.056075255487
 20
59.08605721999891
 30
0.0
 10
2946.614909204278
 20
47.06869389714394
 30
0.0
 10
2941.164839072743
 20
25.28920175565966
 30
0.0
 10
2915.869422403532
 20
-0.1053123286319897
 30
0.0
 10
2882.071123413695
 20
-8.753822048777713
 30
0.0
 10
2848.180596023333
 20
0.002998441349715
 30
0.0
 10
2823.171659593389
 20
24.83909652783908
 30
0.0
 10
2814.157851463257
 20
58.92684835132025
 30
0.0
 10
2822.991224521517
 20
93.03720309847406
 30
0.0
 10
2848.064383858655
 20
118.1331126416121
 30
0.0
 10
2882.067720477815
 20
126.9324520989926
 30
0.0
 10
2915.999508221581
 20
118.2433567286506
 30
0.0
 10
2941.297835715707
 20
92.57185622509569
 30
0.0
 10
2946.705169466126
 20
71.04891390507855
 30
0.0
 10
2947.056075255487
 20
59.08605721999891
 30
0.0
  0
SPLINE
  5
701F1
330
70376
100
AcDbEntity
  8
Level 26 (Construction)
  6
Continuous
 62
     7
370
     0
100
AcDbSpline
210
0.0
220
0.0
230
1.0
 70
     9
 71
     3
 72
    19
 73
    15
 74
     0
 42
0.000000001
 43
0.0000000001
 40
0.0
 40
0.0
 40
0.0
 40
0.0
 40
0.0833333335273589
 40
0.1666666665890565
 40
0.2500000001164153
 40
0.3333333331781129
 40
0.4166666667054718
 40
0.4999999997671694
 40
0.5833333332945282
 40
0.6666666668218872
 40
0.7499999998835847
 40
0.8333333334109434
 40
0.9166666664726411
 40
1.0
 40
1.0
 40
1.0
 40
1.0
 10
2947.056075255487
 20
59.08605721999891
 30
0.0
 10
2946.614909204278
 20
47.06869389714394
 30
0.0
 10
2941.164839072743
 20
25.28920175565966
 30
0.0
 10
2915.869422403532
 20
-0.1053123286319897
 30
0.0
 10
2882.071123413695
 20
-8.753822048777713
 30
0.0
 10
2848.180596023333
 20
0.002998441349715
 30
0.0
 10
2823.171659593389
 20
24.83909652783908
 30
0.0
 10
2814.157851463257
 20
58.92684835132025
 30
0.0
 10
2822.991224521517
 20
93.03720309847406
 30
0.0
 10
2848.064383858655
 20
118.1331126416121
 30
0.0
 10
2882.067720477815
 20
126.9324520989926
 30
0.0
 10
2915.999508221581
 20
118.2433567286506
 30
0.0
 10
2941.297835715707
 20
92.57185622509569
 30
0.0
 10
2946.705169466126
 20
71.04891390507855
 30
0.0
 10
2947.056075255487
 20
59.08605721999891
 30
0.0
  0
SPLINE
  5
701F2
330
70376
100
AcDbEntity
  8
Level 26 (Construction)
  6
Continuous
 62
     7
370
     0
100
AcDbSpline
210
0.0
220
0.0
230
1.0
 70
     9
 71
     3
 72
    19
 73
    15
 74
     0
 42
0.000000001
 43
0.0000000001
 40
0.0
 40
0.0
 40
0.0
 40
0.0
 40
0.0833333335273589
 40
0.1666666665890565
 40
0.2500000001164153
 40
0.3333333331781129
 40
0.4166666667054718
 40
0.4999999997671694
 40
0.5833333332945282
 40
0.6666666668218872
 40
0.7499999998835847
 40
0.8333333334109434
 40
0.9166666664726411
 40
1.0
 40
1.0
 40
1.0
 40
1.0
 10
2947.056075255487
 20
59.08605721999891
 30
0.0
 10
2946.614909204278
 20
47.06869389714394
 30
0.0
 10
2941.164839072743
 20
25.28920175565966
 30
0.0
 10
2915.869422403532
 20
-0.1053123286319897
 30
0.0
 10
2882.071123413695
 20
-8.753822048777713
 30
0.0
 10
2848.180596023333
 20
0.002998441349715
 30
0.0
 10
2823.171659593389
 20
24.83909652783908
 30
0.0
 10
2814.157851463257
 20
58.92684835132025
 30
0.0
 10
2822.991224521517
 20
93.03720309847406
 30
0.0
 10
2848.064383858655
 20
118.1331126416121
 30
0.0
 10
2882.067720477815
 20
126.9324520989926
 30
0.0
 10
2915.999508221581
 20
118.2433567286506
 30
0.0
 10
2941.297835715707
 20
92.57185622509569
 30
0.0
 10
2946.705169466126
 20
71.04891390507855
 30
0.0
 10
2947.056075255487
 20
59.08605721999891
 30
0.0
  0
SPLINE
  5
701F3
330
70376
100
AcDbEntity
  8
Level 26 (Construction)
  6
Continuous
 62
     7
370
     0
100
AcDbSpline
210
0.0
220
0.0
230
1.0
 70
     9
 71
     3
 72
    19
 73
    15
 74
     0
 42
0.000000001
 43
0.0000000001
 40
0.0
 40
0.0
 40
0.0
 40
0.0
 40
0.0833333335273589
 40
0.1666666665890565
 40
0.2500000001164153
 40
0.3333333331781129
 40
0.4166666667054718
 40
0.4999999997671694
 40
0.5833333332945282
 40
0.6666666668218872
 40
0.7499999998835847
 40
0.8333333334109434
 40
0.9166666664726411
 40
1.0
 40
1.0
 40
1.0
 40
1.0
 10
2947.056075255487
 20
59.08605721999891
 30
0.0
 10
2946.614909204278
 20
47.06869389714394
 30
0.0
 10
2941.164839072743
 20
25.28920175565966
 30
0.0
 10
2915.869422403532
 20
-0.1053123286319897
 30
0.0
 10
2882.071123413695
 20
-8.753822048777713
 30
0.0
 10
2848.180596023333
 20
0.002998441349715
 30
0.0
 10
2823.171659593389
 20
24.83909652783908
 30
0.0
 10
2814.157851463257
 20
58.92684835132025
 30
0.0
 10
2822.991224521517
 20
93.03720309847406
 30
0.0
 10
2848.064383858655
 20
118.1331126416121
 30
0.0
 10
2882.067720477815
 20
126.9324520989926
 30
0.0
 10
2915.999508221581
 20
118.2433567286506
 30
0.0
 10
2941.297835715707
 20
92.57185622509569
 30
0.0
 10
2946.705169466126
 20
71.04891390507855
 30
0.0
 10
2947.056075255487
 20
59.08605721999891
 30
0.0
  0
SPLINE
  5
701F4
330
70376
100
AcDbEntity
  8
Level 26 (Construction)
  6
Continuous
 62
     7
370
     0
100
AcDbSpline
210
0.0
220
0.0
230
1.0
 70
     9
 71
     3
 72
    19
 73
    15
 74
     0
 42
0.000000001
 43
0.0000000001
 40
0.0
 40
0.0
 40
0.0
 40
0.0
 40
0.0833333335273589
 40
0.1666666665890565
 40
0.2500000001164153
 40
0.3333333331781129
 40
0.4166666667054718
 40
0.4999999997671694
 40
0.5833333332945282
 40
0.6666666668218872
 40
0.7499999998835847
 40
0.8333333334109434
 40
0.9166666664726411
 40
1.0
 40
1.0
 40
1.0
 40
1.0
 10
2947.056075255487
 20
59.08605721999891
 30
0.0
 10
2946.614909204278
 20
47.06869389714394
 30
0.0
 10
2941.164839072743
 20
25.28920175565966
 30
0.0
 10
2915.869422403532
 20
-0.1053123286319897
 30
0.0
 10
2882.071123413695
 20
-8.753822048777713
 30
0.0
 10
2848.180596023333
 20
0.002998441349715
 30
0.0
 10
2823.171659593389
 20
24.83909652783908
 30
0.0
 10
2814.157851463257
 20
58.92684835132025
 30
0.0
 10
2822.991224521517
 20
93.03720309847406
 30
0.0
 10
2848.064383858655
 20
118.1331126416121
 30
0.0
 10
2882.067720477815
 20
126.9324520989926
 30
0.0
 10
2915.999508221581
 20
118.2433567286506
 30
0.0
 10
2941.297835715707
 20
92.57185622509569
 30
0.0
 10
2946.705169466126
 20
71.04891390507855
 30
0.0
 10
2947.056075255487
 20
59.08605721999891
 30
0.0
  0
SPLINE
  5
701F5
330
70376
100
AcDbEntity
  8
Level 26 (Construction)
  6
Continuous
 62
     7
370
     0
100
AcDbSpline
210
0.0
220
0.0
230
1.0
 70
     9
 71
     3
 72
    19
 73
    15
 74
     0
 42
0.000000001
 43
0.0000000001
 40
0.0
 40
0.0
 40
0.0
 40
0.0
 40
0.0833333335273589
 40
0.1666666665890565
 40
0.2500000001164153
 40
0.3333333331781129
 40
0.4166666667054718
 40
0.4999999997671694
 40
0.5833333332945282
 40
0.6666666668218872
 40
0.7499999998835847
 40
0.8333333334109434
 40
0.9166666664726411
 40
1.0
 40
1.0
 40
1.0
 40
1.0
 10
2947.056075255487
 20
59.08605721999891
 30
0.0
 10
2946.614909204278
 20
47.06869389714394
 30
0.0
 10
2941.164839072743
 20
25.28920175565966
 30
0.0
 10
2915.869422403532
 20
-0.1053123286319897
 30
0.0
 10
2882.071123413695
 20
-8.753822048777713
 30
0.0
 10
2848.180596023333
 20
0.002998441349715
 30
0.0
 10
2823.171659593389
 20
24.83909652783908
 30
0.0
 10
2814.157851463257
 20
58.92684835132025
 30
0.0
 10
2822.991224521517
 20
93.03720309847406
 30
0.0
 10
2848.064383858655
 20
118.1331126416121
 30
0.0
 10
2882.067720477815
 20
126.9324520989926
 30
0.0
 10
2915.999508221581
 20
118.2433567286506
 30
0.0
 10
2941.297835715707
 20
92.57185622509569
 30
0.0
 10
2946.705169466126
 20
71.04891390507855
 30
0.0
 10
2947.056075255487
 20
59.08605721999891
 30
0.0
  0
SPLINE
  5
701F6
330
70376
100
AcDbEntity
  8
Level 26 (Construction)
  6
Continuous
 62
     7
370
     0
100
AcDbSpline
210
0.0
220
0.0
230
1.0
 70
     9
 71
     3
 72
    19
 73
    15
 74
     0
 42
0.000000001
 43
0.0000000001
 40
0.0
 40
0.0
 40
0.0
 40
0.0
 40
0.0833333335273589
 40
0.1666666665890565
 40
0.2500000001164153
 40
0.3333333331781129
 40
0.4166666667054718
 40
0.4999999997671694
 40
0.5833333332945282
 40
0.6666666668218872
 40
0.7499999998835847
 40
0.8333333334109434
 40
0.9166666664726411
 40
1.0
 40
1.0
 40
1.0
 40
1.0
 10
2947.056075255487
 20
59.08605721999891
 30
0.0
 10
2946.614909204278
 20
47.06869389714394
 30
0.0
 10
2941.164839072743
 20
25.28920175565966
 30
0.0
 10
2915.869422403532
 20
-0.1053123286319897
 30
0.0
 10
2882.071123413695
 20
-8.753822048777713
 30
0.0
 10
2848.180596023333
 20
0.002998441349715
 30
0.0
 10
2823.171659593389
 20
24.83909652783908
 30
0.0
 10
2814.157851463257
 20
58.92684835132025
 30
0.0
 10
2822.991224521517
 20
93.03720309847406
 30
0.0
 10
2848.064383858655
 20
118.1331126416121
 30
0.0
 10
2882.067720477815
 20
126.9324520989926
 30
0.0
 10
2915.999508221581
 20
118.2433567286506
 30
0.0
 10
2941.297835715707
 20
92.57185622509569
 30
0.0
 10
2946.705169466126
 20
71.04891390507855
 30
0.0
 10
2947.056075255487
 20
59.08605721999891
 30
0.0
  0
ENDBLK
  5
70378
330
70376
100
AcDbEntity
  8
0
 62
    98
370
     0
100
AcDbBlockEnd
  0
BLOCK
  5
7037A
330
70379
100
AcDbEntity
  8
0
 62
    98
370
     0
100
AcDbBlockBegin
  2
From Bspline Surface_3
 70
     0
 10
0.0
 20
0.0
 30
0.0
  3
From Bspline Surface_3
  1

  0
SPLINE
  5
6FF59
330
70379
100
AcDbEntity
  8
Level 26 (Construction)
  6
Continuous
 62
     7
370
     0
100
AcDbSpline
210
0.0
220
0.0
230
1.0
 70
     9
 71
     3
 72
    19
 73
    15
 74
     0
 42
0.000000001
 43
0.0000000001
 40
0.0
 40
0.0
 40
0.0
 40
0.0
 40
0.0833333335273589
 40
0.1666666665890565
 40
0.2500000001164153
 40
0.3333333331781129
 40
0.4166666667054718
 40
0.4999999997671694
 40
0.5833333332945282
 40
0.6666666668218872
 40
0.7499999998835847
 40
0.8333333334109434
 40
0.9166666664726411
 40
1.0
 40
1.0
 40
1.0
 40
1.0
 10
2947.056075255487
 20
59.08605721999891
 30
0.0
 10
2946.614909204278
 20
47.06869389714394
 30
0.0
 10
2941.164839072743
 20
25.28920175565966
 30
0.0
 10
2915.869422403532
 20
-0.1053123286319897
 30
0.0
 10
2882.071123413695
 20
-8.753822048777713
 30
0.0
 10
2848.180596023333
 20
0.002998441349715
 30
0.0
 10
2823.171659593389
 20
24.83909652783908
 30
0.0
 10
2814.157851463257
 20
58.92684835132025
 30
0.0
 10
2822.991224521517
 20
93.03720309847406
 30
0.0
 10
2848.064383858655
 20
118.1331126416121
 30
0.0
 10
2882.067720477815
 20
126.9324520989926
 30
0.0
 10
2915.999508221581
 20
118.2433567286506
 30
0.0
 10
2941.297835715707
 20
92.57185622509569
 30
0.0
 10
2946.705169466126
 20
71.04891390507855
 30
0.0
 10
2947.056075255487
 20
59.08605721999891
 30
0.0
  0
SPLINE
  5
70201
330
70379
100
AcDbEntity
  8
Level 26 (Construction)
  6
Continuous
 62
     7
370
     0
100
AcDbSpline
210
0.0
220
0.0
230
1.0
 70
     9
 71
     3
 72
    19
 73
    15
 74
     0
 42
0.000000001
 43
0.0000000001
 40
0.0
 40
0.0
 40
0.0
 40
0.0
 40
0.0833333335273589
 40
0.1666666665890565
 40
0.2500000001164153
 40
0.3333333331781129
 40
0.4166666667054718
 40
0.4999999997671694
 40
0.5833333332945282
 40
0.6666666668218872
 40
0.7499999998835847
 40
0.8333333334109434
 40
0.9166666664726411
 40
1.0
 40
1.0
 40
1.0
 40
1.0
 10
2947.056075255487
 20
59.08605721999891
 30
0.0
 10
2946.614909204278
 20
47.06869389714393
 30
0.0
 10
2941.164839072743
 20
25.28920175565966
 30
0.0
 10
2915.869422403532
 20
-0.1053123286319896
 30
0.0
 10
2882.071123413695
 20
-8.753822048777713
 30
0.0
 10
2848.180596023333
 20
0.002998441349715
 30
0.0
 10
2823.171659593388
 20
24.83909652783908
 30
0.0
 10
2814.157851463257
 20
58.92684835132024
 30
0.0
 10
2822.991224521517
 20
93.03720309847404
 30
0.0
 10
2848.064383858655
 20
118.1331126416121
 30
0.0
 10
2882.067720477815
 20
126.9324520989926
 30
0.0
 10
2915.99950822158
 20
118.2433567286506
 30
0.0
 10
2941.297835715706
 20
92.57185622509569
 30
0.0
 10
2946.705169466126
 20
71.04891390507855
 30
0.0
 10
2947.056075255487
 20
59.08605721999891
 30
0.0
  0
SPLINE
  5
70202
330
70379
100
AcDbEntity
  8
Level 26 (Construction)
  6
Continuous
 62
     7
370
     0
100
AcDbSpline
210
0.0
220
0.0
230
1.0
 70
     9
 71
     3
 72
    19
 73
    15
 74
     0
 42
0.000000001
 43
0.0000000001
 40
0.0
 40
0.0
 40
0.0
 40
0.0
 40
0.0833333335273589
 40
0.1666666665890565
 40
0.2500000001164153
 40
0.3333333331781129
 40
0.4166666667054718
 40
0.4999999997671694
 40
0.5833333332945282
 40
0.6666666668218872
 40
0.7499999998835847
 40
0.8333333334109434
 40
0.9166666664726411
 40
1.0
 40
1.0
 40
1.0
 40
1.0
 10
2947.056075255487
 20
59.08605721999891
 30
0.0
 10
2946.614909204278
 20
47.06869389714394
 30
0.0
 10
2941.164839072743
 20
25.28920175565966
 30
0.0
 10
2915.869422403532
 20
-0.1053123286319897
 30
0.0
 10
2882.071123413695
 20
-8.753822048777713
 30
0.0
 10
2848.180596023333
 20
0.002998441349715
 30
0.0
 10
2823.171659593389
 20
24.83909652783908
 30
0.0
 10
2814.157851463257
 20
58.92684835132025
 30
0.0
 10
2822.991224521517
 20
93.03720309847406
 30
0.0
 10
2848.064383858655
 20
118.1331126416121
 30
0.0
 10
2882.067720477815
 20
126.9324520989926
 30
0.0
 10
2915.999508221581
 20
118.2433567286506
 30
0.0
 10
2941.297835715707
 20
92.57185622509569
 30
0.0
 10
2946.705169466126
 20
71.04891390507855
 30
0.0
 10
2947.056075255487
 20
59.08605721999891
 30
0.0
  0
SPLINE
  5
70203
330
70379
100
AcDbEntity
  8
Level 26 (Construction)
  6
Continuous
 62
     7
370
     0
100
AcDbSpline
210
0.0
220
0.0
230
1.0
 70
     9
 71
     3
 72
    19
 73
    15
 74
     0
 42
0.000000001
 43
0.0000000001
 40
0.0
 40
0.0
 40
0.0
 40
0.0
 40
0.0833333335273589
 40
0.1666666665890565
 40
0.2500000001164153
 40
0.3333333331781129
 40
0.4166666667054718
 40
0.4999999997671694
 40
0.5833333332945282
 40
0.6666666668218872
 40
0.7499999998835847
 40
0.8333333334109434
 40
0.9166666664726411
 40
1.0
 40
1.0
 40
1.0
 40
1.0
 10
2947.056075255487
 20
59.08605721999891
 30
0.0
 10
2946.614909204278
 20
47.06869389714394
 30
0.0
 10
2941.164839072743
 20
25.28920175565966
 30
0.0
 10
2915.869422403532
 20
-0.1053123286319897
 30
0.0
 10
2882.071123413695
 20
-8.753822048777713
 30
0.0
 10
2848.180596023333
 20
0.002998441349715
 30
0.0
 10
2823.171659593389
 20
24.83909652783908
 30
0.0
 10
2814.157851463257
 20
58.92684835132025
 30
0.0
 10
2822.991224521517
 20
93.03720309847406
 30
0.0
 10
2848.064383858655
 20
118.1331126416121
 30
0.0
 10
2882.067720477815
 20
126.9324520989926
 30
0.0
 10
2915.999508221581
 20
118.2433567286506
 30
0.0
 10
2941.297835715707
 20
92.57185622509569
 30
0.0
 10
2946.705169466126
 20
71.04891390507855
 30
0.0
 10
2947.056075255487
 20
59.08605721999891
 30
0.0
  0
SPLINE
  5
70204
330
70379
100
AcDbEntity
  8
Level 26 (Construction)
  6
Continuous
 62
     7
370
     0
100
AcDbSpline
210
0.0
220
0.0
230
1.0
 70
     9
 71
     3
 72
    19
 73
    15
 74
     0
 42
0.000000001
 43
0.0000000001
 40
0.0
 40
0.0
 40
0.0
 40
0.0
 40
0.0833333335273589
 40
0.1666666665890565
 40
0.2500000001164153
 40
0.3333333331781129
 40
0.4166666667054718
 40
0.4999999997671694
 40
0.5833333332945282
 40
0.6666666668218872
 40
0.7499999998835847
 40
0.8333333334109434
 40
0.9166666664726411
 40
1.0
 40
1.0
 40
1.0
 40
1.0
 10
2947.056075255487
 20
59.08605721999891
 30
0.0
 10
2946.614909204278
 20
47.06869389714394
 30
0.0
 10
2941.164839072743
 20
25.28920175565966
 30
0.0
 10
2915.869422403532
 20
-0.1053123286319897
 30
0.0
 10
2882.071123413695
 20
-8.753822048777713
 30
0.0
 10
2848.180596023333
 20
0.002998441349715
 30
0.0
 10
2823.171659593389
 20
24.83909652783908
 30
0.0
 10
2814.157851463257
 20
58.92684835132025
 30
0.0
 10
2822.991224521517
 20
93.03720309847406
 30
0.0
 10
2848.064383858655
 20
118.1331126416121
 30
0.0
 10
2882.067720477815
 20
126.9324520989926
 30
0.0
 10
2915.999508221581
 20
118.2433567286506
 30
0.0
 10
2941.297835715707
 20
92.57185622509569
 30
0.0
 10
2946.705169466126
 20
71.04891390507855
 30
0.0
 10
2947.056075255487
 20
59.08605721999891
 30
0.0
  0
SPLINE
  5
70205
330
70379
100
AcDbEntity
  8
Level 26 (Construction)
  6
Continuous
 62
     7
370
     0
100
AcDbSpline
210
0.0
220
0.0
230
1.0
 70
     9
 71
     3
 72
    19
 73
    15
 74
     0
 42
0.000000001
 43
0.0000000001
 40
0.0
 40
0.0
 40
0.0
 40
0.0
 40
0.0833333335273589
 40
0.1666666665890565
 40
0.2500000001164153
 40
0.3333333331781129
 40
0.4166666667054718
 40
0.4999999997671694
 40
0.5833333332945282
 40
0.6666666668218872
 40
0.7499999998835847
 40
0.8333333334109434
 40
0.9166666664726411
 40
1.0
 40
1.0
 40
1.0
 40
1.0
 10
2947.056075255487
 20
59.08605721999891
 30
0.0
 10
2946.614909204278
 20
47.06869389714394
 30
0.0
 10
2941.164839072743
 20
25.28920175565966
 30
0.0
 10
2915.869422403532
 20
-0.1053123286319897
 30
0.0
 10
2882.071123413695
 20
-8.753822048777713
 30
0.0
 10
2848.180596023333
 20
0.002998441349715
 30
0.0
 10
2823.171659593389
 20
24.83909652783908
 30
0.0
 10
2814.157851463257
 20
58.92684835132025
 30
0.0
 10
2822.991224521517
 20
93.03720309847406
 30
0.0
 10
2848.064383858655
 20
118.1331126416121
 30
0.0
 10
2882.067720477815
 20
126.9324520989926
 30
0.0
 10
2915.999508221581
 20
118.2433567286506
 30
0.0
 10
2941.297835715707
 20
92.57185622509569
 30
0.0
 10
2946.705169466126
 20
71.04891390507855
 30
0.0
 10
2947.056075255487
 20
59.08605721999891
 30
0.0
  0
SPLINE
  5
70206
330
70379
100
AcDbEntity
  8
Level 26 (Construction)
  6
Continuous
 62
     7
370
     0
100
AcDbSpline
210
0.0
220
0.0
230
1.0
 70
     9
 71
     3
 72
    19
 73
    15
 74
     0
 42
0.000000001
 43
0.0000000001
 40
0.0
 40
0.0
 40
0.0
 40
0.0
 40
0.0833333335273589
 40
0.1666666665890565
 40
0.2500000001164153
 40
0.3333333331781129
 40
0.4166666667054718
 40
0.4999999997671694
 40
0.5833333332945282
 40
0.6666666668218872
 40
0.7499999998835847
 40
0.8333333334109434
 40
0.9166666664726411
 40
1.0
 40
1.0
 40
1.0
 40
1.0
 10
2947.056075255487
 20
59.08605721999891
 30
0.0
 10
2946.614909204278
 20
47.06869389714394
 30
0.0
 10
2941.164839072743
 20
25.28920175565966
 30
0.0
 10
2915.869422403532
 20
-0.1053123286319897
 30
0.0
 10
2882.071123413695
 20
-8.753822048777713
 30
0.0
 10
2848.180596023333
 20
0.002998441349715
 30
0.0
 10
2823.171659593389
 20
24.83909652783908
 30
0.0
 10
2814.157851463257
 20
58.92684835132025
 30
0.0
 10
2822.991224521517
 20
93.03720309847406
 30
0.0
 10
2848.064383858655
 20
118.1331126416121
 30
0.0
 10
2882.067720477815
 20
126.9324520989926
 30
0.0
 10
2915.999508221581
 20
118.2433567286506
 30
0.0
 10
2941.297835715707
 20
92.57185622509569
 30
0.0
 10
2946.705169466126
 20
71.04891390507855
 30
0.0
 10
2947.056075255487
 20
59.08605721999891
 30
0.0
  0
SPLINE
  5
70207
330
70379
100
AcDbEntity
  8
Level 26 (Construction)
  6
Continuous
 62
     7
370
     0
100
AcDbSpline
210
0.0
220
0.0
230
1.0
 70
     9
 71
     3
 72
    19
 73
    15
 74
     0
 42
0.000000001
 43
0.0000000001
 40
0.0
 40
0.0
 40
0.0
 40
0.0
 40
0.0833333335273589
 40
0.1666666665890565
 40
0.2500000001164153
 40
0.3333333331781129
 40
0.4166666667054718
 40
0.4999999997671694
 40
0.5833333332945282
 40
0.6666666668218872
 40
0.7499999998835847
 40
0.8333333334109434
 40
0.9166666664726411
 40
1.0
 40
1.0
 40
1.0
 40
1.0
 10
2947.056075255487
 20
59.08605721999891
 30
0.0
 10
2946.614909204278
 20
47.06869389714394
 30
0.0
 10
2941.164839072743
 20
25.28920175565966
 30
0.0
 10
2915.869422403532
 20
-0.1053123286319897
 30
0.0
 10
2882.071123413695
 20
-8.753822048777713
 30
0.0
 10
2848.180596023333
 20
0.002998441349715
 30
0.0
 10
2823.171659593389
 20
24.83909652783908
 30
0.0
 10
2814.157851463257
 20
58.92684835132025
 30
0.0
 10
2822.991224521517
 20
93.03720309847406
 30
0.0
 10
2848.064383858655
 20
118.1331126416121
 30
0.0
 10
2882.067720477815
 20
126.9324520989926
 30
0.0
 10
2915.999508221581
 20
118.2433567286506
 30
0.0
 10
2941.297835715707
 20
92.57185622509569
 30
0.0
 10
2946.705169466126
 20
71.04891390507855
 30
0.0
 10
2947.056075255487
 20
59.08605721999891
 30
0.0
  0
SPLINE
  5
70208
330
70379
100
AcDbEntity
  8
Level 26 (Construction)
  6
Continuous
 62
     7
370
     0
100
AcDbSpline
210
0.0
220
0.0
230
1.0
 70
     9
 71
     3
 72
    19
 73
    15
 74
     0
 42
0.000000001
 43
0.0000000001
 40
0.0
 40
0.0
 40
0.0
 40
0.0
 40
0.0833333335273589
 40
0.1666666665890565
 40
0.2500000001164153
 40
0.3333333331781129
 40
0.4166666667054718
 40
0.4999999997671694
 40
0.5833333332945282
 40
0.6666666668218872
 40
0.7499999998835847
 40
0.8333333334109434
 40
0.9166666664726411
 40
1.0
 40
1.0
 40
1.0
 40
1.0
 10
2947.056075255487
 20
59.08605721999891
 30
0.0
 10
2946.614909204278
 20
47.06869389714394
 30
0.0
 10
2941.164839072743
 20
25.28920175565966
 30
0.0
 10
2915.869422403532
 20
-0.1053123286319897
 30
0.0
 10
2882.071123413695
 20
-8.753822048777713
 30
0.0
 10
2848.180596023333
 20
0.002998441349715
 30
0.0
 10
2823.171659593389
 20
24.83909652783908
 30
0.0
 10
2814.157851463257
 20
58.92684835132025
 30
0.0
 10
2822.991224521517
 20
93.03720309847406
 30
0.0
 10
2848.064383858655
 20
118.1331126416121
 30
0.0
 10
2882.067720477815
 20
126.9324520989926
 30
0.0
 10
2915.999508221581
 20
118.2433567286506
 30
0.0
 10
2941.297835715707
 20
92.57185622509569
 30
0.0
 10
2946.705169466126
 20
71.04891390507855
 30
0.0
 10
2947.056075255487
 20
59.08605721999891
 30
0.0
  0
SPLINE
  5
70209
330
70379
100
AcDbEntity
  8
Level 26 (Construction)
  6
Continuous
 62
     7
370
     0
100
AcDbSpline
210
0.0
220
0.0
230
1.0
 70
     9
 71
     3
 72
    19
 73
    15
 74
     0
 42
0.000000001
 43
0.0000000001
 40
0.0
 40
0.0
 40
0.0
 40
0.0
 40
0.0833333335273589
 40
0.1666666665890565
 40
0.2500000001164153
 40
0.3333333331781129
 40
0.4166666667054718
 40
0.4999999997671694
 40
0.5833333332945282
 40
0.6666666668218872
 40
0.7499999998835847
 40
0.8333333334109434
 40
0.9166666664726411
 40
1.0
 40
1.0
 40
1.0
 40
1.0
 10
2947.056075255487
 20
59.08605721999891
 30
0.0
 10
2946.614909204278
 20
47.06869389714394
 30
0.0
 10
2941.164839072743
 20
25.28920175565966
 30
0.0
 10
2915.869422403532
 20
-0.1053123286319897
 30
0.0
 10
2882.071123413695
 20
-8.753822048777713
 30
0.0
 10
2848.180596023333
 20
0.002998441349715
 30
0.0
 10
2823.171659593389
 20
24.83909652783908
 30
0.0
 10
2814.157851463257
 20
58.92684835132025
 30
0.0
 10
2822.991224521517
 20
93.03720309847406
 30
0.0
 10
2848.064383858655
 20
118.1331126416121
 30
0.0
 10
2882.067720477815
 20
126.9324520989926
 30
0.0
 10
2915.999508221581
 20
118.2433567286506
 30
0.0
 10
2941.297835715707
 20
92.57185622509569
 30
0.0
 10
2946.705169466126
 20
71.04891390507855
 30
0.0
 10
2947.056075255487
 20
59.08605721999891
 30
0.0
  0
ENDBLK
  5
7037B
330
70379
100
AcDbEntity
  8
0
 62
    98
370
     0
100
AcDbBlockEnd
  0
BLOCK
  5
7037D
330
7037C
100
AcDbEntity
  8
0
 62
    98
370
     0
100
AcDbBlockBegin
  2
From Bspline Surface_4
 70
     0
 10
0.0
 20
0.0
 30
0.0
  3
From Bspline Surface_4
  1

  0
SPLINE
  5
6FF6A
330
7037C
100
AcDbEntity
  8
Level 26 (Construction)
  6
Continuous
 62
     7
370
     0
100
AcDbSpline
210
0.0
220
0.0
230
1.0
 70
     9
 71
     3
 72
    19
 73
    15
 74
     0
 42
0.000000001
 43
0.0000000001
 40
0.0
 40
0.0
 40
0.0
 40
0.0
 40
0.0833333335273589
 40
0.1666666665890565
 40
0.2500000001164153
 40
0.3333333331781129
 40
0.4166666667054718
 40
0.4999999997671694
 40
0.5833333332945282
 40
0.6666666668218872
 40
0.7499999998835847
 40
0.8333333334109434
 40
0.9166666664726411
 40
1.0
 40
1.0
 40
1.0
 40
1.0
 10
2947.056075255487
 20
59.08605721999891
 30
0.0
 10
2946.614909204278
 20
47.06869389714394
 30
0.0
 10
2941.164839072743
 20
25.28920175565966
 30
0.0
 10
2915.869422403532
 20
-0.1053123286319897
 30
0.0
 10
2882.071123413695
 20
-8.753822048777713
 30
0.0
 10
2848.180596023333
 20
0.002998441349715
 30
0.0
 10
2823.171659593389
 20
24.83909652783908
 30
0.0
 10
2814.157851463257
 20
58.92684835132025
 30
0.0
 10
2822.991224521517
 20
93.03720309847406
 30
0.0
 10
2848.064383858655
 20
118.1331126416121
 30
0.0
 10
2882.067720477815
 20
126.9324520989926
 30
0.0
 10
2915.999508221581
 20
118.2433567286506
 30
0.0
 10
2941.297835715707
 20
92.57185622509569
 30
0.0
 10
2946.705169466126
 20
71.04891390507855
 30
0.0
 10
2947.056075255487
 20
59.08605721999891
 30
0.0
  0
SPLINE
  5
70214
330
7037C
100
AcDbEntity
  8
Level 26 (Construction)
  6
Continuous
 62
     7
370
     0
100
AcDbSpline
210
0.0
220
0.0
230
1.0
 70
     9
 71
     3
 72
    19
 73
    15
 74
     0
 42
0.000000001
 43
0.0000000001
 40
0.0
 40
0.0
 40
0.0
 40
0.0
 40
0.0833333335273589
 40
0.1666666665890565
 40
0.2500000001164153
 40
0.3333333331781129
 40
0.4166666667054718
 40
0.4999999997671694
 40
0.5833333332945282
 40
0.6666666668218872
 40
0.7499999998835847
 40
0.8333333334109434
 40
0.9166666664726411
 40
1.0
 40
1.0
 40
1.0
 40
1.0
 10
2947.056075255487
 20
59.08605721999891
 30
0.0
 10
2946.614909204278
 20
47.06869389714393
 30
0.0
 10
2941.164839072743
 20
25.28920175565966
 30
0.0
 10
2915.869422403532
 20
-0.1053123286319896
 30
0.0
 10
2882.071123413695
 20
-8.753822048777713
 30
0.0
 10
2848.180596023333
 20
0.002998441349715
 30
0.0
 10
2823.171659593388
 20
24.83909652783908
 30
0.0
 10
2814.157851463257
 20
58.92684835132024
 30
0.0
 10
2822.991224521517
 20
93.03720309847404
 30
0.0
 10
2848.064383858655
 20
118.1331126416121
 30
0.0
 10
2882.067720477815
 20
126.9324520989926
 30
0.0
 10
2915.99950822158
 20
118.2433567286506
 30
0.0
 10
2941.297835715706
 20
92.57185622509569
 30
0.0
 10
2946.705169466126
 20
71.04891390507855
 30
0.0
 10
2947.056075255487
 20
59.08605721999891
 30
0.0
  0
SPLINE
  5
70215
330
7037C
100
AcDbEntity
  8
Level 26 (Construction)
  6
Continuous
 62
     7
370
     0
100
AcDbSpline
210
0.0
220
0.0
230
1.0
 70
     9
 71
     3
 72
    19
 73
    15
 74
     0
 42
0.000000001
 43
0.0000000001
 40
0.0
 40
0.0
 40
0.0
 40
0.0
 40
0.0833333335273589
 40
0.1666666665890565
 40
0.2500000001164153
 40
0.3333333331781129
 40
0.4166666667054718
 40
0.4999999997671694
 40
0.5833333332945282
 40
0.6666666668218872
 40
0.7499999998835847
 40
0.8333333334109434
 40
0.9166666664726411
 40
1.0
 40
1.0
 40
1.0
 40
1.0
 10
2947.056075255487
 20
59.08605721999891
 30
0.0
 10
2946.614909204278
 20
47.06869389714394
 30
0.0
 10
2941.164839072743
 20
25.28920175565966
 30
0.0
 10
2915.869422403532
 20
-0.1053123286319897
 30
0.0
 10
2882.071123413695
 20
-8.753822048777713
 30
0.0
 10
2848.180596023333
 20
0.002998441349715
 30
0.0
 10
2823.171659593389
 20
24.83909652783908
 30
0.0
 10
2814.157851463257
 20
58.92684835132025
 30
0.0
 10
2822.991224521517
 20
93.03720309847406
 30
0.0
 10
2848.064383858655
 20
118.1331126416121
 30
0.0
 10
2882.067720477815
 20
126.9324520989926
 30
0.0
 10
2915.999508221581
 20
118.2433567286506
 30
0.0
 10
2941.297835715707
 20
92.57185622509569
 30
0.0
 10
2946.705169466126
 20
71.04891390507855
 30
0.0
 10
2947.056075255487
 20
59.08605721999891
 30
0.0
  0
SPLINE
  5
70216
330
7037C
100
AcDbEntity
  8
Level 26 (Construction)
  6
Continuous
 62
     7
370
     0
100
AcDbSpline
210
0.0
220
0.0
230
1.0
 70
     9
 71
     3
 72
    19
 73
    15
 74
     0
 42
0.000000001
 43
0.0000000001
 40
0.0
 40
0.0
 40
0.0
 40
0.0
 40
0.0833333335273589
 40
0.1666666665890565
 40
0.2500000001164153
 40
0.3333333331781129
 40
0.4166666667054718
 40
0.4999999997671694
 40
0.5833333332945282
 40
0.6666666668218872
 40
0.7499999998835847
 40
0.8333333334109434
 40
0.9166666664726411
 40
1.0
 40
1.0
 40
1.0
 40
1.0
 10
2947.056075255487
 20
59.08605721999891
 30
0.0
 10
2946.614909204278
 20
47.06869389714394
 30
0.0
 10
2941.164839072743
 20
25.28920175565966
 30
0.0
 10
2915.869422403532
 20
-0.1053123286319897
 30
0.0
 10
2882.071123413695
 20
-8.753822048777713
 30
0.0
 10
2848.180596023333
 20
0.002998441349715
 30
0.0
 10
2823.171659593389
 20
24.83909652783908
 30
0.0
 10
2814.157851463257
 20
58.92684835132025
 30
0.0
 10
2822.991224521517
 20
93.03720309847406
 30
0.0
 10
2848.064383858655
 20
118.1331126416121
 30
0.0
 10
2882.067720477815
 20
126.9324520989926
 30
0.0
 10
2915.999508221581
 20
118.2433567286506
 30
0.0
 10
2941.297835715707
 20
92.57185622509569
 30
0.0
 10
2946.705169466126
 20
71.04891390507855
 30
0.0
 10
2947.056075255487
 20
59.08605721999891
 30
0.0
  0
SPLINE
  5
70217
330
7037C
100
AcDbEntity
  8
Level 26 (Construction)
  6
Continuous
 62
     7
370
     0
100
AcDbSpline
210
0.0
220
0.0
230
1.0
 70
     9
 71
     3
 72
    19
 73
    15
 74
     0
 42
0.000000001
 43
0.0000000001
 40
0.0
 40
0.0
 40
0.0
 40
0.0
 40
0.0833333335273589
 40
0.1666666665890565
 40
0.2500000001164153
 40
0.3333333331781129
 40
0.4166666667054718
 40
0.4999999997671694
 40
0.5833333332945282
 40
0.6666666668218872
 40
0.7499999998835847
 40
0.8333333334109434
 40
0.9166666664726411
 40
1.0
 40
1.0
 40
1.0
 40
1.0
 10
2947.056075255487
 20
59.08605721999891
 30
0.0
 10
2946.614909204278
 20
47.06869389714394
 30
0.0
 10
2941.164839072743
 20
25.28920175565966
 30
0.0
 10
2915.869422403532
 20
-0.1053123286319897
 30
0.0
 10
2882.071123413695
 20
-8.753822048777713
 30
0.0
 10
2848.180596023333
 20
0.002998441349715
 30
0.0
 10
2823.171659593389
 20
24.83909652783908
 30
0.0
 10
2814.157851463257
 20
58.92684835132025
 30
0.0
 10
2822.991224521517
 20
93.03720309847406
 30
0.0
 10
2848.064383858655
 20
118.1331126416121
 30
0.0
 10
2882.067720477815
 20
126.9324520989926
 30
0.0
 10
2915.999508221581
 20
118.2433567286506
 30
0.0
 10
2941.297835715707
 20
92.57185622509569
 30
0.0
 10
2946.705169466126
 20
71.04891390507855
 30
0.0
 10
2947.056075255487
 20
59.08605721999891
 30
0.0
  0
SPLINE
  5
70218
330
7037C
100
AcDbEntity
  8
Level 26 (Construction)
  6
Continuous
 62
     7
370
     0
100
AcDbSpline
210
0.0
220
0.0
230
1.0
 70
     9
 71
     3
 72
    19
 73
    15
 74
     0
 42
0.000000001
 43
0.0000000001
 40
0.0
 40
0.0
 40
0.0
 40
0.0
 40
0.0833333335273589
 40
0.1666666665890565
 40
0.2500000001164153
 40
0.3333333331781129
 40
0.4166666667054718
 40
0.4999999997671694
 40
0.5833333332945282
 40
0.6666666668218872
 40
0.7499999998835847
 40
0.8333333334109434
 40
0.9166666664726411
 40
1.0
 40
1.0
 40
1.0
 40
1.0
 10
2947.056075255487
 20
59.08605721999891
 30
0.0
 10
2946.614909204278
 20
47.06869389714394
 30
0.0
 10
2941.164839072743
 20
25.28920175565966
 30
0.0
 10
2915.869422403532
 20
-0.1053123286319897
 30
0.0
 10
2882.071123413695
 20
-8.753822048777713
 30
0.0
 10
2848.180596023333
 20
0.002998441349715
 30
0.0
 10
2823.171659593389
 20
24.83909652783908
 30
0.0
 10
2814.157851463257
 20
58.92684835132025
 30
0.0
 10
2822.991224521517
 20
93.03720309847406
 30
0.0
 10
2848.064383858655
 20
118.1331126416121
 30
0.0
 10
2882.067720477815
 20
126.9324520989926
 30
0.0
 10
2915.999508221581
 20
118.2433567286506
 30
0.0
 10
2941.297835715707
 20
92.57185622509569
 30
0.0
 10
2946.705169466126
 20
71.04891390507855
 30
0.0
 10
2947.056075255487
 20
59.08605721999891
 30
0.0
  0
SPLINE
  5
70219
330
7037C
100
AcDbEntity
  8
Level 26 (Construction)
  6
Continuous
 62
     7
370
     0
100
AcDbSpline
210
0.0
220
0.0
230
1.0
 70
     9
 71
     3
 72
    19
 73
    15
 74
     0
 42
0.000000001
 43
0.0000000001
 40
0.0
 40
0.0
 40
0.0
 40
0.0
 40
0.0833333335273589
 40
0.1666666665890565
 40
0.2500000001164153
 40
0.3333333331781129
 40
0.4166666667054718
 40
0.4999999997671694
 40
0.5833333332945282
 40
0.6666666668218872
 40
0.7499999998835847
 40
0.8333333334109434
 40
0.9166666664726411
 40
1.0
 40
1.0
 40
1.0
 40
1.0
 10
2947.056075255487
 20
59.08605721999891
 30
0.0
 10
2946.614909204278
 20
47.06869389714394
 30
0.0
 10
2941.164839072743
 20
25.28920175565966
 30
0.0
 10
2915.869422403532
 20
-0.1053123286319897
 30
0.0
 10
2882.071123413695
 20
-8.753822048777713
 30
0.0
 10
2848.180596023333
 20
0.002998441349715
 30
0.0
 10
2823.171659593389
 20
24.83909652783908
 30
0.0
 10
2814.157851463257
 20
58.92684835132025
 30
0.0
 10
2822.991224521517
 20
93.03720309847406
 30
0.0
 10
2848.064383858655
 20
118.1331126416121
 30
0.0
 10
2882.067720477815
 20
126.9324520989926
 30
0.0
 10
2915.999508221581
 20
118.2433567286506
 30
0.0
 10
2941.297835715707
 20
92.57185622509569
 30
0.0
 10
2946.705169466126
 20
71.04891390507855
 30
0.0
 10
2947.056075255487
 20
59.08605721999891
 30
0.0
  0
SPLINE
  5
7021A
330
7037C
100
AcDbEntity
  8
Level 26 (Construction)
  6
Continuous
 62
     7
370
     0
100
AcDbSpline
210
0.0
220
0.0
230
1.0
 70
     9
 71
     3
 72
    19
 73
    15
 74
     0
 42
0.000000001
 43
0.0000000001
 40
0.0
 40
0.0
 40
0.0
 40
0.0
 40
0.0833333335273589
 40
0.1666666665890565
 40
0.2500000001164153
 40
0.3333333331781129
 40
0.4166666667054718
 40
0.4999999997671694
 40
0.5833333332945282
 40
0.6666666668218872
 40
0.7499999998835847
 40
0.8333333334109434
 40
0.9166666664726411
 40
1.0
 40
1.0
 40
1.0
 40
1.0
 10
2947.056075255487
 20
59.08605721999891
 30
0.0
 10
2946.614909204278
 20
47.06869389714394
 30
0.0
 10
2941.164839072743
 20
25.28920175565966
 30
0.0
 10
2915.869422403532
 20
-0.1053123286319897
 30
0.0
 10
2882.071123413695
 20
-8.753822048777713
 30
0.0
 10
2848.180596023333
 20
0.002998441349715
 30
0.0
 10
2823.171659593389
 20
24.83909652783908
 30
0.0
 10
2814.157851463257
 20
58.92684835132025
 30
0.0
 10
2822.991224521517
 20
93.03720309847406
 30
0.0
 10
2848.064383858655
 20
118.1331126416121
 30
0.0
 10
2882.067720477815
 20
126.9324520989926
 30
0.0
 10
2915.999508221581
 20
118.2433567286506
 30
0.0
 10
2941.297835715707
 20
92.57185622509569
 30
0.0
 10
2946.705169466126
 20
71.04891390507855
 30
0.0
 10
2947.056075255487
 20
59.08605721999891
 30
0.0
  0
SPLINE
  5
7021B
330
7037C
100
AcDbEntity
  8
Level 26 (Construction)
  6
Continuous
 62
     7
370
     0
100
AcDbSpline
210
0.0
220
0.0
230
1.0
 70
     9
 71
     3
 72
    19
 73
    15
 74
     0
 42
0.000000001
 43
0.0000000001
 40
0.0
 40
0.0
 40
0.0
 40
0.0
 40
0.0833333335273589
 40
0.1666666665890565
 40
0.2500000001164153
 40
0.3333333331781129
 40
0.4166666667054718
 40
0.4999999997671694
 40
0.5833333332945282
 40
0.6666666668218872
 40
0.7499999998835847
 40
0.8333333334109434
 40
0.9166666664726411
 40
1.0
 40
1.0
 40
1.0
 40
1.0
 10
2947.056075255487
 20
59.08605721999891
 30
0.0
 10
2946.614909204278
 20
47.06869389714394
 30
0.0
 10
2941.164839072743
 20
25.28920175565966
 30
0.0
 10
2915.869422403532
 20
-0.1053123286319897
 30
0.0
 10
2882.071123413695
 20
-8.753822048777713
 30
0.0
 10
2848.180596023333
 20
0.002998441349715
 30
0.0
 10
2823.171659593389
 20
24.83909652783908
 30
0.0
 10
2814.157851463257
 20
58.92684835132025
 30
0.0
 10
2822.991224521517
 20
93.03720309847406
 30
0.0
 10
2848.064383858655
 20
118.1331126416121
 30
0.0
 10
2882.067720477815
 20
126.9324520989926
 30
0.0
 10
2915.999508221581
 20
118.2433567286506
 30
0.0
 10
2941.297835715707
 20
92.57185622509569
 30
0.0
 10
2946.705169466126
 20
71.04891390507855
 30
0.0
 10
2947.056075255487
 20
59.08605721999891
 30
0.0
  0
SPLINE
  5
7021C
330
7037C
100
AcDbEntity
  8
Level 26 (Construction)
  6
Continuous
 62
     7
370
     0
100
AcDbSpline
210
0.0
220
0.0
230
1.0
 70
     9
 71
     3
 72
    19
 73
    15
 74
     0
 42
0.000000001
 43
0.0000000001
 40
0.0
 40
0.0
 40
0.0
 40
0.0
 40
0.0833333335273589
 40
0.1666666665890565
 40
0.2500000001164153
 40
0.3333333331781129
 40
0.4166666667054718
 40
0.4999999997671694
 40
0.5833333332945282
 40
0.6666666668218872
 40
0.7499999998835847
 40
0.8333333334109434
 40
0.9166666664726411
 40
1.0
 40
1.0
 40
1.0
 40
1.0
 10
2947.056075255487
 20
59.08605721999891
 30
0.0
 10
2946.614909204278
 20
47.06869389714394
 30
0.0
 10
2941.164839072743
 20
25.28920175565966
 30
0.0
 10
2915.869422403532
 20
-0.1053123286319897
 30
0.0
 10
2882.071123413695
 20
-8.753822048777713
 30
0.0
 10
2848.180596023333
 20
0.002998441349715
 30
0.0
 10
2823.171659593389
 20
24.83909652783908
 30
0.0
 10
2814.157851463257
 20
58.92684835132025
 30
0.0
 10
2822.991224521517
 20
93.03720309847406
 30
0.0
 10
2848.064383858655
 20
118.1331126416121
 30
0.0
 10
2882.067720477815
 20
126.9324520989926
 30
0.0
 10
2915.999508221581
 20
118.2433567286506
 30
0.0
 10
2941.297835715707
 20
92.57185622509569
 30
0.0
 10
2946.705169466126
 20
71.04891390507855
 30
0.0
 10
2947.056075255487
 20
59.08605721999891
 30
0.0
  0
ENDBLK
  5
7037E
330
7037C
100
AcDbEntity
  8
0
 62
    98
370
     0
100
AcDbBlockEnd
  0
BLOCK
  5
70380
330
7037F
100
AcDbEntity
  8
0
 62
    98
370
     0
100
AcDbBlockBegin
  2
From Bspline Surface_5
 70
     0
 10
0.0
 20
0.0
 30
0.0
  3
From Bspline Surface_5
  1

  0
SPLINE
  5
6FF7B
330
7037F
100
AcDbEntity
  8
Level 26 (Construction)
  6
Continuous
 62
     7
370
     0
100
AcDbSpline
210
0.0
220
0.0
230
1.0
 70
     9
 71
     3
 72
    19
 73
    15
 74
     0
 42
0.000000001
 43
0.0000000001
 40
0.0
 40
0.0
 40
0.0
 40
0.0
 40
0.0833333335273589
 40
0.1666666665890565
 40
0.2500000001164153
 40
0.3333333331781129
 40
0.4166666667054718
 40
0.4999999997671694
 40
0.5833333332945282
 40
0.6666666668218872
 40
0.7499999998835847
 40
0.8333333334109434
 40
0.9166666664726411
 40
1.0
 40
1.0
 40
1.0
 40
1.0
 10
2947.056075255487
 20
59.08605721999891
 30
0.0
 10
2946.614909204278
 20
47.06869389714394
 30
0.0
 10
2941.164839072743
 20
25.28920175565966
 30
0.0
 10
2915.869422403532
 20
-0.1053123286319897
 30
0.0
 10
2882.071123413695
 20
-8.753822048777713
 30
0.0
 10
2848.180596023333
 20
0.002998441349715
 30
0.0
 10
2823.171659593389
 20
24.83909652783908
 30
0.0
 10
2814.157851463257
 20
58.92684835132025
 30
0.0
 10
2822.991224521517
 20
93.03720309847406
 30
0.0
 10
2848.064383858655
 20
118.1331126416121
 30
0.0
 10
2882.067720477815
 20
126.9324520989926
 30
0.0
 10
2915.999508221581
 20
118.2433567286506
 30
0.0
 10
2941.297835715707
 20
92.57185622509569
 30
0.0
 10
2946.705169466126
 20
71.04891390507855
 30
0.0
 10
2947.056075255487
 20
59.08605721999891
 30
0.0
  0
SPLINE
  5
70227
330
7037F
100
AcDbEntity
  8
Level 26 (Construction)
  6
Continuous
 62
     7
370
     0
100
AcDbSpline
210
0.0
220
0.0
230
1.0
 70
     9
 71
     3
 72
    19
 73
    15
 74
     0
 42
0.000000001
 43
0.0000000001
 40
0.0
 40
0.0
 40
0.0
 40
0.0
 40
0.0833333335273589
 40
0.1666666665890565
 40
0.2500000001164153
 40
0.3333333331781129
 40
0.4166666667054718
 40
0.4999999997671694
 40
0.5833333332945282
 40
0.6666666668218872
 40
0.7499999998835847
 40
0.8333333334109434
 40
0.9166666664726411
 40
1.0
 40
1.0
 40
1.0
 40
1.0
 10
2947.056075255487
 20
59.08605721999891
 30
0.0
 10
2946.614909204278
 20
47.06869389714393
 30
0.0
 10
2941.164839072743
 20
25.28920175565966
 30
0.0
 10
2915.869422403532
 20
-0.1053123286319896
 30
0.0
 10
2882.071123413695
 20
-8.753822048777713
 30
0.0
 10
2848.180596023333
 20
0.002998441349715
 30
0.0
 10
2823.171659593388
 20
24.83909652783908
 30
0.0
 10
2814.157851463257
 20
58.92684835132024
 30
0.0
 10
2822.991224521517
 20
93.03720309847404
 30
0.0
 10
2848.064383858655
 20
118.1331126416121
 30
0.0
 10
2882.067720477815
 20
126.9324520989926
 30
0.0
 10
2915.99950822158
 20
118.2433567286506
 30
0.0
 10
2941.297835715706
 20
92.57185622509569
 30
0.0
 10
2946.705169466126
 20
71.04891390507855
 30
0.0
 10
2947.056075255487
 20
59.08605721999891
 30
0.0
  0
SPLINE
  5
70228
330
7037F
100
AcDbEntity
  8
Level 26 (Construction)
  6
Continuous
 62
     7
370
     0
100
AcDbSpline
210
0.0
220
0.0
230
1.0
 70
     9
 71
     3
 72
    19
 73
    15
 74
     0
 42
0.000000001
 43
0.0000000001
 40
0.0
 40
0.0
 40
0.0
 40
0.0
 40
0.0833333335273589
 40
0.1666666665890565
 40
0.2500000001164153
 40
0.3333333331781129
 40
0.4166666667054718
 40
0.4999999997671694
 40
0.5833333332945282
 40
0.6666666668218872
 40
0.7499999998835847
 40
0.8333333334109434
 40
0.9166666664726411
 40
1.0
 40
1.0
 40
1.0
 40
1.0
 10
2947.056075255487
 20
59.08605721999891
 30
0.0
 10
2946.614909204278
 20
47.06869389714394
 30
0.0
 10
2941.164839072743
 20
25.28920175565966
 30
0.0
 10
2915.869422403532
 20
-0.1053123286319897
 30
0.0
 10
2882.071123413695
 20
-8.753822048777713
 30
0.0
 10
2848.180596023333
 20
0.002998441349715
 30
0.0
 10
2823.171659593389
 20
24.83909652783908
 30
0.0
 10
2814.157851463257
 20
58.92684835132025
 30
0.0
 10
2822.991224521517
 20
93.03720309847406
 30
0.0
 10
2848.064383858655
 20
118.1331126416121
 30
0.0
 10
2882.067720477815
 20
126.9324520989926
 30
0.0
 10
2915.999508221581
 20
118.2433567286506
 30
0.0
 10
2941.297835715707
 20
92.57185622509569
 30
0.0
 10
2946.705169466126
 20
71.04891390507855
 30
0.0
 10
2947.056075255487
 20
59.08605721999891
 30
0.0
  0
SPLINE
  5
70229
330
7037F
100
AcDbEntity
  8
Level 26 (Construction)
  6
Continuous
 62
     7
370
     0
100
AcDbSpline
210
0.0
220
0.0
230
1.0
 70
     9
 71
     3
 72
    19
 73
    15
 74
     0
 42
0.000000001
 43
0.0000000001
 40
0.0
 40
0.0
 40
0.0
 40
0.0
 40
0.0833333335273589
 40
0.1666666665890565
 40
0.2500000001164153
 40
0.3333333331781129
 40
0.4166666667054718
 40
0.4999999997671694
 40
0.5833333332945282
 40
0.6666666668218872
 40
0.7499999998835847
 40
0.8333333334109434
 40
0.9166666664726411
 40
1.0
 40
1.0
 40
1.0
 40
1.0
 10
2947.056075255487
 20
59.08605721999891
 30
0.0
 10
2946.614909204278
 20
47.06869389714394
 30
0.0
 10
2941.164839072743
 20
25.28920175565966
 30
0.0
 10
2915.869422403532
 20
-0.1053123286319897
 30
0.0
 10
2882.071123413695
 20
-8.753822048777713
 30
0.0
 10
2848.180596023333
 20
0.002998441349715
 30
0.0
 10
2823.171659593389
 20
24.83909652783908
 30
0.0
 10
2814.157851463257
 20
58.92684835132025
 30
0.0
 10
2822.991224521517
 20
93.03720309847406
 30
0.0
 10
2848.064383858655
 20
118.1331126416121
 30
0.0
 10
2882.067720477815
 20
126.9324520989926
 30
0.0
 10
2915.999508221581
 20
118.2433567286506
 30
0.0
 10
2941.297835715707
 20
92.57185622509569
 30
0.0
 10
2946.705169466126
 20
71.04891390507855
 30
0.0
 10
2947.056075255487
 20
59.08605721999891
 30
0.0
  0
SPLINE
  5
7022A
330
7037F
100
AcDbEntity
  8
Level 26 (Construction)
  6
Continuous
 62
     7
370
     0
100
AcDbSpline
210
0.0
220
0.0
230
1.0
 70
     9
 71
     3
 72
    19
 73
    15
 74
     0
 42
0.000000001
 43
0.0000000001
 40
0.0
 40
0.0
 40
0.0
 40
0.0
 40
0.0833333335273589
 40
0.1666666665890565
 40
0.2500000001164153
 40
0.3333333331781129
 40
0.4166666667054718
 40
0.4999999997671694
 40
0.5833333332945282
 40
0.6666666668218872
 40
0.7499999998835847
 40
0.8333333334109434
 40
0.9166666664726411
 40
1.0
 40
1.0
 40
1.0
 40
1.0
 10
2947.056075255487
 20
59.08605721999891
 30
0.0
 10
2946.614909204278
 20
47.06869389714394
 30
0.0
 10
2941.164839072743
 20
25.28920175565966
 30
0.0
 10
2915.869422403532
 20
-0.1053123286319897
 30
0.0
 10
2882.071123413695
 20
-8.753822048777713
 30
0.0
 10
2848.180596023333
 20
0.002998441349715
 30
0.0
 10
2823.171659593389
 20
24.83909652783908
 30
0.0
 10
2814.157851463257
 20
58.92684835132025
 30
0.0
 10
2822.991224521517
 20
93.03720309847406
 30
0.0
 10
2848.064383858655
 20
118.1331126416121
 30
0.0
 10
2882.067720477815
 20
126.9324520989926
 30
0.0
 10
2915.999508221581
 20
118.2433567286506
 30
0.0
 10
2941.297835715707
 20
92.57185622509569
 30
0.0
 10
2946.705169466126
 20
71.04891390507855
 30
0.0
 10
2947.056075255487
 20
59.08605721999891
 30
0.0
  0
SPLINE
  5
7022B
330
7037F
100
AcDbEntity
  8
Level 26 (Construction)
  6
Continuous
 62
     7
370
     0
100
AcDbSpline
210
0.0
220
0.0
230
1.0
 70
     9
 71
     3
 72
    19
 73
    15
 74
     0
 42
0.000000001
 43
0.0000000001
 40
0.0
 40
0.0
 40
0.0
 40
0.0
 40
0.0833333335273589
 40
0.1666666665890565
 40
0.2500000001164153
 40
0.3333333331781129
 40
0.4166666667054718
 40
0.4999999997671694
 40
0.5833333332945282
 40
0.6666666668218872
 40
0.7499999998835847
 40
0.8333333334109434
 40
0.9166666664726411
 40
1.0
 40
1.0
 40
1.0
 40
1.0
 10
2947.056075255487
 20
59.08605721999891
 30
0.0
 10
2946.614909204278
 20
47.06869389714394
 30
0.0
 10
2941.164839072743
 20
25.28920175565966
 30
0.0
 10
2915.869422403532
 20
-0.1053123286319897
 30
0.0
 10
2882.071123413695
 20
-8.753822048777713
 30
0.0
 10
2848.180596023333
 20
0.002998441349715
 30
0.0
 10
2823.171659593389
 20
24.83909652783908
 30
0.0
 10
2814.157851463257
 20
58.92684835132025
 30
0.0
 10
2822.991224521517
 20
93.03720309847406
 30
0.0
 10
2848.064383858655
 20
118.1331126416121
 30
0.0
 10
2882.067720477815
 20
126.9324520989926
 30
0.0
 10
2915.999508221581
 20
118.2433567286506
 30
0.0
 10
2941.297835715707
 20
92.57185622509569
 30
0.0
 10
2946.705169466126
 20
71.04891390507855
 30
0.0
 10
2947.056075255487
 20
59.08605721999891
 30
0.0
  0
SPLINE
  5
7022C
330
7037F
100
AcDbEntity
  8
Level 26 (Construction)
  6
Continuous
 62
     7
370
     0
100
AcDbSpline
210
0.0
220
0.0
230
1.0
 70
     9
 71
     3
 72
    19
 73
    15
 74
     0
 42
0.000000001
 43
0.0000000001
 40
0.0
 40
0.0
 40
0.0
 40
0.0
 40
0.0833333335273589
 40
0.1666666665890565
 40
0.2500000001164153
 40
0.3333333331781129
 40
0.4166666667054718
 40
0.4999999997671694
 40
0.5833333332945282
 40
0.6666666668218872
 40
0.7499999998835847
 40
0.8333333334109434
 40
0.9166666664726411
 40
1.0
 40
1.0
 40
1.0
 40
1.0
 10
2947.056075255487
 20
59.08605721999891
 30
0.0
 10
2946.614909204278
 20
47.06869389714394
 30
0.0
 10
2941.164839072743
 20
25.28920175565966
 30
0.0
 10
2915.869422403532
 20
-0.1053123286319897
 30
0.0
 10
2882.071123413695
 20
-8.753822048777713
 30
0.0
 10
2848.180596023333
 20
0.002998441349715
 30
0.0
 10
2823.171659593389
 20
24.83909652783908
 30
0.0
 10
2814.157851463257
 20
58.92684835132025
 30
0.0
 10
2822.991224521517
 20
93.03720309847406
 30
0.0
 10
2848.064383858655
 20
118.1331126416121
 30
0.0
 10
2882.067720477815
 20
126.9324520989926
 30
0.0
 10
2915.999508221581
 20
118.2433567286506
 30
0.0
 10
2941.297835715707
 20
92.57185622509569
 30
0.0
 10
2946.705169466126
 20
71.04891390507855
 30
0.0
 10
2947.056075255487
 20
59.08605721999891
 30
0.0
  0
SPLINE
  5
7022D
330
7037F
100
AcDbEntity
  8
Level 26 (Construction)
  6
Continuous
 62
     7
370
     0
100
AcDbSpline
210
0.0
220
0.0
230
1.0
 70
     9
 71
     3
 72
    19
 73
    15
 74
     0
 42
0.000000001
 43
0.0000000001
 40
0.0
 40
0.0
 40
0.0
 40
0.0
 40
0.0833333335273589
 40
0.1666666665890565
 40
0.2500000001164153
 40
0.3333333331781129
 40
0.4166666667054718
 40
0.4999999997671694
 40
0.5833333332945282
 40
0.6666666668218872
 40
0.7499999998835847
 40
0.8333333334109434
 40
0.9166666664726411
 40
1.0
 40
1.0
 40
1.0
 40
1.0
 10
2947.056075255487
 20
59.08605721999891
 30
0.0
 10
2946.614909204278
 20
47.06869389714394
 30
0.0
 10
2941.164839072743
 20
25.28920175565966
 30
0.0
 10
2915.869422403532
 20
-0.1053123286319897
 30
0.0
 10
2882.071123413695
 20
-8.753822048777713
 30
0.0
 10
2848.180596023333
 20
0.002998441349715
 30
0.0
 10
2823.171659593389
 20
24.83909652783908
 30
0.0
 10
2814.157851463257
 20
58.92684835132025
 30
0.0
 10
2822.991224521517
 20
93.03720309847406
 30
0.0
 10
2848.064383858655
 20
118.1331126416121
 30
0.0
 10
2882.067720477815
 20
126.9324520989926
 30
0.0
 10
2915.999508221581
 20
118.2433567286506
 30
0.0
 10
2941.297835715707
 20
92.57185622509569
 30
0.0
 10
2946.705169466126
 20
71.04891390507855
 30
0.0
 10
2947.056075255487
 20
59.08605721999891
 30
0.0
  0
SPLINE
  5
7022E
330
7037F
100
AcDbEntity
  8
Level 26 (Construction)
  6
Continuous
 62
     7
370
     0
100
AcDbSpline
210
0.0
220
0.0
230
1.0
 70
     9
 71
     3
 72
    19
 73
    15
 74
     0
 42
0.000000001
 43
0.0000000001
 40
0.0
 40
0.0
 40
0.0
 40
0.0
 40
0.0833333335273589
 40
0.1666666665890565
 40
0.2500000001164153
 40
0.3333333331781129
 40
0.4166666667054718
 40
0.4999999997671694
 40
0.5833333332945282
 40
0.6666666668218872
 40
0.7499999998835847
 40
0.8333333334109434
 40
0.9166666664726411
 40
1.0
 40
1.0
 40
1.0
 40
1.0
 10
2947.056075255487
 20
59.08605721999891
 30
0.0
 10
2946.614909204278
 20
47.06869389714394
 30
0.0
 10
2941.164839072743
 20
25.28920175565966
 30
0.0
 10
2915.869422403532
 20
-0.1053123286319897
 30
0.0
 10
2882.071123413695
 20
-8.753822048777713
 30
0.0
 10
2848.180596023333
 20
0.002998441349715
 30
0.0
 10
2823.171659593389
 20
24.83909652783908
 30
0.0
 10
2814.157851463257
 20
58.92684835132025
 30
0.0
 10
2822.991224521517
 20
93.03720309847406
 30
0.0
 10
2848.064383858655
 20
118.1331126416121
 30
0.0
 10
2882.067720477815
 20
126.9324520989926
 30
0.0
 10
2915.999508221581
 20
118.2433567286506
 30
0.0
 10
2941.297835715707
 20
92.57185622509569
 30
0.0
 10
2946.705169466126
 20
71.04891390507855
 30
0.0
 10
2947.056075255487
 20
59.08605721999891
 30
0.0
  0
SPLINE
  5
7022F
330
7037F
100
AcDbEntity
  8
Level 26 (Construction)
  6
Continuous
 62
     7
370
     0
100
AcDbSpline
210
0.0
220
0.0
230
1.0
 70
     9
 71
     3
 72
    19
 73
    15
 74
     0
 42
0.000000001
 43
0.0000000001
 40
0.0
 40
0.0
 40
0.0
 40
0.0
 40
0.0833333335273589
 40
0.1666666665890565
 40
0.2500000001164153
 40
0.3333333331781129
 40
0.4166666667054718
 40
0.4999999997671694
 40
0.5833333332945282
 40
0.6666666668218872
 40
0.7499999998835847
 40
0.8333333334109434
 40
0.9166666664726411
 40
1.0
 40
1.0
 40
1.0
 40
1.0
 10
2947.056075255487
 20
59.08605721999891
 30
0.0
 10
2946.614909204278
 20
47.06869389714394
 30
0.0
 10
2941.164839072743
 20
25.28920175565966
 30
0.0
 10
2915.869422403532
 20
-0.1053123286319897
 30
0.0
 10
2882.071123413695
 20
-8.753822048777713
 30
0.0
 10
2848.180596023333
 20
0.002998441349715
 30
0.0
 10
2823.171659593389
 20
24.83909652783908
 30
0.0
 10
2814.157851463257
 20
58.92684835132025
 30
0.0
 10
2822.991224521517
 20
93.03720309847406
 30
0.0
 10
2848.064383858655
 20
118.1331126416121
 30
0.0
 10
2882.067720477815
 20
126.9324520989926
 30
0.0
 10
2915.999508221581
 20
118.2433567286506
 30
0.0
 10
2941.297835715707
 20
92.57185622509569
 30
0.0
 10
2946.705169466126
 20
71.04891390507855
 30
0.0
 10
2947.056075255487
 20
59.08605721999891
 30
0.0
  0
ENDBLK
  5
70381
330
7037F
100
AcDbEntity
  8
0
 62
    98
370
     0
100
AcDbBlockEnd
  0
BLOCK
  5
70383
330
70382
100
AcDbEntity
  8
0
 62
    98
370
     0
100
AcDbBlockBegin
  2
From Bspline Surface_6
 70
     0
 10
0.0
 20
0.0
 30
0.0
  3
From Bspline Surface_6
  1

  0
SPLINE
  5
6FF8C
330
70382
100
AcDbEntity
  8
Level 26 (Construction)
  6
Continuous
 62
     7
370
     0
100
AcDbSpline
210
0.0
220
0.0
230
1.0
 70
     9
 71
     3
 72
    19
 73
    15
 74
     0
 42
0.000000001
 43
0.0000000001
 40
0.0
 40
0.0
 40
0.0
 40
0.0
 40
0.0833333335273589
 40
0.1666666665890565
 40
0.2500000001164153
 40
0.3333333331781129
 40
0.4166666667054718
 40
0.4999999997671694
 40
0.5833333332945282
 40
0.6666666668218872
 40
0.7499999998835847
 40
0.8333333334109434
 40
0.9166666664726411
 40
1.0
 40
1.0
 40
1.0
 40
1.0
 10
2947.056075255487
 20
59.08605721999891
 30
0.0
 10
2946.614909204278
 20
47.06869389714394
 30
0.0
 10
2941.164839072743
 20
25.28920175565966
 30
0.0
 10
2915.869422403532
 20
-0.1053123286319897
 30
0.0
 10
2882.071123413695
 20
-8.753822048777713
 30
0.0
 10
2848.180596023333
 20
0.002998441349715
 30
0.0
 10
2823.171659593389
 20
24.83909652783908
 30
0.0
 10
2814.157851463257
 20
58.92684835132025
 30
0.0
 10
2822.991224521517
 20
93.03720309847406
 30
0.0
 10
2848.064383858655
 20
118.1331126416121
 30
0.0
 10
2882.067720477815
 20
126.9324520989926
 30
0.0
 10
2915.999508221581
 20
118.2433567286506
 30
0.0
 10
2941.297835715707
 20
92.57185622509569
 30
0.0
 10
2946.705169466126
 20
71.04891390507855
 30
0.0
 10
2947.056075255487
 20
59.08605721999891
 30
0.0
  0
SPLINE
  5
7023A
330
70382
100
AcDbEntity
  8
Level 26 (Construction)
  6
Continuous
 62
     7
370
     0
100
AcDbSpline
210
0.0
220
0.0
230
1.0
 70
     9
 71
     3
 72
    19
 73
    15
 74
     0
 42
0.000000001
 43
0.0000000001
 40
0.0
 40
0.0
 40
0.0
 40
0.0
 40
0.0833333335273589
 40
0.1666666665890565
 40
0.2500000001164153
 40
0.3333333331781129
 40
0.4166666667054718
 40
0.4999999997671694
 40
0.5833333332945282
 40
0.6666666668218872
 40
0.7499999998835847
 40
0.8333333334109434
 40
0.9166666664726411
 40
1.0
 40
1.0
 40
1.0
 40
1.0
 10
2947.056075255487
 20
59.08605721999891
 30
0.0
 10
2946.614909204278
 20
47.06869389714393
 30
0.0
 10
2941.164839072743
 20
25.28920175565966
 30
0.0
 10
2915.869422403532
 20
-0.1053123286319896
 30
0.0
 10
2882.071123413695
 20
-8.753822048777713
 30
0.0
 10
2848.180596023333
 20
0.002998441349715
 30
0.0
 10
2823.171659593388
 20
24.83909652783908
 30
0.0
 10
2814.157851463257
 20
58.92684835132024
 30
0.0
 10
2822.991224521517
 20
93.03720309847404
 30
0.0
 10
2848.064383858655
 20
118.1331126416121
 30
0.0
 10
2882.067720477815
 20
126.9324520989926
 30
0.0
 10
2915.99950822158
 20
118.2433567286506
 30
0.0
 10
2941.297835715706
 20
92.57185622509569
 30
0.0
 10
2946.705169466126
 20
71.04891390507855
 30
0.0
 10
2947.056075255487
 20
59.08605721999891
 30
0.0
  0
SPLINE
  5
7023B
330
70382
100
AcDbEntity
  8
Level 26 (Construction)
  6
Continuous
 62
     7
370
     0
100
AcDbSpline
210
0.0
220
0.0
230
1.0
 70
     9
 71
     3
 72
    19
 73
    15
 74
     0
 42
0.000000001
 43
0.0000000001
 40
0.0
 40
0.0
 40
0.0
 40
0.0
 40
0.0833333335273589
 40
0.1666666665890565
 40
0.2500000001164153
 40
0.3333333331781129
 40
0.4166666667054718
 40
0.4999999997671694
 40
0.5833333332945282
 40
0.6666666668218872
 40
0.7499999998835847
 40
0.8333333334109434
 40
0.9166666664726411
 40
1.0
 40
1.0
 40
1.0
 40
1.0
 10
2947.056075255487
 20
59.08605721999891
 30
0.0
 10
2946.614909204278
 20
47.06869389714394
 30
0.0
 10
2941.164839072743
 20
25.28920175565966
 30
0.0
 10
2915.869422403532
 20
-0.1053123286319897
 30
0.0
 10
2882.071123413695
 20
-8.753822048777713
 30
0.0
 10
2848.180596023333
 20
0.002998441349715
 30
0.0
 10
2823.171659593389
 20
24.83909652783908
 30
0.0
 10
2814.157851463257
 20
58.92684835132025
 30
0.0
 10
2822.991224521517
 20
93.03720309847406
 30
0.0
 10
2848.064383858655
 20
118.1331126416121
 30
0.0
 10
2882.067720477815
 20
126.9324520989926
 30
0.0
 10
2915.999508221581
 20
118.2433567286506
 30
0.0
 10
2941.297835715707
 20
92.57185622509569
 30
0.0
 10
2946.705169466126
 20
71.04891390507855
 30
0.0
 10
2947.056075255487
 20
59.08605721999891
 30
0.0
  0
SPLINE
  5
7023C
330
70382
100
AcDbEntity
  8
Level 26 (Construction)
  6
Continuous
 62
     7
370
     0
100
AcDbSpline
210
0.0
220
0.0
230
1.0
 70
     9
 71
     3
 72
    19
 73
    15
 74
     0
 42
0.000000001
 43
0.0000000001
 40
0.0
 40
0.0
 40
0.0
 40
0.0
 40
0.0833333335273589
 40
0.1666666665890565
 40
0.2500000001164153
 40
0.3333333331781129
 40
0.4166666667054718
 40
0.4999999997671694
 40
0.5833333332945282
 40
0.6666666668218872
 40
0.7499999998835847
 40
0.8333333334109434
 40
0.9166666664726411
 40
1.0
 40
1.0
 40
1.0
 40
1.0
 10
2947.056075255487
 20
59.08605721999891
 30
0.0
 10
2946.614909204278
 20
47.06869389714394
 30
0.0
 10
2941.164839072743
 20
25.28920175565966
 30
0.0
 10
2915.869422403532
 20
-0.1053123286319897
 30
0.0
 10
2882.071123413695
 20
-8.753822048777713
 30
0.0
 10
2848.180596023333
 20
0.002998441349715
 30
0.0
 10
2823.171659593389
 20
24.83909652783908
 30
0.0
 10
2814.157851463257
 20
58.92684835132025
 30
0.0
 10
2822.991224521517
 20
93.03720309847406
 30
0.0
 10
2848.064383858655
 20
118.1331126416121
 30
0.0
 10
2882.067720477815
 20
126.9324520989926
 30
0.0
 10
2915.999508221581
 20
118.2433567286506
 30
0.0
 10
2941.297835715707
 20
92.57185622509569
 30
0.0
 10
2946.705169466126
 20
71.04891390507855
 30
0.0
 10
2947.056075255487
 20
59.08605721999891
 30
0.0
  0
SPLINE
  5
7023D
330
70382
100
AcDbEntity
  8
Level 26 (Construction)
  6
Continuous
 62
     7
370
     0
100
AcDbSpline
210
0.0
220
0.0
230
1.0
 70
     9
 71
     3
 72
    19
 73
    15
 74
     0
 42
0.000000001
 43
0.0000000001
 40
0.0
 40
0.0
 40
0.0
 40
0.0
 40
0.0833333335273589
 40
0.1666666665890565
 40
0.2500000001164153
 40
0.3333333331781129
 40
0.4166666667054718
 40
0.4999999997671694
 40
0.5833333332945282
 40
0.6666666668218872
 40
0.7499999998835847
 40
0.8333333334109434
 40
0.9166666664726411
 40
1.0
 40
1.0
 40
1.0
 40
1.0
 10
2947.056075255487
 20
59.08605721999891
 30
0.0
 10
2946.614909204278
 20
47.06869389714394
 30
0.0
 10
2941.164839072743
 20
25.28920175565966
 30
0.0
 10
2915.869422403532
 20
-0.1053123286319897
 30
0.0
 10
2882.071123413695
 20
-8.753822048777713
 30
0.0
 10
2848.180596023333
 20
0.002998441349715
 30
0.0
 10
2823.171659593389
 20
24.83909652783908
 30
0.0
 10
2814.157851463257
 20
58.92684835132025
 30
0.0
 10
2822.991224521517
 20
93.03720309847406
 30
0.0
 10
2848.064383858655
 20
118.1331126416121
 30
0.0
 10
2882.067720477815
 20
126.9324520989926
 30
0.0
 10
2915.999508221581
 20
118.2433567286506
 30
0.0
 10
2941.297835715707
 20
92.57185622509569
 30
0.0
 10
2946.705169466126
 20
71.04891390507855
 30
0.0
 10
2947.056075255487
 20
59.08605721999891
 30
0.0
  0
SPLINE
  5
7023E
330
70382
100
AcDbEntity
  8
Level 26 (Construction)
  6
Continuous
 62
     7
370
     0
100
AcDbSpline
210
0.0
220
0.0
230
1.0
 70
     9
 71
     3
 72
    19
 73
    15
 74
     0
 42
0.000000001
 43
0.0000000001
 40
0.0
 40
0.0
 40
0.0
 40
0.0
 40
0.0833333335273589
 40
0.1666666665890565
 40
0.2500000001164153
 40
0.3333333331781129
 40
0.4166666667054718
 40
0.4999999997671694
 40
0.5833333332945282
 40
0.6666666668218872
 40
0.7499999998835847
 40
0.8333333334109434
 40
0.9166666664726411
 40
1.0
 40
1.0
 40
1.0
 40
1.0
 10
2947.056075255487
 20
59.08605721999891
 30
0.0
 10
2946.614909204278
 20
47.06869389714394
 30
0.0
 10
2941.164839072743
 20
25.28920175565966
 30
0.0
 10
2915.869422403532
 20
-0.1053123286319897
 30
0.0
 10
2882.071123413695
 20
-8.753822048777713
 30
0.0
 10
2848.180596023333
 20
0.002998441349715
 30
0.0
 10
2823.171659593389
 20
24.83909652783908
 30
0.0
 10
2814.157851463257
 20
58.92684835132025
 30
0.0
 10
2822.991224521517
 20
93.03720309847406
 30
0.0
 10
2848.064383858655
 20
118.1331126416121
 30
0.0
 10
2882.067720477815
 20
126.9324520989926
 30
0.0
 10
2915.999508221581
 20
118.2433567286506
 30
0.0
 10
2941.297835715707
 20
92.57185622509569
 30
0.0
 10
2946.705169466126
 20
71.04891390507855
 30
0.0
 10
2947.056075255487
 20
59.08605721999891
 30
0.0
  0
SPLINE
  5
7023F
330
70382
100
AcDbEntity
  8
Level 26 (Construction)
  6
Continuous
 62
     7
370
     0
100
AcDbSpline
210
0.0
220
0.0
230
1.0
 70
     9
 71
     3
 72
    19
 73
    15
 74
     0
 42
0.000000001
 43
0.0000000001
 40
0.0
 40
0.0
 40
0.0
 40
0.0
 40
0.0833333335273589
 40
0.1666666665890565
 40
0.2500000001164153
 40
0.3333333331781129
 40
0.4166666667054718
 40
0.4999999997671694
 40
0.5833333332945282
 40
0.6666666668218872
 40
0.7499999998835847
 40
0.8333333334109434
 40
0.9166666664726411
 40
1.0
 40
1.0
 40
1.0
 40
1.0
 10
2947.056075255487
 20
59.08605721999891
 30
0.0
 10
2946.614909204278
 20
47.06869389714394
 30
0.0
 10
2941.164839072743
 20
25.28920175565966
 30
0.0
 10
2915.869422403532
 20
-0.1053123286319897
 30
0.0
 10
2882.071123413695
 20
-8.753822048777713
 30
0.0
 10
2848.180596023333
 20
0.002998441349715
 30
0.0
 10
2823.171659593389
 20
24.83909652783908
 30
0.0
 10
2814.157851463257
 20
58.92684835132025
 30
0.0
 10
2822.991224521517
 20
93.03720309847406
 30
0.0
 10
2848.064383858655
 20
118.1331126416121
 30
0.0
 10
2882.067720477815
 20
126.9324520989926
 30
0.0
 10
2915.999508221581
 20
118.2433567286506
 30
0.0
 10
2941.297835715707
 20
92.57185622509569
 30
0.0
 10
2946.705169466126
 20
71.04891390507855
 30
0.0
 10
2947.056075255487
 20
59.08605721999891
 30
0.0
  0
SPLINE
  5
70240
330
70382
100
AcDbEntity
  8
Level 26 (Construction)
  6
Continuous
 62
     7
370
     0
100
AcDbSpline
210
0.0
220
0.0
230
1.0
 70
     9
 71
     3
 72
    19
 73
    15
 74
     0
 42
0.000000001
 43
0.0000000001
 40
0.0
 40
0.0
 40
0.0
 40
0.0
 40
0.0833333335273589
 40
0.1666666665890565
 40
0.2500000001164153
 40
0.3333333331781129
 40
0.4166666667054718
 40
0.4999999997671694
 40
0.5833333332945282
 40
0.6666666668218872
 40
0.7499999998835847
 40
0.8333333334109434
 40
0.9166666664726411
 40
1.0
 40
1.0
 40
1.0
 40
1.0
 10
2947.056075255487
 20
59.08605721999891
 30
0.0
 10
2946.614909204278
 20
47.06869389714394
 30
0.0
 10
2941.164839072743
 20
25.28920175565966
 30
0.0
 10
2915.869422403532
 20
-0.1053123286319897
 30
0.0
 10
2882.071123413695
 20
-8.753822048777713
 30
0.0
 10
2848.180596023333
 20
0.002998441349715
 30
0.0
 10
2823.171659593389
 20
24.83909652783908
 30
0.0
 10
2814.157851463257
 20
58.92684835132025
 30
0.0
 10
2822.991224521517
 20
93.03720309847406
 30
0.0
 10
2848.064383858655
 20
118.1331126416121
 30
0.0
 10
2882.067720477815
 20
126.9324520989926
 30
0.0
 10
2915.999508221581
 20
118.2433567286506
 30
0.0
 10
2941.297835715707
 20
92.57185622509569
 30
0.0
 10
2946.705169466126
 20
71.04891390507855
 30
0.0
 10
2947.056075255487
 20
59.08605721999891
 30
0.0
  0
SPLINE
  5
70241
330
70382
100
AcDbEntity
  8
Level 26 (Construction)
  6
Continuous
 62
     7
370
     0
100
AcDbSpline
210
0.0
220
0.0
230
1.0
 70
     9
 71
     3
 72
    19
 73
    15
 74
     0
 42
0.000000001
 43
0.0000000001
 40
0.0
 40
0.0
 40
0.0
 40
0.0
 40
0.0833333335273589
 40
0.1666666665890565
 40
0.2500000001164153
 40
0.3333333331781129
 40
0.4166666667054718
 40
0.4999999997671694
 40
0.5833333332945282
 40
0.6666666668218872
 40
0.7499999998835847
 40
0.8333333334109434
 40
0.9166666664726411
 40
1.0
 40
1.0
 40
1.0
 40
1.0
 10
2947.056075255487
 20
59.08605721999891
 30
0.0
 10
2946.614909204278
 20
47.06869389714394
 30
0.0
 10
2941.164839072743
 20
25.28920175565966
 30
0.0
 10
2915.869422403532
 20
-0.1053123286319897
 30
0.0
 10
2882.071123413695
 20
-8.753822048777713
 30
0.0
 10
2848.180596023333
 20
0.002998441349715
 30
0.0
 10
2823.171659593389
 20
24.83909652783908
 30
0.0
 10
2814.157851463257
 20
58.92684835132025
 30
0.0
 10
2822.991224521517
 20
93.03720309847406
 30
0.0
 10
2848.064383858655
 20
118.1331126416121
 30
0.0
 10
2882.067720477815
 20
126.9324520989926
 30
0.0
 10
2915.999508221581
 20
118.2433567286506
 30
0.0
 10
2941.297835715707
 20
92.57185622509569
 30
0.0
 10
2946.705169466126
 20
71.04891390507855
 30
0.0
 10
2947.056075255487
 20
59.08605721999891
 30
0.0
  0
SPLINE
  5
70242
330
70382
100
AcDbEntity
  8
Level 26 (Construction)
  6
Continuous
 62
     7
370
     0
100
AcDbSpline
210
0.0
220
0.0
230
1.0
 70
     9
 71
     3
 72
    19
 73
    15
 74
     0
 42
0.000000001
 43
0.0000000001
 40
0.0
 40
0.0
 40
0.0
 40
0.0
 40
0.0833333335273589
 40
0.1666666665890565
 40
0.2500000001164153
 40
0.3333333331781129
 40
0.4166666667054718
 40
0.4999999997671694
 40
0.5833333332945282
 40
0.6666666668218872
 40
0.7499999998835847
 40
0.8333333334109434
 40
0.9166666664726411
 40
1.0
 40
1.0
 40
1.0
 40
1.0
 10
2947.056075255487
 20
59.08605721999891
 30
0.0
 10
2946.614909204278
 20
47.06869389714394
 30
0.0
 10
2941.164839072743
 20
25.28920175565966
 30
0.0
 10
2915.869422403532
 20
-0.1053123286319897
 30
0.0
 10
2882.071123413695
 20
-8.753822048777713
 30
0.0
 10
2848.180596023333
 20
0.002998441349715
 30
0.0
 10
2823.171659593389
 20
24.83909652783908
 30
0.0
 10
2814.157851463257
 20
58.92684835132025
 30
0.0
 10
2822.991224521517
 20
93.03720309847406
 30
0.0
 10
2848.064383858655
 20
118.1331126416121
 30
0.0
 10
2882.067720477815
 20
126.9324520989926
 30
0.0
 10
2915.999508221581
 20
118.2433567286506
 30
0.0
 10
2941.297835715707
 20
92.57185622509569
 30
0.0
 10
2946.705169466126
 20
71.04891390507855
 30
0.0
 10
2947.056075255487
 20
59.08605721999891
 30
0.0
  0
ENDBLK
  5
70384
330
70382
100
AcDbEntity
  8
0
 62
    98
370
     0
100
AcDbBlockEnd
  0
BLOCK
  5
70386
330
70385
100
AcDbEntity
  8
0
 62
    98
370
     0
100
AcDbBlockBegin
  2
From Bspline Surface_7
 70
     0
 10
0.0
 20
0.0
 30
0.0
  3
From Bspline Surface_7
  1

  0
SPLINE
  5
6FF9D
330
70385
100
AcDbEntity
  8
Level 26 (Construction)
  6
Continuous
 62
     7
370
     0
100
AcDbSpline
210
0.0
220
0.0
230
1.0
 70
     9
 71
     3
 72
    19
 73
    15
 74
     0
 42
0.000000001
 43
0.0000000001
 40
0.0
 40
0.0
 40
0.0
 40
0.0
 40
0.0833333335273589
 40
0.1666666665890565
 40
0.2500000001164153
 40
0.3333333331781129
 40
0.4166666667054718
 40
0.4999999997671694
 40
0.5833333332945282
 40
0.6666666668218872
 40
0.7499999998835847
 40
0.8333333334109434
 40
0.9166666664726411
 40
1.0
 40
1.0
 40
1.0
 40
1.0
 10
2947.056075255487
 20
59.08605721999891
 30
0.0
 10
2946.614909204278
 20
47.06869389714394
 30
0.0
 10
2941.164839072743
 20
25.28920175565966
 30
0.0
 10
2915.869422403532
 20
-0.1053123286319897
 30
0.0
 10
2882.071123413695
 20
-8.753822048777713
 30
0.0
 10
2848.180596023333
 20
0.002998441349715
 30
0.0
 10
2823.171659593389
 20
24.83909652783908
 30
0.0
 10
2814.157851463257
 20
58.92684835132025
 30
0.0
 10
2822.991224521517
 20
93.03720309847406
 30
0.0
 10
2848.064383858655
 20
118.1331126416121
 30
0.0
 10
2882.067720477815
 20
126.9324520989926
 30
0.0
 10
2915.999508221581
 20
118.2433567286506
 30
0.0
 10
2941.297835715707
 20
92.57185622509569
 30
0.0
 10
2946.705169466126
 20
71.04891390507855
 30
0.0
 10
2947.056075255487
 20
59.08605721999891
 30
0.0
  0
SPLINE
  5
7024D
330
70385
100
AcDbEntity
  8
Level 26 (Construction)
  6
Continuous
 62
     7
370
     0
100
AcDbSpline
210
0.0
220
0.0
230
1.0
 70
     9
 71
     3
 72
    19
 73
    15
 74
     0
 42
0.000000001
 43
0.0000000001
 40
0.0
 40
0.0
 40
0.0
 40
0.0
 40
0.0833333335273589
 40
0.1666666665890565
 40
0.2500000001164153
 40
0.3333333331781129
 40
0.4166666667054718
 40
0.4999999997671694
 40
0.5833333332945282
 40
0.6666666668218872
 40
0.7499999998835847
 40
0.8333333334109434
 40
0.9166666664726411
 40
1.0
 40
1.0
 40
1.0
 40
1.0
 10
2947.056075255487
 20
59.08605721999891
 30
0.0
 10
2946.614909204278
 20
47.06869389714393
 30
0.0
 10
2941.164839072743
 20
25.28920175565966
 30
0.0
 10
2915.869422403532
 20
-0.1053123286319896
 30
0.0
 10
2882.071123413695
 20
-8.753822048777713
 30
0.0
 10
2848.180596023333
 20
0.002998441349715
 30
0.0
 10
2823.171659593388
 20
24.83909652783908
 30
0.0
 10
2814.157851463257
 20
58.92684835132024
 30
0.0
 10
2822.991224521517
 20
93.03720309847404
 30
0.0
 10
2848.064383858655
 20
118.1331126416121
 30
0.0
 10
2882.067720477815
 20
126.9324520989926
 30
0.0
 10
2915.99950822158
 20
118.2433567286506
 30
0.0
 10
2941.297835715706
 20
92.57185622509569
 30
0.0
 10
2946.705169466126
 20
71.04891390507855
 30
0.0
 10
2947.056075255487
 20
59.08605721999891
 30
0.0
  0
SPLINE
  5
7024E
330
70385
100
AcDbEntity
  8
Level 26 (Construction)
  6
Continuous
 62
     7
370
     0
100
AcDbSpline
210
0.0
220
0.0
230
1.0
 70
     9
 71
     3
 72
    19
 73
    15
 74
     0
 42
0.000000001
 43
0.0000000001
 40
0.0
 40
0.0
 40
0.0
 40
0.0
 40
0.0833333335273589
 40
0.1666666665890565
 40
0.2500000001164153
 40
0.3333333331781129
 40
0.4166666667054718
 40
0.4999999997671694
 40
0.5833333332945282
 40
0.6666666668218872
 40
0.7499999998835847
 40
0.8333333334109434
 40
0.9166666664726411
 40
1.0
 40
1.0
 40
1.0
 40
1.0
 10
2947.056075255487
 20
59.08605721999891
 30
0.0
 10
2946.614909204278
 20
47.06869389714394
 30
0.0
 10
2941.164839072743
 20
25.28920175565966
 30
0.0
 10
2915.869422403532
 20
-0.1053123286319897
 30
0.0
 10
2882.071123413695
 20
-8.753822048777713
 30
0.0
 10
2848.180596023333
 20
0.002998441349715
 30
0.0
 10
2823.171659593389
 20
24.83909652783908
 30
0.0
 10
2814.157851463257
 20
58.92684835132025
 30
0.0
 10
2822.991224521517
 20
93.03720309847406
 30
0.0
 10
2848.064383858655
 20
118.1331126416121
 30
0.0
 10
2882.067720477815
 20
126.9324520989926
 30
0.0
 10
2915.999508221581
 20
118.2433567286506
 30
0.0
 10
2941.297835715707
 20
92.57185622509569
 30
0.0
 10
2946.705169466126
 20
71.04891390507855
 30
0.0
 10
2947.056075255487
 20
59.08605721999891
 30
0.0
  0
SPLINE
  5
7024F
330
70385
100
AcDbEntity
  8
Level 26 (Construction)
  6
Continuous
 62
     7
370
     0
100
AcDbSpline
210
0.0
220
0.0
230
1.0
 70
     9
 71
     3
 72
    19
 73
    15
 74
     0
 42
0.000000001
 43
0.0000000001
 40
0.0
 40
0.0
 40
0.0
 40
0.0
 40
0.0833333335273589
 40
0.1666666665890565
 40
0.2500000001164153
 40
0.3333333331781129
 40
0.4166666667054718
 40
0.4999999997671694
 40
0.5833333332945282
 40
0.6666666668218872
 40
0.7499999998835847
 40
0.8333333334109434
 40
0.9166666664726411
 40
1.0
 40
1.0
 40
1.0
 40
1.0
 10
2947.056075255487
 20
59.08605721999891
 30
0.0
 10
2946.614909204278
 20
47.06869389714394
 30
0.0
 10
2941.164839072743
 20
25.28920175565966
 30
0.0
 10
2915.869422403532
 20
-0.1053123286319897
 30
0.0
 10
2882.071123413695
 20
-8.753822048777713
 30
0.0
 10
2848.180596023333
 20
0.002998441349715
 30
0.0
 10
2823.171659593389
 20
24.83909652783908
 30
0.0
 10
2814.157851463257
 20
58.92684835132025
 30
0.0
 10
2822.991224521517
 20
93.03720309847406
 30
0.0
 10
2848.064383858655
 20
118.1331126416121
 30
0.0
 10
2882.067720477815
 20
126.9324520989926
 30
0.0
 10
2915.999508221581
 20
118.2433567286506
 30
0.0
 10
2941.297835715707
 20
92.57185622509569
 30
0.0
 10
2946.705169466126
 20
71.04891390507855
 30
0.0
 10
2947.056075255487
 20
59.08605721999891
 30
0.0
  0
SPLINE
  5
70250
330
70385
100
AcDbEntity
  8
Level 26 (Construction)
  6
Continuous
 62
     7
370
     0
100
AcDbSpline
210
0.0
220
0.0
230
1.0
 70
     9
 71
     3
 72
    19
 73
    15
 74
     0
 42
0.000000001
 43
0.0000000001
 40
0.0
 40
0.0
 40
0.0
 40
0.0
 40
0.0833333335273589
 40
0.1666666665890565
 40
0.2500000001164153
 40
0.3333333331781129
 40
0.4166666667054718
 40
0.4999999997671694
 40
0.5833333332945282
 40
0.6666666668218872
 40
0.7499999998835847
 40
0.8333333334109434
 40
0.9166666664726411
 40
1.0
 40
1.0
 40
1.0
 40
1.0
 10
2947.056075255487
 20
59.08605721999891
 30
0.0
 10
2946.614909204278
 20
47.06869389714394
 30
0.0
 10
2941.164839072743
 20
25.28920175565966
 30
0.0
 10
2915.869422403532
 20
-0.1053123286319897
 30
0.0
 10
2882.071123413695
 20
-8.753822048777713
 30
0.0
 10
2848.180596023333
 20
0.002998441349715
 30
0.0
 10
2823.171659593389
 20
24.83909652783908
 30
0.0
 10
2814.157851463257
 20
58.92684835132025
 30
0.0
 10
2822.991224521517
 20
93.03720309847406
 30
0.0
 10
2848.064383858655
 20
118.1331126416121
 30
0.0
 10
2882.067720477815
 20
126.9324520989926
 30
0.0
 10
2915.999508221581
 20
118.2433567286506
 30
0.0
 10
2941.297835715707
 20
92.57185622509569
 30
0.0
 10
2946.705169466126
 20
71.04891390507855
 30
0.0
 10
2947.056075255487
 20
59.08605721999891
 30
0.0
  0
SPLINE
  5
70251
330
70385
100
AcDbEntity
  8
Level 26 (Construction)
  6
Continuous
 62
     7
370
     0
100
AcDbSpline
210
0.0
220
0.0
230
1.0
 70
     9
 71
     3
 72
    19
 73
    15
 74
     0
 42
0.000000001
 43
0.0000000001
 40
0.0
 40
0.0
 40
0.0
 40
0.0
 40
0.0833333335273589
 40
0.1666666665890565
 40
0.2500000001164153
 40
0.3333333331781129
 40
0.4166666667054718
 40
0.4999999997671694
 40
0.5833333332945282
 40
0.6666666668218872
 40
0.7499999998835847
 40
0.8333333334109434
 40
0.9166666664726411
 40
1.0
 40
1.0
 40
1.0
 40
1.0
 10
2947.056075255487
 20
59.08605721999891
 30
0.0
 10
2946.614909204278
 20
47.06869389714394
 30
0.0
 10
2941.164839072743
 20
25.28920175565966
 30
0.0
 10
2915.869422403532
 20
-0.1053123286319897
 30
0.0
 10
2882.071123413695
 20
-8.753822048777713
 30
0.0
 10
2848.180596023333
 20
0.002998441349715
 30
0.0
 10
2823.171659593389
 20
24.83909652783908
 30
0.0
 10
2814.157851463257
 20
58.92684835132025
 30
0.0
 10
2822.991224521517
 20
93.03720309847406
 30
0.0
 10
2848.064383858655
 20
118.1331126416121
 30
0.0
 10
2882.067720477815
 20
126.9324520989926
 30
0.0
 10
2915.999508221581
 20
118.2433567286506
 30
0.0
 10
2941.297835715707
 20
92.57185622509569
 30
0.0
 10
2946.705169466126
 20
71.04891390507855
 30
0.0
 10
2947.056075255487
 20
59.08605721999891
 30
0.0
  0
SPLINE
  5
70252
330
70385
100
AcDbEntity
  8
Level 26 (Construction)
  6
Continuous
 62
     7
370
     0
100
AcDbSpline
210
0.0
220
0.0
230
1.0
 70
     9
 71
     3
 72
    19
 73
    15
 74
     0
 42
0.000000001
 43
0.0000000001
 40
0.0
 40
0.0
 40
0.0
 40
0.0
 40
0.0833333335273589
 40
0.1666666665890565
 40
0.2500000001164153
 40
0.3333333331781129
 40
0.4166666667054718
 40
0.4999999997671694
 40
0.5833333332945282
 40
0.6666666668218872
 40
0.7499999998835847
 40
0.8333333334109434
 40
0.9166666664726411
 40
1.0
 40
1.0
 40
1.0
 40
1.0
 10
2947.056075255487
 20
59.08605721999891
 30
0.0
 10
2946.614909204278
 20
47.06869389714394
 30
0.0
 10
2941.164839072743
 20
25.28920175565966
 30
0.0
 10
2915.869422403532
 20
-0.1053123286319897
 30
0.0
 10
2882.071123413695
 20
-8.753822048777713
 30
0.0
 10
2848.180596023333
 20
0.002998441349715
 30
0.0
 10
2823.171659593389
 20
24.83909652783908
 30
0.0
 10
2814.157851463257
 20
58.92684835132025
 30
0.0
 10
2822.991224521517
 20
93.03720309847406
 30
0.0
 10
2848.064383858655
 20
118.1331126416121
 30
0.0
 10
2882.067720477815
 20
126.9324520989926
 30
0.0
 10
2915.999508221581
 20
118.2433567286506
 30
0.0
 10
2941.297835715707
 20
92.57185622509569
 30
0.0
 10
2946.705169466126
 20
71.04891390507855
 30
0.0
 10
2947.056075255487
 20
59.08605721999891
 30
0.0
  0
SPLINE
  5
70253
330
70385
100
AcDbEntity
  8
Level 26 (Construction)
  6
Continuous
 62
     7
370
     0
100
AcDbSpline
210
0.0
220
0.0
230
1.0
 70
     9
 71
     3
 72
    19
 73
    15
 74
     0
 42
0.000000001
 43
0.0000000001
 40
0.0
 40
0.0
 40
0.0
 40
0.0
 40
0.0833333335273589
 40
0.1666666665890565
 40
0.2500000001164153
 40
0.3333333331781129
 40
0.4166666667054718
 40
0.4999999997671694
 40
0.5833333332945282
 40
0.6666666668218872
 40
0.7499999998835847
 40
0.8333333334109434
 40
0.9166666664726411
 40
1.0
 40
1.0
 40
1.0
 40
1.0
 10
2947.056075255487
 20
59.08605721999891
 30
0.0
 10
2946.614909204278
 20
47.06869389714394
 30
0.0
 10
2941.164839072743
 20
25.28920175565966
 30
0.0
 10
2915.869422403532
 20
-0.1053123286319897
 30
0.0
 10
2882.071123413695
 20
-8.753822048777713
 30
0.0
 10
2848.180596023333
 20
0.002998441349715
 30
0.0
 10
2823.171659593389
 20
24.83909652783908
 30
0.0
 10
2814.157851463257
 20
58.92684835132025
 30
0.0
 10
2822.991224521517
 20
93.03720309847406
 30
0.0
 10
2848.064383858655
 20
118.1331126416121
 30
0.0
 10
2882.067720477815
 20
126.9324520989926
 30
0.0
 10
2915.999508221581
 20
118.2433567286506
 30
0.0
 10
2941.297835715707
 20
92.57185622509569
 30
0.0
 10
2946.705169466126
 20
71.04891390507855
 30
0.0
 10
2947.056075255487
 20
59.08605721999891
 30
0.0
  0
SPLINE
  5
70254
330
70385
100
AcDbEntity
  8
Level 26 (Construction)
  6
Continuous
 62
     7
370
     0
100
AcDbSpline
210
0.0
220
0.0
230
1.0
 70
     9
 71
     3
 72
    19
 73
    15
 74
     0
 42
0.000000001
 43
0.0000000001
 40
0.0
 40
0.0
 40
0.0
 40
0.0
 40
0.0833333335273589
 40
0.1666666665890565
 40
0.2500000001164153
 40
0.3333333331781129
 40
0.4166666667054718
 40
0.4999999997671694
 40
0.5833333332945282
 40
0.6666666668218872
 40
0.7499999998835847
 40
0.8333333334109434
 40
0.9166666664726411
 40
1.0
 40
1.0
 40
1.0
 40
1.0
 10
2947.056075255487
 20
59.08605721999891
 30
0.0
 10
2946.614909204278
 20
47.06869389714394
 30
0.0
 10
2941.164839072743
 20
25.28920175565966
 30
0.0
 10
2915.869422403532
 20
-0.1053123286319897
 30
0.0
 10
2882.071123413695
 20
-8.753822048777713
 30
0.0
 10
2848.180596023333
 20
0.002998441349715
 30
0.0
 10
2823.171659593389
 20
24.83909652783908
 30
0.0
 10
2814.157851463257
 20
58.92684835132025
 30
0.0
 10
2822.991224521517
 20
93.03720309847406
 30
0.0
 10
2848.064383858655
 20
118.1331126416121
 30
0.0
 10
2882.067720477815
 20
126.9324520989926
 30
0.0
 10
2915.999508221581
 20
118.2433567286506
 30
0.0
 10
2941.297835715707
 20
92.57185622509569
 30
0.0
 10
2946.705169466126
 20
71.04891390507855
 30
0.0
 10
2947.056075255487
 20
59.08605721999891
 30
0.0
  0
SPLINE
  5
70255
330
70385
100
AcDbEntity
  8
Level 26 (Construction)
  6
Continuous
 62
     7
370
     0
100
AcDbSpline
210
0.0
220
0.0
230
1.0
 70
     9
 71
     3
 72
    19
 73
    15
 74
     0
 42
0.000000001
 43
0.0000000001
 40
0.0
 40
0.0
 40
0.0
 40
0.0
 40
0.0833333335273589
 40
0.1666666665890565
 40
0.2500000001164153
 40
0.3333333331781129
 40
0.4166666667054718
 40
0.4999999997671694
 40
0.5833333332945282
 40
0.6666666668218872
 40
0.7499999998835847
 40
0.8333333334109434
 40
0.9166666664726411
 40
1.0
 40
1.0
 40
1.0
 40
1.0
 10
2947.056075255487
 20
59.08605721999891
 30
0.0
 10
2946.614909204278
 20
47.06869389714394
 30
0.0
 10
2941.164839072743
 20
25.28920175565966
 30
0.0
 10
2915.869422403532
 20
-0.1053123286319897
 30
0.0
 10
2882.071123413695
 20
-8.753822048777713
 30
0.0
 10
2848.180596023333
 20
0.002998441349715
 30
0.0
 10
2823.171659593389
 20
24.83909652783908
 30
0.0
 10
2814.157851463257
 20
58.92684835132025
 30
0.0
 10
2822.991224521517
 20
93.03720309847406
 30
0.0
 10
2848.064383858655
 20
118.1331126416121
 30
0.0
 10
2882.067720477815
 20
126.9324520989926
 30
0.0
 10
2915.999508221581
 20
118.2433567286506
 30
0.0
 10
2941.297835715707
 20
92.57185622509569
 30
0.0
 10
2946.705169466126
 20
71.04891390507855
 30
0.0
 10
2947.056075255487
 20
59.08605721999891
 30
0.0
  0
ENDBLK
  5
70387
330
70385
100
AcDbEntity
  8
0
 62
    98
370
     0
100
AcDbBlockEnd
  0
BLOCK
  5
70389
330
70388
100
AcDbEntity
  8
0
 62
    98
370
     0
100
AcDbBlockBegin
  2
*U59
 70
     1
 10
0.0
 20
0.0
 30
0.0
  3
*U59
  1

  0
LWPOLYLINE
  5
6FFAF
330
70388
100
AcDbEntity
  8
Level 26
  6
Continuous
 62
    40
370
     0
100
AcDbPolyline
 90
       16
 70
   129
 43
0.0
 10
32.93402
 20
0.0
 10
23.779066
 20
0.0
 10
11.726798
 20
0.0
 10
23.779066
 20
0.0
 10
11.726798
 20
0.0
 10
-14.471568
 20
0.0
 10
-33.569827
 20
0.0
 10
-14.471568
 20
0.0
 10
-32.935265
 20
0.0
 10
-23.780312
 20
0.0
 10
-11.728044
 20
0.0
 10
-23.780312
 20
0.0
 10
-11.728044
 20
0.0
 10
14.470323
 20
0.0
 10
33.568582
 20
0.0
 10
14.470323
 20
0.0
  0
LINE
  5
6FFB8
330
70388
100
AcDbEntity
  8
Level 26 (Construction)
  6
Continuous
 62
    40
370
     0
100
AcDbLine
 10
27.068581
 20
0.0
 30
0.0
 11
14.068583
 21
0.0
 31
0.0
  0
LINE
  5
6FFB9
330
70388
100
AcDbEntity
  8
Level 26 (Construction)
  6
Continuous
 62
    40
370
     0
100
AcDbLine
 10
-14.069827
 20
0.0
 30
0.0
 11
-27.069827
 21
0.0
 31
0.0
  0
ENDBLK
  5
7038A
330
70388
100
AcDbEntity
  8
0
 62
    98
370
     0
100
AcDbBlockEnd
  0
BLOCK
  5
7038C
330
7038B
100
AcDbEntity
  8
0
 62
    98
370
     0
100
AcDbBlockBegin
  2
*U60
 70
     1
 10
0.0
 20
0.0
 30
0.0
  3
*U60
  1

  0
LWPOLYLINE
  5
6FFBB
330
7038B
100
AcDbEntity
  8
Level 26
  6
Continuous
 62
    40
370
     0
100
AcDbPolyline
 90
       16
 70
   129
 43
0.0
 10
23.937346
 20
0.0
 10
24.985212
 20
0.0
 10
18.572334
 20
0.0
 10
25.000814
 20
0.0
 10
18.572334
 20
0.0
 10
-1.28664
 20
0.0
 10
-23.935718
 20
0.0
 10
-1.28664
 20
0.0
 10
-23.935718
 20
0.0
 10
-24.983584
 20
0.0
 10
-18.570706
 20
0.0
 10
-24.999186
 20
0.0
 10
-18.570706
 20
0.0
 10
1.288268
 20
0.0
 10
23.937346
 20
0.0
 10
1.288268
 20
0.0
  0
LINE
  5
6FFC4
330
7038B
100
AcDbEntity
  8
Level 26 (Construction)
  6
Continuous
 62
    40
370
     0
100
AcDbLine
 10
-4.443831
 20
0.0
 30
0.0
 11
-17.443831
 21
0.0
 31
0.0
  0
LINE
  5
6FFC5
330
7038B
100
AcDbEntity
  8
Level 26 (Construction)
  6
Continuous
 62
    40
370
     0
100
AcDbLine
 10
17.445459
 20
0.0
 30
0.0
 11
4.445459
 21
0.0
 31
0.0
  0
ENDBLK
  5
7038D
330
7038B
100
AcDbEntity
  8
0
 62
    98
370
     0
100
AcDbBlockEnd
  0
BLOCK
  5
7038F
330
7038E
100
AcDbEntity
  8
0
 62
    98
370
     0
100
AcDbBlockBegin
  2
*U61
 70
     1
 10
0.0
 20
0.0
 30
0.0
  3
*U61
  1

  0
LWPOLYLINE
  5
6FFC7
330
7038E
100
AcDbEntity
  8
Level 26
  6
Continuous
 62
    40
370
     0
100
AcDbPolyline
 90
       16
 70
   129
 43
0.0
 10
37.960644
 20
0.0
 10
19.707095
 20
0.0
 10
3.469119
 20
0.0
 10
19.707095
 20
0.0
 10
3.469119
 20
0.0
 10
-25.908729
 20
0.0
 10
-40.712516
 20
0.0
 10
-25.908729
 20
0.0
 10
-37.960051
 20
0.0
 10
-19.706502
 20
0.0
 10
-3.468526
 20
0.0
 10
-19.706502
 20
0.0
 10
-3.468526
 20
0.0
 10
25.909321
 20
0.0
 10
40.713109
 20
0.0
 10
25.909321
 20
0.0
  0
LINE
  5
6FFD0
330
7038E
100
AcDbEntity
  8
Level 26 (Construction)
  6
Continuous
 62
    40
370
     0
100
AcDbLine
 10
-21.212516
 20
0.0
 30
0.0
 11
-34.212516
 21
0.0
 31
0.0
  0
LINE
  5
6FFD1
330
7038E
100
AcDbEntity
  8
Level 26 (Construction)
  6
Continuous
 62
    40
370
     0
100
AcDbLine
 10
34.213109
 20
0.0
 30
0.0
 11
21.213109
 21
0.0
 31
0.0
  0
ENDBLK
  5
70390
330
7038E
100
AcDbEntity
  8
0
 62
    98
370
     0
100
AcDbBlockEnd
  0
BLOCK
  5
70392
330
70391
100
AcDbEntity
  8
0
 62
    98
370
     0
100
AcDbBlockBegin
  2
*U62
 70
     1
 10
0.0
 20
0.0
 30
0.0
  3
*U62
  1

  0
LWPOLYLINE
  5
6FFD3
330
70391
100
AcDbEntity
  8
Level 26
  6
Continuous
 62
    40
370
     0
100
AcDbPolyline
 90
       14
 70
   129
 43
0.0
 10
1.288268
 20
0.0
 10
-18.570706
 20
0.0
 10
-24.999186
 20
0.0
 10
-24.983584
 20
0.0
 10
-23.935718
 20
0.0
 10
-1.28664
 20
0.0
 10
-23.935718
 20
0.0
 10
-1.28664
 20
0.0
 10
18.572334
 20
0.0
 10
25.000814
 20
0.0
 10
24.985212
 20
0.0
 10
23.937346
 20
0.0
 10
1.288268
 20
0.0
 10
23.937346
 20
0.0
  0
LINE
  5
6FFDC
330
70391
100
AcDbEntity
  8
Level 26 (Construction)
  6
Continuous
 62
    40
370
     0
100
AcDbLine
 10
4.445459
 20
0.0
 30
0.0
 11
17.445459
 21
0.0
 31
0.0
  0
LINE
  5
6FFDD
330
70391
100
AcDbEntity
  8
Level 26 (Construction)
  6
Continuous
 62
    40
370
     0
100
AcDbLine
 10
-17.443831
 20
0.0
 30
0.0
 11
-4.443831
 21
0.0
 31
0.0
  0
ENDBLK
  5
70393
330
70391
100
AcDbEntity
  8
0
 62
    98
370
     0
100
AcDbBlockEnd
  0
BLOCK
  5
70395
330
70394
100
AcDbEntity
  8
0
 62
    98
370
     0
100
AcDbBlockBegin
  2
*U63
 70
     1
 10
0.0
 20
0.0
 30
0.0
  3
*U63
  1

  0
LWPOLYLINE
  5
6FFDF
330
70394
100
AcDbEntity
  8
Level 26
  6
Continuous
 62
    40
370
     0
100
AcDbPolyline
 90
       12
 70
   129
 43
0.0
 10
25.909321
 20
0.0
 10
-3.468526
 20
0.0
 10
-19.706502
 20
0.0
 10
-37.960051
 20
0.0
 10
-25.908729
 20
0.0
 10
-40.712516
 20
0.0
 10
-25.908729
 20
0.0
 10
3.469119
 20
0.0
 10
19.707095
 20
0.0
 10
37.960644
 20
0.0
 10
25.909321
 20
0.0
 10
40.713109
 20
0.0
  0
LINE
  5
6FFE8
330
70394
100
AcDbEntity
  8
Level 26 (Construction)
  6
Continuous
 62
    40
370
     0
100
AcDbLine
 10
21.213109
 20
0.0
 30
0.0
 11
34.213109
 21
0.0
 31
0.0
  0
LINE
  5
6FFE9
330
70394
100
AcDbEntity
  8
Level 26 (Construction)
  6
Continuous
 62
    40
370
     0
100
AcDbLine
 10
-34.212516
 20
0.0
 30
0.0
 11
-21.212516
 21
0.0
 31
0.0
  0
ENDBLK
  5
70396
330
70394
100
AcDbEntity
  8
0
 62
    98
370
     0
100
AcDbBlockEnd
  0
BLOCK
  5
70398
330
70397
100
AcDbEntity
  8
0
 62
    98
370
     0
100
AcDbBlockBegin
  2
*U64
 70
     1
 10
0.0
 20
0.0
 30
0.0
  3
*U64
  1

  0
LWPOLYLINE
  5
6FFEB
330
70397
100
AcDbEntity
  8
Level 26
  6
Continuous
 62
    40
370
     0
100
AcDbPolyline
 90
       12
 70
   129
 43
0.0
 10
14.470323
 20
0.0
 10
-11.728044
 20
0.0
 10
-23.780312
 20
0.0
 10
-32.935265
 20
0.0
 10
-14.471568
 20
0.0
 10
-33.569827
 20
0.0
 10
-14.471568
 20
0.0
 10
11.726798
 20
0.0
 10
23.779066
 20
0.0
 10
32.93402
 20
0.0
 10
14.470323
 20
0.0
 10
33.568582
 20
0.0
  0
LINE
  5
6FFF4
330
70397
100
AcDbEntity
  8
Level 26 (Construction)
  6
Continuous
 62
    40
370
     0
100
AcDbLine
 10
14.068582
 20
0.0
 30
0.0
 11
27.068582
 21
0.0
 31
0.0
  0
LINE
  5
6FFF5
330
70397
100
AcDbEntity
  8
Level 26 (Construction)
  6
Continuous
 62
    40
370
     0
100
AcDbLine
 10
-27.069827
 20
0.0
 30
0.0
 11
-14.069827
 21
0.0
 31
0.0
  0
ENDBLK
  5
70399
330
70397
100
AcDbEntity
  8
0
 62
    98
370
     0
100
AcDbBlockEnd
  0
BLOCK
  5
7039B
330
7039A
100
AcDbEntity
  8
0
 62
    98
370
     0
100
AcDbBlockBegin
  2
From Solid_3
 70
     0
 10
0.0
 20
0.0
 30
0.0
  3
From Solid_3
  1

  0
LINE
  5
70023
330
7039A
100
AcDbEntity
  8
Level 26
  6
Continuous
 62
     7
370
     0
100
AcDbLine
 10
3165.435522
 20
-146.213943
 30
0.0
 11
3140.435522
 21
-146.213943
 31
0.0
  0
LINE
  5
70024
330
7039A
100
AcDbEntity
  8
Level 26
  6
Continuous
 62
     7
370
     0
100
AcDbLine
 10
3165.435522
 20
-125.613943
 30
0.0
 11
3140.435522
 21
-125.613943
 31
0.0
  0
LINE
  5
70025
330
7039A
100
AcDbEntity
  8
Level 26
  6
Continuous
 62
     7
370
     0
100
AcDbLine
 10
3165.435522
 20
-146.213943
 30
0.0
 11
3165.435522
 21
-125.613943
 31
0.0
  0
LINE
  5
70026
330
7039A
100
AcDbEntity
  8
Level 26
  6
Continuous
 62
     7
370
     0
100
AcDbLine
 10
3152.935522
 20
-146.213943
 30
0.0
 11
3152.935522
 21
-125.613943
 31
0.0
  0
LINE
  5
70027
330
7039A
100
AcDbEntity
  8
Level 26
  6
Continuous
 62
     7
370
     0
100
AcDbLine
 10
3140.435522
 20
-146.213943
 30
0.0
 11
3140.435522
 21
-125.613943
 31
0.0
  0
LINE
  5
70028
330
7039A
100
AcDbEntity
  8
Level 26
  6
Continuous
 62
     7
370
     0
100
AcDbLine
 10
3152.935522
 20
-146.213943
 30
0.0
 11
3152.935522
 21
-125.613943
 31
0.0
  0
ENDBLK
  5
7039C
330
7039A
100
AcDbEntity
  8
0
 62
    98
370
     0
100
AcDbBlockEnd
  0
BLOCK
  5
7039E
330
7039D
100
AcDbEntity
  8
0
 62
    98
370
     0
100
AcDbBlockBegin
  2
From Solid_4
 70
     0
 10
0.0
 20
0.0
 30
0.0
  3
From Solid_4
  1

  0
LINE
  5
7002A
330
7039D
100
AcDbEntity
  8
Level 26
  6
Continuous
 62
     7
370
     0
100
AcDbLine
 10
3165.435522
 20
243.786057
 30
0.0
 11
3140.435522
 21
243.786057
 31
0.0
  0
LINE
  5
7002B
330
7039D
100
AcDbEntity
  8
Level 26
  6
Continuous
 62
     7
370
     0
100
AcDbLine
 10
3165.435522
 20
264.386057
 30
0.0
 11
3140.435522
 21
264.386057
 31
0.0
  0
LINE
  5
7002C
330
7039D
100
AcDbEntity
  8
Level 26
  6
Continuous
 62
     7
370
     0
100
AcDbLine
 10
3165.435522
 20
243.786057
 30
0.0
 11
3165.435522
 21
264.386057
 31
0.0
  0
LINE
  5
7002D
330
7039D
100
AcDbEntity
  8
Level 26
  6
Continuous
 62
     7
370
     0
100
AcDbLine
 10
3152.935522
 20
243.786057
 30
0.0
 11
3152.935522
 21
264.386057
 31
0.0
  0
LINE
  5
7002E
330
7039D
100
AcDbEntity
  8
Level 26
  6
Continuous
 62
     7
370
     0
100
AcDbLine
 10
3140.435522
 20
243.786057
 30
0.0
 11
3140.435522
 21
264.386057
 31
0.0
  0
LINE
  5
7002F
330
7039D
100
AcDbEntity
  8
Level 26
  6
Continuous
 62
     7
370
     0
100
AcDbLine
 10
3152.935522
 20
243.786057
 30
0.0
 11
3152.935522
 21
264.386057
 31
0.0
  0
ENDBLK
  5
7039F
330
7039D
100
AcDbEntity
  8
0
 62
    98
370
     0
100
AcDbBlockEnd
  0
ENDSEC
  0
SECTION
  2
ENTITIES
  0
INSERT
  5
6FD64
330
70262
100
AcDbEntity
  8
Level 26
  6
Continuous
 62
   133
370
     0
100
AcDbBlockReference
  2
SE03
 10
2882.056075
 20
59.086057
 30
0.0
  0
LWPOLYLINE
  5
7003B
330
70262
100
AcDbEntity
  8
Level 15
  6
DGN Style 2
 62
     7
370
    13
100
AcDbPolyline
 90
        9
 70
   129
 43
0.0
 10
1238.039541
 20
264.086057
 42
-0.414214
 10
2438.039541
 20
1464.086057
 10
3337.547648
 20
1464.086057
 42
-0.414214
 10
4537.547648
 20
264.086057
 10
4537.547648
 20
-145.913943
 42
-0.414214
 10
3337.547648
 20
-1345.913943
 10
2438.039541
 20
-1345.913943
 42
-0.414214
 10
1238.039541
 20
-145.913943
 10
1238.039541
 20
264.086057
  0
ENDSEC
  0
SECTION
  2
OBJECTS
  0
DICTIONARY
  5
70269
330
0
100
AcDbDictionary
281
     1
  3
ACAD_COLOR
350
702A7
  3
ACAD_GROUP
350
70294
  3
ACAD_LAYOUT
350
70276
  3
ACAD_MATERIAL
350
7026B
  3
ACAD_MLEADERSTYLE
350
702AA
  3
ACAD_MLINESTYLE
350
70295
  3
ACAD_PLOTSETTINGS
350
70296
  3
ACAD_PLOTSTYLENAME
350
70268
  3
ACAD_SCALELIST
350
702A8
  3
ACAD_TABLESTYLE
350
702A9
  3
ACAD_VISUALSTYLE
350
7028E
  3
ACDB_RECOMPOSE_DATA
350
703AE
  3
AcDbVariableDictionary
350
703A4
  0
DICTIONARY
  5
70281
330
70280
100
AcDbDictionary
280
     1
281
     1
  3
ACAD_LAYERFILTERS
360
702D4
  3
ACAD_LAYERSTATES
360
70282
  3
ACLYDICTIONARY
360
702D5
  0
DICTIONARY
  5
70265
330
70264
100
AcDbDictionary
280
     1
281
     1
  3
ADSK_XREC_LAYER_RECONCILED
360
70266
  0
DICTIONARY
  5
703A0
330
702D6
100
AcDbDictionary
280
     1
281
     1
  3
ACAD_SORTENTS
360
703A1
  0
DICTIONARY
  5
702A7
102
{ACAD_REACTORS
330
70269
102
}
330
70269
100
AcDbDictionary
281
     1
  0
DICTIONARY
  5
70294
102
{ACAD_REACTORS
330
70269
102
}
330
70269
100
AcDbDictionary
281
     1
  0
DICTIONARY
  5
70276
102
{ACAD_REACTORS
330
70269
102
}
330
70269
100
AcDbDictionary
281
     1
  3
Layout1
350
7027C
  3
Model
350
70275
  0
DICTIONARY
  5
7026B
102
{ACAD_REACTORS
330
70269
102
}
330
70269
100
AcDbDictionary
281
     1
  3
ByBlock
350
7029F
  3
ByLayer
350
70297
  3
Global
350
7026A
  0
DICTIONARY
  5
702AA
102
{ACAD_REACTORS
330
70269
102
}
330
70269
100
AcDbDictionary
281
     1
  0
DICTIONARY
  5
70295
102
{ACAD_REACTORS
330
70269
102
}
330
70269
100
AcDbDictionary
281
     1
  3
Standard
350
702AB
  0
DICTIONARY
  5
70296
102
{ACAD_REACTORS
330
70269
102
}
330
70269
100
AcDbDictionary
281
     1
  0
ACDBDICTIONARYWDFLT
  5
70268
102
{ACAD_REACTORS
330
70269
102
}
330
70269
100
AcDbDictionary
281
     1
  3
Normal
350
70267
100
AcDbDictionaryWithDefault
340
70267
  0
DICTIONARY
  5
702A8
102
{ACAD_REACTORS
330
70269
102
}
330
70269
100
AcDbDictionary
281
     1
  3
A0
350
702B0
  3
A1
350
702B1
  3
A2
350
702B2
  3
A3
350
702B3
  3
A4
350
702B4
  3
A5
350
702B5
  3
A6
350
702B6
  3
A7
350
702B7
  3
A8
350
702B8
  3
A9
350
702B9
  3
B0
350
702BA
  3
B1
350
702BB
  3
B2
350
702BC
  3
B3
350
702BD
  3
B4
350
702BE
  3
B5
350
702BF
  3
B6
350
702C0
  3
B7
350
702C1
  3
B8
350
702C2
  3
B9
350
702C3
  3
C0
350
702C4
  3
C1
350
702C5
  3
C2
350
702C6
  3
C3
350
702C7
  3
C4
350
702C8
  3
C5
350
702C9
  3
C6
350
702CA
  3
C7
350
702CB
  3
C8
350
702CC
  3
C9
350
702CD
  3
D0
350
702CE
  3
D1
350
702CF
  3
D2
350
702D0
  0
DICTIONARY
  5
702A9
102
{ACAD_REACTORS
330
70269
102
}
330
70269
100
AcDbDictionary
281
     1
  3
Standard
350
702AC
  0
DICTIONARY
  5
7028E
102
{ACAD_REACTORS
330
70269
102
}
330
70269
100
AcDbDictionary
281
     1
  3
2dWireframe
350
7028D
  3
Realistic
350
702AE
  3
Wireframe
350
702AF
  0
XRECORD
  5
703AE
102
{ACAD_REACTORS
330
70269
102
}
330
70269
100
AcDbXrecord
280
     1
 90
        1
330
702AC
  0
DICTIONARY
  5
703A4
102
{ACAD_REACTORS
330
70269
102
}
330
70269
100
AcDbDictionary
281
     1
  3
CANNOSCALE
350
703AA
  3
CMLEADERSTYLE
350
703A6
  3
CTABLESTYLE
350
703A5
  3
CVIEWDETAILSTYLE
350
703A7
  3
CVIEWSECTIONSTYLE
350
703A8
  3
LAYEREVAL
350
703AB
  3
LAYERNOTIFY
350
703AC
  3
MSLTSCALE
350
703A9
  0
DICTIONARY
  5
702D4
102
{ACAD_REACTORS
330
70281
102
}
330
70281
100
AcDbDictionary
281
     1
  0
DICTIONARY
  5
70282
102
{ACAD_REACTORS
330
70281
102
}
330
70281
100
AcDbDictionary
281
     1
  0
DICTIONARY
  5
702D5
102
{ACAD_REACTORS
330
70281
102
}
330
70281
100
AcDbDictionary
281
     1
  0
XRECORD
  5
70266
102
{ACAD_REACTORS
330
70265
102
}
330
70265
100
AcDbXrecord
280
     1
290
     1
  0
SORTENTSTABLE
  5
703A1
102
{ACAD_REACTORS
330
703A0
102
}
330
703A0
100
AcDbSortentsTable
330
702D6
331
6FDC8
  5
6FDC8
331
6FE71
  5
700A6
331
700BE
  5
700B3
331
701C6
  5
701C6
331
700C3
  5
700B8
331
700B6
  5
700AB
331
700C8
  5
700BD
331
6FD6F
  5
6FD6F
331
6FF25
  5
700C3
331
6FD81
  5
6FD81
331
6FFBA
  5
700C5
331
700AD
  5
6FFEA
331
700BB
  5
700B0
331
700C0
  5
700B5
331
700B3
  5
7009E
331
6FD6C
  5
6FD6C
331
6FD7E
  5
6FD7E
331
6FD76
  5
6FD76
331
700AA
  5
6FFC6
331
700A5
  5
6FE8D
331
6FE49
  5
7009F
331
6FE6B
  5
700A3
331
6FDAA
  5
6FDAA
331
6FD67
  5
6FD67
331
700B8
  5
700AD
331
700B0
  5
7000C
331
6FD69
  5
6FD69
331
7009E
  5
6FE65
331
6FD7B
  5
6FD7B
331
700C7
  5
700BC
331
6FE8F
  5
700A8
331
700CC
  5
700C1
331
6FD73
  5
6FD73
331
700A2
  5
6FE6D
331
6FFD2
  5
700C7
331
700BF
  5
700B4
331
6FD78
  5
6FD78
331
701C7
  5
701C7
331
700C4
  5
700B9
331
700B7
  5
700AC
331
700C9
  5
700BE
331
6FD70
  5
6FD70
331
6FDA4
  5
6FDA4
331
700AE
  5
6FFF6
331
6FDC6
  5
6FDC6
331
6FE6F
  5
700A5
331
700BC
  5
700B1
331
700C1
  5
700B6
331
700B4
  5
700A9
331
6FE67
  5
700A1
331
6FD6D
  5
6FD6D
331
6FFAE
  5
700C4
331
6FD7F
  5
6FD7F
331
6FD77
  5
6FD77
331
700AB
  5
6FFD2
331
700A6
  5
6FE8F
331
700B9
  5
700AE
331
700B1
  5
70017
331
6FD6A
  5
6FD6A
331
7009F
  5
6FE67
331
6FD7C
  5
6FD7C
331
700CD
  5
700C2
331
6FD74
  5
6FD74
331
6FD86
  5
6FD86
331
700A8
  5
6FFAE
331
700A3
  5
6FE6F
331
7000C
  5
700CC
331
6FE69
  5
700A2
331
6FDA8
  5
6FDA8
331
6FD65
  5
6FD65
331
6FD79
  5
6FD79
331
700C5
  5
700BA
331
6FE8D
  5
700A7
331
700CA
  5
700BF
331
6FD71
  5
6FD71
331
700A0
  5
6FE69
331
70001
  5
700CB
331
6FFC6
  5
700C6
331
700AF
  5
70001
331
700BD
  5
700B2
331
6FFEA
  5
700C9
331
700C2
  5
700B7
331
700B5
  5
700AA
331
6FD6E
  5
6FD6E
331
6FD80
  5
6FD80
331
6FDA2
  5
6FDA2
331
6FFF6
  5
700CA
331
700AC
  5
6FFDE
331
700A7
  5
6FF25
331
6FE6D
  5
700A4
331
700BA
  5
700AF
331
6FE65
  5
700A0
331
700B2
  5
7009D
331
6FD6B
  5
6FD6B
331
6FD7D
  5
6FD7D
331
6FD75
  5
6FD75
331
700A9
  5
6FFBA
331
700A4
  5
6FE71
331
6FD66
  5
6FD66
331
70017
  5
700CD
331
6FD68
  5
6FD68
331
7009D
  5
6FE49
331
6FD7A
  5
6FD7A
331
700C6
  5
700BB
331
700CB
  5
700C0
331
6FD72
  5
6FD72
331
6FFDE
  5
700C8
331
700A1
  5
6FE6B
331
6FDA6
  5
6FDA6
  0
LAYOUT
  5
7027C
102
{ACAD_XDICTIONARY
360
7027D
102
}
102
{ACAD_REACTORS
330
70276
102
}
330
70276
100
AcDbPlotSettings
  1

  2
none_device
  4
Letter_(8.50_x_11.00_Inches)
  6

 40
6.35
 41
6.35
 42
6.350006
 43
6.350006
 44
215.899994
 45
279.399994
 46
0.0
 47
0.0
 48
0.0
 49
0.0
140
0.0
141
0.0
142
1.0
143
1.0
 70
   688
 72
     0
 73
     1
 74
     5
  7

 75
    16
147
1.0
 76
     0
 77
     2
 78
   300
148
0.0
149
0.0
100
AcDbLayout
  1
Layout1
 70
     1
 71
     1
 10
-0.25
 20
-0.25
 11
10.75
 21
8.25
 12
0.0
 22
0.0
 32
0.0
 14
1.05
 24
0.8
 34
0.0
 15
9.45
 25
7.2
 35
0.0
146
0.0
 13
0.0
 23
0.0
 33
0.0
 16
1.0
 26
0.0
 36
0.0
 17
0.0
 27
1.0
 37
0.0
 76
     0
330
70279
1001
ACAD_PSEXT
1000
None
1000
None
1000
Not applicable
1000
The layout will not be plotted unless a new plotter configuration name is selected.
1070
     0
  0
LAYOUT
  5
70275
102
{ACAD_XDICTIONARY
360
70277
102
}
102
{ACAD_REACTORS
330
70276
102
}
330
70276
100
AcDbPlotSettings
  1

  2
none_device
  4
ANSI_A_(8.50_x_11.00_Inches)
  6

 40
6.35
 41
19.049999
 42
6.350006
 43
19.049988
 44
215.899994
 45
279.399994
 46
0.0
 47
0.0
 48
0.0
 49
0.0
140
0.0
141
0.0
142
1.0
143
2.584895
 70
 11952
 72
     0
 73
     1
 74
     0
  7

 75
     0
147
0.386863
 76
     0
 77
     2
 78
   300
148
0.0
149
0.0
100
AcDbLayout
  1
Model
 70
     1
 71
     0
 10
0.0
 20
0.0
 11
12.0
 21
9.0
 12
0.0
 22
0.0
 32
0.0
 14
0.0
 24
0.0
 34
0.0
 15
0.0
 25
0.0
 35
0.0
146
0.0
 13
0.0
 23
0.0
 33
0.0
 16
1.0
 26
0.0
 36
0.0
 17
0.0
 27
1.0
 37
0.0
 76
     0
330
70262
331
7028C
  0
MATERIAL
  5
7029F
102
{ACAD_XDICTIONARY
360
702A0
102
}
102
{ACAD_REACTORS
330
7026B
102
}
330
7026B
100
AcDbMaterial
  1
ByBlock
 72
     0
 43
0.020833
 43
0.0
 43
0.0
 43
0.0
 43
0.0
 43
0.020833
 43
0.0
 43
0.0
 43
0.0
 43
0.0
 43
1.0
 43
0.0
 43
0.0
 43
0.0
 43
0.0
 43
1.0
 77
     0
 47
0.020833
 47
0.0
 47
0.0
 47
0.0
 47
0.0
 47
0.020833
 47
0.0
 47
0.0
 47
0.0
 47
0.0
 47
1.0
 47
0.0
 47
0.0
 47
0.0
 47
0.0
 47
1.0
171
     0
 49
0.020833
 49
0.0
 49
0.0
 49
0.0
 49
0.0
 49
0.020833
 49
0.0
 49
0.0
 49
0.0
 49
0.0
 49
1.0
 49
0.0
 49
0.0
 49
0.0
 49
0.0
 49
1.0
175
     0
142
0.020833
142
0.0
142
0.0
142
0.0
142
0.0
142
0.020833
142
0.0
142
0.0
142
0.0
142
0.0
142
1.0
142
0.0
142
0.0
142
0.0
142
0.0
142
1.0
179
     0
144
0.020833
144
0.0
144
0.0
144
0.0
144
0.0
144
0.020833
144
0.0
144
0.0
144
0.0
144
0.0
144
1.0
144
0.0
144
0.0
144
0.0
144
0.0
144
1.0
147
0.020833
147
0.0
147
0.0
147
0.0
147
0.0
147
0.020833
147
0.0
147
0.0
147
0.0
147
0.0
147
1.0
147
0.0
147
0.0
147
0.0
147
0.0
147
1.0
  0
MATERIAL
  5
70297
102
{ACAD_XDICTIONARY
360
70298
102
}
102
{ACAD_REACTORS
330
7026B
102
}
330
7026B
100
AcDbMaterial
  1
ByLayer
 72
     0
 43
0.020833
 43
0.0
 43
0.0
 43
0.0
 43
0.0
 43
0.020833
 43
0.0
 43
0.0
 43
0.0
 43
0.0
 43
1.0
 43
0.0
 43
0.0
 43
0.0
 43
0.0
 43
1.0
 77
     0
 47
0.020833
 47
0.0
 47
0.0
 47
0.0
 47
0.0
 47
0.020833
 47
0.0
 47
0.0
 47
0.0
 47
0.0
 47
1.0
 47
0.0
 47
0.0
 47
0.0
 47
0.0
 47
1.0
171
     0
 49
0.020833
 49
0.0
 49
0.0
 49
0.0
 49
0.0
 49
0.020833
 49
0.0
 49
0.0
 49
0.0
 49
0.0
 49
1.0
 49
0.0
 49
0.0
 49
0.0
 49
0.0
 49
1.0
175
     0
142
0.020833
142
0.0
142
0.0
142
0.0
142
0.0
142
0.020833
142
0.0
142
0.0
142
0.0
142
0.0
142
1.0
142
0.0
142
0.0
142
0.0
142
0.0
142
1.0
179
     0
144
0.020833
144
0.0
144
0.0
144
0.0
144
0.0
144
0.020833
144
0.0
144
0.0
144
0.0
144
0.0
144
1.0
144
0.0
144
0.0
144
0.0
144
0.0
144
1.0
147
0.020833
147
0.0
147
0.0
147
0.0
147
0.0
147
0.020833
147
0.0
147
0.0
147
0.0
147
0.0
147
1.0
147
0.0
147
0.0
147
0.0
147
0.0
147
1.0
  0
MATERIAL
  5
7026A
102
{ACAD_XDICTIONARY
360
7026C
102
}
102
{ACAD_REACTORS
330
7026B
102
}
330
7026B
100
AcDbMaterial
  1
Global
 72
     0
 43
0.020833
 43
0.0
 43
0.0
 43
0.0
 43
0.0
 43
0.020833
 43
0.0
 43
0.0
 43
0.0
 43
0.0
 43
1.0
 43
0.0
 43
0.0
 43
0.0
 43
0.0
 43
1.0
 77
     0
 47
0.020833
 47
0.0
 47
0.0
 47
0.0
 47
0.0
 47
0.020833
 47
0.0
 47
0.0
 47
0.0
 47
0.0
 47
1.0
 47
0.0
 47
0.0
 47
0.0
 47
0.0
 47
1.0
171
     0
 49
0.020833
 49
0.0
 49
0.0
 49
0.0
 49
0.0
 49
0.020833
 49
0.0
 49
0.0
 49
0.0
 49
0.0
 49
1.0
 49
0.0
 49
0.0
 49
0.0
 49
0.0
 49
1.0
175
     0
142
0.020833
142
0.0
142
0.0
142
0.0
142
0.0
142
0.020833
142
0.0
142
0.0
142
0.0
142
0.0
142
1.0
142
0.0
142
0.0
142
0.0
142
0.0
142
1.0
179
     0
144
0.020833
144
0.0
144
0.0
144
0.0
144
0.0
144
0.020833
144
0.0
144
0.0
144
0.0
144
0.0
144
1.0
144
0.0
144
0.0
144
0.0
144
0.0
144
1.0
147
0.020833
147
0.0
147
0.0
147
0.0
147
0.0
147
0.020833
147
0.0
147
0.0
147
0.0
147
0.0
147
1.0
147
0.0
147
0.0
147
0.0
147
0.0
147
1.0
  0
MLINESTYLE
  5
702AB
102
{ACAD_REACTORS
330
70295
102
}
330
70295
100
AcDbMlineStyle
  2
STANDARD
 70
     0
  3

 62
   256
 51
90.0
 52
90.0
 71
     2
 49
0.5
 62
   256
  6
BYLAYER
 49
-0.5
 62
   256
  6
BYLAYER
  0
ACDBPLACEHOLDER
  5
70267
102
{ACAD_REACTORS
330
70268
102
}
330
70268
  0
SCALE
  5
702B0
102
{ACAD_REACTORS
330
702A8
102
}
330
702A8
100
AcDbScale
 70
     0
300
1:1
140
1.0
141
1.0
290
     1
  0
SCALE
  5
702B1
102
{ACAD_REACTORS
330
702A8
102
}
330
702A8
100
AcDbScale
 70
     0
300
1:2
140
1.0
141
2.0
290
     0
  0
SCALE
  5
702B2
102
{ACAD_REACTORS
330
702A8
102
}
330
702A8
100
AcDbScale
 70
     0
300
1:4
140
1.0
141
4.0
290
     0
  0
SCALE
  5
702B3
102
{ACAD_REACTORS
330
702A8
102
}
330
702A8
100
AcDbScale
 70
     0
300
1:5
140
1.0
141
5.0
290
     0
  0
SCALE
  5
702B4
102
{ACAD_REACTORS
330
702A8
102
}
330
702A8
100
AcDbScale
 70
     0
300
1:8
140
1.0
141
8.0
290
     0
  0
SCALE
  5
702B5
102
{ACAD_REACTORS
330
702A8
102
}
330
702A8
100
AcDbScale
 70
     0
300
1:10
140
1.0
141
10.0
290
     0
  0
SCALE
  5
702B6
102
{ACAD_REACTORS
330
702A8
102
}
330
702A8
100
AcDbScale
 70
     0
300
1:16
140
1.0
141
16.0
290
     0
  0
SCALE
  5
702B7
102
{ACAD_REACTORS
330
702A8
102
}
330
702A8
100
AcDbScale
 70
     0
300
1:20
140
1.0
141
20.0
290
     0
  0
SCALE
  5
702B8
102
{ACAD_REACTORS
330
702A8
102
}
330
702A8
100
AcDbScale
 70
     0
300
1:30
140
1.0
141
30.0
290
     0
  0
SCALE
  5
702B9
102
{ACAD_REACTORS
330
702A8
102
}
330
702A8
100
AcDbScale
 70
     0
300
1:40
140
1.0
141
40.0
290
     0
  0
SCALE
  5
702BA
102
{ACAD_REACTORS
330
702A8
102
}
330
702A8
100
AcDbScale
 70
     0
300
1:50
140
1.0
141
50.0
290
     0
  0
SCALE
  5
702BB
102
{ACAD_REACTORS
330
702A8
102
}
330
702A8
100
AcDbScale
 70
     0
300
1:100
140
1.0
141
100.0
290
     0
  0
SCALE
  5
702BC
102
{ACAD_REACTORS
330
702A8
102
}
330
702A8
100
AcDbScale
 70
     0
300
2:1
140
2.0
141
1.0
290
     0
  0
SCALE
  5
702BD
102
{ACAD_REACTORS
330
702A8
102
}
330
702A8
100
AcDbScale
 70
     0
300
4:1
140
4.0
141
1.0
290
     0
  0
SCALE
  5
702BE
102
{ACAD_REACTORS
330
702A8
102
}
330
702A8
100
AcDbScale
 70
     0
300
8:1
140
8.0
141
1.0
290
     0
  0
SCALE
  5
702BF
102
{ACAD_REACTORS
330
702A8
102
}
330
702A8
100
AcDbScale
 70
     0
300
10:1
140
10.0
141
1.0
290
     0
  0
SCALE
  5
702C0
102
{ACAD_REACTORS
330
702A8
102
}
330
702A8
100
AcDbScale
 70
     0
300
100:1
140
100.0
141
1.0
290
     0
  0
SCALE
  5
702C1
102
{ACAD_REACTORS
330
702A8
102
}
330
702A8
100
AcDbScale
 70
     0
300
1/128" = 1'-0"
140
0.007813
141
12.0
290
     0
  0
SCALE
  5
702C2
102
{ACAD_REACTORS
330
702A8
102
}
330
702A8
100
AcDbScale
 70
     0
300
1/64" = 1'-0"
140
0.015625
141
12.0
290
     0
  0
SCALE
  5
702C3
102
{ACAD_REACTORS
330
702A8
102
}
330
702A8
100
AcDbScale
 70
     0
300
1/32" = 1'-0"
140
0.03125
141
12.0
290
     0
  0
SCALE
  5
702C4
102
{ACAD_REACTORS
330
702A8
102
}
330
702A8
100
AcDbScale
 70
     0
300
1/16" = 1'-0"
140
0.0625
141
12.0
290
     0
  0
SCALE
  5
702C5
102
{ACAD_REACTORS
330
702A8
102
}
330
702A8
100
AcDbScale
 70
     0
300
3/32" = 1'-0"
140
0.09375
141
12.0
290
     0
  0
SCALE
  5
702C6
102
{ACAD_REACTORS
330
702A8
102
}
330
702A8
100
AcDbScale
 70
     0
300
1/8" = 1'-0"
140
0.125
141
12.0
290
     0
  0
SCALE
  5
702C7
102
{ACAD_REACTORS
330
702A8
102
}
330
702A8
100
AcDbScale
 70
     0
300
3/16" = 1'-0"
140
0.1875
141
12.0
290
     0
  0
SCALE
  5
702C8
102
{ACAD_REACTORS
330
702A8
102
}
330
702A8
100
AcDbScale
 70
     0
300
1/4" = 1'-0"
140
0.25
141
12.0
290
     0
  0
SCALE
  5
702C9
102
{ACAD_REACTORS
330
702A8
102
}
330
702A8
100
AcDbScale
 70
     0
300
3/8" = 1'-0"
140
0.375
141
12.0
290
     0
  0
SCALE
  5
702CA
102
{ACAD_REACTORS
330
702A8
102
}
330
702A8
100
AcDbScale
 70
     0
300
1/2" = 1'-0"
140
0.5
141
12.0
290
     0
  0
SCALE
  5
702CB
102
{ACAD_REACTORS
330
702A8
102
}
330
702A8
100
AcDbScale
 70
     0
300
3/4" = 1'-0"
140
0.75
141
12.0
290
     0
  0
SCALE
  5
702CC
102
{ACAD_REACTORS
330
702A8
102
}
330
702A8
100
AcDbScale
 70
     0
300
1" = 1'-0"
140
1.0
141
12.0
290
     0
  0
SCALE
  5
702CD
102
{ACAD_REACTORS
330
702A8
102
}
330
702A8
100
AcDbScale
 70
     0
300
1-1/2" = 1'-0"
140
1.5
141
12.0
290
     0
  0
SCALE
  5
702CE
102
{ACAD_REACTORS
330
702A8
102
}
330
702A8
100
AcDbScale
 70
     0
300
3" = 1'-0"
140
3.0
141
12.0
290
     0
  0
SCALE
  5
702CF
102
{ACAD_REACTORS
330
702A8
102
}
330
702A8
100
AcDbScale
 70
     0
300
6" = 1'-0"
140
6.0
141
12.0
290
     0
  0
SCALE
  5
702D0
102
{ACAD_REACTORS
330
702A8
102
}
330
702A8
100
AcDbScale
 70
     0
300
1'-0" = 1'-0"
140
12.0
141
12.0
290
     0
  0
TABLESTYLE
  5
702AC
102
{ACAD_XDICTIONARY
360
702AD
102
}
102
{ACAD_REACTORS
330
702A9
102
}
330
702A9
100
AcDbTableStyle
280
     0
  3
Standard
 70
     0
 71
     0
 40
0.06
 41
0.06
280
     0
281
     0
  7
Standard
140
0.18
170
     2
 62
     0
 63
     7
283
     0
 90
        4
 91
        0
  1

274
    -2
284
     1
 64
     0
275
    -2
285
     1
 65
     0
276
    -2
286
     1
 66
     0
277
    -2
287
     1
 67
     0
278
    -2
288
     1
 68
     0
279
    -2
289
     1
 69
     0
  7
Standard
140
0.25
170
     5
 62
     0
 63
     7
283
     0
 90
        4
 91
        0
  1

274
    -2
284
     1
 64
     0
275
    -2
285
     1
 65
     0
276
    -2
286
     1
 66
     0
277
    -2
287
     1
 67
     0
278
    -2
288
     1
 68
     0
279
    -2
289
     1
 69
     0
  7
Standard
140
0.18
170
     5
 62
     0
 63
     7
283
     0
 90
        4
 91
        0
  1

274
    -2
284
     1
 64
     0
275
    -2
285
     1
 65
     0
276
    -2
286
     1
 66
     0
277
    -2
287
     1
 67
     0
278
    -2
288
     1
 68
     0
279
    -2
289
     1
 69
     0
  0
VISUALSTYLE
  5
7028D
102
{ACAD_REACTORS
330
7028E
102
}
330
7028E
100
AcDbVisualStyle
  2
2dWireframe
 70
     4
177
     3
291
     0
 70
    58
 90
        0
176
     1
 90
        2
176
     1
 90
        0
176
     1
 90
        0
176
     1
 40
0.6
176
     1
 40
30.0
176
     1
 62
     7
420
 16777215
176
     1
 90
        1
176
     1
 90
        4
176
     1
 62
     7
176
     1
 62
   257
176
     1
 90
        1
176
     1
 90
        1
176
     1
 40
1.0
176
     1
 90
        0
176
     1
 62
   257
176
     1
 40
1.0
176
     1
 90
        1
176
     1
 90
        6
176
     1
 90
        2
176
     1
 62
     7
176
     1
 90
        5
176
     1
 90
        0
176
     1
 90
        0
176
     1
290
     0
176
     1
 90
        1
176
     1
 40
0.0
176
     1
 90
        0
176
     1
290
     1
176
     1
290
     1
176
     1
290
     0
176
     1
290
     0
176
     1
290
     0
176
     1
290
     0
176
     1
290
     0
176
     1
290
     0
176
     1
290
     0
176
     1
 90
       50
176
     1
 40
0.0
176
     1
 40
1.0
176
     1
 90
        0
176
     1
 62
    18
420
        0
176
     1
 90
       50
176
     1
 90
        3
176
     1
 62
     5
420
      255
176
     1
290
     0
176
     1
 90
       50
176
     1
 90
       50
176
     1
 90
       50
176
     1
290
     0
176
     1
 90
       50
176
     1
 62
   256
176
     0
 40
1.0
176
     0
 90
        2
176
     1
  1
strokes_ogs.tif
176
     1
290
     0
176
     1
 40
1.0
176
     1
 40
1.0
176
     1
  0
VISUALSTYLE
  5
702AE
102
{ACAD_REACTORS
330
7028E
102
}
330
7028E
100
AcDbVisualStyle
  2
Realistic
 70
     8
177
     3
291
     0
 70
    58
 90
        2
176
     1
 90
        2
176
     1
 90
        0
176
     1
 90
        0
176
     1
 40
0.6
176
     1
 40
30.0
176
     1
 62
     7
420
 16777215
176
     1
 90
        1
176
     1
 90
        0
176
     1
 62
     7
176
     1
 62
   257
176
     1
 90
        1
176
     1
 90
        1
176
     1
 40
1.0
176
     1
 90
        8
176
     1
 62
     8
420
  7895160
176
     1
 40
1.0
176
     1
 90
        1
176
     1
 90
        6
176
     1
 90
        2
176
     1
 62
     7
176
     1
 90
        5
176
     1
 90
        0
176
     1
 90
        0
176
     1
290
     0
176
     1
 90
       13
176
     1
 40
0.0
176
     1
 90
        0
176
     1
290
     0
176
     1
290
     1
176
     1
290
     1
176
     1
290
     0
176
     1
290
     0
176
     1
290
     0
176
     1
290
     0
176
     1
290
     0
176
     1
290
     0
176
     1
 90
       50
176
     1
 40
0.0
176
     1
 40
1.0
176
     1
 90
        0
176
     1
 62
    18
420
        0
176
     1
 90
       50
176
     1
 90
        3
176
     1
 62
     5
420
      255
176
     1
290
     0
176
     1
 90
       50
176
     1
 90
       50
176
     1
 90
       50
176
     1
290
     0
176
     1
 90
       50
176
     1
 62
   256
176
     0
 40
1.0
176
     0
 90
        2
176
     1
  1
strokes_ogs.tif
176
     1
290
     0
176
     1
 40
1.0
176
     1
 40
1.0
176
     1
  0
VISUALSTYLE
  5
702AF
102
{ACAD_REACTORS
330
7028E
102
}
330
7028E
100
AcDbVisualStyle
  2
Wireframe
 70
     5
177
     3
291
     0
 70
    58
 90
        0
176
     1
 90
        2
176
     1
 90
        0
176
     1
 90
        0
176
     1
 40
0.6
176
     1
 40
30.0
176
     1
 62
     7
420
 16777215
176
     1
 90
        1
176
     1
 90
        4
176
     1
 62
     7
176
     1
 62
   257
176
     1
 90
        1
176
     1
 90
        1
176
     1
 40
1.0
176
     1
 90
        0
176
     1
 62
   257
176
     1
 40
1.0
176
     1
 90
        1
176
     1
 90
        6
176
     1
 90
        2
176
     1
 62
     7
176
     1
 90
        3
176
     1
 90
        0
176
     1
 90
        0
176
     1
290
     0
176
     1
 90
        1
176
     1
 40
0.0
176
     1
 90
        0
176
     1
290
     0
176
     1
290
     1
176
     1
290
     1
176
     1
290
     0
176
     1
290
     0
176
     1
290
     0
176
     1
290
     0
176
     1
290
     0
176
     1
290
     0
176
     1
 90
       50
176
     1
 40
0.0
176
     1
 40
1.0
176
     1
 90
        0
176
     1
 62
    18
420
        0
176
     1
 90
       50
176
     1
 90
        3
176
     1
 62
     5
420
      255
176
     1
290
     0
176
     1
 90
       50
176
     1
 90
       50
176
     1
 90
       50
176
     1
290
     0
176
     1
 90
       50
176
     1
 62
   256
176
     0
 40
1.0
176
     0
 90
        2
176
     1
  1
strokes_ogs.tif
176
     1
290
     0
176
     1
 40
1.0
176
     1
 40
1.0
176
     1
  0
DICTIONARYVAR
  5
703AA
102
{ACAD_REACTORS
330
703A4
102
}
330
703A4
100
DictionaryVariables
280
     0
  1
1:1
  0
DICTIONARYVAR
  5
703A6
102
{ACAD_REACTORS
330
703A4
102
}
330
703A4
100
DictionaryVariables
280
     0
  1
STANDARD
  0
DICTIONARYVAR
  5
703A5
102
{ACAD_REACTORS
330
703A4
102
}
330
703A4
100
DictionaryVariables
280
     0
  1
STANDARD
  0
DICTIONARYVAR
  5
703A7
102
{ACAD_REACTORS
330
703A4
102
}
330
703A4
100
DictionaryVariables
280
     0
  1

  0
DICTIONARYVAR
  5
703A8
102
{ACAD_REACTORS
330
703A4
102
}
330
703A4
100
DictionaryVariables
280
     0
  1

  0
DICTIONARYVAR
  5
703AB
102
{ACAD_REACTORS
330
703A4
102
}
330
703A4
100
DictionaryVariables
280
     0
  1
1
  0
DICTIONARYVAR
  5
703AC
102
{ACAD_REACTORS
330
703A4
102
}
330
703A4
100
DictionaryVariables
280
     0
  1
15
  0
DICTIONARYVAR
  5
703A9
102
{ACAD_REACTORS
330
703A4
102
}
330
703A4
100
DictionaryVariables
280
     0
  1
0
  0
DICTIONARY
  5
7027D
330
7027C
100
AcDbDictionary
280
     1
281
     1
  0
DICTIONARY
  5
70277
330
70275
100
AcDbDictionary
280
     1
281
     1
  0
DICTIONARY
  5
702A0
330
7029F
100
AcDbDictionary
280
     1
281
     1
  3
BUMPTILE
360
702A1
  3
DIFFUSETILE
360
702A2
  3
OPACITYTILE
360
702A3
  3
REFLECTIONTILE
360
702A4
  3
REFRACTIONTILE
360
702A5
  3
SPECULARTILE
360
702A6
  0
DICTIONARY
  5
70298
330
70297
100
AcDbDictionary
280
     1
281
     1
  3
BUMPTILE
360
70299
  3
DIFFUSETILE
360
7029A
  3
OPACITYTILE
360
7029B
  3
REFLECTIONTILE
360
7029C
  3
REFRACTIONTILE
360
7029D
  3
SPECULARTILE
360
7029E
  0
DICTIONARY
  5
7026C
330
7026A
100
AcDbDictionary
280
     1
281
     1
  3
BUMPTILE
360
7026D
  3
DIFFUSETILE
360
7026E
  3
OPACITYTILE
360
7026F
  3
REFLECTIONTILE
360
70270
  3
REFRACTIONTILE
360
70271
  3
SPECULARTILE
360
70272
  0
DICTIONARY
  5
702AD
330
702AC
100
AcDbDictionary
280
     1
281
     1
  3
ACAD_ROUNDTRIP_2008_TABLESTYLE_CELLSTYLEMAP
360
703AD
  0
XRECORD
  5
702A1
102
{ACAD_REACTORS
330
702A0
102
}
330
702A0
100
AcDbXrecord
280
     1
270
     1
271
     1
  0
XRECORD
  5
702A2
102
{ACAD_REACTORS
330
702A0
102
}
330
702A0
100
AcDbXrecord
280
     1
270
     1
271
     1
  0
XRECORD
  5
702A3
102
{ACAD_REACTORS
330
702A0
102
}
330
702A0
100
AcDbXrecord
280
     1
270
     1
271
     1
  0
XRECORD
  5
702A4
102
{ACAD_REACTORS
330
702A0
102
}
330
702A0
100
AcDbXrecord
280
     1
270
     1
271
     1
  0
XRECORD
  5
702A5
102
{ACAD_REACTORS
330
702A0
102
}
330
702A0
100
AcDbXrecord
280
     1
270
     1
271
     1
  0
XRECORD
  5
702A6
102
{ACAD_REACTORS
330
702A0
102
}
330
702A0
100
AcDbXrecord
280
     1
270
     1
271
     1
  0
XRECORD
  5
70299
102
{ACAD_REACTORS
330
70298
102
}
330
70298
100
AcDbXrecord
280
     1
270
     1
271
     1
  0
XRECORD
  5
7029A
102
{ACAD_REACTORS
330
70298
102
}
330
70298
100
AcDbXrecord
280
     1
270
     1
271
     1
  0
XRECORD
  5
7029B
102
{ACAD_REACTORS
330
70298
102
}
330
70298
100
AcDbXrecord
280
     1
270
     1
271
     1
  0
XRECORD
  5
7029C
102
{ACAD_REACTORS
330
70298
102
}
330
70298
100
AcDbXrecord
280
     1
270
     1
271
     1
  0
XRECORD
  5
7029D
102
{ACAD_REACTORS
330
70298
102
}
330
70298
100
AcDbXrecord
280
     1
270
     1
271
     1
  0
XRECORD
  5
7029E
102
{ACAD_REACTORS
330
70298
102
}
330
70298
100
AcDbXrecord
280
     1
270
     1
271
     1
  0
XRECORD
  5
7026D
102
{ACAD_REACTORS
330
7026C
102
}
330
7026C
100
AcDbXrecord
280
     1
270
     1
271
     1
  0
XRECORD
  5
7026E
102
{ACAD_REACTORS
330
7026C
102
}
330
7026C
100
AcDbXrecord
280
     1
270
     1
271
     1
  0
XRECORD
  5
7026F
102
{ACAD_REACTORS
330
7026C
102
}
330
7026C
100
AcDbXrecord
280
     1
270
     1
271
     1
  0
XRECORD
  5
70270
102
{ACAD_REACTORS
330
7026C
102
}
330
7026C
100
AcDbXrecord
280
     1
270
     1
271
     1
  0
XRECORD
  5
70271
102
{ACAD_REACTORS
330
7026C
102
}
330
7026C
100
AcDbXrecord
280
     1
270
     1
271
     1
  0
XRECORD
  5
70272
102
{ACAD_REACTORS
330
7026C
102
}
330
7026C
100
AcDbXrecord
280
     1
270
     1
271
     1
  0
CELLSTYLEMAP
  5
703AD
102
{ACAD_REACTORS
330
702AD
102
}
330
702AD
100
AcDbCellStyleMap
 90
        3
300
CELLSTYLE
  1
TABLEFORMAT_BEGIN
 90
        5
170
     1
 91
        0
 92
    32768
 62
   257
 93
        1
300
CONTENTFORMAT
  1
CONTENTFORMAT_BEGIN
 90
        0
 91
        0
 92
        4
 93
        0
300

 40
0.0
140
1.0
 94
        5
 62
     0
340
70284
144
0.25
309
CONTENTFORMAT_END
171
     0
 94
        6
 95
        1
302
GRIDFORMAT
  1
GRIDFORMAT_BEGIN
 90
        0
 91
        1
 62
     0
 92
       -2
340
0
 93
        0
 40
0.045
309
GRIDFORMAT_END
 95
        2
302
GRIDFORMAT
  1
GRIDFORMAT_BEGIN
 90
        0
 91
        1
 62
     0
 92
       -2
340
0
 93
        0
 40
0.045
309
GRIDFORMAT_END
 95
        4
302
GRIDFORMAT
  1
GRIDFORMAT_BEGIN
 90
        0
 91
        1
 62
     0
 92
       -2
340
0
 93
        0
 40
0.045
309
GRIDFORMAT_END
 95
        8
302
GRIDFORMAT
  1
GRIDFORMAT_BEGIN
 90
        0
 91
        1
 62
     0
 92
       -2
340
0
 93
        0
 40
0.045
309
GRIDFORMAT_END
 95
       16
302
GRIDFORMAT
  1
GRIDFORMAT_BEGIN
 90
        0
 91
        1
 62
     0
 92
       -2
340
0
 93
        0
 40
0.045
309
GRIDFORMAT_END
 95
       32
302
GRIDFORMAT
  1
GRIDFORMAT_BEGIN
 90
        0
 91
        1
 62
     0
 92
       -2
340
0
 93
        0
 40
0.045
309
GRIDFORMAT_END
309
TABLEFORMAT_END
  1
CELLSTYLE_BEGIN
 90
        1
 91
        1
300
_TITLE
309
CELLSTYLE_END
300
CELLSTYLE
  1
TABLEFORMAT_BEGIN
 90
        5
170
     1
 91
        0
 92
        0
 62
   257
 93
        1
300
CONTENTFORMAT
  1
CONTENTFORMAT_BEGIN
 90
        0
 91
        0
 92
        4
 93
        0
300

 40
0.0
140
1.0
 94
        5
 62
     0
340
70284
144
0.18
309
CONTENTFORMAT_END
171
     0
 94
        6
 95
        1
302
GRIDFORMAT
  1
GRIDFORMAT_BEGIN
 90
        0
 91
        1
 62
     0
 92
       -2
340
0
 93
        0
 40
0.045
309
GRIDFORMAT_END
 95
        2
302
GRIDFORMAT
  1
GRIDFORMAT_BEGIN
 90
        0
 91
        1
 62
     0
 92
       -2
340
0
 93
        0
 40
0.045
309
GRIDFORMAT_END
 95
        4
302
GRIDFORMAT
  1
GRIDFORMAT_BEGIN
 90
        0
 91
        1
 62
     0
 92
       -2
340
0
 93
        0
 40
0.045
309
GRIDFORMAT_END
 95
        8
302
GRIDFORMAT
  1
GRIDFORMAT_BEGIN
 90
        0
 91
        1
 62
     0
 92
       -2
340
0
 93
        0
 40
0.045
309
GRIDFORMAT_END
 95
       16
302
GRIDFORMAT
  1
GRIDFORMAT_BEGIN
 90
        0
 91
        1
 62
     0
 92
       -2
340
0
 93
        0
 40
0.045
309
GRIDFORMAT_END
 95
       32
302
GRIDFORMAT
  1
GRIDFORMAT_BEGIN
 90
        0
 91
        1
 62
     0
 92
       -2
340
0
 93
        0
 40
0.045
309
GRIDFORMAT_END
309
TABLEFORMAT_END
  1
CELLSTYLE_BEGIN
 90
        2
 91
        1
300
_HEADER
309
CELLSTYLE_END
300
CELLSTYLE
  1
TABLEFORMAT_BEGIN
 90
        5
170
     1
 91
        0
 92
        0
 62
   257
 93
        1
300
CONTENTFORMAT
  1
CONTENTFORMAT_BEGIN
 90
        0
 91
        0
 92
        4
 93
        0
300

 40
0.0
140
1.0
 94
        2
 62
     0
340
70284
144
0.18
309
CONTENTFORMAT_END
171
     0
 94
        6
 95
        1
302
GRIDFORMAT
  1
GRIDFORMAT_BEGIN
 90
        0
 91
        1
 62
     0
 92
       -2
340
0
 93
        0
 40
0.045
309
GRIDFORMAT_END
 95
        2
302
GRIDFORMAT
  1
GRIDFORMAT_BEGIN
 90
        0
 91
        1
 62
     0
 92
       -2
340
0
 93
        0
 40
0.045
309
GRIDFORMAT_END
 95
        4
302
GRIDFORMAT
  1
GRIDFORMAT_BEGIN
 90
        0
 91
        1
 62
     0
 92
       -2
340
0
 93
        0
 40
0.045
309
GRIDFORMAT_END
 95
        8
302
GRIDFORMAT
  1
GRIDFORMAT_BEGIN
 90
        0
 91
        1
 62
     0
 92
       -2
340
0
 93
        0
 40
0.045
309
GRIDFORMAT_END
 95
       16
302
GRIDFORMAT
  1
GRIDFORMAT_BEGIN
 90
        0
 91
        1
 62
     0
 92
       -2
340
0
 93
        0
 40
0.045
309
GRIDFORMAT_END
 95
       32
302
GRIDFORMAT
  1
GRIDFORMAT_BEGIN
 90
        0
 91
        1
 62
     0
 92
       -2
340
0
 93
        0
 40
0.045
309
GRIDFORMAT_END
309
TABLEFORMAT_END
  1
CELLSTYLE_BEGIN
 90
        3
 91
        2
300
_DATA
309
CELLSTYLE_END
  0
ENDSEC
  0
SECTION
  2
ACDSDATA
 70
     2
 71
     6
  0
ACDSSCHEMA
 90
        0
  1
AcDb_Thumbnail_Schema
  2
AcDbDs::ID
280
    10
 91
        8
  2
Thumbnail_Data
280
    15
 91
        0
101
ACDSRECORD
 95
        0
 90
        1
  2
AcDbDs::TreatedAsObjectData
280
     1
291
     1
101
ACDSRECORD
 95
        0
 90
        2
  2
AcDbDs::Legacy
280
     1
291
     1
101
ACDSRECORD
  1
AcDbDs::ID
 90
        3
  2
AcDs:Indexable
280
     1
291
     1
101
ACDSRECORD
  1
AcDbDs::ID
 90
        4
  2
AcDbDs::HandleAttribute
280
     7
282
     1
  0
ACDSSCHEMA
 90
        1
  1
AcDbDs::TreatedAsObjectDataSchema
  2
AcDbDs::TreatedAsObjectData
280
     1
 91
        0
  0
ACDSSCHEMA
 90
        2
  1
AcDbDs::LegacySchema
  2
AcDbDs::Legacy
280
     1
 91
        0
  0
ACDSSCHEMA
 90
        3
  1
AcDbDs::IndexedPropertySchema
  2
AcDs:Indexable
280
     1
 91
        0
  0
ACDSSCHEMA
 90
        4
  1
AcDbDs::HandleAttributeSchema
  2
AcDbDs::HandleAttribute
280
     7
 91
        1
284
     1
  0
ACDSRECORD
 90
        0
  2
AcDbDs::ID
280
    10
320
7027C
  2
Thumbnail_Data
280
    15
 94
     1183
310
89504E470D0A1A0A0000000D4948445200000100000000C508030000008CFEDCE700000300504C5445FFFFFF000000FFFFFF0000000000000000000000000000000000000000000000000000330000660000990000CC0000FF0033000033330033660033990033CC0033FF0066000066330066660066990066CC0066FF0099
310
000099330099660099990099CC0099FF00CC0000CC3300CC6600CC9900CCCC00CCFF00FF0000FF3300FF6600FF9900FFCC00FFFF3300003300333300663300993300CC3300FF3333003333333333663333993333CC3333FF3366003366333366663366993366CC3366FF3399003399333399663399993399CC3399FF33CC00
310
33CC3333CC6633CC9933CCCC33CCFF33FF0033FF3333FF6633FF9933FFCC33FFFF6600006600336600666600996600CC6600FF6633006633336633666633996633CC6633FF6666006666336666666666996666CC6666FF6699006699336699666699996699CC6699FF66CC0066CC3366CC6666CC9966CCCC66CCFF66FF0066
310
FF3366FF6666FF9966FFCC66FFFF9900009900339900669900999900CC9900FF9933009933339933669933999933CC9933FF9966009966339966669966999966CC9966FF9999009999339999669999999999CC9999FF99CC0099CC3399CC6699CC9999CCCC99CCFF99FF0099FF3399FF6699FF9999FFCC99FFFFCC0000CC00
310
33CC0066CC0099CC00CCCC00FFCC3300CC3333CC3366CC3399CC33CCCC33FFCC6600CC6633CC6666CC6699CC66CCCC66FFCC9900CC9933CC9966CC9999CC99CCCC99FFCCCC00CCCC33CCCC66CCCC99CCCCCCCCCCFFCCFF00CCFF33CCFF66CCFF99CCFFCCCCFFFFFF0000FF0033FF0066FF0099FF00CCFF00FFFF3300FF3333
310
FF3366FF3399FF33CCFF33FFFF6600FF6633FF6666FF6699FF66CCFF66FFFF9900FF9933FF9966FF9999FF99CCFF99FFFFCC00FFCC33FFCC66FFCC99FFCCCCFFCCFFFFFF00FFFF33FFFF66FFFF99FFFFCCFFFFFF0000000D0D0D1A1A1A2828283535354343435050505D5D5D6B6B6B787878868686939393A1A1A1AEAEAEBB
310
BBBBC9C9C9D6D6D6E4E4E4F1F1F1FFFFFF000000000000000000000000000000000000000000000000000000000000790CAC0F0000015A4944415478DAEDD8410A8340100440FFFFCCF9C09EE61E104224896014844D579F64F420A587DE592A3A632CD5C101100F500500C0F36ACDF6D636BFCEEBAEF9E9177D0788FBF600
310
000000000000004D1000000000000000100F50FB4F4C9E8B5578FAFF0300000000000000000000000000000000B00BD069000D0000000000000000A009020000000000000000000000000000000052013A0DA001000000000000000000A8C2000000000000000000000000000000402A40FC420400000000000000002016C0
310
5900000000000000000000000000000000C803885F88000000000000000000C402380B0000000000000000000000000000000000E2003A0DA0010000000000000000344100000000000000000000000000000000C0E7C660F21C04080D0000000000000000C01F54DE73151900000000000000D0AFCDCFB6227CDDAB1C9CD7
310
5DF3D32FAA0902000000C00A109E658C110DF0000E6CC6FBCCF8EC2E0000000049454E44AE426082
  0
ACDSRECORD
 90
        0
  2
AcDbDs::ID
280
    10
320
70275
  2
Thumbnail_Data
280
    15
 94
     1017
310
89504E470D0A1A0A0000000D4948445200000100000000890803000000F46416F000000300504C5445FEFCF0000000FFFFFF0000000000000000000000000000000000000000000000000000330000660000990000CC0000FF0033000033330033660033990033CC0033FF0066000066330066660066990066CC0066FF0099
310
000099330099660099990099CC0099FF00CC0000CC3300CC6600CC9900CCCC00CCFF00FF0000FF3300FF6600FF9900FFCC00FFFF3300003300333300663300993300CC3300FF3333003333333333663333993333CC3333FF3366003366333366663366993366CC3366FF3399003399333399663399993399CC3399FF33CC00
310
33CC3333CC6633CC9933CCCC33CCFF33FF0033FF3333FF6633FF9933FFCC33FFFF6600006600336600666600996600CC6600FF6633006633336633666633996633CC6633FF6666006666336666666666996666CC6666FF6699006699336699666699996699CC6699FF66CC0066CC3366CC6666CC9966CCCC66CCFF66FF0066
310
FF3366FF6666FF9966FFCC66FFFF9900009900339900669900999900CC9900FF9933009933339933669933999933CC9933FF9966009966339966669966999966CC9966FF9999009999339999669999999999CC9999FF99CC0099CC3399CC6699CC9999CCCC99CCFF99FF0099FF3399FF6699FF9999FFCC99FFFFCC0000CC00
310
33CC0066CC0099CC00CCCC00FFCC3300CC3333CC3366CC3399CC33CCCC33FFCC6600CC6633CC6666CC6699CC66CCCC66FFCC9900CC9933CC9966CC9999CC99CCCC99FFCCCC00CCCC33CCCC66CCCC99CCCCCCCCCCFFCCFF00CCFF33CCFF66CCFF99CCFFCCCCFFFFFF0000FF0033FF0066FF0099FF00CCFF00FFFF3300FF3333
310
FF3366FF3399FF33CCFF33FFFF6600FF6633FF6666FF6699FF66CCFF66FFFF9900FF9933FF9966FF9999FF99CCFF99FFFFCC00FFCC33FFCC66FFCC99FFCCCCFFCCFFFFFF00FFFF33FFFF66FFFF99FFFFCCFFFFFF0000000D0D0D1A1A1A2828283535354343435050505D5D5D6B6B6B787878868686939393A1A1A1AEAEAEBB
310
BBBBC9C9C9D6D6D6E4E4E4F1F1F1FFFFFF0000000000000000000000000000000000000000000000000000000000007C77BAA7000000B44944415478DAEDD0310100000C0220FBB7B48931760C22903E1701020408102040800001020408102040800001020408102040800001020408102040800001020408102040800001
310
020408102040800001020408102040800001020408102040800001020408102040800001020408102040800001020408102040800001020408102040800001020408102040800001020408102040800001020408102040800001020408102040800001020408102040C099016B33700943E05F3C0000000049454E44AE4260
310
82
  0
ENDSEC
  0
EOF
