  0
SECTION
  2
HEADER
  9
$ACADVER
  1
AC1027
  9
$ACADMAINTVER
 70
    55
  9
$DWGCODEPAGE
  3
ANSI_1252
  9
$AUTHOR
  1
WAEngineering1
  9
$LASTSAVEDBY
  1
WAMarketing2
  9
$REQUIREDVERSIONS
160
                 0
  9
$INSBASE
 10
0.0
 20
0.0
 30
0.0
  9
$EXTMIN
 10
-85.68
 20
-1714.8
 30
0.0
  9
$EXTMAX
 10
6655.845
 20
1922.001
 30
0.0
  9
$LIMMIN
 10
-12034.771395
 20
-15216.253395
  9
$LIMMAX
 10
18604.936395
 20
15423.454395
  9
$ORTHOMODE
 70
     0
  9
$REGENMODE
 70
     1
  9
$FILLMODE
 70
     1
  9
$QTEXTMODE
 70
     0
  9
$MIRRTEXT
 70
     0
  9
$LTSCALE
 40
1.0
  9
$ATTMODE
 70
     1
  9
$TEXTSIZE
 40
100.0
  9
$TRACEWID
 40
0.05
  9
$TEXTSTYLE
  7
Standard
  9
$CLAYER
  8
Level 8
  9
$CELTYPE
  6
Continuous
  9
$CECOLOR
 62
    98
  9
$CELTSCALE
 40
1.0
  9
$DISPSILH
 70
     0
  9
$DIMSCALE
 40
1.0
  9
$DIMASZ
 40
0.18
  9
$DIMEXO
 40
0.0625
  9
$DIMDLI
 40
0.38
  9
$DIMRND
 40
0.0
  9
$DIMDLE
 40
0.0
  9
$DIMEXE
 40
0.18
  9
$DIMTP
 40
0.0
  9
$DIMTM
 40
0.0
  9
$DIMTXT
 40
0.18
  9
$DIMCEN
 40
0.09
  9
$DIMTSZ
 40
0.0
  9
$DIMTOL
 70
     0
  9
$DIMLIM
 70
     0
  9
$DIMTIH
 70
     1
  9
$DIMTOH
 70
     1
  9
$DIMSE1
 70
     0
  9
$DIMSE2
 70
     0
  9
$DIMTAD
 70
     0
  9
$DIMZIN
 70
     0
  9
$DIMBLK
  1

  9
$DIMASO
 70
     1
  9
$DIMSHO
 70
     1
  9
$DIMPOST
  1

  9
$DIMAPOST
  1

  9
$DIMALT
 70
     0
  9
$DIMALTD
 70
     2
  9
$DIMALTF
 40
25.4
  9
$DIMLFAC
 40
1.0
  9
$DIMTOFL
 70
     0
  9
$DIMTVP
 40
0.0
  9
$DIMTIX
 70
     0
  9
$DIMSOXD
 70
     0
  9
$DIMSAH
 70
     0
  9
$DIMBLK1
  1

  9
$DIMBLK2
  1

  9
$DIMSTYLE
  2
Standard
  9
$DIMCLRD
 70
     0
  9
$DIMCLRE
 70
     0
  9
$DIMCLRT
 70
     0
  9
$DIMTFAC
 40
1.0
  9
$DIMGAP
 40
0.09
  9
$DIMJUST
 70
     0
  9
$DIMSD1
 70
     0
  9
$DIMSD2
 70
     0
  9
$DIMTOLJ
 70
     1
  9
$DIMTZIN
 70
     0
  9
$DIMALTZ
 70
     0
  9
$DIMALTTZ
 70
     0
  9
$DIMUPT
 70
     0
  9
$DIMDEC
 70
     4
  9
$DIMTDEC
 70
     4
  9
$DIMALTU
 70
     2
  9
$DIMALTTD
 70
     2
  9
$DIMTXSTY
  7
Standard
  9
$DIMAUNIT
 70
     0
  9
$DIMADEC
 70
     0
  9
$DIMALTRND
 40
0.0
  9
$DIMAZIN
 70
     0
  9
$DIMDSEP
 70
    46
  9
$DIMATFIT
 70
     3
  9
$DIMFRAC
 70
     0
  9
$DIMLDRBLK
  1

  9
$DIMLUNIT
 70
     2
  9
$DIMLWD
 70
    -2
  9
$DIMLWE
 70
    -2
  9
$DIMTMOVE
 70
     0
  9
$DIMFXL
 40
1.0
  9
$DIMFXLON
 70
     0
  9
$DIMJOGANG
 40
0.785398
  9
$DIMTFILL
 70
     0
  9
$DIMTFILLCLR
 70
     0
  9
$DIMARCSYM
 70
     0
  9
$DIMLTYPE
  6

  9
$DIMLTEX1
  6

  9
$DIMLTEX2
  6

  9
$DIMTXTDIRECTION
 70
     0
  9
$LUNITS
 70
     2
  9
$LUPREC
 70
     0
  9
$SKETCHINC
 40
0.1
  9
$FILLETRAD
 40
0.0
  9
$AUNITS
 70
     0
  9
$AUPREC
 70
     0
  9
$MENU
  1
.
  9
$ELEVATION
 40
0.0
  9
$PELEVATION
 40
0.0
  9
$THICKNESS
 40
0.0
  9
$LIMCHECK
 70
     0
  9
$CHAMFERA
 40
0.0
  9
$CHAMFERB
 40
0.0
  9
$CHAMFERC
 40
0.0
  9
$CHAMFERD
 40
0.0
  9
$SKPOLY
 70
     0
  9
$TDCREATE
 40
2454145.111357350
  9
$TDUCREATE
 40
2454144.778024017
  9
$TDUPDATE
 40
2455657.145108565
  9
$TDUUPDATE
 40
2455656.811775231
  9
$TDINDWG
 40
0.0262180556
  9
$TDUSRTIMER
 40
0.0262178704
  9
$USRTIMER
 70
     1
  9
$ANGBASE
 50
0.0
  9
$ANGDIR
 70
     0
  9
$PDMODE
 70
     0
  9
$PDSIZE
 40
0.0
  9
$PLINEWID
 40
0.0
  9
$SPLFRAME
 70
     0
  9
$SPLINETYPE
 70
     6
  9
$SPLINESEGS
 70
     8
  9
$HANDSEED
  5
7013D
  9
$SURFTAB1
 70
     6
  9
$SURFTAB2
 70
     6
  9
$SURFTYPE
 70
     6
  9
$SURFU
 70
     6
  9
$SURFV
 70
     6
  9
$UCSBASE
  2

  9
$UCSNAME
  2

  9
$UCSORG
 10
0.0
 20
0.0
 30
0.0
  9
$UCSXDIR
 10
1.0
 20
0.0
 30
0.0
  9
$UCSYDIR
 10
0.0
 20
1.0
 30
0.0
  9
$UCSORTHOREF
  2

  9
$UCSORTHOVIEW
 70
     0
  9
$UCSORGTOP
 10
0.0
 20
0.0
 30
0.0
  9
$UCSORGBOTTOM
 10
0.0
 20
0.0
 30
0.0
  9
$UCSORGLEFT
 10
0.0
 20
0.0
 30
0.0
  9
$UCSORGRIGHT
 10
0.0
 20
0.0
 30
0.0
  9
$UCSORGFRONT
 10
0.0
 20
0.0
 30
0.0
  9
$UCSORGBACK
 10
0.0
 20
0.0
 30
0.0
  9
$PUCSBASE
  2

  9
$PUCSNAME
  2

  9
$PUCSORG
 10
0.0
 20
0.0
 30
0.0
  9
$PUCSXDIR
 10
1.0
 20
0.0
 30
0.0
  9
$PUCSYDIR
 10
0.0
 20
1.0
 30
0.0
  9
$PUCSORTHOREF
  2

  9
$PUCSORTHOVIEW
 70
     0
  9
$PUCSORGTOP
 10
0.0
 20
0.0
 30
0.0
  9
$PUCSORGBOTTOM
 10
0.0
 20
0.0
 30
0.0
  9
$PUCSORGLEFT
 10
0.0
 20
0.0
 30
0.0
  9
$PUCSORGRIGHT
 10
0.0
 20
0.0
 30
0.0
  9
$PUCSORGFRONT
 10
0.0
 20
0.0
 30
0.0
  9
$PUCSORGBACK
 10
0.0
 20
0.0
 30
0.0
  9
$USERI1
 70
     0
  9
$USERI2
 70
     0
  9
$USERI3
 70
     0
  9
$USERI4
 70
     0
  9
$USERI5
 70
     0
  9
$USERR1
 40
0.0
  9
$USERR2
 40
0.0
  9
$USERR3
 40
0.0
  9
$USERR4
 40
0.0
  9
$USERR5
 40
0.0
  9
$WORLDVIEW
 70
     1
  9
$SHADEDGE
 70
     3
  9
$SHADEDIF
 70
    70
  9
$TILEMODE
 70
     1
  9
$MAXACTVP
 70
    64
  9
$PINSBASE
 10
0.0
 20
0.0
 30
0.0
  9
$PLIMCHECK
 70
     0
  9
$PEXTMIN
 10
1.05
 20
0.8
 30
0.0
  9
$PEXTMAX
 10
9.45
 20
7.2
 30
0.0
  9
$PLIMMIN
 10
-0.25
 20
-0.25
  9
$PLIMMAX
 10
10.75
 20
8.25
  9
$UNITMODE
 70
     0
  9
$VISRETAIN
 70
     1
  9
$PLINEGEN
 70
     0
  9
$PSLTSCALE
 70
     0
  9
$TREEDEPTH
 70
  3020
  9
$CMLSTYLE
  2
Standard
  9
$CMLJUST
 70
     0
  9
$CMLSCALE
 40
1.0
  9
$PROXYGRAPHICS
 70
     1
  9
$MEASUREMENT
 70
     0
  9
$CELWEIGHT
370
     0
  9
$ENDCAPS
280
     0
  9
$JOINSTYLE
280
     0
  9
$LWDISPLAY
290
     1
  9
$INSUNITS
 70
     4
  9
$HYPERLINKBASE
  1

  9
$STYLESHEET
  1

  9
$XEDIT
290
     1
  9
$CEPSNTYPE
380
     0
  9
$PSTYLEMODE
290
     1
  9
$FINGERPRINTGUID
  2
{8002E607-8B74-49FE-9FC1-2647E578F132}
  9
$VERSIONGUID
  2
{5066CCA6-5121-4C7B-A04C-375F92FA871B}
  9
$EXTNAMES
290
     1
  9
$PSVPSCALE
 40
0.0
  9
$OLESTARTUP
290
     0
  9
$SORTENTS
280
   127
  9
$INDEXCTL
280
     0
  9
$HIDETEXT
280
     1
  9
$XCLIPFRAME
280
     0
  9
$HALOGAP
280
     0
  9
$OBSCOLOR
 70
   257
  9
$OBSLTYPE
280
     0
  9
$INTERSECTIONDISPLAY
280
     0
  9
$INTERSECTIONCOLOR
 70
   257
  9
$DIMASSOC
280
     1
  9
$PROJECTNAME
  1

  9
$CAMERADISPLAY
290
     0
  9
$LENSLENGTH
 40
50.0
  9
$CAMERAHEIGHT
 40
0.0
  9
$STEPSPERSEC
 40
2.0
  9
$STEPSIZE
 40
6.0
  9
$3DDWFPREC
 40
2.0
  9
$PSOLWIDTH
 40
0.25
  9
$PSOLHEIGHT
 40
4.0
  9
$LOFTANG1
 40
1.570796
  9
$LOFTANG2
 40
1.570796
  9
$LOFTMAG1
 40
0.0
  9
$LOFTMAG2
 40
0.0
  9
$LOFTPARAM
 70
     7
  9
$LOFTNORMALS
280
     1
  9
$LATITUDE
 40
37.795
  9
$LONGITUDE
 40
-122.394
  9
$NORTHDIRECTION
 40
0.0
  9
$TIMEZONE
 70
 -8000
  9
$LIGHTGLYPHDISPLAY
280
     1
  9
$TILEMODELIGHTSYNCH
280
     1
  9
$CMATERIAL
347
7007A
  9
$SOLIDHIST
280
     1
  9
$SHOWHIST
280
     1
  9
$DWFFRAME
280
     2
  9
$DGNFRAME
280
     0
  9
$REALWORLDSCALE
290
     1
  9
$INTERFERECOLOR
 62
     1
  9
$INTERFEREOBJVS
345
70091
  9
$INTERFEREVPVS
346
70092
  9
$CSHADOW
280
     0
  9
$SHADOWPLANELOCATION
 40
0.0
  0
ENDSEC
  0
SECTION
  2
CLASSES
  0
CLASS
  1
ACDBDICTIONARYWDFLT
  2
AcDbDictionaryWithDefault
  3
ObjectDBX Classes
 90
        0
 91
        1
280
     0
281
     0
  0
CLASS
  1
DICTIONARYVAR
  2
AcDbDictionaryVar
  3
ObjectDBX Classes
 90
        0
 91
        8
280
     0
281
     0
  0
CLASS
  1
TABLESTYLE
  2
AcDbTableStyle
  3
ObjectDBX Classes
 90
     4095
 91
        1
280
     0
281
     0
  0
CLASS
  1
MATERIAL
  2
AcDbMaterial
  3
ObjectDBX Classes
 90
     1153
 91
        3
280
     0
281
     0
  0
CLASS
  1
VISUALSTYLE
  2
AcDbVisualStyle
  3
ObjectDBX Classes
 90
     4095
 91
        3
280
     0
281
     0
  0
CLASS
  1
SCALE
  2
AcDbScale
  3
ObjectDBX Classes
 90
     1153
 91
       33
280
     0
281
     0
  0
CLASS
  1
MLEADERSTYLE
  2
AcDbMLeaderStyle
  3
ACDB_MLEADERSTYLE_CLASS
 90
     4095
 91
        0
280
     0
281
     0
  0
CLASS
  1
EXACXREFPANELOBJECT
  2
ExAcXREFPanelObject
  3
EXAC_ESW
 90
     1025
 91
        0
280
     1
281
     0
  0
CLASS
  1
NPOCOLLECTION
  2
AcDbImpNonPersistentObjectsCollection
  3
ObjectDBX Classes
 90
     1153
 91
        0
280
     0
281
     0
  0
CLASS
  1
CELLSTYLEMAP
  2
AcDbCellStyleMap
  3
ObjectDBX Classes
 90
     1152
 91
        1
280
     0
281
     0
  0
CLASS
  1
ACDBSECTIONVIEWSTYLE
  2
AcDbSectionViewStyle
  3
ObjectDBX Classes
 90
     1025
 91
        0
280
     0
281
     0
  0
CLASS
  1
ACDBDETAILVIEWSTYLE
  2
AcDbDetailViewStyle
  3
ObjectDBX Classes
 90
     1025
 91
        0
280
     0
281
     0
  0
CLASS
  1
SORTENTSTABLE
  2
AcDbSortentsTable
  3
ObjectDBX Classes
 90
        0
 91
        1
280
     0
281
     0
  0
ENDSEC
  0
SECTION
  2
TABLES
  0
TABLE
  2
VPORT
  5
7006E
330
0
100
AcDbSymbolTable
 70
     2
  0
VPORT
  5
4B
330
7006E
100
AcDbSymbolTableRecord
100
AcDbViewportTableRecord
  2
*ACTIVE
 70
     0
 10
0.0
 20
0.0
 11
1.0
 21
1.0
 12
3285.0825
 22
103.6005
 13
0.0
 23
0.0
 14
1.0
 24
1.0
 15
1.0
 25
1.0
 16
0.0
 26
0.0
 36
1.0
 17
0.0
 27
0.0
 37
0.0
 40
3782.27304
 41
2.090493
 42
50.0
 43
0.0
 44
0.0
 50
0.0
 51
0.0
 71
     0
 72
   100
 73
     1
 74
     0
 75
     0
 76
     0
 77
     0
 78
     1
281
     0
 65
     1
110
0.0
120
0.0
130
0.0
111
1.0
121
0.0
131
0.0
112
0.0
122
1.0
132
0.0
 79
     0
146
0.0
 60
     3
 61
    10
292
     0
282
     1
141
0.0
142
0.0
 63
     7
421
 16777215
  0
ENDTAB
  0
TABLE
  2
LTYPE
  5
70069
330
0
100
AcDbSymbolTable
 70
     2
  0
LTYPE
  5
7006A
330
70069
100
AcDbSymbolTableRecord
100
AcDbLinetypeTableRecord
  2
ByBlock
 70
     0
  3

 72
    65
 73
     0
 40
0.0
  0
LTYPE
  5
7006B
330
70069
100
AcDbSymbolTableRecord
100
AcDbLinetypeTableRecord
  2
ByLayer
 70
     0
  3

 72
    65
 73
     0
 40
0.0
  0
LTYPE
  5
70056
330
70069
100
AcDbSymbolTableRecord
100
AcDbLinetypeTableRecord
  2
Continuous
 70
     0
  3
Solid line
 72
    65
 73
     0
 40
0.0
  0
LTYPE
  5
70130
330
70069
100
AcDbSymbolTableRecord
100
AcDbLinetypeTableRecord
  2
DGN Style 2
 70
     0
  3
Dgn Style 2
 72
    65
 73
     2
 40
79.068136
 49
47.440882
 74
     0
 49
-31.627255
 74
     0
  0
ENDTAB
  0
TABLE
  2
LAYER
  5
70063
102
{ACAD_XDICTIONARY
360
70064
102
}
330
0
100
AcDbSymbolTable
 70
    65
  0
LAYER
  5
70047
102
{ACAD_XDICTIONARY
360
70048
102
}
330
70063
100
AcDbSymbolTableRecord
100
AcDbLayerTableRecord
  2
0
 70
     0
 62
     7
  6
Continuous
370
    -3
390
7004A
347
7004D
348
0
1001
AcCmTransparency
1071
 33554687
  0
LAYER
  5
7
330
70063
100
AcDbSymbolTableRecord
100
AcDbLayerTableRecord
  2
Level 1
 70
     0
 62
     7
  6
Continuous
370
     0
390
7004A
347
7004D
348
0
1001
AcCmTransparency
1071
 33554687
  0
LAYER
  5
8
330
70063
100
AcDbSymbolTableRecord
100
AcDbLayerTableRecord
  2
Level 2
 70
     0
 62
     7
  6
Continuous
370
     0
390
7004A
347
7004D
348
0
1001
AcCmTransparency
1071
 33554687
  0
LAYER
  5
9
330
70063
100
AcDbSymbolTableRecord
100
AcDbLayerTableRecord
  2
Level 3
 70
     0
 62
     7
  6
Continuous
370
     0
390
7004A
347
7004D
348
0
1001
AcCmTransparency
1071
 33554687
  0
LAYER
  5
A
330
70063
100
AcDbSymbolTableRecord
100
AcDbLayerTableRecord
  2
Level 4
 70
     0
 62
     7
  6
Continuous
370
     0
390
7004A
347
7004D
348
0
1001
AcCmTransparency
1071
 33554687
  0
LAYER
  5
B
330
70063
100
AcDbSymbolTableRecord
100
AcDbLayerTableRecord
  2
Level 5
 70
     0
 62
     7
  6
Continuous
370
     0
390
7004A
347
7004D
348
0
1001
AcCmTransparency
1071
 33554687
  0
LAYER
  5
C
330
70063
100
AcDbSymbolTableRecord
100
AcDbLayerTableRecord
  2
Level 6
 70
     0
 62
     7
  6
Continuous
370
     0
390
7004A
347
7004D
348
0
1001
AcCmTransparency
1071
 33554687
  0
LAYER
  5
D
330
70063
100
AcDbSymbolTableRecord
100
AcDbLayerTableRecord
  2
Level 7
 70
     0
 62
     7
  6
Continuous
370
     0
390
7004A
347
7004D
348
0
1001
AcCmTransparency
1071
 33554687
  0
LAYER
  5
E
330
70063
100
AcDbSymbolTableRecord
100
AcDbLayerTableRecord
  2
Level 8
 70
     0
 62
     7
  6
Continuous
370
     0
390
7004A
347
7004D
348
0
1001
AcCmTransparency
1071
 33554687
  0
LAYER
  5
F
330
70063
100
AcDbSymbolTableRecord
100
AcDbLayerTableRecord
  2
Level 9
 70
     0
 62
     7
  6
Continuous
370
     0
390
7004A
347
7004D
348
0
1001
AcCmTransparency
1071
 33554687
  0
LAYER
  5
10
330
70063
100
AcDbSymbolTableRecord
100
AcDbLayerTableRecord
  2
Level 10
 70
     0
 62
     7
  6
Continuous
370
     0
390
7004A
347
7004D
348
0
1001
AcCmTransparency
1071
 33554687
  0
LAYER
  5
11
330
70063
100
AcDbSymbolTableRecord
100
AcDbLayerTableRecord
  2
Level 11
 70
     0
 62
     7
  6
Continuous
370
     0
390
7004A
347
7004D
348
0
1001
AcCmTransparency
1071
 33554687
  0
LAYER
  5
12
330
70063
100
AcDbSymbolTableRecord
100
AcDbLayerTableRecord
  2
Level 12
 70
     0
 62
     7
  6
Continuous
370
     0
390
7004A
347
7004D
348
0
1001
AcCmTransparency
1071
 33554687
  0
LAYER
  5
13
330
70063
100
AcDbSymbolTableRecord
100
AcDbLayerTableRecord
  2
Level 13
 70
     0
 62
     7
  6
Continuous
370
     0
390
7004A
347
7004D
348
0
1001
AcCmTransparency
1071
 33554687
  0
LAYER
  5
14
330
70063
100
AcDbSymbolTableRecord
100
AcDbLayerTableRecord
  2
Level 14
 70
     0
 62
     7
  6
Continuous
370
     0
390
7004A
347
7004D
348
0
1001
AcCmTransparency
1071
 33554687
  0
LAYER
  5
15
330
70063
100
AcDbSymbolTableRecord
100
AcDbLayerTableRecord
  2
Level 15
 70
     0
 62
     7
  6
Continuous
370
     0
390
7004A
347
7004D
348
0
1001
AcCmTransparency
1071
 33554687
  0
LAYER
  5
16
330
70063
100
AcDbSymbolTableRecord
100
AcDbLayerTableRecord
  2
Level 16
 70
     0
 62
     7
  6
Continuous
370
     0
390
7004A
347
7004D
348
0
1001
AcCmTransparency
1071
 33554687
  0
LAYER
  5
17
330
70063
100
AcDbSymbolTableRecord
100
AcDbLayerTableRecord
  2
Level 17
 70
     0
 62
     7
  6
Continuous
370
     0
390
7004A
347
7004D
348
0
1001
AcCmTransparency
1071
 33554687
  0
LAYER
  5
18
330
70063
100
AcDbSymbolTableRecord
100
AcDbLayerTableRecord
  2
Level 18
 70
     0
 62
     7
  6
Continuous
370
     0
390
7004A
347
7004D
348
0
1001
AcCmTransparency
1071
 33554687
  0
LAYER
  5
19
330
70063
100
AcDbSymbolTableRecord
100
AcDbLayerTableRecord
  2
Level 19
 70
     0
 62
     7
  6
Continuous
370
     0
390
7004A
347
7004D
348
0
1001
AcCmTransparency
1071
 33554687
  0
LAYER
  5
1A
330
70063
100
AcDbSymbolTableRecord
100
AcDbLayerTableRecord
  2
Level 20
 70
     0
 62
     7
  6
Continuous
370
     0
390
7004A
347
7004D
348
0
1001
AcCmTransparency
1071
 33554687
  0
LAYER
  5
1B
330
70063
100
AcDbSymbolTableRecord
100
AcDbLayerTableRecord
  2
Level 21
 70
     0
 62
     7
  6
Continuous
370
     0
390
7004A
347
7004D
348
0
1001
AcCmTransparency
1071
 33554687
  0
LAYER
  5
1C
330
70063
100
AcDbSymbolTableRecord
100
AcDbLayerTableRecord
  2
Level 22
 70
     0
 62
     7
  6
Continuous
370
     0
390
7004A
347
7004D
348
0
1001
AcCmTransparency
1071
 33554687
  0
LAYER
  5
1D
330
70063
100
AcDbSymbolTableRecord
100
AcDbLayerTableRecord
  2
Level 23
 70
     0
 62
     7
  6
Continuous
370
     0
390
7004A
347
7004D
348
0
1001
AcCmTransparency
1071
 33554687
  0
LAYER
  5
1E
330
70063
100
AcDbSymbolTableRecord
100
AcDbLayerTableRecord
  2
Level 24
 70
     0
 62
     7
  6
Continuous
370
     0
390
7004A
347
7004D
348
0
1001
AcCmTransparency
1071
 33554687
  0
LAYER
  5
1F
330
70063
100
AcDbSymbolTableRecord
100
AcDbLayerTableRecord
  2
Level 25
 70
     0
 62
     7
  6
Continuous
370
     0
390
7004A
347
7004D
348
0
1001
AcCmTransparency
1071
 33554687
  0
LAYER
  5
20
330
70063
100
AcDbSymbolTableRecord
100
AcDbLayerTableRecord
  2
Level 26
 70
     0
 62
     7
  6
Continuous
370
     0
390
7004A
347
7004D
348
0
1001
AcCmTransparency
1071
 33554687
  0
LAYER
  5
21
330
70063
100
AcDbSymbolTableRecord
100
AcDbLayerTableRecord
  2
Level 27
 70
     0
 62
     7
  6
Continuous
370
     0
390
7004A
347
7004D
348
0
1001
AcCmTransparency
1071
 33554687
  0
LAYER
  5
22
330
70063
100
AcDbSymbolTableRecord
100
AcDbLayerTableRecord
  2
Level 28
 70
     0
 62
     7
  6
Continuous
370
     0
390
7004A
347
7004D
348
0
1001
AcCmTransparency
1071
 33554687
  0
LAYER
  5
23
330
70063
100
AcDbSymbolTableRecord
100
AcDbLayerTableRecord
  2
Level 29
 70
     0
 62
     7
  6
Continuous
370
     0
390
7004A
347
7004D
348
0
1001
AcCmTransparency
1071
 33554687
  0
LAYER
  5
24
330
70063
100
AcDbSymbolTableRecord
100
AcDbLayerTableRecord
  2
Level 30
 70
     0
 62
     7
  6
Continuous
370
     0
390
7004A
347
7004D
348
0
1001
AcCmTransparency
1071
 33554687
  0
LAYER
  5
25
330
70063
100
AcDbSymbolTableRecord
100
AcDbLayerTableRecord
  2
Level 31
 70
     0
 62
     7
  6
Continuous
370
     0
390
7004A
347
7004D
348
0
1001
AcCmTransparency
1071
 33554687
  0
LAYER
  5
26
330
70063
100
AcDbSymbolTableRecord
100
AcDbLayerTableRecord
  2
Level 32
 70
     0
 62
     7
  6
Continuous
370
     0
390
7004A
347
7004D
348
0
1001
AcCmTransparency
1071
 33554687
  0
LAYER
  5
27
330
70063
100
AcDbSymbolTableRecord
100
AcDbLayerTableRecord
  2
Level 33
 70
     0
 62
     7
  6
Continuous
370
     0
390
7004A
347
7004D
348
0
1001
AcCmTransparency
1071
 33554687
  0
LAYER
  5
28
330
70063
100
AcDbSymbolTableRecord
100
AcDbLayerTableRecord
  2
Level 34
 70
     0
 62
     7
  6
Continuous
370
     0
390
7004A
347
7004D
348
0
1001
AcCmTransparency
1071
 33554687
  0
LAYER
  5
29
330
70063
100
AcDbSymbolTableRecord
100
AcDbLayerTableRecord
  2
Level 35
 70
     0
 62
     7
  6
Continuous
370
     0
390
7004A
347
7004D
348
0
1001
AcCmTransparency
1071
 33554687
  0
LAYER
  5
2A
330
70063
100
AcDbSymbolTableRecord
100
AcDbLayerTableRecord
  2
Level 36
 70
     0
 62
     7
  6
Continuous
370
     0
390
7004A
347
7004D
348
0
1001
AcCmTransparency
1071
 33554687
  0
LAYER
  5
2B
330
70063
100
AcDbSymbolTableRecord
100
AcDbLayerTableRecord
  2
Level 37
 70
     0
 62
     7
  6
Continuous
370
     0
390
7004A
347
7004D
348
0
1001
AcCmTransparency
1071
 33554687
  0
LAYER
  5
2C
330
70063
100
AcDbSymbolTableRecord
100
AcDbLayerTableRecord
  2
Level 38
 70
     0
 62
     7
  6
Continuous
370
     0
390
7004A
347
7004D
348
0
1001
AcCmTransparency
1071
 33554687
  0
LAYER
  5
2D
330
70063
100
AcDbSymbolTableRecord
100
AcDbLayerTableRecord
  2
Level 39
 70
     0
 62
     7
  6
Continuous
370
     0
390
7004A
347
7004D
348
0
1001
AcCmTransparency
1071
 33554687
  0
LAYER
  5
2E
330
70063
100
AcDbSymbolTableRecord
100
AcDbLayerTableRecord
  2
Level 40
 70
     0
 62
     7
  6
Continuous
370
     0
390
7004A
347
7004D
348
0
1001
AcCmTransparency
1071
 33554687
  0
LAYER
  5
2F
330
70063
100
AcDbSymbolTableRecord
100
AcDbLayerTableRecord
  2
Level 41
 70
     0
 62
     7
  6
Continuous
370
     0
390
7004A
347
7004D
348
0
1001
AcCmTransparency
1071
 33554687
  0
LAYER
  5
30
330
70063
100
AcDbSymbolTableRecord
100
AcDbLayerTableRecord
  2
Level 42
 70
     0
 62
     7
  6
Continuous
370
     0
390
7004A
347
7004D
348
0
1001
AcCmTransparency
1071
 33554687
  0
LAYER
  5
31
330
70063
100
AcDbSymbolTableRecord
100
AcDbLayerTableRecord
  2
Level 43
 70
     0
 62
     7
  6
Continuous
370
     0
390
7004A
347
7004D
348
0
1001
AcCmTransparency
1071
 33554687
  0
LAYER
  5
32
330
70063
100
AcDbSymbolTableRecord
100
AcDbLayerTableRecord
  2
Level 44
 70
     0
 62
     7
  6
Continuous
370
     0
390
7004A
347
7004D
348
0
1001
AcCmTransparency
1071
 33554687
  0
LAYER
  5
33
330
70063
100
AcDbSymbolTableRecord
100
AcDbLayerTableRecord
  2
Level 45
 70
     0
 62
     7
  6
Continuous
370
     0
390
7004A
347
7004D
348
0
1001
AcCmTransparency
1071
 33554687
  0
LAYER
  5
34
330
70063
100
AcDbSymbolTableRecord
100
AcDbLayerTableRecord
  2
Level 46
 70
     0
 62
     7
  6
Continuous
370
     0
390
7004A
347
7004D
348
0
1001
AcCmTransparency
1071
 33554687
  0
LAYER
  5
35
330
70063
100
AcDbSymbolTableRecord
100
AcDbLayerTableRecord
  2
Level 47
 70
     0
 62
     7
  6
Continuous
370
     0
390
7004A
347
7004D
348
0
1001
AcCmTransparency
1071
 33554687
  0
LAYER
  5
36
330
70063
100
AcDbSymbolTableRecord
100
AcDbLayerTableRecord
  2
Level 48
 70
     0
 62
     7
  6
Continuous
370
     0
390
7004A
347
7004D
348
0
1001
AcCmTransparency
1071
 33554687
  0
LAYER
  5
37
330
70063
100
AcDbSymbolTableRecord
100
AcDbLayerTableRecord
  2
Level 49
 70
     0
 62
     7
  6
Continuous
370
     0
390
7004A
347
7004D
348
0
1001
AcCmTransparency
1071
 33554687
  0
LAYER
  5
38
330
70063
100
AcDbSymbolTableRecord
100
AcDbLayerTableRecord
  2
Level 50
 70
     0
 62
     7
  6
Continuous
370
     0
390
7004A
347
7004D
348
0
1001
AcCmTransparency
1071
 33554687
  0
LAYER
  5
39
330
70063
100
AcDbSymbolTableRecord
100
AcDbLayerTableRecord
  2
Level 51
 70
     0
 62
     7
  6
Continuous
370
     0
390
7004A
347
7004D
348
0
1001
AcCmTransparency
1071
 33554687
  0
LAYER
  5
3A
330
70063
100
AcDbSymbolTableRecord
100
AcDbLayerTableRecord
  2
Level 52
 70
     0
 62
     7
  6
Continuous
370
     0
390
7004A
347
7004D
348
0
1001
AcCmTransparency
1071
 33554687
  0
LAYER
  5
3B
330
70063
100
AcDbSymbolTableRecord
100
AcDbLayerTableRecord
  2
Level 53
 70
     0
 62
     7
  6
Continuous
370
     0
390
7004A
347
7004D
348
0
1001
AcCmTransparency
1071
 33554687
  0
LAYER
  5
3C
330
70063
100
AcDbSymbolTableRecord
100
AcDbLayerTableRecord
  2
Level 54
 70
     0
 62
     7
  6
Continuous
370
     0
390
7004A
347
7004D
348
0
1001
AcCmTransparency
1071
 33554687
  0
LAYER
  5
3D
330
70063
100
AcDbSymbolTableRecord
100
AcDbLayerTableRecord
  2
Level 55
 70
     0
 62
     7
  6
Continuous
370
     0
390
7004A
347
7004D
348
0
1001
AcCmTransparency
1071
 33554687
  0
LAYER
  5
3E
330
70063
100
AcDbSymbolTableRecord
100
AcDbLayerTableRecord
  2
Level 56
 70
     0
 62
     7
  6
Continuous
370
     0
390
7004A
347
7004D
348
0
1001
AcCmTransparency
1071
 33554687
  0
LAYER
  5
3F
330
70063
100
AcDbSymbolTableRecord
100
AcDbLayerTableRecord
  2
Level 57
 70
     0
 62
     7
  6
Continuous
370
     0
390
7004A
347
7004D
348
0
1001
AcCmTransparency
1071
 33554687
  0
LAYER
  5
40
330
70063
100
AcDbSymbolTableRecord
100
AcDbLayerTableRecord
  2
Level 58
 70
     0
 62
     7
  6
Continuous
370
     0
390
7004A
347
7004D
348
0
1001
AcCmTransparency
1071
 33554687
  0
LAYER
  5
41
330
70063
100
AcDbSymbolTableRecord
100
AcDbLayerTableRecord
  2
Level 59
 70
     0
 62
     7
  6
Continuous
370
     0
390
7004A
347
7004D
348
0
1001
AcCmTransparency
1071
 33554687
  0
LAYER
  5
42
330
70063
100
AcDbSymbolTableRecord
100
AcDbLayerTableRecord
  2
Level 60
 70
     0
 62
     7
  6
Continuous
370
     0
390
7004A
347
7004D
348
0
1001
AcCmTransparency
1071
 33554687
  0
LAYER
  5
43
330
70063
100
AcDbSymbolTableRecord
100
AcDbLayerTableRecord
  2
Level 61
 70
     0
 62
     7
  6
Continuous
370
     0
390
7004A
347
7004D
348
0
1001
AcCmTransparency
1071
 33554687
  0
LAYER
  5
44
330
70063
100
AcDbSymbolTableRecord
100
AcDbLayerTableRecord
  2
Level 62
 70
     0
 62
     7
  6
Continuous
370
     0
390
7004A
347
7004D
348
0
1001
AcCmTransparency
1071
 33554687
  0
LAYER
  5
45
330
70063
100
AcDbSymbolTableRecord
100
AcDbLayerTableRecord
  2
Level 63
 70
     0
 62
     7
  6
Continuous
370
     0
390
7004A
347
7004D
348
0
1001
AcCmTransparency
1071
 33554687
  0
LAYER
  5
50CA0
330
70063
100
AcDbSymbolTableRecord
100
AcDbLayerTableRecord
  2
25
 70
     0
 62
     7
  6
Continuous
370
     0
390
7004A
347
7004D
348
0
1001
AcCmTransparency
1071
 33554687
  0
ENDTAB
  0
TABLE
  2
STYLE
  5
70066
330
0
100
AcDbSymbolTable
 70
     1
  0
STYLE
  5
70067
330
70066
100
AcDbSymbolTableRecord
100
AcDbTextStyleTableRecord
  2
Standard
 70
     0
 40
0.0
 41
1.0
 50
0.0
 71
     0
 42
100.0
  3
txt
  4

  0
ENDTAB
  0
TABLE
  2
VIEW
  5
7006C
330
0
100
AcDbSymbolTable
 70
     0
  0
ENDTAB
  0
TABLE
  2
UCS
  5
7006D
330
0
100
AcDbSymbolTable
 70
     0
  0
ENDTAB
  0
TABLE
  2
APPID
  5
70072
330
0
100
AcDbSymbolTable
 70
     3
  0
APPID
  5
70073
330
70072
100
AcDbSymbolTableRecord
100
AcDbRegAppTableRecord
  2
ACAD
 70
     0
  0
APPID
  5
70062
330
70072
100
AcDbSymbolTableRecord
100
AcDbRegAppTableRecord
  2
ACAD_PSEXT
 70
     0
  0
APPID
  5
700B6
330
70072
100
AcDbSymbolTableRecord
100
AcDbRegAppTableRecord
  2
AcCmTransparency
 70
     0
  0
ENDTAB
  0
TABLE
  2
DIMSTYLE
  5
70074
330
0
100
AcDbSymbolTable
 70
     1
100
AcDbDimStyleTable
 71
     1
340
70075
  0
DIMSTYLE
105
70075
330
70074
100
AcDbSymbolTableRecord
100
AcDbDimStyleTableRecord
  2
Standard
 70
     0
340
70067
  0
ENDTAB
  0
TABLE
  2
BLOCK_RECORD
  5
70044
330
0
100
AcDbSymbolTable
 70
    39
  0
BLOCK_RECORD
  5
70045
330
70044
100
AcDbSymbolTableRecord
100
AcDbBlockTableRecord
  2
*Model_Space
340
70058
 70
     0
280
     1
281
     0
  0
BLOCK_RECORD
  5
7005C
330
70044
100
AcDbSymbolTableRecord
100
AcDbBlockTableRecord
  2
*Paper_Space
340
7005F
 70
     0
280
     1
281
     0
  0
BLOCK_RECORD
  5
700B9
102
{ACAD_XDICTIONARY
360
7012E
102
}
330
70044
100
AcDbSymbolTableRecord
100
AcDbBlockTableRecord
  2
FS10
340
0
102
{BLKREFS
331
6FD67
102
}
 70
     0
280
     1
281
     0
  0
BLOCK_RECORD
  5
700BC
330
70044
100
AcDbSymbolTableRecord
100
AcDbBlockTableRecord
  2
Smart Solid
340
0
102
{BLKREFS
331
6FD76
102
}
 70
     0
280
     1
281
     0
  0
BLOCK_RECORD
  5
700BF
330
70044
100
AcDbSymbolTableRecord
100
AcDbBlockTableRecord
  2
From Solid
340
0
102
{BLKREFS
331
70023
102
}
 70
     0
280
     1
281
     0
  0
BLOCK_RECORD
  5
700C2
330
70044
100
AcDbSymbolTableRecord
100
AcDbBlockTableRecord
  2
From Surface
340
0
102
{BLKREFS
331
70024
102
}
 70
     0
280
     1
281
     0
  0
BLOCK_RECORD
  5
700C5
330
70044
100
AcDbSymbolTableRecord
100
AcDbBlockTableRecord
  2
From Surface_1
340
0
102
{BLKREFS
331
70025
102
}
 70
     0
280
     1
281
     0
  0
BLOCK_RECORD
  5
700C8
330
70044
100
AcDbSymbolTableRecord
100
AcDbBlockTableRecord
  2
From Surface_2
340
0
102
{BLKREFS
331
70026
102
}
 70
     0
280
     1
281
     0
  0
BLOCK_RECORD
  5
700CB
330
70044
100
AcDbSymbolTableRecord
100
AcDbBlockTableRecord
  2
From Surface_3
340
0
102
{BLKREFS
331
70027
102
}
 70
     0
280
     1
281
     0
  0
BLOCK_RECORD
  5
700CE
330
70044
100
AcDbSymbolTableRecord
100
AcDbBlockTableRecord
  2
From Solid_1
340
0
102
{BLKREFS
331
70028
102
}
 70
     0
280
     1
281
     0
  0
BLOCK_RECORD
  5
700D1
330
70044
100
AcDbSymbolTableRecord
100
AcDbBlockTableRecord
  2
From Solid_2
340
0
102
{BLKREFS
331
70029
102
}
 70
     0
280
     1
281
     0
  0
BLOCK_RECORD
  5
700D4
330
70044
100
AcDbSymbolTableRecord
100
AcDbBlockTableRecord
  2
From Solid_3
340
0
102
{BLKREFS
331
7002A
102
}
 70
     0
280
     1
281
     0
  0
BLOCK_RECORD
  5
700D7
330
70044
100
AcDbSymbolTableRecord
100
AcDbBlockTableRecord
  2
From Solid_4
340
0
102
{BLKREFS
331
7002B
102
}
 70
     0
280
     1
281
     0
  0
BLOCK_RECORD
  5
700DA
330
70044
100
AcDbSymbolTableRecord
100
AcDbBlockTableRecord
  2
From Solid_5
340
0
102
{BLKREFS
331
7002C
102
}
 70
     0
280
     1
281
     0
  0
BLOCK_RECORD
  5
700DD
330
70044
100
AcDbSymbolTableRecord
100
AcDbBlockTableRecord
  2
From Solid_6
340
0
102
{BLKREFS
331
7002D
102
}
 70
     0
280
     1
281
     0
  0
BLOCK_RECORD
  5
700E0
330
70044
100
AcDbSymbolTableRecord
100
AcDbBlockTableRecord
  2
From Solid_7
340
0
102
{BLKREFS
331
7002E
102
}
 70
     0
280
     1
281
     0
  0
BLOCK_RECORD
  5
700E3
330
70044
100
AcDbSymbolTableRecord
100
AcDbBlockTableRecord
  2
From Solid_8
340
0
102
{BLKREFS
331
7002F
102
}
 70
     0
280
     1
281
     0
  0
BLOCK_RECORD
  5
700E6
330
70044
100
AcDbSymbolTableRecord
100
AcDbBlockTableRecord
  2
From Solid_9
340
0
102
{BLKREFS
331
70030
102
}
 70
     0
280
     1
281
     0
  0
BLOCK_RECORD
  5
700E9
330
70044
100
AcDbSymbolTableRecord
100
AcDbBlockTableRecord
  2
From Solid_10
340
0
102
{BLKREFS
331
70031
102
}
 70
     0
280
     1
281
     0
  0
BLOCK_RECORD
  5
700EC
330
70044
100
AcDbSymbolTableRecord
100
AcDbBlockTableRecord
  2
From Solid_11
340
0
102
{BLKREFS
331
70032
102
}
 70
     0
280
     1
281
     0
  0
BLOCK_RECORD
  5
700EF
330
70044
100
AcDbSymbolTableRecord
100
AcDbBlockTableRecord
  2
From Solid_12
340
0
102
{BLKREFS
331
70033
102
}
 70
     0
280
     1
281
     0
  0
BLOCK_RECORD
  5
700F2
330
70044
100
AcDbSymbolTableRecord
100
AcDbBlockTableRecord
  2
From Solid_13
340
0
102
{BLKREFS
331
70034
102
}
 70
     0
280
     1
281
     0
  0
BLOCK_RECORD
  5
700F5
330
70044
100
AcDbSymbolTableRecord
100
AcDbBlockTableRecord
  2
From Solid_14
340
0
102
{BLKREFS
331
70035
102
}
 70
     0
280
     1
281
     0
  0
BLOCK_RECORD
  5
700F8
330
70044
100
AcDbSymbolTableRecord
100
AcDbBlockTableRecord
  2
From Solid_15
340
0
102
{BLKREFS
331
70036
102
}
 70
     0
280
     1
281
     0
  0
BLOCK_RECORD
  5
700FB
330
70044
100
AcDbSymbolTableRecord
100
AcDbBlockTableRecord
  2
From Solid_16
340
0
102
{BLKREFS
331
70037
102
}
 70
     0
280
     1
281
     0
  0
BLOCK_RECORD
  5
700FE
330
70044
100
AcDbSymbolTableRecord
100
AcDbBlockTableRecord
  2
From Solid_17
340
0
102
{BLKREFS
331
70038
102
}
 70
     0
280
     1
281
     0
  0
BLOCK_RECORD
  5
70101
330
70044
100
AcDbSymbolTableRecord
100
AcDbBlockTableRecord
  2
From Surface_4
340
0
102
{BLKREFS
331
70039
102
}
 70
     0
280
     1
281
     0
  0
BLOCK_RECORD
  5
70104
330
70044
100
AcDbSymbolTableRecord
100
AcDbBlockTableRecord
  2
From Surface_5
340
0
102
{BLKREFS
331
7003A
102
}
 70
     0
280
     1
281
     0
  0
BLOCK_RECORD
  5
70107
330
70044
100
AcDbSymbolTableRecord
100
AcDbBlockTableRecord
  2
From Surface_6
340
0
102
{BLKREFS
331
7003B
102
}
 70
     0
280
     1
281
     0
  0
BLOCK_RECORD
  5
7010A
330
70044
100
AcDbSymbolTableRecord
100
AcDbBlockTableRecord
  2
From Surface_7
340
0
102
{BLKREFS
331
7003C
102
}
 70
     0
280
     1
281
     0
  0
BLOCK_RECORD
  5
7010D
330
70044
100
AcDbSymbolTableRecord
100
AcDbBlockTableRecord
  2
From Solid_18
340
0
102
{BLKREFS
331
7003D
102
}
 70
     0
280
     1
281
     0
  0
BLOCK_RECORD
  5
70110
330
70044
100
AcDbSymbolTableRecord
100
AcDbBlockTableRecord
  2
From Solid_19
340
0
102
{BLKREFS
331
7003E
102
}
 70
     0
280
     1
281
     0
  0
BLOCK_RECORD
  5
70113
330
70044
100
AcDbSymbolTableRecord
100
AcDbBlockTableRecord
  2
From Solid_20
340
0
102
{BLKREFS
331
7003F
102
}
 70
     0
280
     1
281
     0
  0
BLOCK_RECORD
  5
70116
330
70044
100
AcDbSymbolTableRecord
100
AcDbBlockTableRecord
  2
From Solid_21
340
0
102
{BLKREFS
331
70040
102
}
 70
     0
280
     1
281
     0
  0
BLOCK_RECORD
  5
70119
330
70044
100
AcDbSymbolTableRecord
100
AcDbBlockTableRecord
  2
From Solid_22
340
0
102
{BLKREFS
331
70041
102
}
 70
     0
280
     1
281
     0
  0
BLOCK_RECORD
  5
7011C
330
70044
100
AcDbSymbolTableRecord
100
AcDbBlockTableRecord
  2
From Solid_23
340
0
102
{BLKREFS
331
70042
102
}
 70
     0
280
     1
281
     0
  0
BLOCK_RECORD
  5
7011F
330
70044
100
AcDbSymbolTableRecord
100
AcDbBlockTableRecord
  2
Smart Solid_1
340
0
102
{BLKREFS
331
6FF22
102
}
 70
     0
280
     1
281
     0
  0
BLOCK_RECORD
  5
70122
330
70044
100
AcDbSymbolTableRecord
100
AcDbBlockTableRecord
  2
Smart Solid_2
340
0
102
{BLKREFS
331
6FF60
102
}
 70
     0
280
     1
281
     0
  0
BLOCK_RECORD
  5
70125
330
70044
100
AcDbSymbolTableRecord
100
AcDbBlockTableRecord
  2
Smart Solid_3
340
0
102
{BLKREFS
331
6FF80
102
}
 70
     0
280
     1
281
     0
  0
BLOCK_RECORD
  5
70128
330
70044
100
AcDbSymbolTableRecord
100
AcDbBlockTableRecord
  2
Feature Solid
340
0
102
{BLKREFS
331
6FFA0
102
}
 70
     0
280
     1
281
     0
  0
BLOCK_RECORD
  5
7012B
330
70044
100
AcDbSymbolTableRecord
100
AcDbBlockTableRecord
  2
CONE
340
0
102
{BLKREFS
331
6FFA1
102
}
 70
     0
280
     1
281
     0
  0
ENDTAB
  0
ENDSEC
  0
SECTION
  2
BLOCKS
  0
BLOCK
  5
70046
330
70045
100
AcDbEntity
  8
0
100
AcDbBlockBegin
  2
*Model_Space
 70
     0
 10
0.0
 20
0.0
 30
0.0
  3
*Model_Space
  1

  0
ENDBLK
  5
70057
330
70045
100
AcDbEntity
  8
0
100
AcDbBlockEnd
  0
BLOCK
  5
7005D
330
7005C
100
AcDbEntity
 67
     1
  8
0
100
AcDbBlockBegin
  2
*Paper_Space
 70
     0
 10
0.0
 20
0.0
 30
0.0
  3
*Paper_Space
  1

  0
ENDBLK
  5
7005E
330
7005C
100
AcDbEntity
 67
     1
  8
0
100
AcDbBlockEnd
  0
BLOCK
  5
700BA
330
700B9
100
AcDbEntity
  8
0
 62
    98
370
     0
100
AcDbBlockBegin
  2
FS10
 70
     0
 10
0.0
 20
0.0
 30
0.0
  3
FS10
  1

  0
LWPOLYLINE
  5
6FD68
330
700B9
100
AcDbEntity
  8
Level 25
  6
Continuous
 62
   160
370
     0
100
AcDbPolyline
 90
       19
 70
   129
 43
0.0
 10
0.0
 20
-194.211434
 10
0.0
 20
-209.033761
 10
0.0
 20
-240.788929
 10
0.0
 20
-247.413648
 10
0.0
 20
-222.436057
 10
0.0
 20
-247.440119
 10
0.0
 20
-222.436057
 10
0.0
 20
222.436057
 10
0.0
 20
247.431995
 10
0.0
 20
247.418404
 10
0.0
 20
242.671679
 10
0.0
 20
210.953283
 10
0.0
 20
194.563928
 10
0.0
 20
165.075619
 10
0.0
 20
194.563928
 10
0.0
 20
165.075619
 10
0.0
 20
0.194158
 10
0.0
 20
-164.638782
 10
0.0
 20
-194.211434
  0
INSERT
  5
6FD76
330
700B9
100
AcDbEntity
  8
Level 25
  6
Continuous
 62
   160
370
     0
100
AcDbBlockReference
  2
Smart Solid
 10
-1267.569
 20
-0.004342
 30
0.0
 50
90.0
  0
LWPOLYLINE
  5
6FE3A
330
700B9
100
AcDbEntity
  8
Level 27
  6
Continuous
 62
    40
370
     0
100
AcDbPolyline
 90
        5
 70
   129
 43
0.0
 10
-556.111079
 20
-279.15
 10
-591.466418
 20
-279.15
 10
-591.466418
 20
279.15
 10
-556.111079
 20
279.15
 10
-556.111079
 20
-279.15
  0
LWPOLYLINE
  5
6FE3B
330
700B9
100
AcDbEntity
  8
Level 27
  6
Continuous
 62
    40
370
     0
100
AcDbPolyline
 90
        5
 70
   129
 43
0.0
 10
-541.968944
 20
-279.15
 10
-556.111079
 20
-279.15
 10
-556.111079
 20
279.15
 10
-541.968944
 20
279.15
 10
-541.968944
 20
-279.15
  0
LWPOLYLINE
  5
6FE3C
330
700B9
100
AcDbEntity
  8
Level 27
  6
Continuous
 62
    40
370
     0
100
AcDbPolyline
 90
        5
 70
   129
 43
0.0
 10
-577.324283
 20
-279.15
 10
-541.968944
 20
-279.15
 10
-541.968944
 20
279.15
 10
-577.324283
 20
279.15
 10
-577.324283
 20
-279.15
  0
LWPOLYLINE
  5
6FE3D
330
700B9
100
AcDbEntity
  8
Level 27
  6
Continuous
 62
    40
370
     0
100
AcDbPolyline
 90
        5
 70
   129
 43
0.0
 10
-591.466418
 20
-279.15
 10
-577.324283
 20
-279.15
 10
-577.324283
 20
279.15
 10
-591.466418
 20
279.15
 10
-591.466418
 20
-279.15
  0
INSERT
  5
70023
330
700B9
100
AcDbEntity
  8
Level 27
  6
Continuous
 62
    40
370
     0
100
AcDbBlockReference
  2
From Solid
 10
-4324.320447
 20
-103.60039
 30
0.0
  0
INSERT
  5
70024
330
700B9
100
AcDbEntity
  8
Level 27
  6
Continuous
 62
    40
370
     0
100
AcDbBlockReference
  2
From Surface
 10
-4324.320447
 20
-103.60039
 30
0.0
  0
INSERT
  5
70025
330
700B9
100
AcDbEntity
  8
Level 27
  6
Continuous
 62
    40
370
     0
100
AcDbBlockReference
  2
From Surface_1
 10
-4324.320447
 20
-103.60039
 30
0.0
  0
INSERT
  5
70026
330
700B9
100
AcDbEntity
  8
Level 27
  6
Continuous
 62
    40
370
     0
100
AcDbBlockReference
  2
From Surface_2
 10
-4324.320447
 20
-103.60039
 30
0.0
  0
INSERT
  5
70027
330
700B9
100
AcDbEntity
  8
Level 27
  6
Continuous
 62
    40
370
     0
100
AcDbBlockReference
  2
From Surface_3
 10
-4324.320447
 20
-103.60039
 30
0.0
  0
INSERT
  5
70028
330
700B9
100
AcDbEntity
  8
Level 27
  6
Continuous
 62
    40
370
     0
100
AcDbBlockReference
  2
From Solid_1
 10
-4324.320447
 20
-103.60039
 30
0.0
  0
INSERT
  5
70029
330
700B9
100
AcDbEntity
  8
Level 27
  6
Continuous
 62
    40
370
     0
100
AcDbBlockReference
  2
From Solid_2
 10
-4324.320447
 20
-103.60039
 30
0.0
  0
INSERT
  5
7002A
330
700B9
100
AcDbEntity
  8
Level 27
  6
Continuous
 62
    40
370
     0
100
AcDbBlockReference
  2
From Solid_3
 10
-4324.320447
 20
-103.60039
 30
0.0
  0
INSERT
  5
7002B
330
700B9
100
AcDbEntity
  8
Level 27
  6
Continuous
 62
    40
370
     0
100
AcDbBlockReference
  2
From Solid_4
 10
-4324.320447
 20
-103.60039
 30
0.0
  0
INSERT
  5
7002C
330
700B9
100
AcDbEntity
  8
Level 27
  6
Continuous
 62
    40
370
     0
100
AcDbBlockReference
  2
From Solid_5
 10
-4324.320447
 20
-103.60039
 30
0.0
  0
INSERT
  5
7002D
330
700B9
100
AcDbEntity
  8
Level 27
  6
Continuous
 62
    40
370
     0
100
AcDbBlockReference
  2
From Solid_6
 10
-4324.320447
 20
-103.60039
 30
0.0
  0
INSERT
  5
7002E
330
700B9
100
AcDbEntity
  8
Level 27
  6
Continuous
 62
    40
370
     0
100
AcDbBlockReference
  2
From Solid_7
 10
-4324.320447
 20
-103.60039
 30
0.0
  0
INSERT
  5
7002F
330
700B9
100
AcDbEntity
  8
Level 27
  6
Continuous
 62
    40
370
     0
100
AcDbBlockReference
  2
From Solid_8
 10
-4324.320447
 20
-103.60039
 30
0.0
  0
INSERT
  5
70030
330
700B9
100
AcDbEntity
  8
Level 27
  6
Continuous
 62
    40
370
     0
100
AcDbBlockReference
  2
From Solid_9
 10
-4324.320447
 20
-103.60039
 30
0.0
  0
INSERT
  5
70031
330
700B9
100
AcDbEntity
  8
Level 27
  6
Continuous
 62
    40
370
     0
100
AcDbBlockReference
  2
From Solid_10
 10
-4324.320447
 20
-103.60039
 30
0.0
  0
INSERT
  5
70032
330
700B9
100
AcDbEntity
  8
Level 27
  6
Continuous
 62
    40
370
     0
100
AcDbBlockReference
  2
From Solid_11
 10
-4324.320447
 20
-103.60039
 30
0.0
  0
INSERT
  5
70033
330
700B9
100
AcDbEntity
  8
Level 27
  6
Continuous
 62
    40
370
     0
100
AcDbBlockReference
  2
From Solid_12
 10
-4324.320447
 20
-103.60039
 30
0.0
  0
INSERT
  5
70034
330
700B9
100
AcDbEntity
  8
Level 27
  6
Continuous
 62
    40
370
     0
100
AcDbBlockReference
  2
From Solid_13
 10
-4324.320447
 20
-103.60039
 30
0.0
  0
INSERT
  5
70035
330
700B9
100
AcDbEntity
  8
Level 27
  6
Continuous
 62
    40
370
     0
100
AcDbBlockReference
  2
From Solid_14
 10
-4324.320447
 20
-103.60039
 30
0.0
  0
INSERT
  5
70036
330
700B9
100
AcDbEntity
  8
Level 27
  6
Continuous
 62
    40
370
     0
100
AcDbBlockReference
  2
From Solid_15
 10
-4324.320447
 20
-103.60039
 30
0.0
  0
INSERT
  5
70037
330
700B9
100
AcDbEntity
  8
Level 27
  6
Continuous
 62
    40
370
     0
100
AcDbBlockReference
  2
From Solid_16
 10
-4324.320447
 20
-103.60039
 30
0.0
  0
INSERT
  5
70038
330
700B9
100
AcDbEntity
  8
Level 27
  6
Continuous
 62
    40
370
     0
100
AcDbBlockReference
  2
From Solid_17
 10
-4324.320447
 20
-103.60039
 30
0.0
  0
INSERT
  5
70039
330
700B9
100
AcDbEntity
  8
Level 27
  6
Continuous
 62
    40
370
     0
100
AcDbBlockReference
  2
From Surface_4
 10
-4324.320447
 20
-103.60039
 30
0.0
  0
INSERT
  5
7003A
330
700B9
100
AcDbEntity
  8
Level 27
  6
Continuous
 62
    40
370
     0
100
AcDbBlockReference
  2
From Surface_5
 10
-4324.320447
 20
-103.60039
 30
0.0
  0
INSERT
  5
7003B
330
700B9
100
AcDbEntity
  8
Level 27
  6
Continuous
 62
    40
370
     0
100
AcDbBlockReference
  2
From Surface_6
 10
-4324.320447
 20
-103.60039
 30
0.0
  0
INSERT
  5
7003C
330
700B9
100
AcDbEntity
  8
Level 27
  6
Continuous
 62
    40
370
     0
100
AcDbBlockReference
  2
From Surface_7
 10
-4324.320447
 20
-103.60039
 30
0.0
  0
INSERT
  5
7003D
330
700B9
100
AcDbEntity
  8
Level 27
  6
Continuous
 62
    40
370
     0
100
AcDbBlockReference
  2
From Solid_18
 10
-4324.320447
 20
-103.60039
 30
0.0
  0
INSERT
  5
7003E
330
700B9
100
AcDbEntity
  8
Level 27
  6
Continuous
 62
    40
370
     0
100
AcDbBlockReference
  2
From Solid_19
 10
-4324.320447
 20
-103.60039
 30
0.0
  0
INSERT
  5
7003F
330
700B9
100
AcDbEntity
  8
Level 27
  6
Continuous
 62
    40
370
     0
100
AcDbBlockReference
  2
From Solid_20
 10
-4324.320447
 20
-103.60039
 30
0.0
  0
LWPOLYLINE
  5
6FEF9
330
700B9
100
AcDbEntity
  8
Level 27
  6
Continuous
 62
    40
370
     0
100
AcDbPolyline
 90
        5
 70
   129
 43
0.0
 10
280.0
 20
-199.15
 10
280.0
 20
199.15
 10
310.0
 20
199.15
 10
310.0
 20
-199.15
 10
280.0
 20
-199.15
  0
LWPOLYLINE
  5
6FEFE
330
700B9
100
AcDbEntity
  8
Level 27
  6
Continuous
 62
    40
370
     0
100
AcDbPolyline
 90
        5
 70
   129
 43
0.0
 10
310.0
 20
199.15
 10
310.0
 20
-199.15
 10
310.0
 20
-199.15
 10
310.0
 20
199.15
 10
310.0
 20
199.15
  0
LWPOLYLINE
  5
6FF03
330
700B9
100
AcDbEntity
  8
Level 27
  6
Continuous
 62
    40
370
     0
100
AcDbPolyline
 90
        5
 70
   129
 43
0.0
 10
280.0
 20
-199.15
 10
280.0
 20
199.15
 10
280.0
 20
199.15
 10
280.0
 20
-199.15
 10
280.0
 20
-199.15
  0
LWPOLYLINE
  5
6FF08
330
700B9
100
AcDbEntity
  8
Level 27
  6
Continuous
 62
    40
370
     0
100
AcDbPolyline
 90
        5
 70
   129
 43
0.0
 10
310.0
 20
-199.15
 10
310.0
 20
199.15
 10
280.0
 20
199.15
 10
280.0
 20
-199.15
 10
310.0
 20
-199.15
  0
INSERT
  5
70040
330
700B9
100
AcDbEntity
  8
Level 27
  6
Continuous
 62
    40
370
     0
100
AcDbBlockReference
  2
From Solid_21
 10
-4324.320447
 20
-103.60039
 30
0.0
  0
INSERT
  5
70041
330
700B9
100
AcDbEntity
  8
Level 27
  6
Continuous
 62
    40
370
     0
100
AcDbBlockReference
  2
From Solid_22
 10
-4324.320447
 20
-103.60039
 30
0.0
  0
INSERT
  5
70042
330
700B9
100
AcDbEntity
  8
Level 27
  6
Continuous
 62
    40
370
     0
100
AcDbBlockReference
  2
From Solid_23
 10
-4324.320447
 20
-103.60039
 30
0.0
  0
INSERT
  5
6FF22
330
700B9
100
AcDbEntity
  8
Level 26
  6
Continuous
 62
   253
370
     0
100
AcDbBlockReference
  2
Smart Solid_1
 10
140.0
 20
0.0005
 30
0.0
 50
90.0
  0
INSERT
  5
6FF60
330
700B9
100
AcDbEntity
  8
Level 26
  6
Continuous
 62
   253
370
     0
100
AcDbBlockReference
  2
Smart Solid_2
 10
140.0
 20
252.0005
 30
0.0
 50
90.0
  0
INSERT
  5
6FF80
330
700B9
100
AcDbEntity
  8
Level 26
  6
Continuous
 62
   253
370
     0
100
AcDbBlockReference
  2
Smart Solid_3
 10
-140.0
 20
-252.0005
 30
0.0
 50
270.0
210
0.0
220
0.0
230
-1.0
  0
INSERT
  5
6FFA0
330
700B9
100
AcDbEntity
  8
Level 26
  6
Continuous
 62
   253
370
     0
100
AcDbBlockReference
  2
Feature Solid
 10
0.000261
 20
-0.000328
 30
0.0
  0
ENDBLK
  5
700BB
330
700B9
100
AcDbEntity
  8
0
 62
    98
370
     0
100
AcDbBlockEnd
  0
BLOCK
  5
700BD
330
700BC
100
AcDbEntity
  8
0
 62
    98
370
     0
100
AcDbBlockBegin
  2
Smart Solid
 70
     0
 10
0.0
 20
0.0
 30
0.0
  3
Smart Solid
  1

  0
LINE
  5
6FD77
330
700BC
100
AcDbEntity
  8
Level 25
  6
Continuous
 62
   160
370
     0
100
AcDbLine
 10
-209.029419
 20
-1117.569
 30
0.0
 11
-209.029419
 21
-1267.569
 31
0.0
  0
LINE
  5
6FD78
330
700BC
100
AcDbEntity
  8
Level 25
  6
Continuous
 62
   160
370
     0
100
AcDbLine
 10
-240.784587
 20
-1117.569
 30
0.0
 11
-240.784587
 21
-1267.569
 31
0.0
  0
LINE
  5
6FD79
330
700BC
100
AcDbEntity
  8
Level 25
  6
Continuous
 62
   160
370
     0
100
AcDbLine
 10
-247.409306
 20
-1117.569
 30
0.0
 11
-247.409306
 21
-1267.569
 31
0.0
  0
LINE
  5
6FD7A
330
700BC
100
AcDbEntity
  8
Level 25
  6
Continuous
 62
   160
370
     0
100
AcDbLine
 10
-222.431715
 20
-1117.569
 30
0.0
 11
-222.431715
 21
-1267.569
 31
0.0
  0
LINE
  5
6FD7B
330
700BC
100
AcDbEntity
  8
Level 25
  6
Continuous
 62
   160
370
     0
100
AcDbLine
 10
222.4404
 20
-1117.569
 30
0.0
 11
222.4404
 21
-1267.569
 31
0.0
  0
LINE
  5
6FD7C
330
700BC
100
AcDbEntity
  8
Level 25
  6
Continuous
 62
   160
370
     0
100
AcDbLine
 10
247.422746
 20
-1117.569
 30
0.0
 11
247.422746
 21
-1267.569
 31
0.0
  0
LINE
  5
6FD7D
330
700BC
100
AcDbEntity
  8
Level 25
  6
Continuous
 62
   160
370
     0
100
AcDbLine
 10
242.676022
 20
-1117.569
 30
0.0
 11
242.676022
 21
-1267.569
 31
0.0
  0
LINE
  5
6FD7E
330
700BC
100
AcDbEntity
  8
Level 25
  6
Continuous
 62
   160
370
     0
100
AcDbLine
 10
210.957625
 20
-1117.569
 30
0.0
 11
210.957625
 21
-1267.569
 31
0.0
  0
LINE
  5
6FD7F
330
700BC
100
AcDbEntity
  8
Level 25
  6
Continuous
 62
   160
370
     0
100
AcDbLine
 10
194.56827
 20
-1117.569
 30
0.0
 11
194.56827
 21
-1267.569
 31
0.0
  0
LINE
  5
6FD80
330
700BC
100
AcDbEntity
  8
Level 25
  6
Continuous
 62
   160
370
     0
100
AcDbLine
 10
165.079962
 20
-1117.569
 30
0.0
 11
165.079962
 21
-1267.569
 31
0.0
  0
LINE
  5
6FD81
330
700BC
100
AcDbEntity
  8
Level 25
  6
Continuous
 62
   160
370
     0
100
AcDbLine
 10
-164.63444
 20
-1117.569
 30
0.0
 11
-164.63444
 21
-1267.569
 31
0.0
  0
LINE
  5
6FD82
330
700BC
100
AcDbEntity
  8
Level 25
  6
Continuous
 62
   160
370
     0
100
AcDbLine
 10
-194.207092
 20
-1117.569
 30
0.0
 11
-194.207092
 21
-1267.569
 31
0.0
  0
LINE
  5
6FD83
330
700BC
100
AcDbEntity
  8
Level 25
  6
Continuous
 62
   160
370
     0
100
AcDbLine
 10
-164.63444
 20
-1117.569
 30
0.0
 11
-194.207092
 21
-1117.569
 31
0.0
  0
LINE
  5
6FD84
330
700BC
100
AcDbEntity
  8
Level 25
  6
Continuous
 62
   160
370
     0
100
AcDbLine
 10
165.079962
 20
-1117.569
 30
0.0
 11
-164.63444
 21
-1117.569
 31
0.0
  0
LINE
  5
6FD85
330
700BC
100
AcDbEntity
  8
Level 25
  6
Continuous
 62
   160
370
     0
100
AcDbLine
 10
194.56827
 20
-1117.569
 30
0.0
 11
165.079962
 21
-1117.569
 31
0.0
  0
LINE
  5
6FD86
330
700BC
100
AcDbEntity
  8
Level 25
  6
Continuous
 62
   160
370
     0
100
AcDbLine
 10
210.957625
 20
-1117.569
 30
0.0
 11
194.56827
 21
-1117.569
 31
0.0
  0
LINE
  5
6FD87
330
700BC
100
AcDbEntity
  8
Level 25
  6
Continuous
 62
   160
370
     0
100
AcDbLine
 10
242.676022
 20
-1117.569
 30
0.0
 11
210.957625
 21
-1117.569
 31
0.0
  0
LINE
  5
6FD88
330
700BC
100
AcDbEntity
  8
Level 25
  6
Continuous
 62
   160
370
     0
100
AcDbLine
 10
247.422746
 20
-1117.569
 30
0.0
 11
242.676022
 21
-1117.569
 31
0.0
  0
LINE
  5
6FD89
330
700BC
100
AcDbEntity
  8
Level 25
  6
Continuous
 62
   160
370
     0
100
AcDbLine
 10
222.4404
 20
-1117.569
 30
0.0
 11
247.436338
 21
-1117.569
 31
0.0
  0
LINE
  5
6FD8A
330
700BC
100
AcDbEntity
  8
Level 25
  6
Continuous
 62
   160
370
     0
100
AcDbLine
 10
-222.431715
 20
-1117.569
 30
0.0
 11
222.4404
 21
-1117.569
 31
0.0
  0
LINE
  5
6FD8B
330
700BC
100
AcDbEntity
  8
Level 25
  6
Continuous
 62
   160
370
     0
100
AcDbLine
 10
-222.431715
 20
-1117.569
 30
0.0
 11
-247.435777
 21
-1117.569
 31
0.0
  0
LINE
  5
6FD8C
330
700BC
100
AcDbEntity
  8
Level 25
  6
Continuous
 62
   160
370
     0
100
AcDbLine
 10
-240.784587
 20
-1117.569
 30
0.0
 11
-247.409306
 21
-1117.569
 31
0.0
  0
LINE
  5
6FD8D
330
700BC
100
AcDbEntity
  8
Level 25
  6
Continuous
 62
   160
370
     0
100
AcDbLine
 10
-209.029419
 20
-1117.569
 30
0.0
 11
-240.784587
 21
-1117.569
 31
0.0
  0
LINE
  5
6FD8E
330
700BC
100
AcDbEntity
  8
Level 25
  6
Continuous
 62
   160
370
     0
100
AcDbLine
 10
-194.207092
 20
-1117.569
 30
0.0
 11
-209.029419
 21
-1117.569
 31
0.0
  0
LINE
  5
6FD8F
330
700BC
100
AcDbEntity
  8
Level 25
  6
Continuous
 62
   160
370
     0
100
AcDbLine
 10
-164.63444
 20
-1267.569
 30
0.0
 11
-194.207092
 21
-1267.569
 31
0.0
  0
LINE
  5
6FD90
330
700BC
100
AcDbEntity
  8
Level 25
  6
Continuous
 62
   160
370
     0
100
AcDbLine
 10
165.079962
 20
-1267.569
 30
0.0
 11
-164.63444
 21
-1267.569
 31
0.0
  0
LINE
  5
6FD91
330
700BC
100
AcDbEntity
  8
Level 25
  6
Continuous
 62
   160
370
     0
100
AcDbLine
 10
194.56827
 20
-1267.569
 30
0.0
 11
165.079962
 21
-1267.569
 31
0.0
  0
LINE
  5
6FD92
330
700BC
100
AcDbEntity
  8
Level 25
  6
Continuous
 62
   160
370
     0
100
AcDbLine
 10
210.957625
 20
-1267.569
 30
0.0
 11
194.56827
 21
-1267.569
 31
0.0
  0
LINE
  5
6FD93
330
700BC
100
AcDbEntity
  8
Level 25
  6
Continuous
 62
   160
370
     0
100
AcDbLine
 10
242.676022
 20
-1267.569
 30
0.0
 11
210.957625
 21
-1267.569
 31
0.0
  0
LINE
  5
6FD94
330
700BC
100
AcDbEntity
  8
Level 25
  6
Continuous
 62
   160
370
     0
100
AcDbLine
 10
247.422746
 20
-1267.569
 30
0.0
 11
242.676022
 21
-1267.569
 31
0.0
  0
LINE
  5
6FD95
330
700BC
100
AcDbEntity
  8
Level 25
  6
Continuous
 62
   160
370
     0
100
AcDbLine
 10
222.4404
 20
-1267.569
 30
0.0
 11
247.436338
 21
-1267.569
 31
0.0
  0
LINE
  5
6FD96
330
700BC
100
AcDbEntity
  8
Level 25
  6
Continuous
 62
   160
370
     0
100
AcDbLine
 10
-222.431715
 20
-1267.569
 30
0.0
 11
222.4404
 21
-1267.569
 31
0.0
  0
LINE
  5
6FD97
330
700BC
100
AcDbEntity
  8
Level 25
  6
Continuous
 62
   160
370
     0
100
AcDbLine
 10
-222.431715
 20
-1267.569
 30
0.0
 11
-247.435777
 21
-1267.569
 31
0.0
  0
LINE
  5
6FD98
330
700BC
100
AcDbEntity
  8
Level 25
  6
Continuous
 62
   160
370
     0
100
AcDbLine
 10
-240.784587
 20
-1267.569
 30
0.0
 11
-247.409306
 21
-1267.569
 31
0.0
  0
LINE
  5
6FD99
330
700BC
100
AcDbEntity
  8
Level 25
  6
Continuous
 62
   160
370
     0
100
AcDbLine
 10
-209.029419
 20
-1267.569
 30
0.0
 11
-240.784587
 21
-1267.569
 31
0.0
  0
LINE
  5
6FD9A
330
700BC
100
AcDbEntity
  8
Level 25
  6
Continuous
 62
   160
370
     0
100
AcDbLine
 10
-194.207092
 20
-1267.569
 30
0.0
 11
-209.029419
 21
-1267.569
 31
0.0
  0
LINE
  5
6FD9B
330
700BC
100
AcDbEntity
  8
Level 25
  6
Continuous
 62
   160
370
     0
100
AcDbLine
 10
-194.207092
 20
-1117.569
 30
0.0
 11
-194.207092
 21
-931.436031
 31
0.0
  0
LINE
  5
6FD9C
330
700BC
100
AcDbEntity
  8
Level 25
  6
Continuous
 62
   160
370
     0
100
AcDbLine
 10
-164.63444
 20
-1117.569
 30
0.0
 11
-164.63444
 21
-950.018755
 31
0.0
  0
LINE
  5
6FD9D
330
700BC
100
AcDbEntity
  8
Level 25
  6
Continuous
 62
   160
370
     0
100
AcDbLine
 10
165.079962
 20
-1117.569
 30
0.0
 11
165.079962
 21
-950.018755
 31
0.0
  0
LINE
  5
6FD9E
330
700BC
100
AcDbEntity
  8
Level 25
  6
Continuous
 62
   160
370
     0
100
AcDbLine
 10
194.56827
 20
-1117.569
 30
0.0
 11
194.56827
 21
-931.787213
 31
0.0
  0
LINE
  5
6FD9F
330
700BC
100
AcDbEntity
  8
Level 25
  6
Continuous
 62
   160
370
     0
100
AcDbLine
 10
210.957625
 20
-1117.569
 30
0.0
 11
210.957625
 21
-866.556153
 31
0.0
  0
LINE
  5
6FDA0
330
700BC
100
AcDbEntity
  8
Level 25
  6
Continuous
 62
   160
370
     0
100
AcDbLine
 10
242.676022
 20
-1117.569
 30
0.0
 11
242.676022
 21
-868.354046
 31
0.0
  0
LINE
  5
6FDA1
330
700BC
100
AcDbEntity
  8
Level 25
  6
Continuous
 62
   160
370
     0
100
AcDbLine
 10
247.422746
 20
-1117.569
 30
0.0
 11
247.422746
 21
-975.504492
 31
0.0
  0
LINE
  5
6FDA2
330
700BC
100
AcDbEntity
  8
Level 25
  6
Continuous
 62
   160
370
     0
100
AcDbLine
 10
222.4404
 20
-1117.569
 30
0.0
 11
222.4404
 21
-994.734988
 31
0.0
  0
LINE
  5
6FDA3
330
700BC
100
AcDbEntity
  8
Level 25
  6
Continuous
 62
   160
370
     0
100
AcDbLine
 10
-222.431715
 20
-1117.569
 30
0.0
 11
-222.431715
 21
-994.788814
 31
0.0
  0
LINE
  5
6FDA4
330
700BC
100
AcDbEntity
  8
Level 25
  6
Continuous
 62
   160
370
     0
100
AcDbLine
 10
-247.409306
 20
-1117.569
 30
0.0
 11
-247.409306
 21
-975.315639
 31
0.0
  0
LINE
  5
6FDA5
330
700BC
100
AcDbEntity
  8
Level 25
  6
Continuous
 62
   160
370
     0
100
AcDbLine
 10
-240.784587
 20
-1117.569
 30
0.0
 11
-240.784587
 21
-868.199594
 31
0.0
  0
LINE
  5
6FDA6
330
700BC
100
AcDbEntity
  8
Level 25
  6
Continuous
 62
   160
370
     0
100
AcDbLine
 10
-209.029419
 20
-1117.569
 30
0.0
 11
-209.029419
 21
-866.743388
 31
0.0
  0
ELLIPSE
  5
6FDA7
330
700BC
100
AcDbEntity
  8
Level 25
  6
Continuous
 62
   160
370
     0
100
AcDbEllipse
 10
-224.8015
 20
-868.747286
 30
0.0
 11
-16.00000000000001
 21
0.0
 31
0.0
210
0.0
220
0.0
230
1.0
 40
0.7446677573967788
 41
3.310583086493805
 42
6.237201307635933
  0
LINE
  5
6FDA8
330
700BC
100
AcDbEntity
  8
Level 25
  6
Continuous
 62
   160
370
     0
100
AcDbLine
 10
-240.784587
 20
-868.199594
 30
0.0
 11
-247.409306
 21
-975.315639
 31
0.0
  0
ELLIPSE
  5
6FDA9
330
700BC
100
AcDbEntity
  8
Level 25
  6
Continuous
 62
   160
370
     0
100
AcDbEllipse
 10
-222.435777
 20
-976.17212
 30
0.0
 11
-25.0
 21
0.0
 31
0.0
210
0.0
220
0.0
230
1.0
 40
0.7446677573967784
 41
6.237162963489389
 42
7.854144110795481
  0
LINE
  5
6FDAA
330
700BC
100
AcDbEntity
  8
Level 25
  6
Continuous
 62
   160
370
     0
100
AcDbLine
 10
-222.431715
 20
-994.788814
 30
0.0
 11
222.4404
 21
-994.734988
 31
0.0
  0
ELLIPSE
  5
6FDAB
330
700BC
100
AcDbEntity
  8
Level 25
  6
Continuous
 62
   160
370
     0
100
AcDbEllipse
 10
222.436338
 20
-976.118295
 30
0.0
 11
25.0
 21
0.0
 31
0.0
210
0.0
220
0.0
230
1.0
 40
0.7446677573967785
 41
4.712551457205691
 42
6.31616184754387
  0
LINE
  5
6FDAC
330
700BC
100
AcDbEntity
  8
Level 25
  6
Continuous
 62
   160
370
     0
100
AcDbLine
 10
247.422746
 20
-975.504492
 30
0.0
 11
242.676022
 21
-868.354046
 31
0.0
  0
ELLIPSE
  5
6FDAD
330
700BC
100
AcDbEntity
  8
Level 25
  6
Continuous
 62
   160
370
     0
100
AcDbEllipse
 10
226.684739
 20
-868.747286
 30
0.0
 11
-15.99999999999999
 21
0.0
 31
0.0
210
0.0
220
0.0
230
1.0
 40
0.7446677573967789
 41
3.174603281124689
 42
6.098230690274903
  0
LINE
  5
6FDAE
330
700BC
100
AcDbEntity
  8
Level 25
  6
Continuous
 62
   160
370
     0
100
AcDbLine
 10
210.957625
 20
-866.556153
 30
0.0
 11
194.56827
 21
-931.787213
 31
0.0
  0
ELLIPSE
  5
6FDAF
330
700BC
100
AcDbEntity
  8
Level 25
  6
Continuous
 62
   160
370
     0
100
AcDbEllipse
 10
165.079962
 20
-927.678722
 30
0.0
 11
-30.00000000000001
 21
0.0
 31
0.0
210
0.0
220
0.0
230
-1.0
 40
0.744667757396779
 41
3.326552569108535
 42
4.712388980384688
  0
LINE
  5
6FDB0
330
700BC
100
AcDbEntity
  8
Level 25
  6
Continuous
 62
   160
370
     0
100
AcDbLine
 10
165.079962
 20
-950.018755
 30
0.0
 11
-164.63444
 21
-950.018755
 31
0.0
  0
ELLIPSE
  5
6FDB1
330
700BC
100
AcDbEntity
  8
Level 25
  6
Continuous
 62
   160
370
     0
100
AcDbEllipse
 10
-164.63444
 20
-927.678722
 30
0.0
 11
-30.0
 21
0.0
 31
0.0
210
0.0
220
0.0
230
-0.9999999999999998
 40
0.7446677573967788
 41
4.712388980384679
 42
6.114194874383656
  0
LINE
  5
6FDB2
330
700BC
100
AcDbEntity
  8
Level 25
  6
Continuous
 62
   160
370
     0
100
AcDbLine
 10
-194.207092
 20
-931.436031
 30
0.0
 11
-209.029419
 21
-866.743388
 31
0.0
  0
LINE
  5
6FDB3
330
700BC
100
AcDbEntity
  8
Level 25
  6
Continuous
 62
   160
370
     0
100
AcDbLine
 10
-209.029419
 20
-866.743388
 30
0.0
 11
-209.029419
 21
-372.415826
 31
0.0
  0
LINE
  5
6FDB4
330
700BC
100
AcDbEntity
  8
Level 25
  6
Continuous
 62
   160
370
     0
100
AcDbLine
 10
-240.784587
 20
-868.199594
 30
0.0
 11
-240.784587
 21
-372.783657
 31
0.0
  0
LINE
  5
6FDB5
330
700BC
100
AcDbEntity
  8
Level 25
  6
Continuous
 62
   160
370
     0
100
AcDbLine
 10
-247.409306
 20
-975.315639
 30
0.0
 11
-247.409306
 21
-399.840702
 31
0.0
  0
LINE
  5
6FDB6
330
700BC
100
AcDbEntity
  8
Level 25
  6
Continuous
 62
   160
370
     0
100
AcDbLine
 10
-222.431715
 20
-994.788814
 30
0.0
 11
-222.431715
 21
-404.759541
 31
0.0
  0
LINE
  5
6FDB7
330
700BC
100
AcDbEntity
  8
Level 25
  6
Continuous
 62
   160
370
     0
100
AcDbLine
 10
222.4404
 20
-994.734988
 30
0.0
 11
222.4404
 21
-404.745945
 31
0.0
  0
LINE
  5
6FDB8
330
700BC
100
AcDbEntity
  8
Level 25
  6
Continuous
 62
   160
370
     0
100
AcDbLine
 10
247.422746
 20
-975.504492
 30
0.0
 11
247.422746
 21
-399.888406
 31
0.0
  0
LINE
  5
6FDB9
330
700BC
100
AcDbEntity
  8
Level 25
  6
Continuous
 62
   160
370
     0
100
AcDbLine
 10
242.676022
 20
-868.354046
 30
0.0
 11
242.676022
 21
-372.822671
 31
0.0
  0
LINE
  5
6FDBA
330
700BC
100
AcDbEntity
  8
Level 25
  6
Continuous
 62
   160
370
     0
100
AcDbLine
 10
210.957625
 20
-866.556153
 30
0.0
 11
210.957625
 21
-372.368531
 31
0.0
  0
LINE
  5
6FDBB
330
700BC
100
AcDbEntity
  8
Level 25
  6
Continuous
 62
   160
370
     0
100
AcDbLine
 10
194.56827
 20
-931.787213
 30
0.0
 11
194.56827
 21
-388.845612
 31
0.0
  0
LINE
  5
6FDBC
330
700BC
100
AcDbEntity
  8
Level 25
  6
Continuous
 62
   160
370
     0
100
AcDbLine
 10
165.079962
 20
-950.018755
 30
0.0
 11
165.079962
 21
-393.45082
 31
0.0
  0
LINE
  5
6FDBD
330
700BC
100
AcDbEntity
  8
Level 25
  6
Continuous
 62
   160
370
     0
100
AcDbLine
 10
-164.63444
 20
-950.018755
 30
0.0
 11
-164.63444
 21
-393.45082
 31
0.0
  0
LINE
  5
6FDBE
330
700BC
100
AcDbEntity
  8
Level 25
  6
Continuous
 62
   160
370
     0
100
AcDbLine
 10
-194.207092
 20
-931.436031
 30
0.0
 11
-194.207092
 21
-388.756905
 31
0.0
  0
ELLIPSE
  5
6FDBF
330
700BC
100
AcDbEntity
  8
Level 25
  6
Continuous
 62
   160
370
     0
100
AcDbEllipse
 10
-224.8015
 20
-372.922002
 30
0.0
 11
-16.0
 21
0.0
 31
0.0
210
0.0
220
0.0
230
1.0
 40
0.1880998227769339
 41
3.310583086493808
 42
6.237201307635928
  0
LINE
  5
6FDC0
330
700BC
100
AcDbEntity
  8
Level 25
  6
Continuous
 62
   160
370
     0
100
AcDbLine
 10
-240.784587
 20
-372.783657
 30
0.0
 11
-247.409306
 21
-399.840702
 31
0.0
  0
ELLIPSE
  5
6FDC1
330
700BC
100
AcDbEntity
  8
Level 25
  6
Continuous
 62
   160
370
     0
100
AcDbEllipse
 10
-222.435777
 20
-400.057046
 30
0.0
 11
-25.00000000000001
 21
0.0
 31
0.0
210
0.0
220
0.0
230
1.0
 40
0.1880998227769338
 41
6.237162963489387
 42
7.854144110795479
  0
LINE
  5
6FDC2
330
700BC
100
AcDbEntity
  8
Level 25
  6
Continuous
 62
   160
370
     0
100
AcDbLine
 10
-222.431715
 20
-404.759541
 30
0.0
 11
222.4404
 21
-404.745945
 31
0.0
  0
ELLIPSE
  5
6FDC3
330
700BC
100
AcDbEntity
  8
Level 25
  6
Continuous
 62
   160
370
     0
100
AcDbEllipse
 10
222.436338
 20
-400.04345
 30
0.0
 11
25.00000000000001
 21
0.0
 31
0.0
210
0.0
220
0.0
230
0.9999999999999998
 40
0.1880998227769339
 41
4.712551457205688
 42
6.316161847543867
  0
LINE
  5
6FDC4
330
700BC
100
AcDbEntity
  8
Level 25
  6
Continuous
 62
   160
370
     0
100
AcDbLine
 10
247.422746
 20
-399.888406
 30
0.0
 11
242.676022
 21
-372.822671
 31
0.0
  0
ELLIPSE
  5
6FDC5
330
700BC
100
AcDbEntity
  8
Level 25
  6
Continuous
 62
   160
370
     0
100
AcDbEllipse
 10
226.684739
 20
-372.922002
 30
0.0
 11
-15.99999999999999
 21
0.0
 31
0.0
210
0.0
220
0.0
230
1.0
 40
0.1880998227769337
 41
3.174603281124687
 42
6.098230690274897
  0
LINE
  5
6FDC6
330
700BC
100
AcDbEntity
  8
Level 25
  6
Continuous
 62
   160
370
     0
100
AcDbLine
 10
210.957625
 20
-372.368531
 30
0.0
 11
194.56827
 21
-388.845612
 31
0.0
  0
ELLIPSE
  5
6FDC7
330
700BC
100
AcDbEntity
  8
Level 25
  6
Continuous
 62
   160
370
     0
100
AcDbEllipse
 10
165.079962
 20
-387.807825
 30
0.0
 11
-30.00000000000002
 21
0.0
 31
0.0
210
0.0
220
0.0
230
-1.0
 40
0.1880998227769337
 41
3.326552569108535
 42
4.712388980384688
  0
LINE
  5
6FDC8
330
700BC
100
AcDbEntity
  8
Level 25
  6
Continuous
 62
   160
370
     0
100
AcDbLine
 10
165.079962
 20
-393.45082
 30
0.0
 11
-164.63444
 21
-393.45082
 31
0.0
  0
ELLIPSE
  5
6FDC9
330
700BC
100
AcDbEntity
  8
Level 25
  6
Continuous
 62
   160
370
     0
100
AcDbEllipse
 10
-164.63444
 20
-387.807825
 30
0.0
 11
-30.0
 21
0.0
 31
0.0
210
0.0
220
0.0
230
-1.0
 40
0.188099822776934
 41
4.712388980384682
 42
6.11419487438366
  0
LINE
  5
6FDCA
330
700BC
100
AcDbEntity
  8
Level 25
  6
Continuous
 62
   160
370
     0
100
AcDbLine
 10
-194.207092
 20
-388.756905
 30
0.0
 11
-209.029419
 21
-372.415826
 31
0.0
  0
LINE
  5
6FDCB
330
700BC
100
AcDbEntity
  8
Level 25
  6
Continuous
 62
   160
370
     0
100
AcDbLine
 10
-194.207092
 20
-388.756905
 30
0.0
 11
-194.207092
 21
195.208065
 31
0.0
  0
LINE
  5
6FDCC
330
700BC
100
AcDbEntity
  8
Level 25
  6
Continuous
 62
   160
370
     0
100
AcDbLine
 10
-164.63444
 20
-393.45082
 30
0.0
 11
-164.63444
 21
176.296458
 31
0.0
  0
LINE
  5
6FDCD
330
700BC
100
AcDbEntity
  8
Level 25
  6
Continuous
 62
   160
370
     0
100
AcDbLine
 10
165.079962
 20
-393.45082
 30
0.0
 11
165.079962
 21
176.296458
 31
0.0
  0
LINE
  5
6FDCE
330
700BC
100
AcDbEntity
  8
Level 25
  6
Continuous
 62
   160
370
     0
100
AcDbLine
 10
194.56827
 20
-388.845612
 30
0.0
 11
194.56827
 21
194.850667
 31
0.0
  0
LINE
  5
6FDCF
330
700BC
100
AcDbEntity
  8
Level 25
  6
Continuous
 62
   160
370
     0
100
AcDbLine
 10
210.957625
 20
-372.368531
 30
0.0
 11
210.957625
 21
261.236205
 31
0.0
  0
LINE
  5
6FDD0
330
700BC
100
AcDbEntity
  8
Level 25
  6
Continuous
 62
   160
370
     0
100
AcDbLine
 10
242.676022
 20
-372.822671
 30
0.0
 11
242.676022
 21
259.406492
 31
0.0
  0
LINE
  5
6FDD1
330
700BC
100
AcDbEntity
  8
Level 25
  6
Continuous
 62
   160
370
     0
100
AcDbLine
 10
247.422746
 20
-399.888406
 30
0.0
 11
247.422746
 21
150.359667
 31
0.0
  0
LINE
  5
6FDD2
330
700BC
100
AcDbEntity
  8
Level 25
  6
Continuous
 62
   160
370
     0
100
AcDbLine
 10
222.4404
 20
-404.745945
 30
0.0
 11
222.4404
 21
130.788824
 31
0.0
  0
LINE
  5
6FDD3
330
700BC
100
AcDbEntity
  8
Level 25
  6
Continuous
 62
   160
370
     0
100
AcDbLine
 10
-222.431715
 20
-404.759541
 30
0.0
 11
-222.431715
 21
130.734046
 31
0.0
  0
LINE
  5
6FDD4
330
700BC
100
AcDbEntity
  8
Level 25
  6
Continuous
 62
   160
370
     0
100
AcDbLine
 10
-247.409306
 20
-399.840702
 30
0.0
 11
-247.409306
 21
150.551863
 31
0.0
  0
LINE
  5
6FDD5
330
700BC
100
AcDbEntity
  8
Level 25
  6
Continuous
 62
   160
370
     0
100
AcDbLine
 10
-240.784587
 20
-372.783657
 30
0.0
 11
-240.784587
 21
259.563678
 31
0.0
  0
LINE
  5
6FDD6
330
700BC
100
AcDbEntity
  8
Level 25
  6
Continuous
 62
   160
370
     0
100
AcDbLine
 10
-209.029419
 20
-372.415826
 30
0.0
 11
-209.029419
 21
261.045656
 31
0.0
  0
ELLIPSE
  5
6FDD7
330
700BC
100
AcDbEntity
  8
Level 25
  6
Continuous
 62
   160
370
     0
100
AcDbEllipse
 10
-224.8015
 20
259.006293
 30
0.0
 11
-16.0
 21
0.0
 31
0.0
210
0.0
220
0.0
230
1.0
 40
0.7578471011319578
 41
3.310583086493803
 42
6.237201307635938
  0
LINE
  5
6FDD8
330
700BC
100
AcDbEntity
  8
Level 25
  6
Continuous
 62
   160
370
     0
100
AcDbLine
 10
-240.784587
 20
259.563678
 30
0.0
 11
-247.409306
 21
150.551863
 31
0.0
  0
ELLIPSE
  5
6FDD9
330
700BC
100
AcDbEntity
  8
Level 25
  6
Continuous
 62
   160
370
     0
100
AcDbEllipse
 10
-222.435777
 20
149.680223
 30
0.0
 11
-25.0
 21
0.0
 31
0.0
210
0.0
220
0.0
230
1.0
 40
0.7578471011319579
 41
6.237162963489388
 42
7.85414411079548
  0
LINE
  5
6FDDA
330
700BC
100
AcDbEntity
  8
Level 25
  6
Continuous
 62
   160
370
     0
100
AcDbLine
 10
-222.431715
 20
130.734046
 30
0.0
 11
222.4404
 21
130.788824
 31
0.0
  0
ELLIPSE
  5
6FDDB
330
700BC
100
AcDbEntity
  8
Level 25
  6
Continuous
 62
   160
370
     0
100
AcDbEllipse
 10
222.436338
 20
149.735001
 30
0.0
 11
25.00000000000001
 21
0.0
 31
0.0
210
0.0
220
0.0
230
1.0
 40
0.7578471011319578
 41
4.712551457205689
 42
6.316161847543865
  0
LINE
  5
6FDDC
330
700BC
100
AcDbEntity
  8
Level 25
  6
Continuous
 62
   160
370
     0
100
AcDbLine
 10
247.422746
 20
150.359667
 30
0.0
 11
242.676022
 21
259.406492
 31
0.0
  0
ELLIPSE
  5
6FDDD
330
700BC
100
AcDbEntity
  8
Level 25
  6
Continuous
 62
   160
370
     0
100
AcDbEllipse
 10
226.684739
 20
259.006293
 30
0.0
 11
-15.99999999999999
 21
0.0
 31
0.0
210
0.0
220
0.0
230
1.0
 40
0.7578471011319581
 41
3.174603281124676
 42
6.098230690274898
  0
LINE
  5
6FDDE
330
700BC
100
AcDbEntity
  8
Level 25
  6
Continuous
 62
   160
370
     0
100
AcDbLine
 10
210.957625
 20
261.236205
 30
0.0
 11
194.56827
 21
194.850667
 31
0.0
  0
ELLIPSE
  5
6FDDF
330
700BC
100
AcDbEntity
  8
Level 25
  6
Continuous
 62
   160
370
     0
100
AcDbEllipse
 10
165.079962
 20
199.031871
 30
0.0
 11
-30.0
 21
0.0
 31
0.0
210
0.0
220
0.0
230
-1.0
 40
0.757847101131958
 41
3.326552569108535
 42
4.712388980384687
  0
LINE
  5
6FDE0
330
700BC
100
AcDbEntity
  8
Level 25
  6
Continuous
 62
   160
370
     0
100
AcDbLine
 10
165.079962
 20
176.296458
 30
0.0
 11
-164.63444
 21
176.296458
 31
0.0
  0
ELLIPSE
  5
6FDE1
330
700BC
100
AcDbEntity
  8
Level 25
  6
Continuous
 62
   160
370
     0
100
AcDbEllipse
 10
-164.63444
 20
199.031871
 30
0.0
 11
-30.0
 21
0.0
 31
0.0
210
0.0
220
0.0
230
-1.0
 40
0.7578471011319579
 41
4.712388980384679
 42
6.114194874383656
  0
LINE
  5
6FDE2
330
700BC
100
AcDbEntity
  8
Level 25
  6
Continuous
 62
   160
370
     0
100
AcDbLine
 10
-194.207092
 20
195.208065
 30
0.0
 11
-209.029419
 21
261.045656
 31
0.0
  0
LINE
  5
6FDE3
330
700BC
100
AcDbEntity
  8
Level 25
  6
Continuous
 62
   160
370
     0
100
AcDbLine
 10
-209.029419
 20
874.378204
 30
0.0
 11
-209.029419
 21
261.045656
 31
0.0
  0
LINE
  5
6FDE4
330
700BC
100
AcDbEntity
  8
Level 25
  6
Continuous
 62
   160
370
     0
100
AcDbLine
 10
-240.784587
 20
874.246617
 30
0.0
 11
-240.784587
 21
259.563678
 31
0.0
  0
LINE
  5
6FDE5
330
700BC
100
AcDbEntity
  8
Level 25
  6
Continuous
 62
   160
370
     0
100
AcDbLine
 10
-247.409306
 20
864.567297
 30
0.0
 11
-247.409306
 21
150.551863
 31
0.0
  0
LINE
  5
6FDE6
330
700BC
100
AcDbEntity
  8
Level 25
  6
Continuous
 62
   160
370
     0
100
AcDbLine
 10
-222.431715
 20
862.807644
 30
0.0
 11
-222.431715
 21
130.734046
 31
0.0
  0
LINE
  5
6FDE7
330
700BC
100
AcDbEntity
  8
Level 25
  6
Continuous
 62
   160
370
     0
100
AcDbLine
 10
222.4404
 20
862.812508
 30
0.0
 11
222.4404
 21
130.788824
 31
0.0
  0
LINE
  5
6FDE8
330
700BC
100
AcDbEntity
  8
Level 25
  6
Continuous
 62
   160
370
     0
100
AcDbLine
 10
247.422746
 20
864.550232
 30
0.0
 11
247.422746
 21
150.359667
 31
0.0
  0
LINE
  5
6FDE9
330
700BC
100
AcDbEntity
  8
Level 25
  6
Continuous
 62
   160
370
     0
100
AcDbLine
 10
242.676022
 20
874.23266
 30
0.0
 11
242.676022
 21
259.406492
 31
0.0
  0
LINE
  5
6FDEA
330
700BC
100
AcDbEntity
  8
Level 25
  6
Continuous
 62
   160
370
     0
100
AcDbLine
 10
210.957625
 20
874.395123
 30
0.0
 11
210.957625
 21
261.236205
 31
0.0
  0
LINE
  5
6FDEB
330
700BC
100
AcDbEntity
  8
Level 25
  6
Continuous
 62
   160
370
     0
100
AcDbLine
 10
194.56827
 20
868.500654
 30
0.0
 11
194.56827
 21
194.850667
 31
0.0
  0
LINE
  5
6FDEC
330
700BC
100
AcDbEntity
  8
Level 25
  6
Continuous
 62
   160
370
     0
100
AcDbLine
 10
165.079962
 20
866.853198
 30
0.0
 11
165.079962
 21
176.296458
 31
0.0
  0
LINE
  5
6FDED
330
700BC
100
AcDbEntity
  8
Level 25
  6
Continuous
 62
   160
370
     0
100
AcDbLine
 10
-164.63444
 20
866.853198
 30
0.0
 11
-164.63444
 21
176.296458
 31
0.0
  0
LINE
  5
6FDEE
330
700BC
100
AcDbEntity
  8
Level 25
  6
Continuous
 62
   160
370
     0
100
AcDbLine
 10
-194.207092
 20
868.532387
 30
0.0
 11
-194.207092
 21
195.208065
 31
0.0
  0
ELLIPSE
  5
6FDEF
330
700BC
100
AcDbEntity
  8
Level 25
  6
Continuous
 62
   160
370
     0
100
AcDbEllipse
 10
-224.8015
 20
874.197126
 30
0.0
 11
-16.0
 21
0.0
 31
0.0
210
0.0
220
0.0
230
1.0
 40
0.0672903615011237
 41
3.310583086493803
 42
6.237201307635928
  0
LINE
  5
6FDF0
330
700BC
100
AcDbEntity
  8
Level 25
  6
Continuous
 62
   160
370
     0
100
AcDbLine
 10
-240.784587
 20
874.246617
 30
0.0
 11
-247.409306
 21
864.567297
 31
0.0
  0
ELLIPSE
  5
6FDF1
330
700BC
100
AcDbEntity
  8
Level 25
  6
Continuous
 62
   160
370
     0
100
AcDbEllipse
 10
-222.435777
 20
864.489903
 30
0.0
 11
-25.0
 21
0.0
 31
0.0
210
0.0
220
0.0
230
1.0
 40
0.0672903615011236
 41
6.237162963489386
 42
7.854144110795477
  0
LINE
  5
6FDF2
330
700BC
100
AcDbEntity
  8
Level 25
  6
Continuous
 62
   160
370
     0
100
AcDbLine
 10
-222.431715
 20
862.807644
 30
0.0
 11
222.4404
 21
862.812508
 31
0.0
  0
ELLIPSE
  5
6FDF3
330
700BC
100
AcDbEntity
  8
Level 25
  6
Continuous
 62
   160
370
     0
100
AcDbEllipse
 10
222.436338
 20
864.494767
 30
0.0
 11
25.0
 21
0.0
 31
0.0
210
0.0
220
0.0
230
1.0
 40
0.0672903615011235
 41
4.712551457205687
 42
6.316161847543856
  0
LINE
  5
6FDF4
330
700BC
100
AcDbEntity
  8
Level 25
  6
Continuous
 62
   160
370
     0
100
AcDbLine
 10
247.422746
 20
864.550232
 30
0.0
 11
242.676022
 21
874.23266
 31
0.0
  0
ELLIPSE
  5
6FDF5
330
700BC
100
AcDbEntity
  8
Level 25
  6
Continuous
 62
   160
370
     0
100
AcDbEllipse
 10
226.684739
 20
874.197126
 30
0.0
 11
-15.99999999999999
 21
0.0
 31
0.0
210
0.0
220
0.0
230
1.0
 40
0.0672903615011233
 41
3.174603281124671
 42
6.098230690274904
  0
LINE
  5
6FDF6
330
700BC
100
AcDbEntity
  8
Level 25
  6
Continuous
 62
   160
370
     0
100
AcDbLine
 10
210.957625
 20
874.395123
 30
0.0
 11
194.56827
 21
868.500654
 31
0.0
  0
ELLIPSE
  5
6FDF7
330
700BC
100
AcDbEntity
  8
Level 25
  6
Continuous
 62
   160
370
     0
100
AcDbEllipse
 10
165.079962
 20
868.871909
 30
0.0
 11
-30.00000000000002
 21
0.0
 31
0.0
210
0.0
220
0.0
230
-1.0
 40
0.0672903615011236
 41
3.326552569108537
 42
4.712388980384687
  0
LINE
  5
6FDF8
330
700BC
100
AcDbEntity
  8
Level 25
  6
Continuous
 62
   160
370
     0
100
AcDbLine
 10
165.079962
 20
866.853198
 30
0.0
 11
-164.63444
 21
866.853198
 31
0.0
  0
ELLIPSE
  5
6FDF9
330
700BC
100
AcDbEntity
  8
Level 25
  6
Continuous
 62
   160
370
     0
100
AcDbEllipse
 10
-164.63444
 20
868.871909
 30
0.0
 11
-30.0
 21
0.0
 31
0.0
210
0.0
220
0.0
230
-1.0
 40
0.0672903615011236
 41
4.712388980384681
 42
6.114194874383665
  0
LINE
  5
6FDFA
330
700BC
100
AcDbEntity
  8
Level 25
  6
Continuous
 62
   160
370
     0
100
AcDbLine
 10
-194.207092
 20
868.532387
 30
0.0
 11
-209.029419
 21
874.378204
 31
0.0
  0
LINE
  5
6FDFB
330
700BC
100
AcDbEntity
  8
Level 25
  6
Continuous
 62
   160
370
     0
100
AcDbLine
 10
-194.207092
 20
1027.521485
 30
0.0
 11
-194.207092
 21
868.532387
 31
0.0
  0
LINE
  5
6FDFC
330
700BC
100
AcDbEntity
  8
Level 25
  6
Continuous
 62
   160
370
     0
100
AcDbLine
 10
-164.63444
 20
1025.842295
 30
0.0
 11
-164.63444
 21
866.853198
 31
0.0
  0
LINE
  5
6FDFD
330
700BC
100
AcDbEntity
  8
Level 25
  6
Continuous
 62
   160
370
     0
100
AcDbLine
 10
165.079962
 20
1025.842295
 30
0.0
 11
165.079962
 21
866.853198
 31
0.0
  0
LINE
  5
6FDFE
330
700BC
100
AcDbEntity
  8
Level 25
  6
Continuous
 62
   160
370
     0
100
AcDbLine
 10
194.56827
 20
1027.489751
 30
0.0
 11
194.56827
 21
868.500654
 31
0.0
  0
LINE
  5
6FDFF
330
700BC
100
AcDbEntity
  8
Level 25
  6
Continuous
 62
   160
370
     0
100
AcDbLine
 10
210.957625
 20
1033.384221
 30
0.0
 11
210.957625
 21
874.395123
 31
0.0
  0
LINE
  5
6FE00
330
700BC
100
AcDbEntity
  8
Level 25
  6
Continuous
 62
   160
370
     0
100
AcDbLine
 10
242.676022
 20
1033.221758
 30
0.0
 11
242.676022
 21
874.23266
 31
0.0
  0
LINE
  5
6FE01
330
700BC
100
AcDbEntity
  8
Level 25
  6
Continuous
 62
   160
370
     0
100
AcDbLine
 10
247.422746
 20
1023.539329
 30
0.0
 11
247.422746
 21
864.550232
 31
0.0
  0
LINE
  5
6FE02
330
700BC
100
AcDbEntity
  8
Level 25
  6
Continuous
 62
   160
370
     0
100
AcDbLine
 10
222.4404
 20
1021.801605
 30
0.0
 11
222.4404
 21
862.812508
 31
0.0
  0
LINE
  5
6FE03
330
700BC
100
AcDbEntity
  8
Level 25
  6
Continuous
 62
   160
370
     0
100
AcDbLine
 10
-222.431715
 20
1021.796741
 30
0.0
 11
-222.431715
 21
862.807644
 31
0.0
  0
LINE
  5
6FE04
330
700BC
100
AcDbEntity
  8
Level 25
  6
Continuous
 62
   160
370
     0
100
AcDbLine
 10
-247.409306
 20
1023.556395
 30
0.0
 11
-247.409306
 21
864.567297
 31
0.0
  0
LINE
  5
6FE05
330
700BC
100
AcDbEntity
  8
Level 25
  6
Continuous
 62
   160
370
     0
100
AcDbLine
 10
-240.784587
 20
1033.235714
 30
0.0
 11
-240.784587
 21
874.246617
 31
0.0
  0
LINE
  5
6FE06
330
700BC
100
AcDbEntity
  8
Level 25
  6
Continuous
 62
   160
370
     0
100
AcDbLine
 10
-209.029419
 20
1033.367301
 30
0.0
 11
-209.029419
 21
874.378204
 31
0.0
  0
ELLIPSE
  5
6FE07
330
700BC
100
AcDbEntity
  8
Level 25
  6
Continuous
 62
   160
370
     0
100
AcDbEllipse
 10
-224.8015
 20
1033.186223
 30
0.0
 11
-16.0
 21
0.0
 31
0.0
210
0.0
220
0.0
230
1.0
 40
0.0672903615011237
 41
3.310583086493803
 42
6.237201307635928
  0
LINE
  5
6FE08
330
700BC
100
AcDbEntity
  8
Level 25
  6
Continuous
 62
   160
370
     0
100
AcDbLine
 10
-240.784587
 20
1033.235714
 30
0.0
 11
-247.409306
 21
1023.556395
 31
0.0
  0
ELLIPSE
  5
6FE09
330
700BC
100
AcDbEntity
  8
Level 25
  6
Continuous
 62
   160
370
     0
100
AcDbEllipse
 10
-222.435777
 20
1023.479
 30
0.0
 11
-25.0
 21
0.0
 31
0.0
210
0.0
220
0.0
230
1.0
 40
0.0672903615011236
 41
6.237162963489386
 42
7.854144110795477
  0
LINE
  5
6FE0A
330
700BC
100
AcDbEntity
  8
Level 25
  6
Continuous
 62
   160
370
     0
100
AcDbLine
 10
-222.431715
 20
1021.796741
 30
0.0
 11
222.4404
 21
1021.801605
 31
0.0
  0
ELLIPSE
  5
6FE0B
330
700BC
100
AcDbEntity
  8
Level 25
  6
Continuous
 62
   160
370
     0
100
AcDbEllipse
 10
222.436338
 20
1023.483864
 30
0.0
 11
25.0
 21
0.0
 31
0.0
210
0.0
220
0.0
230
1.0
 40
0.0672903615011235
 41
4.712551457205687
 42
6.316161847543856
  0
LINE
  5
6FE0C
330
700BC
100
AcDbEntity
  8
Level 25
  6
Continuous
 62
   160
370
     0
100
AcDbLine
 10
247.422746
 20
1023.539329
 30
0.0
 11
242.676022
 21
1033.221758
 31
0.0
  0
ELLIPSE
  5
6FE0D
330
700BC
100
AcDbEntity
  8
Level 25
  6
Continuous
 62
   160
370
     0
100
AcDbEllipse
 10
226.684739
 20
1033.186223
 30
0.0
 11
-15.99999999999999
 21
0.0
 31
0.0
210
0.0
220
0.0
230
1.0
 40
0.0672903615011233
 41
3.174603281124671
 42
6.098230690274904
  0
LINE
  5
6FE0E
330
700BC
100
AcDbEntity
  8
Level 25
  6
Continuous
 62
   160
370
     0
100
AcDbLine
 10
210.957625
 20
1033.384221
 30
0.0
 11
194.56827
 21
1027.489751
 31
0.0
  0
ELLIPSE
  5
6FE0F
330
700BC
100
AcDbEntity
  8
Level 25
  6
Continuous
 62
   160
370
     0
100
AcDbEllipse
 10
165.079962
 20
1027.861006
 30
0.0
 11
-30.00000000000002
 21
0.0
 31
0.0
210
0.0
220
0.0
230
-1.0
 40
0.0672903615011236
 41
3.326552569108537
 42
4.712388980384687
  0
LINE
  5
6FE10
330
700BC
100
AcDbEntity
  8
Level 25
  6
Continuous
 62
   160
370
     0
100
AcDbLine
 10
165.079962
 20
1025.842295
 30
0.0
 11
-164.63444
 21
1025.842295
 31
0.0
  0
ELLIPSE
  5
6FE11
330
700BC
100
AcDbEntity
  8
Level 25
  6
Continuous
 62
   160
370
     0
100
AcDbEllipse
 10
-164.63444
 20
1027.861006
 30
0.0
 11
-30.0
 21
0.0
 31
0.0
210
0.0
220
0.0
230
-1.0
 40
0.0672903615011236
 41
4.712388980384681
 42
6.114194874383665
  0
LINE
  5
6FE12
330
700BC
100
AcDbEntity
  8
Level 25
  6
Continuous
 62
   160
370
     0
100
AcDbLine
 10
-194.207092
 20
1027.521485
 30
0.0
 11
-209.029419
 21
1033.367301
 31
0.0
  0
LINE
  5
6FE13
330
700BC
100
AcDbEntity
  8
Level 25
  6
Continuous
 62
   160
370
     0
100
AcDbLine
 10
-209.029419
 20
1033.367301
 30
0.0
 11
-209.029419
 21
1254.259887
 31
0.0
  0
LINE
  5
6FE14
330
700BC
100
AcDbEntity
  8
Level 25
  6
Continuous
 62
   160
370
     0
100
AcDbLine
 10
-240.784587
 20
1033.235714
 30
0.0
 11
-240.784587
 21
1252.304376
 31
0.0
  0
LINE
  5
6FE15
330
700BC
100
AcDbEntity
  8
Level 25
  6
Continuous
 62
   160
370
     0
100
AcDbLine
 10
-247.409306
 20
1023.556395
 30
0.0
 11
-247.409306
 21
1108.460301
 31
0.0
  0
LINE
  5
6FE16
330
700BC
100
AcDbEntity
  8
Level 25
  6
Continuous
 62
   160
370
     0
100
AcDbLine
 10
-222.431715
 20
1021.796741
 30
0.0
 11
-222.431715
 21
1082.310149
 31
0.0
  0
LINE
  5
6FE17
330
700BC
100
AcDbEntity
  8
Level 25
  6
Continuous
 62
   160
370
     0
100
AcDbLine
 10
222.4404
 20
1021.801605
 30
0.0
 11
222.4404
 21
1082.38243
 31
0.0
  0
LINE
  5
6FE18
330
700BC
100
AcDbEntity
  8
Level 25
  6
Continuous
 62
   160
370
     0
100
AcDbLine
 10
247.422746
 20
1023.539329
 30
0.0
 11
247.422746
 21
1108.206694
 31
0.0
  0
LINE
  5
6FE19
330
700BC
100
AcDbEntity
  8
Level 25
  6
Continuous
 62
   160
370
     0
100
AcDbLine
 10
242.676022
 20
1033.221758
 30
0.0
 11
242.676022
 21
1252.096965
 31
0.0
  0
LINE
  5
6FE1A
330
700BC
100
AcDbEntity
  8
Level 25
  6
Continuous
 62
   160
370
     0
100
AcDbLine
 10
210.957625
 20
1033.384221
 30
0.0
 11
210.957625
 21
1254.511322
 31
0.0
  0
LINE
  5
6FE1B
330
700BC
100
AcDbEntity
  8
Level 25
  6
Continuous
 62
   160
370
     0
100
AcDbLine
 10
194.56827
 20
1027.489751
 30
0.0
 11
194.56827
 21
1166.913786
 31
0.0
  0
LINE
  5
6FE1C
330
700BC
100
AcDbEntity
  8
Level 25
  6
Continuous
 62
   160
370
     0
100
AcDbLine
 10
165.079962
 20
1025.842295
 30
0.0
 11
165.079962
 21
1142.431
 31
0.0
  0
LINE
  5
6FE1D
330
700BC
100
AcDbEntity
  8
Level 25
  6
Continuous
 62
   160
370
     0
100
AcDbLine
 10
-164.63444
 20
1025.842295
 30
0.0
 11
-164.63444
 21
1142.431
 31
0.0
  0
LINE
  5
6FE1E
330
700BC
100
AcDbEntity
  8
Level 25
  6
Continuous
 62
   160
370
     0
100
AcDbLine
 10
-194.207092
 20
1027.521485
 30
0.0
 11
-194.207092
 21
1167.385383
 31
0.0
  0
ARC
  5
6FE1F
330
700BC
100
AcDbEntity
  8
Level 25
  6
Continuous
 62
   160
370
     0
100
AcDbCircle
 10
-224.8015
 20
1251.568891
 30
0.0
 40
16.0
100
AcDbArc
 50
9.682439
 51
177.365311
  0
LINE
  5
6FE20
330
700BC
100
AcDbEntity
  8
Level 25
  6
Continuous
 62
   160
370
     0
100
AcDbLine
 10
-240.784587
 20
1252.304376
 30
0.0
 11
-247.409306
 21
1108.460301
 31
0.0
  0
ARC
  5
6FE21
330
700BC
100
AcDbEntity
  8
Level 25
  6
Continuous
 62
   160
370
     0
100
AcDbCircle
 10
-222.435777
 20
1107.310148
 30
0.0
 40
25.0
100
AcDbArc
 50
177.363114
 51
270.009309
  0
LINE
  5
6FE22
330
700BC
100
AcDbEntity
  8
Level 25
  6
Continuous
 62
   160
370
     0
100
AcDbLine
 10
-222.431715
 20
1082.310149
 30
0.0
 11
222.4404
 21
1082.38243
 31
0.0
  0
ARC
  5
6FE23
330
700BC
100
AcDbEntity
  8
Level 25
  6
Continuous
 62
   160
370
     0
100
AcDbCircle
 10
222.436338
 20
1107.38243
 30
0.0
 40
25.0
100
AcDbArc
 50
270.009309
 51
1.889417
  0
LINE
  5
6FE24
330
700BC
100
AcDbEntity
  8
Level 25
  6
Continuous
 62
   160
370
     0
100
AcDbLine
 10
247.422746
 20
1108.206694
 30
0.0
 11
242.676022
 21
1252.096965
 31
0.0
  0
ARC
  5
6FE25
330
700BC
100
AcDbEntity
  8
Level 25
  6
Continuous
 62
   160
370
     0
100
AcDbCircle
 10
226.684739
 20
1251.568891
 30
0.0
 40
16.0
100
AcDbArc
 50
1.89137
 51
169.402881
  0
LINE
  5
6FE26
330
700BC
100
AcDbEntity
  8
Level 25
  6
Continuous
 62
   160
370
     0
100
AcDbLine
 10
210.957625
 20
1254.511322
 30
0.0
 11
194.56827
 21
1166.913786
 31
0.0
  0
ARC
  5
6FE27
330
700BC
100
AcDbEntity
  8
Level 25
  6
Continuous
 62
   160
370
     0
100
AcDbCircle
 10
-165.079962
 20
1172.431
 30
0.0
 40
30.0
210
0.0
220
0.0
230
-1.0
100
AcDbArc
 50
190.597423
 51
270.0
  0
LINE
  5
6FE28
330
700BC
100
AcDbEntity
  8
Level 25
  6
Continuous
 62
   160
370
     0
100
AcDbLine
 10
165.079962
 20
1142.431
 30
0.0
 11
-164.63444
 21
1142.431
 31
0.0
  0
ARC
  5
6FE29
330
700BC
100
AcDbEntity
  8
Level 25
  6
Continuous
 62
   160
370
     0
100
AcDbCircle
 10
164.63444
 20
1172.431
 30
0.0
 40
30.0
210
0.0
220
0.0
230
-1.0
100
AcDbArc
 50
270.0
 51
350.317561
  0
LINE
  5
6FE2A
330
700BC
100
AcDbEntity
  8
Level 25
  6
Continuous
 62
   160
370
     0
100
AcDbLine
 10
-194.207092
 20
1167.385383
 30
0.0
 11
-209.029419
 21
1254.259887
 31
0.0
  0
LINE
  5
6FE2B
330
700BC
100
AcDbEntity
  8
Level 25
  6
Continuous
 62
   160
370
     0
100
AcDbLine
 10
-224.8015
 20
-1117.569
 30
0.0
 11
-224.8015
 21
-1267.569
 31
0.0
  0
LINE
  5
6FE2C
330
700BC
100
AcDbEntity
  8
Level 25
  6
Continuous
 62
   160
370
     0
100
AcDbLine
 10
226.684739
 20
-1117.569
 30
0.0
 11
226.684739
 21
-1267.569
 31
0.0
  0
LINE
  5
6FE2D
330
700BC
100
AcDbEntity
  8
Level 25
  6
Continuous
 62
   160
370
     0
100
AcDbLine
 10
226.684739
 20
-1117.569
 30
0.0
 11
226.684739
 21
-856.832602
 31
0.0
  0
LINE
  5
6FE2E
330
700BC
100
AcDbEntity
  8
Level 25
  6
Continuous
 62
   160
370
     0
100
AcDbLine
 10
-224.8015
 20
-1117.569
 30
0.0
 11
-224.8015
 21
-856.832602
 31
0.0
  0
LINE
  5
6FE2F
330
700BC
100
AcDbEntity
  8
Level 25
  6
Continuous
 62
   160
370
     0
100
AcDbLine
 10
-224.8015
 20
-369.912405
 30
0.0
 11
-224.8015
 21
-856.832602
 31
0.0
  0
LINE
  5
6FE30
330
700BC
100
AcDbEntity
  8
Level 25
  6
Continuous
 62
   160
370
     0
100
AcDbLine
 10
226.684739
 20
-369.912405
 30
0.0
 11
226.684739
 21
-856.832602
 31
0.0
  0
LINE
  5
6FE31
330
700BC
100
AcDbEntity
  8
Level 25
  6
Continuous
 62
   160
370
     0
100
AcDbLine
 10
226.684739
 20
-369.912405
 30
0.0
 11
226.684739
 21
271.131846
 31
0.0
  0
LINE
  5
6FE32
330
700BC
100
AcDbEntity
  8
Level 25
  6
Continuous
 62
   160
370
     0
100
AcDbLine
 10
-224.8015
 20
-369.912405
 30
0.0
 11
-224.8015
 21
271.131846
 31
0.0
  0
LINE
  5
6FE33
330
700BC
100
AcDbEntity
  8
Level 25
  6
Continuous
 62
   160
370
     0
100
AcDbLine
 10
-224.8015
 20
875.273772
 30
0.0
 11
-224.8015
 21
271.131846
 31
0.0
  0
LINE
  5
6FE34
330
700BC
100
AcDbEntity
  8
Level 25
  6
Continuous
 62
   160
370
     0
100
AcDbLine
 10
226.684739
 20
875.273772
 30
0.0
 11
226.684739
 21
271.131846
 31
0.0
  0
LINE
  5
6FE35
330
700BC
100
AcDbEntity
  8
Level 25
  6
Continuous
 62
   160
370
     0
100
AcDbLine
 10
226.684739
 20
1034.262869
 30
0.0
 11
226.684739
 21
875.273772
 31
0.0
  0
LINE
  5
6FE36
330
700BC
100
AcDbEntity
  8
Level 25
  6
Continuous
 62
   160
370
     0
100
AcDbLine
 10
-224.8015
 20
1034.262869
 30
0.0
 11
-224.8015
 21
875.273772
 31
0.0
  0
LINE
  5
6FE37
330
700BC
100
AcDbEntity
  8
Level 25
  6
Continuous
 62
   160
370
     0
100
AcDbLine
 10
-224.8015
 20
1034.262869
 30
0.0
 11
-224.8015
 21
1267.568891
 31
0.0
  0
LINE
  5
6FE38
330
700BC
100
AcDbEntity
  8
Level 25
  6
Continuous
 62
   160
370
     0
100
AcDbLine
 10
226.684739
 20
1034.262869
 30
0.0
 11
226.684739
 21
1267.568891
 31
0.0
  0
ENDBLK
  5
700BE
330
700BC
100
AcDbEntity
  8
0
 62
    98
370
     0
100
AcDbBlockEnd
  0
BLOCK
  5
700C0
330
700BF
100
AcDbEntity
  8
0
 62
    98
370
     0
100
AcDbBlockBegin
  2
From Solid
 70
     0
 10
0.0
 20
0.0
 30
0.0
  3
From Solid
  1

  0
LINE
  5
6FE3F
330
700BF
100
AcDbEntity
  8
Level 27
  6
Continuous
 62
    40
370
     0
100
AcDbLine
 10
5013.717546
 20
-160.54961
 30
0.0
 11
5040.617546
 21
-160.54961
 31
0.0
  0
LINE
  5
6FE40
330
700BF
100
AcDbEntity
  8
Level 27
  6
Continuous
 62
    40
370
     0
100
AcDbLine
 10
5013.717546
 20
367.75039
 30
0.0
 11
5040.617546
 21
367.75039
 31
0.0
  0
LINE
  5
6FE41
330
700BF
100
AcDbEntity
  8
Level 27
  6
Continuous
 62
    40
370
     0
100
AcDbLine
 10
5027.167546
 20
-160.54961
 30
0.0
 11
5027.167546
 21
367.75039
 31
0.0
  0
LINE
  5
6FE42
330
700BF
100
AcDbEntity
  8
Level 27
  6
Continuous
 62
    40
370
     0
100
AcDbLine
 10
5013.717546
 20
-160.54961
 30
0.0
 11
5013.717546
 21
367.75039
 31
0.0
  0
LINE
  5
6FE43
330
700BF
100
AcDbEntity
  8
Level 27
  6
Continuous
 62
    40
370
     0
100
AcDbLine
 10
5027.167546
 20
-160.54961
 30
0.0
 11
5027.167546
 21
367.75039
 31
0.0
  0
LINE
  5
6FE44
330
700BF
100
AcDbEntity
  8
Level 27
  6
Continuous
 62
    40
370
     0
100
AcDbLine
 10
5040.617546
 20
-160.54961
 30
0.0
 11
5040.617546
 21
367.75039
 31
0.0
  0
ENDBLK
  5
700C1
330
700BF
100
AcDbEntity
  8
0
 62
    98
370
     0
100
AcDbBlockEnd
  0
BLOCK
  5
700C3
330
700C2
100
AcDbEntity
  8
0
 62
    98
370
     0
100
AcDbBlockBegin
  2
From Surface
 70
     0
 10
0.0
 20
0.0
 30
0.0
  3
From Surface
  1

  0
POINT
  5
6FE46
330
700C2
100
AcDbEntity
  8
Level 27
  6
Continuous
 62
    40
370
     0
100
AcDbPoint
 10
4634.320447
 20
302.75039
 30
0.0
  0
POINT
  5
6FE47
330
700C2
100
AcDbEntity
  8
Level 27
  6
Continuous
 62
    40
370
     0
100
AcDbPoint
 10
4626.820447
 20
372.75039
 30
0.0
  0
LINE
  5
6FE48
330
700C2
100
AcDbEntity
  8
Level 27
  6
Continuous
 62
    40
370
     0
100
AcDbLine
 10
4634.320447
 20
302.75039
 30
0.0
 11
4626.820447
 21
372.75039
 31
0.0
  0
LINE
  5
6FE49
330
700C2
100
AcDbEntity
  8
Level 27
  6
Continuous
 62
    40
370
     0
100
AcDbLine
 10
4634.320447
 20
302.75039
 30
0.0
 11
4626.820447
 21
372.75039
 31
0.0
  0
ENDBLK
  5
700C4
330
700C2
100
AcDbEntity
  8
0
 62
    98
370
     0
100
AcDbBlockEnd
  0
BLOCK
  5
700C6
330
700C5
100
AcDbEntity
  8
0
 62
    98
370
     0
100
AcDbBlockBegin
  2
From Surface_1
 70
     0
 10
0.0
 20
0.0
 30
0.0
  3
From Surface_1
  1

  0
POINT
  5
6FE4B
330
700C5
100
AcDbEntity
  8
Level 27
  6
Continuous
 62
    40
370
     0
100
AcDbPoint
 10
4604.320447
 20
302.75039
 30
0.0
  0
POINT
  5
6FE4C
330
700C5
100
AcDbEntity
  8
Level 27
  6
Continuous
 62
    40
370
     0
100
AcDbPoint
 10
4611.820447
 20
372.75039
 30
0.0
  0
LINE
  5
6FE4D
330
700C5
100
AcDbEntity
  8
Level 27
  6
Continuous
 62
    40
370
     0
100
AcDbLine
 10
4604.320447
 20
302.75039
 30
0.0
 11
4611.820447
 21
372.75039
 31
0.0
  0
LINE
  5
6FE4E
330
700C5
100
AcDbEntity
  8
Level 27
  6
Continuous
 62
    40
370
     0
100
AcDbLine
 10
4604.320447
 20
302.75039
 30
0.0
 11
4611.820447
 21
372.75039
 31
0.0
  0
ENDBLK
  5
700C7
330
700C5
100
AcDbEntity
  8
0
 62
    98
370
     0
100
AcDbBlockEnd
  0
BLOCK
  5
700C9
330
700C8
100
AcDbEntity
  8
0
 62
    98
370
     0
100
AcDbBlockBegin
  2
From Surface_2
 70
     0
 10
0.0
 20
0.0
 30
0.0
  3
From Surface_2
  1

  0
LINE
  5
6FE50
330
700C8
100
AcDbEntity
  8
Level 27
  6
Continuous
 62
    40
370
     0
100
AcDbLine
 10
4604.320447
 20
302.75039
 30
0.0
 11
4634.320447
 21
302.75039
 31
0.0
  0
LINE
  5
6FE51
330
700C8
100
AcDbEntity
  8
Level 27
  6
Continuous
 62
    40
370
     0
100
AcDbLine
 10
4611.820447
 20
372.75039
 30
0.0
 11
4641.820447
 21
372.75039
 31
0.0
  0
LINE
  5
6FE52
330
700C8
100
AcDbEntity
  8
Level 27
  6
Continuous
 62
    40
370
     0
100
AcDbLine
 10
4604.320447
 20
302.75039
 30
0.0
 11
4611.820447
 21
372.75039
 31
0.0
  0
LINE
  5
6FE53
330
700C8
100
AcDbEntity
  8
Level 27
  6
Continuous
 62
    40
370
     0
100
AcDbLine
 10
4634.320447
 20
302.75039
 30
0.0
 11
4641.820447
 21
372.75039
 31
0.0
  0
ENDBLK
  5
700CA
330
700C8
100
AcDbEntity
  8
0
 62
    98
370
     0
100
AcDbBlockEnd
  0
BLOCK
  5
700CC
330
700CB
100
AcDbEntity
  8
0
 62
    98
370
     0
100
AcDbBlockBegin
  2
From Surface_3
 70
     0
 10
0.0
 20
0.0
 30
0.0
  3
From Surface_3
  1

  0
LINE
  5
6FE55
330
700CB
100
AcDbEntity
  8
Level 27
  6
Continuous
 62
    40
370
     0
100
AcDbLine
 10
4634.320447
 20
302.75039
 30
0.0
 11
4604.320447
 21
302.75039
 31
0.0
  0
LINE
  5
6FE56
330
700CB
100
AcDbEntity
  8
Level 27
  6
Continuous
 62
    40
370
     0
100
AcDbLine
 10
4626.820447
 20
372.75039
 30
0.0
 11
4596.820447
 21
372.75039
 31
0.0
  0
LINE
  5
6FE57
330
700CB
100
AcDbEntity
  8
Level 27
  6
Continuous
 62
    40
370
     0
100
AcDbLine
 10
4634.320447
 20
302.75039
 30
0.0
 11
4626.820447
 21
372.75039
 31
0.0
  0
LINE
  5
6FE58
330
700CB
100
AcDbEntity
  8
Level 27
  6
Continuous
 62
    40
370
     0
100
AcDbLine
 10
4604.320447
 20
302.75039
 30
0.0
 11
4596.820447
 21
372.75039
 31
0.0
  0
ENDBLK
  5
700CD
330
700CB
100
AcDbEntity
  8
0
 62
    98
370
     0
100
AcDbBlockEnd
  0
BLOCK
  5
700CF
330
700CE
100
AcDbEntity
  8
0
 62
    98
370
     0
100
AcDbBlockBegin
  2
From Solid_1
 70
     0
 10
0.0
 20
0.0
 30
0.0
  3
From Solid_1
  1

  0
LINE
  5
6FE5A
330
700CE
100
AcDbEntity
  8
Level 27
  6
Continuous
 62
    40
370
     0
100
AcDbLine
 10
4194.593119
 20
406.90039
 30
0.0
 11
4194.593119
 21
358.60039
 31
0.0
  0
LINE
  5
6FE5B
330
700CE
100
AcDbEntity
  8
Level 27
  6
Continuous
 62
    40
370
     0
100
AcDbLine
 10
3841.605354
 20
406.90039
 30
0.0
 11
3841.605354
 21
358.60039
 31
0.0
  0
LINE
  5
6FE5C
330
700CE
100
AcDbEntity
  8
Level 27
  6
Continuous
 62
    40
370
     0
100
AcDbLine
 10
4194.593119
 20
382.75039
 30
0.0
 11
3841.605354
 21
382.75039
 31
0.0
  0
LINE
  5
6FE5D
330
700CE
100
AcDbEntity
  8
Level 27
  6
Continuous
 62
    40
370
     0
100
AcDbLine
 10
4194.593119
 20
406.90039
 30
0.0
 11
3841.605354
 21
406.90039
 31
0.0
  0
LINE
  5
6FE5E
330
700CE
100
AcDbEntity
  8
Level 27
  6
Continuous
 62
    40
370
     0
100
AcDbLine
 10
4194.593119
 20
382.75039
 30
0.0
 11
3841.605354
 21
382.75039
 31
0.0
  0
LINE
  5
6FE5F
330
700CE
100
AcDbEntity
  8
Level 27
  6
Continuous
 62
    40
370
     0
100
AcDbLine
 10
4194.593119
 20
358.60039
 30
0.0
 11
3841.605354
 21
358.60039
 31
0.0
  0
ENDBLK
  5
700D0
330
700CE
100
AcDbEntity
  8
0
 62
    98
370
     0
100
AcDbBlockEnd
  0
BLOCK
  5
700D2
330
700D1
100
AcDbEntity
  8
0
 62
    98
370
     0
100
AcDbBlockBegin
  2
From Solid_2
 70
     0
 10
0.0
 20
0.0
 30
0.0
  3
From Solid_2
  1

  0
ELLIPSE
  5
6FE61
330
700D1
100
AcDbEntity
  8
Level 27
  6
Continuous
 62
    40
370
     0
100
AcDbEllipse
 10
3728.842239
 20
382.75039
 30
0.0
 11
0.0
 21
24.14999944002379
 31
0.0
210
0.0
220
0.0
230
1.0
 40
0.9396926097807712
 41
0.0
 42
6.283185307179586
  0
ELLIPSE
  5
6FE62
330
700D1
100
AcDbEntity
  8
Level 27
  6
Continuous
 62
    40
370
     0
100
AcDbEllipse
 10
3893.247586
 20
382.75039
 30
0.0
 11
0.0
 21
24.1499994400238
 31
0.0
210
0.0
220
0.0
230
1.0
 40
0.9396926097807712
 41
0.0
 42
6.283185307179586
  0
LINE
  5
6FE63
330
700D1
100
AcDbEntity
  8
Level 27
  6
Continuous
 62
    40
370
     0
100
AcDbLine
 10
3751.535815
 20
382.75039
 30
0.0
 11
3915.941162
 21
382.75039
 31
0.0
  0
LINE
  5
6FE64
330
700D1
100
AcDbEntity
  8
Level 27
  6
Continuous
 62
    40
370
     0
100
AcDbLine
 10
3728.842239
 20
406.900389
 30
0.0
 11
3893.247586
 21
406.900389
 31
0.0
  0
LINE
  5
6FE65
330
700D1
100
AcDbEntity
  8
Level 27
  6
Continuous
 62
    40
370
     0
100
AcDbLine
 10
3706.148663
 20
382.75039
 30
0.0
 11
3870.55401
 21
382.75039
 31
0.0
  0
LINE
  5
6FE66
330
700D1
100
AcDbEntity
  8
Level 27
  6
Continuous
 62
    40
370
     0
100
AcDbLine
 10
3728.842239
 20
358.60039
 30
0.0
 11
3893.247586
 21
358.60039
 31
0.0
  0
ENDBLK
  5
700D3
330
700D1
100
AcDbEntity
  8
0
 62
    98
370
     0
100
AcDbBlockEnd
  0
BLOCK
  5
700D5
330
700D4
100
AcDbEntity
  8
0
 62
    98
370
     0
100
AcDbBlockBegin
  2
From Solid_3
 70
     0
 10
0.0
 20
0.0
 30
0.0
  3
From Solid_3
  1

  0
ELLIPSE
  5
6FE68
330
700D4
100
AcDbEntity
  8
Level 27
  6
Continuous
 62
    40
370
     0
100
AcDbEllipse
 10
3893.247586
 20
382.75039
 30
0.0
 11
0.0
 21
-24.15000000000001
 31
0.0
210
0.0
220
0.0
230
1.0
 40
0.9396926279327983
 41
0.0
 42
6.283185307179586
  0
LINE
  5
6FE69
330
700D4
100
AcDbEntity
  8
Level 27
  6
Continuous
 62
    40
370
     0
100
AcDbLine
 10
4006.010701
 20
358.60039
 30
0.0
 11
4006.010701
 21
406.90039
 31
0.0
  0
LINE
  5
6FE6A
330
700D4
100
AcDbEntity
  8
Level 27
  6
Continuous
 62
    40
370
     0
100
AcDbLine
 10
4006.010701
 20
358.60039
 30
0.0
 11
3893.247586
 21
358.60039
 31
0.0
  0
LINE
  5
6FE6B
330
700D4
100
AcDbEntity
  8
Level 27
  6
Continuous
 62
    40
370
     0
100
AcDbLine
 10
4006.010701
 20
382.75039
 30
0.0
 11
3870.554009
 21
382.75039
 31
0.0
  0
LINE
  5
6FE6C
330
700D4
100
AcDbEntity
  8
Level 27
  6
Continuous
 62
    40
370
     0
100
AcDbLine
 10
4006.010701
 20
406.90039
 30
0.0
 11
3893.247586
 21
406.90039
 31
0.0
  0
LINE
  5
6FE6D
330
700D4
100
AcDbEntity
  8
Level 27
  6
Continuous
 62
    40
370
     0
100
AcDbLine
 10
4006.010701
 20
382.75039
 30
0.0
 11
3915.941163
 21
382.75039
 31
0.0
  0
ENDBLK
  5
700D6
330
700D4
100
AcDbEntity
  8
0
 62
    98
370
     0
100
AcDbBlockEnd
  0
BLOCK
  5
700D8
330
700D7
100
AcDbEntity
  8
0
 62
    98
370
     0
100
AcDbBlockBegin
  2
From Solid_4
 70
     0
 10
0.0
 20
0.0
 30
0.0
  3
From Solid_4
  1

  0
LINE
  5
6FE6F
330
700D7
100
AcDbEntity
  8
Level 27
  6
Continuous
 62
    40
370
     0
100
AcDbLine
 10
3841.605354
 20
358.60039
 30
0.0
 11
3841.605354
 21
406.90039
 31
0.0
  0
ELLIPSE
  5
6FE70
330
700D7
100
AcDbEntity
  8
Level 27
  6
Continuous
 62
    40
370
     0
100
AcDbEllipse
 10
3728.842239
 20
382.75039
 30
0.0
 11
0.0
 21
-24.15000000000001
 31
0.0
210
0.0
220
0.0
230
1.0
 40
0.939692624490336
 41
0.0
 42
6.283185307179586
  0
LINE
  5
6FE71
330
700D7
100
AcDbEntity
  8
Level 27
  6
Continuous
 62
    40
370
     0
100
AcDbLine
 10
3841.605354
 20
358.60039
 30
0.0
 11
3721.605354
 21
358.60039
 31
0.0
  0
LINE
  5
6FE72
330
700D7
100
AcDbEntity
  8
Level 27
  6
Continuous
 62
    40
370
     0
100
AcDbLine
 10
3841.605354
 20
382.75039
 30
0.0
 11
3697.455354
 21
382.75039
 31
0.0
  0
LINE
  5
6FE73
330
700D7
100
AcDbEntity
  8
Level 27
  6
Continuous
 62
    40
370
     0
100
AcDbLine
 10
3841.605354
 20
406.90039
 30
0.0
 11
3721.605354
 21
406.90039
 31
0.0
  0
LINE
  5
6FE74
330
700D7
100
AcDbEntity
  8
Level 27
  6
Continuous
 62
    40
370
     0
100
AcDbLine
 10
3841.605354
 20
382.75039
 30
0.0
 11
3745.755354
 21
382.75039
 31
0.0
  0
ENDBLK
  5
700D9
330
700D7
100
AcDbEntity
  8
0
 62
    98
370
     0
100
AcDbBlockEnd
  0
BLOCK
  5
700DB
330
700DA
100
AcDbEntity
  8
0
 62
    98
370
     0
100
AcDbBlockBegin
  2
From Solid_5
 70
     0
 10
0.0
 20
0.0
 30
0.0
  3
From Solid_5
  1

  0
LINE
  5
6FE76
330
700DA
100
AcDbEntity
  8
Level 27
  6
Continuous
 62
    40
370
     0
100
AcDbLine
 10
4194.593119
 20
406.90039
 30
0.0
 11
4194.593119
 21
358.60039
 31
0.0
  0
ELLIPSE
  5
6FE77
330
700DA
100
AcDbEntity
  8
Level 27
  6
Continuous
 62
    40
370
     0
100
AcDbEllipse
 10
4307.356234
 20
382.75039
 30
0.0
 11
0.0
 21
24.15000000000001
 31
0.0
210
0.0
220
0.0
230
1.0
 40
0.9396926244903362
 41
0.0
 42
6.283185307179586
  0
LINE
  5
6FE78
330
700DA
100
AcDbEntity
  8
Level 27
  6
Continuous
 62
    40
370
     0
100
AcDbLine
 10
4194.593119
 20
406.90039
 30
0.0
 11
4307.356234
 21
406.90039
 31
0.0
  0
LINE
  5
6FE79
330
700DA
100
AcDbEntity
  8
Level 27
  6
Continuous
 62
    40
370
     0
100
AcDbLine
 10
4194.593119
 20
382.75039
 30
0.0
 11
4330.049811
 21
382.75039
 31
0.0
  0
LINE
  5
6FE7A
330
700DA
100
AcDbEntity
  8
Level 27
  6
Continuous
 62
    40
370
     0
100
AcDbLine
 10
4194.593119
 20
358.60039
 30
0.0
 11
4307.356234
 21
358.60039
 31
0.0
  0
LINE
  5
6FE7B
330
700DA
100
AcDbEntity
  8
Level 27
  6
Continuous
 62
    40
370
     0
100
AcDbLine
 10
4194.593119
 20
382.75039
 30
0.0
 11
4284.662657
 21
382.75039
 31
0.0
  0
ENDBLK
  5
700DC
330
700DA
100
AcDbEntity
  8
0
 62
    98
370
     0
100
AcDbBlockEnd
  0
BLOCK
  5
700DE
330
700DD
100
AcDbEntity
  8
0
 62
    98
370
     0
100
AcDbBlockBegin
  2
From Solid_6
 70
     0
 10
0.0
 20
0.0
 30
0.0
  3
From Solid_6
  1

  0
ELLIPSE
  5
6FE7D
330
700DD
100
AcDbEntity
  8
Level 27
  6
Continuous
 62
    40
370
     0
100
AcDbEllipse
 10
4122.537166
 20
382.75039
 30
0.0
 11
0.0
 21
13.45000026004451
 31
0.0
210
0.0
220
0.0
230
1.0
 40
0.9396926212370354
 41
0.0
 42
6.283185307179586
  0
ELLIPSE
  5
6FE7E
330
700DD
100
AcDbEntity
  8
Level 27
  6
Continuous
 62
    40
370
     0
100
AcDbEllipse
 10
4370.875167
 20
382.75039
 30
0.0
 11
0.0
 21
13.45000026004451
 31
0.0
210
0.0
220
0.0
230
1.0
 40
0.9396926212370354
 41
0.0
 42
6.283185307179586
  0
LINE
  5
6FE7F
330
700DD
100
AcDbEntity
  8
Level 27
  6
Continuous
 62
    40
370
     0
100
AcDbLine
 10
4135.176032
 20
382.75039
 30
0.0
 11
4383.514033
 21
382.75039
 31
0.0
  0
LINE
  5
6FE80
330
700DD
100
AcDbEntity
  8
Level 27
  6
Continuous
 62
    40
370
     0
100
AcDbLine
 10
4122.537166
 20
396.20039
 30
0.0
 11
4370.875167
 21
396.20039
 31
0.0
  0
LINE
  5
6FE81
330
700DD
100
AcDbEntity
  8
Level 27
  6
Continuous
 62
    40
370
     0
100
AcDbLine
 10
4109.8983
 20
382.75039
 30
0.0
 11
4358.236301
 21
382.75039
 31
0.0
  0
LINE
  5
6FE82
330
700DD
100
AcDbEntity
  8
Level 27
  6
Continuous
 62
    40
370
     0
100
AcDbLine
 10
4122.537166
 20
369.300389
 30
0.0
 11
4370.875167
 21
369.300389
 31
0.0
  0
ENDBLK
  5
700DF
330
700DD
100
AcDbEntity
  8
0
 62
    98
370
     0
100
AcDbBlockEnd
  0
BLOCK
  5
700E1
330
700E0
100
AcDbEntity
  8
0
 62
    98
370
     0
100
AcDbBlockBegin
  2
From Solid_7
 70
     0
 10
0.0
 20
0.0
 30
0.0
  3
From Solid_7
  1

  0
ELLIPSE
  5
6FE84
330
700E0
100
AcDbEntity
  8
Level 27
  6
Continuous
 62
    40
370
     0
100
AcDbEllipse
 10
3976.13291
 20
382.75039
 30
0.0
 11
0.0
 21
13.44999932035191
 31
0.0
210
0.0
220
0.0
230
1.0
 40
0.9396926125397984
 41
0.0
 42
6.283185307179586
  0
ELLIPSE
  5
6FE85
330
700E0
100
AcDbEntity
  8
Level 27
  6
Continuous
 62
    40
370
     0
100
AcDbEllipse
 10
4224.470911
 20
382.75039
 30
0.0
 11
0.0
 21
13.44999932035191
 31
0.0
210
0.0
220
0.0
230
1.0
 40
0.9396926125397982
 41
0.0
 42
6.283185307179586
  0
LINE
  5
6FE86
330
700E0
100
AcDbEntity
  8
Level 27
  6
Continuous
 62
    40
370
     0
100
AcDbLine
 10
3988.771775
 20
382.75039
 30
0.0
 11
4237.109776
 21
382.75039
 31
0.0
  0
LINE
  5
6FE87
330
700E0
100
AcDbEntity
  8
Level 27
  6
Continuous
 62
    40
370
     0
100
AcDbLine
 10
3976.13291
 20
396.200389
 30
0.0
 11
4224.470911
 21
396.200389
 31
0.0
  0
LINE
  5
6FE88
330
700E0
100
AcDbEntity
  8
Level 27
  6
Continuous
 62
    40
370
     0
100
AcDbLine
 10
3963.494045
 20
382.75039
 30
0.0
 11
4211.832046
 21
382.75039
 31
0.0
  0
LINE
  5
6FE89
330
700E0
100
AcDbEntity
  8
Level 27
  6
Continuous
 62
    40
370
     0
100
AcDbLine
 10
3976.13291
 20
369.30039
 30
0.0
 11
4224.470911
 21
369.30039
 31
0.0
  0
ENDBLK
  5
700E2
330
700E0
100
AcDbEntity
  8
0
 62
    98
370
     0
100
AcDbBlockEnd
  0
BLOCK
  5
700E4
330
700E3
100
AcDbEntity
  8
0
 62
    98
370
     0
100
AcDbBlockBegin
  2
From Solid_8
 70
     0
 10
0.0
 20
0.0
 30
0.0
  3
From Solid_8
  1

  0
ELLIPSE
  5
6FE8B
330
700E3
100
AcDbEntity
  8
Level 27
  6
Continuous
 62
    40
370
     0
100
AcDbEllipse
 10
3829.998435
 20
382.75039
 30
0.0
 11
0.0
 21
13.44999932035175
 31
0.0
210
0.0
220
0.0
230
1.0
 40
0.9396926125398115
 41
0.0
 42
6.283185307179586
  0
ELLIPSE
  5
6FE8C
330
700E3
100
AcDbEntity
  8
Level 27
  6
Continuous
 62
    40
370
     0
100
AcDbEllipse
 10
4078.066654
 20
382.75039
 30
0.0
 11
0.0
 21
13.44999932035176
 31
0.0
210
0.0
220
0.0
230
1.0
 40
0.9396926125398115
 41
0.0
 42
6.283185307179586
  0
LINE
  5
6FE8D
330
700E3
100
AcDbEntity
  8
Level 27
  6
Continuous
 62
    40
370
     0
100
AcDbLine
 10
3842.6373
 20
382.75039
 30
0.0
 11
4090.705519
 21
382.75039
 31
0.0
  0
LINE
  5
6FE8E
330
700E3
100
AcDbEntity
  8
Level 27
  6
Continuous
 62
    40
370
     0
100
AcDbLine
 10
3829.998435
 20
396.200389
 30
0.0
 11
4078.066654
 21
396.200389
 31
0.0
  0
LINE
  5
6FE8F
330
700E3
100
AcDbEntity
  8
Level 27
  6
Continuous
 62
    40
370
     0
100
AcDbLine
 10
3817.35957
 20
382.75039
 30
0.0
 11
4065.427789
 21
382.75039
 31
0.0
  0
LINE
  5
6FE90
330
700E3
100
AcDbEntity
  8
Level 27
  6
Continuous
 62
    40
370
     0
100
AcDbLine
 10
3829.998435
 20
369.30039
 30
0.0
 11
4078.066654
 21
369.30039
 31
0.0
  0
ENDBLK
  5
700E5
330
700E3
100
AcDbEntity
  8
0
 62
    98
370
     0
100
AcDbBlockEnd
  0
BLOCK
  5
700E7
330
700E6
100
AcDbEntity
  8
0
 62
    98
370
     0
100
AcDbBlockBegin
  2
From Solid_9
 70
     0
 10
0.0
 20
0.0
 30
0.0
  3
From Solid_9
  1

  0
ELLIPSE
  5
6FE92
330
700E6
100
AcDbEntity
  8
Level 27
  6
Continuous
 62
    40
370
     0
100
AcDbEllipse
 10
5079.745788
 20
382.75039
 30
0.0
 11
0.0
 21
-24.15000003769617
 31
0.0
210
0.0
220
0.0
230
1.0
 40
0.9396926279328038
 41
0.0
 42
6.283185307179586
  0
ELLIPSE
  5
6FE93
330
700E6
100
AcDbEntity
  8
Level 27
  6
Continuous
 62
    40
370
     0
100
AcDbEllipse
 10
4307.356234
 20
382.75039
 30
0.0
 11
0.0
 21
-24.15000003769617
 31
0.0
210
0.0
220
0.0
230
1.0
 40
0.9396926279328038
 41
0.0
 42
6.283185307179586
  0
LINE
  5
6FE94
330
700E6
100
AcDbEntity
  8
Level 27
  6
Continuous
 62
    40
370
     0
100
AcDbLine
 10
5057.052211
 20
382.75039
 30
0.0
 11
4284.662657
 21
382.75039
 31
0.0
  0
LINE
  5
6FE95
330
700E6
100
AcDbEntity
  8
Level 27
  6
Continuous
 62
    40
370
     0
100
AcDbLine
 10
5079.745788
 20
406.90039
 30
0.0
 11
4307.356234
 21
406.90039
 31
0.0
  0
LINE
  5
6FE96
330
700E6
100
AcDbEntity
  8
Level 27
  6
Continuous
 62
    40
370
     0
100
AcDbLine
 10
5102.439365
 20
382.75039
 30
0.0
 11
4330.049811
 21
382.75039
 31
0.0
  0
LINE
  5
6FE97
330
700E6
100
AcDbEntity
  8
Level 27
  6
Continuous
 62
    40
370
     0
100
AcDbLine
 10
5079.745788
 20
358.60039
 30
0.0
 11
4307.356234
 21
358.60039
 31
0.0
  0
ENDBLK
  5
700E8
330
700E6
100
AcDbEntity
  8
0
 62
    98
370
     0
100
AcDbBlockEnd
  0
BLOCK
  5
700EA
330
700E9
100
AcDbEntity
  8
0
 62
    98
370
     0
100
AcDbBlockBegin
  2
From Solid_10
 70
     0
 10
0.0
 20
0.0
 30
0.0
  3
From Solid_10
  1

  0
ELLIPSE
  5
6FE99
330
700E9
100
AcDbEntity
  8
Level 27
  6
Continuous
 62
    40
370
     0
100
AcDbEllipse
 10
3829.998435
 20
-175.54961
 30
0.0
 11
0.0
 21
13.44999932035175
 31
0.0
210
0.0
220
0.0
230
1.0
 40
0.9396926125398115
 41
0.0
 42
6.283185307179586
  0
ELLIPSE
  5
6FE9A
330
700E9
100
AcDbEntity
  8
Level 27
  6
Continuous
 62
    40
370
     0
100
AcDbEllipse
 10
4078.066654
 20
-175.54961
 30
0.0
 11
0.0
 21
13.44999932035176
 31
0.0
210
0.0
220
0.0
230
1.0
 40
0.9396926125398115
 41
0.0
 42
6.283185307179586
  0
LINE
  5
6FE9B
330
700E9
100
AcDbEntity
  8
Level 27
  6
Continuous
 62
    40
370
     0
100
AcDbLine
 10
3842.6373
 20
-175.54961
 30
0.0
 11
4090.705519
 21
-175.54961
 31
0.0
  0
LINE
  5
6FE9C
330
700E9
100
AcDbEntity
  8
Level 27
  6
Continuous
 62
    40
370
     0
100
AcDbLine
 10
3829.998435
 20
-188.99961
 30
0.0
 11
4078.066654
 21
-188.99961
 31
0.0
  0
LINE
  5
6FE9D
330
700E9
100
AcDbEntity
  8
Level 27
  6
Continuous
 62
    40
370
     0
100
AcDbLine
 10
3817.35957
 20
-175.54961
 30
0.0
 11
4065.427789
 21
-175.54961
 31
0.0
  0
LINE
  5
6FE9E
330
700E9
100
AcDbEntity
  8
Level 27
  6
Continuous
 62
    40
370
     0
100
AcDbLine
 10
3829.998435
 20
-162.099611
 30
0.0
 11
4078.066654
 21
-162.099611
 31
0.0
  0
ENDBLK
  5
700EB
330
700E9
100
AcDbEntity
  8
0
 62
    98
370
     0
100
AcDbBlockEnd
  0
BLOCK
  5
700ED
330
700EC
100
AcDbEntity
  8
0
 62
    98
370
     0
100
AcDbBlockBegin
  2
From Solid_11
 70
     0
 10
0.0
 20
0.0
 30
0.0
  3
From Solid_11
  1

  0
ELLIPSE
  5
6FEA0
330
700EC
100
AcDbEntity
  8
Level 27
  6
Continuous
 62
    40
370
     0
100
AcDbEllipse
 10
3976.13291
 20
-175.54961
 30
0.0
 11
0.0
 21
13.44999932035191
 31
0.0
210
0.0
220
0.0
230
1.0
 40
0.9396926125397984
 41
0.0
 42
6.283185307179586
  0
ELLIPSE
  5
6FEA1
330
700EC
100
AcDbEntity
  8
Level 27
  6
Continuous
 62
    40
370
     0
100
AcDbEllipse
 10
4224.470911
 20
-175.54961
 30
0.0
 11
0.0
 21
13.44999932035191
 31
0.0
210
0.0
220
0.0
230
1.0
 40
0.9396926125397982
 41
0.0
 42
6.283185307179586
  0
LINE
  5
6FEA2
330
700EC
100
AcDbEntity
  8
Level 27
  6
Continuous
 62
    40
370
     0
100
AcDbLine
 10
3988.771775
 20
-175.54961
 30
0.0
 11
4237.109776
 21
-175.54961
 31
0.0
  0
LINE
  5
6FEA3
330
700EC
100
AcDbEntity
  8
Level 27
  6
Continuous
 62
    40
370
     0
100
AcDbLine
 10
3976.13291
 20
-188.99961
 30
0.0
 11
4224.470911
 21
-188.99961
 31
0.0
  0
LINE
  5
6FEA4
330
700EC
100
AcDbEntity
  8
Level 27
  6
Continuous
 62
    40
370
     0
100
AcDbLine
 10
3963.494045
 20
-175.54961
 30
0.0
 11
4211.832046
 21
-175.54961
 31
0.0
  0
LINE
  5
6FEA5
330
700EC
100
AcDbEntity
  8
Level 27
  6
Continuous
 62
    40
370
     0
100
AcDbLine
 10
3976.13291
 20
-162.099611
 30
0.0
 11
4224.470911
 21
-162.099611
 31
0.0
  0
ENDBLK
  5
700EE
330
700EC
100
AcDbEntity
  8
0
 62
    98
370
     0
100
AcDbBlockEnd
  0
BLOCK
  5
700F0
330
700EF
100
AcDbEntity
  8
0
 62
    98
370
     0
100
AcDbBlockBegin
  2
From Solid_12
 70
     0
 10
0.0
 20
0.0
 30
0.0
  3
From Solid_12
  1

  0
ELLIPSE
  5
6FEA7
330
700EF
100
AcDbEntity
  8
Level 27
  6
Continuous
 62
    40
370
     0
100
AcDbEllipse
 10
4122.537166
 20
-175.54961
 30
0.0
 11
0.0
 21
13.45000026004451
 31
0.0
210
0.0
220
0.0
230
1.0
 40
0.9396926212370356
 41
0.0
 42
6.283185307179586
  0
ELLIPSE
  5
6FEA8
330
700EF
100
AcDbEntity
  8
Level 27
  6
Continuous
 62
    40
370
     0
100
AcDbEllipse
 10
4370.875167
 20
-175.54961
 30
0.0
 11
0.0
 21
13.45000026004451
 31
0.0
210
0.0
220
0.0
230
1.0
 40
0.9396926212370356
 41
0.0
 42
6.283185307179586
  0
LINE
  5
6FEA9
330
700EF
100
AcDbEntity
  8
Level 27
  6
Continuous
 62
    40
370
     0
100
AcDbLine
 10
4135.176032
 20
-175.54961
 30
0.0
 11
4383.514033
 21
-175.54961
 31
0.0
  0
LINE
  5
6FEAA
330
700EF
100
AcDbEntity
  8
Level 27
  6
Continuous
 62
    40
370
     0
100
AcDbLine
 10
4122.537166
 20
-188.999611
 30
0.0
 11
4370.875167
 21
-188.999611
 31
0.0
  0
LINE
  5
6FEAB
330
700EF
100
AcDbEntity
  8
Level 27
  6
Continuous
 62
    40
370
     0
100
AcDbLine
 10
4109.8983
 20
-175.54961
 30
0.0
 11
4358.236301
 21
-175.54961
 31
0.0
  0
LINE
  5
6FEAC
330
700EF
100
AcDbEntity
  8
Level 27
  6
Continuous
 62
    40
370
     0
100
AcDbLine
 10
4122.537166
 20
-162.09961
 30
0.0
 11
4370.875167
 21
-162.09961
 31
0.0
  0
ENDBLK
  5
700F1
330
700EF
100
AcDbEntity
  8
0
 62
    98
370
     0
100
AcDbBlockEnd
  0
BLOCK
  5
700F3
330
700F2
100
AcDbEntity
  8
0
 62
    98
370
     0
100
AcDbBlockBegin
  2
From Solid_13
 70
     0
 10
0.0
 20
0.0
 30
0.0
  3
From Solid_13
  1

  0
LINE
  5
6FEAE
330
700F2
100
AcDbEntity
  8
Level 27
  6
Continuous
 62
    40
370
     0
100
AcDbLine
 10
4194.593119
 20
-199.69961
 30
0.0
 11
4194.593119
 21
-151.39961
 31
0.0
  0
ELLIPSE
  5
6FEAF
330
700F2
100
AcDbEntity
  8
Level 27
  6
Continuous
 62
    40
370
     0
100
AcDbEllipse
 10
4307.356234
 20
-175.54961
 30
0.0
 11
0.0
 21
-24.15000000000001
 31
0.0
210
0.0
220
0.0
230
1.0
 40
0.939692624490336
 41
0.0
 42
6.283185307179586
  0
LINE
  5
6FEB0
330
700F2
100
AcDbEntity
  8
Level 27
  6
Continuous
 62
    40
370
     0
100
AcDbLine
 10
4194.593119
 20
-199.69961
 30
0.0
 11
4307.356234
 21
-199.69961
 31
0.0
  0
LINE
  5
6FEB1
330
700F2
100
AcDbEntity
  8
Level 27
  6
Continuous
 62
    40
370
     0
100
AcDbLine
 10
4194.593119
 20
-175.54961
 30
0.0
 11
4330.049811
 21
-175.54961
 31
0.0
  0
LINE
  5
6FEB2
330
700F2
100
AcDbEntity
  8
Level 27
  6
Continuous
 62
    40
370
     0
100
AcDbLine
 10
4194.593119
 20
-151.39961
 30
0.0
 11
4307.356234
 21
-151.39961
 31
0.0
  0
LINE
  5
6FEB3
330
700F2
100
AcDbEntity
  8
Level 27
  6
Continuous
 62
    40
370
     0
100
AcDbLine
 10
4194.593119
 20
-175.54961
 30
0.0
 11
4284.662657
 21
-175.54961
 31
0.0
  0
ENDBLK
  5
700F4
330
700F2
100
AcDbEntity
  8
0
 62
    98
370
     0
100
AcDbBlockEnd
  0
BLOCK
  5
700F6
330
700F5
100
AcDbEntity
  8
0
 62
    98
370
     0
100
AcDbBlockBegin
  2
From Solid_14
 70
     0
 10
0.0
 20
0.0
 30
0.0
  3
From Solid_14
  1

  0
LINE
  5
6FEB5
330
700F5
100
AcDbEntity
  8
Level 27
  6
Continuous
 62
    40
370
     0
100
AcDbLine
 10
3841.605354
 20
-151.39961
 30
0.0
 11
3841.605354
 21
-199.69961
 31
0.0
  0
ELLIPSE
  5
6FEB6
330
700F5
100
AcDbEntity
  8
Level 27
  6
Continuous
 62
    40
370
     0
100
AcDbEllipse
 10
3728.842239
 20
-175.54961
 30
0.0
 11
0.0
 21
24.15000000000002
 31
0.0
210
0.0
220
0.0
230
1.0
 40
0.939692624490336
 41
0.0
 42
6.283185307179586
  0
LINE
  5
6FEB7
330
700F5
100
AcDbEntity
  8
Level 27
  6
Continuous
 62
    40
370
     0
100
AcDbLine
 10
3841.605354
 20
-151.39961
 30
0.0
 11
3721.605354
 21
-151.39961
 31
0.0
  0
LINE
  5
6FEB8
330
700F5
100
AcDbEntity
  8
Level 27
  6
Continuous
 62
    40
370
     0
100
AcDbLine
 10
3841.605354
 20
-175.54961
 30
0.0
 11
3697.455354
 21
-175.54961
 31
0.0
  0
LINE
  5
6FEB9
330
700F5
100
AcDbEntity
  8
Level 27
  6
Continuous
 62
    40
370
     0
100
AcDbLine
 10
3841.605354
 20
-199.69961
 30
0.0
 11
3721.605354
 21
-199.69961
 31
0.0
  0
LINE
  5
6FEBA
330
700F5
100
AcDbEntity
  8
Level 27
  6
Continuous
 62
    40
370
     0
100
AcDbLine
 10
3841.605354
 20
-175.54961
 30
0.0
 11
3745.755354
 21
-175.54961
 31
0.0
  0
ENDBLK
  5
700F7
330
700F5
100
AcDbEntity
  8
0
 62
    98
370
     0
100
AcDbBlockEnd
  0
BLOCK
  5
700F9
330
700F8
100
AcDbEntity
  8
0
 62
    98
370
     0
100
AcDbBlockBegin
  2
From Solid_15
 70
     0
 10
0.0
 20
0.0
 30
0.0
  3
From Solid_15
  1

  0
ELLIPSE
  5
6FEBC
330
700F8
100
AcDbEntity
  8
Level 27
  6
Continuous
 62
    40
370
     0
100
AcDbEllipse
 10
3893.247586
 20
-175.54961
 30
0.0
 11
0.0
 21
24.15000000000001
 31
0.0
210
0.0
220
0.0
230
1.0
 40
0.9396926279327985
 41
0.0
 42
6.283185307179586
  0
LINE
  5
6FEBD
330
700F8
100
AcDbEntity
  8
Level 27
  6
Continuous
 62
    40
370
     0
100
AcDbLine
 10
4006.010701
 20
-151.39961
 30
0.0
 11
4006.010701
 21
-199.69961
 31
0.0
  0
LINE
  5
6FEBE
330
700F8
100
AcDbEntity
  8
Level 27
  6
Continuous
 62
    40
370
     0
100
AcDbLine
 10
4006.010701
 20
-151.39961
 30
0.0
 11
3893.247586
 21
-151.39961
 31
0.0
  0
LINE
  5
6FEBF
330
700F8
100
AcDbEntity
  8
Level 27
  6
Continuous
 62
    40
370
     0
100
AcDbLine
 10
4006.010701
 20
-175.54961
 30
0.0
 11
3870.554009
 21
-175.54961
 31
0.0
  0
LINE
  5
6FEC0
330
700F8
100
AcDbEntity
  8
Level 27
  6
Continuous
 62
    40
370
     0
100
AcDbLine
 10
4006.010701
 20
-199.69961
 30
0.0
 11
3893.247586
 21
-199.69961
 31
0.0
  0
LINE
  5
6FEC1
330
700F8
100
AcDbEntity
  8
Level 27
  6
Continuous
 62
    40
370
     0
100
AcDbLine
 10
4006.010701
 20
-175.54961
 30
0.0
 11
3915.941163
 21
-175.54961
 31
0.0
  0
ENDBLK
  5
700FA
330
700F8
100
AcDbEntity
  8
0
 62
    98
370
     0
100
AcDbBlockEnd
  0
BLOCK
  5
700FC
330
700FB
100
AcDbEntity
  8
0
 62
    98
370
     0
100
AcDbBlockBegin
  2
From Solid_16
 70
     0
 10
0.0
 20
0.0
 30
0.0
  3
From Solid_16
  1

  0
ELLIPSE
  5
6FEC3
330
700FB
100
AcDbEntity
  8
Level 27
  6
Continuous
 62
    40
370
     0
100
AcDbEllipse
 10
3728.842239
 20
-175.54961
 30
0.0
 11
0.0
 21
24.14999944002378
 31
0.0
210
0.0
220
0.0
230
0.9999999999999998
 40
0.9396926097807712
 41
0.0
 42
6.283185307179586
  0
ELLIPSE
  5
6FEC4
330
700FB
100
AcDbEntity
  8
Level 27
  6
Continuous
 62
    40
370
     0
100
AcDbEllipse
 10
3893.247586
 20
-175.54961
 30
0.0
 11
0.0
 21
24.14999944002378
 31
0.0
210
0.0
220
0.0
230
0.9999999999999998
 40
0.9396926097807712
 41
0.0
 42
6.283185307179586
  0
LINE
  5
6FEC5
330
700FB
100
AcDbEntity
  8
Level 27
  6
Continuous
 62
    40
370
     0
100
AcDbLine
 10
3751.535815
 20
-175.54961
 30
0.0
 11
3915.941162
 21
-175.54961
 31
0.0
  0
LINE
  5
6FEC6
330
700FB
100
AcDbEntity
  8
Level 27
  6
Continuous
 62
    40
370
     0
100
AcDbLine
 10
3728.842239
 20
-199.69961
 30
0.0
 11
3893.247586
 21
-199.69961
 31
0.0
  0
LINE
  5
6FEC7
330
700FB
100
AcDbEntity
  8
Level 27
  6
Continuous
 62
    40
370
     0
100
AcDbLine
 10
3706.148663
 20
-175.54961
 30
0.0
 11
3870.55401
 21
-175.54961
 31
0.0
  0
LINE
  5
6FEC8
330
700FB
100
AcDbEntity
  8
Level 27
  6
Continuous
 62
    40
370
     0
100
AcDbLine
 10
3728.842239
 20
-151.399611
 30
0.0
 11
3893.247586
 21
-151.399611
 31
0.0
  0
ENDBLK
  5
700FD
330
700FB
100
AcDbEntity
  8
0
 62
    98
370
     0
100
AcDbBlockEnd
  0
BLOCK
  5
700FF
330
700FE
100
AcDbEntity
  8
0
 62
    98
370
     0
100
AcDbBlockBegin
  2
From Solid_17
 70
     0
 10
0.0
 20
0.0
 30
0.0
  3
From Solid_17
  1

  0
LINE
  5
6FECA
330
700FE
100
AcDbEntity
  8
Level 27
  6
Continuous
 62
    40
370
     0
100
AcDbLine
 10
4194.593119
 20
-199.69961
 30
0.0
 11
4194.593119
 21
-151.39961
 31
0.0
  0
LINE
  5
6FECB
330
700FE
100
AcDbEntity
  8
Level 27
  6
Continuous
 62
    40
370
     0
100
AcDbLine
 10
3841.605354
 20
-199.69961
 30
0.0
 11
3841.605354
 21
-151.39961
 31
0.0
  0
LINE
  5
6FECC
330
700FE
100
AcDbEntity
  8
Level 27
  6
Continuous
 62
    40
370
     0
100
AcDbLine
 10
4194.593119
 20
-175.54961
 30
0.0
 11
3841.605354
 21
-175.54961
 31
0.0
  0
LINE
  5
6FECD
330
700FE
100
AcDbEntity
  8
Level 27
  6
Continuous
 62
    40
370
     0
100
AcDbLine
 10
4194.593119
 20
-199.69961
 30
0.0
 11
3841.605354
 21
-199.69961
 31
0.0
  0
LINE
  5
6FECE
330
700FE
100
AcDbEntity
  8
Level 27
  6
Continuous
 62
    40
370
     0
100
AcDbLine
 10
4194.593119
 20
-175.54961
 30
0.0
 11
3841.605354
 21
-175.54961
 31
0.0
  0
LINE
  5
6FECF
330
700FE
100
AcDbEntity
  8
Level 27
  6
Continuous
 62
    40
370
     0
100
AcDbLine
 10
4194.593119
 20
-151.39961
 30
0.0
 11
3841.605354
 21
-151.39961
 31
0.0
  0
ENDBLK
  5
70100
330
700FE
100
AcDbEntity
  8
0
 62
    98
370
     0
100
AcDbBlockEnd
  0
BLOCK
  5
70102
330
70101
100
AcDbEntity
  8
0
 62
    98
370
     0
100
AcDbBlockBegin
  2
From Surface_4
 70
     0
 10
0.0
 20
0.0
 30
0.0
  3
From Surface_4
  1

  0
LINE
  5
6FED1
330
70101
100
AcDbEntity
  8
Level 27
  6
Continuous
 62
    40
370
     0
100
AcDbLine
 10
4634.320447
 20
-95.54961
 30
0.0
 11
4604.320447
 21
-95.54961
 31
0.0
  0
LINE
  5
6FED2
330
70101
100
AcDbEntity
  8
Level 27
  6
Continuous
 62
    40
370
     0
100
AcDbLine
 10
4626.820447
 20
-165.54961
 30
0.0
 11
4596.820447
 21
-165.54961
 31
0.0
  0
LINE
  5
6FED3
330
70101
100
AcDbEntity
  8
Level 27
  6
Continuous
 62
    40
370
     0
100
AcDbLine
 10
4634.320447
 20
-95.54961
 30
0.0
 11
4626.820447
 21
-165.54961
 31
0.0
  0
LINE
  5
6FED4
330
70101
100
AcDbEntity
  8
Level 27
  6
Continuous
 62
    40
370
     0
100
AcDbLine
 10
4604.320447
 20
-95.54961
 30
0.0
 11
4596.820447
 21
-165.54961
 31
0.0
  0
ENDBLK
  5
70103
330
70101
100
AcDbEntity
  8
0
 62
    98
370
     0
100
AcDbBlockEnd
  0
BLOCK
  5
70105
330
70104
100
AcDbEntity
  8
0
 62
    98
370
     0
100
AcDbBlockBegin
  2
From Surface_5
 70
     0
 10
0.0
 20
0.0
 30
0.0
  3
From Surface_5
  1

  0
LINE
  5
6FED6
330
70104
100
AcDbEntity
  8
Level 27
  6
Continuous
 62
    40
370
     0
100
AcDbLine
 10
4604.320447
 20
-95.54961
 30
0.0
 11
4634.320447
 21
-95.54961
 31
0.0
  0
LINE
  5
6FED7
330
70104
100
AcDbEntity
  8
Level 27
  6
Continuous
 62
    40
370
     0
100
AcDbLine
 10
4611.820447
 20
-165.54961
 30
0.0
 11
4641.820447
 21
-165.54961
 31
0.0
  0
LINE
  5
6FED8
330
70104
100
AcDbEntity
  8
Level 27
  6
Continuous
 62
    40
370
     0
100
AcDbLine
 10
4604.320447
 20
-95.54961
 30
0.0
 11
4611.820447
 21
-165.54961
 31
0.0
  0
LINE
  5
6FED9
330
70104
100
AcDbEntity
  8
Level 27
  6
Continuous
 62
    40
370
     0
100
AcDbLine
 10
4634.320447
 20
-95.54961
 30
0.0
 11
4641.820447
 21
-165.54961
 31
0.0
  0
ENDBLK
  5
70106
330
70104
100
AcDbEntity
  8
0
 62
    98
370
     0
100
AcDbBlockEnd
  0
BLOCK
  5
70108
330
70107
100
AcDbEntity
  8
0
 62
    98
370
     0
100
AcDbBlockBegin
  2
From Surface_6
 70
     0
 10
0.0
 20
0.0
 30
0.0
  3
From Surface_6
  1

  0
POINT
  5
6FEDB
330
70107
100
AcDbEntity
  8
Level 27
  6
Continuous
 62
    40
370
     0
100
AcDbPoint
 10
4604.320447
 20
-95.54961
 30
0.0
  0
POINT
  5
6FEDC
330
70107
100
AcDbEntity
  8
Level 27
  6
Continuous
 62
    40
370
     0
100
AcDbPoint
 10
4611.820447
 20
-165.54961
 30
0.0
  0
LINE
  5
6FEDD
330
70107
100
AcDbEntity
  8
Level 27
  6
Continuous
 62
    40
370
     0
100
AcDbLine
 10
4604.320447
 20
-95.54961
 30
0.0
 11
4611.820447
 21
-165.54961
 31
0.0
  0
LINE
  5
6FEDE
330
70107
100
AcDbEntity
  8
Level 27
  6
Continuous
 62
    40
370
     0
100
AcDbLine
 10
4604.320447
 20
-95.54961
 30
0.0
 11
4611.820447
 21
-165.54961
 31
0.0
  0
ENDBLK
  5
70109
330
70107
100
AcDbEntity
  8
0
 62
    98
370
     0
100
AcDbBlockEnd
  0
BLOCK
  5
7010B
330
7010A
100
AcDbEntity
  8
0
 62
    98
370
     0
100
AcDbBlockBegin
  2
From Surface_7
 70
     0
 10
0.0
 20
0.0
 30
0.0
  3
From Surface_7
  1

  0
POINT
  5
6FEE0
330
7010A
100
AcDbEntity
  8
Level 27
  6
Continuous
 62
    40
370
     0
100
AcDbPoint
 10
4634.320447
 20
-95.54961
 30
0.0
  0
POINT
  5
6FEE1
330
7010A
100
AcDbEntity
  8
Level 27
  6
Continuous
 62
    40
370
     0
100
AcDbPoint
 10
4626.820447
 20
-165.54961
 30
0.0
  0
LINE
  5
6FEE2
330
7010A
100
AcDbEntity
  8
Level 27
  6
Continuous
 62
    40
370
     0
100
AcDbLine
 10
4634.320447
 20
-95.54961
 30
0.0
 11
4626.820447
 21
-165.54961
 31
0.0
  0
LINE
  5
6FEE3
330
7010A
100
AcDbEntity
  8
Level 27
  6
Continuous
 62
    40
370
     0
100
AcDbLine
 10
4634.320447
 20
-95.54961
 30
0.0
 11
4626.820447
 21
-165.54961
 31
0.0
  0
ENDBLK
  5
7010C
330
7010A
100
AcDbEntity
  8
0
 62
    98
370
     0
100
AcDbBlockEnd
  0
BLOCK
  5
7010E
330
7010D
100
AcDbEntity
  8
0
 62
    98
370
     0
100
AcDbBlockBegin
  2
From Solid_18
 70
     0
 10
0.0
 20
0.0
 30
0.0
  3
From Solid_18
  1

  0
LINE
  5
6FEE5
330
7010D
100
AcDbEntity
  8
Level 27
  6
Continuous
 62
    40
370
     0
100
AcDbLine
 10
4707.228768
 20
-160.54961
 30
0.0
 11
4734.128768
 21
-160.54961
 31
0.0
  0
LINE
  5
6FEE6
330
7010D
100
AcDbEntity
  8
Level 27
  6
Continuous
 62
    40
370
     0
100
AcDbLine
 10
4707.228768
 20
367.75039
 30
0.0
 11
4734.128768
 21
367.75039
 31
0.0
  0
LINE
  5
6FEE7
330
7010D
100
AcDbEntity
  8
Level 27
  6
Continuous
 62
    40
370
     0
100
AcDbLine
 10
4720.678768
 20
-160.54961
 30
0.0
 11
4720.678768
 21
367.75039
 31
0.0
  0
LINE
  5
6FEE8
330
7010D
100
AcDbEntity
  8
Level 27
  6
Continuous
 62
    40
370
     0
100
AcDbLine
 10
4707.228768
 20
-160.54961
 30
0.0
 11
4707.228768
 21
367.75039
 31
0.0
  0
LINE
  5
6FEE9
330
7010D
100
AcDbEntity
  8
Level 27
  6
Continuous
 62
    40
370
     0
100
AcDbLine
 10
4720.678768
 20
-160.54961
 30
0.0
 11
4720.678768
 21
367.75039
 31
0.0
  0
LINE
  5
6FEEA
330
7010D
100
AcDbEntity
  8
Level 27
  6
Continuous
 62
    40
370
     0
100
AcDbLine
 10
4734.128768
 20
-160.54961
 30
0.0
 11
4734.128768
 21
367.75039
 31
0.0
  0
ENDBLK
  5
7010F
330
7010D
100
AcDbEntity
  8
0
 62
    98
370
     0
100
AcDbBlockEnd
  0
BLOCK
  5
70111
330
70110
100
AcDbEntity
  8
0
 62
    98
370
     0
100
AcDbBlockBegin
  2
From Solid_19
 70
     0
 10
0.0
 20
0.0
 30
0.0
  3
From Solid_19
  1

  0
LINE
  5
6FEEC
330
70110
100
AcDbEntity
  8
Level 27
  6
Continuous
 62
    40
370
     0
100
AcDbLine
 10
4809.391694
 20
-160.54961
 30
0.0
 11
4836.291694
 21
-160.54961
 31
0.0
  0
LINE
  5
6FEED
330
70110
100
AcDbEntity
  8
Level 27
  6
Continuous
 62
    40
370
     0
100
AcDbLine
 10
4809.391694
 20
367.75039
 30
0.0
 11
4836.291694
 21
367.75039
 31
0.0
  0
LINE
  5
6FEEE
330
70110
100
AcDbEntity
  8
Level 27
  6
Continuous
 62
    40
370
     0
100
AcDbLine
 10
4822.841694
 20
-160.54961
 30
0.0
 11
4822.841694
 21
367.75039
 31
0.0
  0
LINE
  5
6FEEF
330
70110
100
AcDbEntity
  8
Level 27
  6
Continuous
 62
    40
370
     0
100
AcDbLine
 10
4809.391694
 20
-160.54961
 30
0.0
 11
4809.391694
 21
367.75039
 31
0.0
  0
LINE
  5
6FEF0
330
70110
100
AcDbEntity
  8
Level 27
  6
Continuous
 62
    40
370
     0
100
AcDbLine
 10
4822.841694
 20
-160.54961
 30
0.0
 11
4822.841694
 21
367.75039
 31
0.0
  0
LINE
  5
6FEF1
330
70110
100
AcDbEntity
  8
Level 27
  6
Continuous
 62
    40
370
     0
100
AcDbLine
 10
4836.291694
 20
-160.54961
 30
0.0
 11
4836.291694
 21
367.75039
 31
0.0
  0
ENDBLK
  5
70112
330
70110
100
AcDbEntity
  8
0
 62
    98
370
     0
100
AcDbBlockEnd
  0
BLOCK
  5
70114
330
70113
100
AcDbEntity
  8
0
 62
    98
370
     0
100
AcDbBlockBegin
  2
From Solid_20
 70
     0
 10
0.0
 20
0.0
 30
0.0
  3
From Solid_20
  1

  0
LINE
  5
6FEF3
330
70113
100
AcDbEntity
  8
Level 27
  6
Continuous
 62
    40
370
     0
100
AcDbLine
 10
4911.55462
 20
-160.54961
 30
0.0
 11
4938.45462
 21
-160.54961
 31
0.0
  0
LINE
  5
6FEF4
330
70113
100
AcDbEntity
  8
Level 27
  6
Continuous
 62
    40
370
     0
100
AcDbLine
 10
4911.55462
 20
367.75039
 30
0.0
 11
4938.45462
 21
367.75039
 31
0.0
  0
LINE
  5
6FEF5
330
70113
100
AcDbEntity
  8
Level 27
  6
Continuous
 62
    40
370
     0
100
AcDbLine
 10
4925.00462
 20
-160.54961
 30
0.0
 11
4925.00462
 21
367.75039
 31
0.0
  0
LINE
  5
6FEF6
330
70113
100
AcDbEntity
  8
Level 27
  6
Continuous
 62
    40
370
     0
100
AcDbLine
 10
4911.55462
 20
-160.54961
 30
0.0
 11
4911.55462
 21
367.75039
 31
0.0
  0
LINE
  5
6FEF7
330
70113
100
AcDbEntity
  8
Level 27
  6
Continuous
 62
    40
370
     0
100
AcDbLine
 10
4925.00462
 20
-160.54961
 30
0.0
 11
4925.00462
 21
367.75039
 31
0.0
  0
LINE
  5
6FEF8
330
70113
100
AcDbEntity
  8
Level 27
  6
Continuous
 62
    40
370
     0
100
AcDbLine
 10
4938.45462
 20
-160.54961
 30
0.0
 11
4938.45462
 21
367.75039
 31
0.0
  0
ENDBLK
  5
70115
330
70113
100
AcDbEntity
  8
0
 62
    98
370
     0
100
AcDbBlockEnd
  0
BLOCK
  5
70117
330
70116
100
AcDbEntity
  8
0
 62
    98
370
     0
100
AcDbBlockBegin
  2
From Solid_21
 70
     0
 10
0.0
 20
0.0
 30
0.0
  3
From Solid_21
  1

  0
ELLIPSE
  5
6FF0E
330
70116
100
AcDbEntity
  8
Level 27
  6
Continuous
 62
    40
370
     0
100
AcDbEllipse
 10
5079.745788
 20
-175.54961
 30
0.0
 11
0.0
 21
-24.15000003769617
 31
0.0
210
0.0
220
0.0
230
1.0
 40
0.9396926279328038
 41
0.0
 42
6.283185307179586
  0
ELLIPSE
  5
6FF0F
330
70116
100
AcDbEntity
  8
Level 27
  6
Continuous
 62
    40
370
     0
100
AcDbEllipse
 10
4307.356234
 20
-175.54961
 30
0.0
 11
0.0
 21
-24.15000003769617
 31
0.0
210
0.0
220
0.0
230
1.0
 40
0.9396926279328038
 41
0.0
 42
6.283185307179586
  0
LINE
  5
6FF10
330
70116
100
AcDbEntity
  8
Level 27
  6
Continuous
 62
    40
370
     0
100
AcDbLine
 10
5057.052211
 20
-175.54961
 30
0.0
 11
4284.662657
 21
-175.54961
 31
0.0
  0
LINE
  5
6FF11
330
70116
100
AcDbEntity
  8
Level 27
  6
Continuous
 62
    40
370
     0
100
AcDbLine
 10
5079.745788
 20
-151.39961
 30
0.0
 11
4307.356234
 21
-151.39961
 31
0.0
  0
LINE
  5
6FF12
330
70116
100
AcDbEntity
  8
Level 27
  6
Continuous
 62
    40
370
     0
100
AcDbLine
 10
5102.439365
 20
-175.54961
 30
0.0
 11
4330.049811
 21
-175.54961
 31
0.0
  0
LINE
  5
6FF13
330
70116
100
AcDbEntity
  8
Level 27
  6
Continuous
 62
    40
370
     0
100
AcDbLine
 10
5079.745788
 20
-199.69961
 30
0.0
 11
4307.356234
 21
-199.69961
 31
0.0
  0
ENDBLK
  5
70118
330
70116
100
AcDbEntity
  8
0
 62
    98
370
     0
100
AcDbBlockEnd
  0
BLOCK
  5
7011A
330
70119
100
AcDbEntity
  8
0
 62
    98
370
     0
100
AcDbBlockBegin
  2
From Solid_22
 70
     0
 10
0.0
 20
0.0
 30
0.0
  3
From Solid_22
  1

  0
LINE
  5
6FF15
330
70119
100
AcDbEntity
  8
Level 27
  6
Continuous
 62
    40
370
     0
100
AcDbLine
 10
4006.010701
 20
406.90039
 30
0.0
 11
4006.010701
 21
358.60039
 31
0.0
  0
LINE
  5
6FF16
330
70119
100
AcDbEntity
  8
Level 27
  6
Continuous
 62
    40
370
     0
100
AcDbLine
 10
4510.376225
 20
406.90039
 30
0.0
 11
4510.376225
 21
358.60039
 31
0.0
  0
LINE
  5
6FF17
330
70119
100
AcDbEntity
  8
Level 27
  6
Continuous
 62
    40
370
     0
100
AcDbLine
 10
4006.010701
 20
382.75039
 30
0.0
 11
4510.376225
 21
382.75039
 31
0.0
  0
LINE
  5
6FF18
330
70119
100
AcDbEntity
  8
Level 27
  6
Continuous
 62
    40
370
     0
100
AcDbLine
 10
4006.010701
 20
406.90039
 30
0.0
 11
4510.376225
 21
406.90039
 31
0.0
  0
LINE
  5
6FF19
330
70119
100
AcDbEntity
  8
Level 27
  6
Continuous
 62
    40
370
     0
100
AcDbLine
 10
4006.010701
 20
382.75039
 30
0.0
 11
4510.376225
 21
382.75039
 31
0.0
  0
LINE
  5
6FF1A
330
70119
100
AcDbEntity
  8
Level 27
  6
Continuous
 62
    40
370
     0
100
AcDbLine
 10
4006.010701
 20
358.60039
 30
0.0
 11
4510.376225
 21
358.60039
 31
0.0
  0
ENDBLK
  5
7011B
330
70119
100
AcDbEntity
  8
0
 62
    98
370
     0
100
AcDbBlockEnd
  0
BLOCK
  5
7011D
330
7011C
100
AcDbEntity
  8
0
 62
    98
370
     0
100
AcDbBlockBegin
  2
From Solid_23
 70
     0
 10
0.0
 20
0.0
 30
0.0
  3
From Solid_23
  1

  0
LINE
  5
6FF1C
330
7011C
100
AcDbEntity
  8
Level 27
  6
Continuous
 62
    40
370
     0
100
AcDbLine
 10
4006.010701
 20
-199.69961
 30
0.0
 11
4006.010701
 21
-151.39961
 31
0.0
  0
LINE
  5
6FF1D
330
7011C
100
AcDbEntity
  8
Level 27
  6
Continuous
 62
    40
370
     0
100
AcDbLine
 10
4510.376225
 20
-199.69961
 30
0.0
 11
4510.376225
 21
-151.39961
 31
0.0
  0
LINE
  5
6FF1E
330
7011C
100
AcDbEntity
  8
Level 27
  6
Continuous
 62
    40
370
     0
100
AcDbLine
 10
4006.010701
 20
-175.54961
 30
0.0
 11
4510.376225
 21
-175.54961
 31
0.0
  0
LINE
  5
6FF1F
330
7011C
100
AcDbEntity
  8
Level 27
  6
Continuous
 62
    40
370
     0
100
AcDbLine
 10
4006.010701
 20
-199.69961
 30
0.0
 11
4510.376225
 21
-199.69961
 31
0.0
  0
LINE
  5
6FF20
330
7011C
100
AcDbEntity
  8
Level 27
  6
Continuous
 62
    40
370
     0
100
AcDbLine
 10
4006.010701
 20
-175.54961
 30
0.0
 11
4510.376225
 21
-175.54961
 31
0.0
  0
LINE
  5
6FF21
330
7011C
100
AcDbEntity
  8
Level 27
  6
Continuous
 62
    40
370
     0
100
AcDbLine
 10
4006.010701
 20
-151.39961
 30
0.0
 11
4510.376225
 21
-151.39961
 31
0.0
  0
ENDBLK
  5
7011E
330
7011C
100
AcDbEntity
  8
0
 62
    98
370
     0
100
AcDbBlockEnd
  0
BLOCK
  5
70120
330
7011F
100
AcDbEntity
  8
0
 62
    98
370
     0
100
AcDbBlockBegin
  2
Smart Solid_1
 70
     0
 10
0.0
 20
0.0
 30
0.0
  3
Smart Solid_1
  1

  0
POINT
  5
6FF23
330
7011F
100
AcDbEntity
  8
Level 26
  6
Continuous
 62
   253
370
     0
100
AcDbPoint
 10
248.9995
 20
-140.0
 30
0.0
  0
POINT
  5
6FF24
330
7011F
100
AcDbEntity
  8
Level 26
  6
Continuous
 62
   253
370
     0
100
AcDbPoint
 10
248.9995
 20
140.0
 30
0.0
  0
POINT
  5
6FF25
330
7011F
100
AcDbEntity
  8
Level 26
  6
Continuous
 62
   253
370
     0
100
AcDbPoint
 10
-249.0005
 20
140.0
 30
0.0
  0
POINT
  5
6FF26
330
7011F
100
AcDbEntity
  8
Level 26
  6
Continuous
 62
   253
370
     0
100
AcDbPoint
 10
-249.0005
 20
-140.0
 30
0.0
  0
LINE
  5
6FF27
330
7011F
100
AcDbEntity
  8
Level 26
  6
Continuous
 62
   253
370
     0
100
AcDbLine
 10
-249.0005
 20
137.0
 30
0.0
 11
-249.0005
 21
-137.0
 31
0.0
  0
LINE
  5
6FF28
330
7011F
100
AcDbEntity
  8
Level 26
  6
Continuous
 62
   253
370
     0
100
AcDbLine
 10
248.9995
 20
-137.0
 30
0.0
 11
248.9995
 21
137.0
 31
0.0
  0
LINE
  5
6FF29
330
7011F
100
AcDbEntity
  8
Level 26
  6
Continuous
 62
   253
370
     0
100
AcDbLine
 10
-249.0005
 20
140.0
 30
0.0
 11
-249.0005
 21
-140.0
 31
0.0
  0
LINE
  5
6FF2A
330
7011F
100
AcDbEntity
  8
Level 26
  6
Continuous
 62
   253
370
     0
100
AcDbLine
 10
248.9995
 20
140.0
 30
0.0
 11
-249.0005
 21
140.0
 31
0.0
  0
LINE
  5
6FF2B
330
7011F
100
AcDbEntity
  8
Level 26
  6
Continuous
 62
   253
370
     0
100
AcDbLine
 10
248.9995
 20
-140.0
 30
0.0
 11
248.9995
 21
140.0
 31
0.0
  0
LINE
  5
6FF2C
330
7011F
100
AcDbEntity
  8
Level 26
  6
Continuous
 62
   253
370
     0
100
AcDbLine
 10
-249.0005
 20
-140.0
 30
0.0
 11
248.9995
 21
-140.0
 31
0.0
  0
LINE
  5
6FF2D
330
7011F
100
AcDbEntity
  8
Level 26
  6
Continuous
 62
   253
370
     0
100
AcDbLine
 10
-249.0005
 20
137.0
 30
0.0
 11
248.9995
 21
137.0
 31
0.0
  0
LINE
  5
6FF2E
330
7011F
100
AcDbEntity
  8
Level 26
  6
Continuous
 62
   253
370
     0
100
AcDbLine
 10
248.9995
 20
107.0
 30
0.0
 11
-249.0005
 21
107.0
 31
0.0
  0
LINE
  5
6FF2F
330
7011F
100
AcDbEntity
  8
Level 26
  6
Continuous
 62
   253
370
     0
100
AcDbLine
 10
248.9995
 20
107.0
 30
0.0
 11
-249.0005
 21
107.0
 31
0.0
  0
LINE
  5
6FF30
330
7011F
100
AcDbEntity
  8
Level 26
  6
Continuous
 62
   253
370
     0
100
AcDbLine
 10
248.9995
 20
137.0
 30
0.0
 11
-249.0005
 21
137.0
 31
0.0
  0
LINE
  5
6FF31
330
7011F
100
AcDbEntity
  8
Level 26
  6
Continuous
 62
   253
370
     0
100
AcDbLine
 10
248.9995
 20
107.0
 30
0.0
 11
248.9995
 21
137.0
 31
0.0
  0
POINT
  5
6FF32
330
7011F
100
AcDbEntity
  8
Level 26
  6
Continuous
 62
   253
370
     0
100
AcDbPoint
 10
248.9995
 20
107.0
 30
0.0
  0
LINE
  5
6FF33
330
7011F
100
AcDbEntity
  8
Level 26
  6
Continuous
 62
   253
370
     0
100
AcDbLine
 10
248.9995
 20
140.0
 30
0.0
 11
248.9995
 21
107.0
 31
0.0
  0
LINE
  5
6FF34
330
7011F
100
AcDbEntity
  8
Level 26
  6
Continuous
 62
   253
370
     0
100
AcDbLine
 10
-249.0005
 20
107.0
 30
0.0
 11
-249.0005
 21
137.0
 31
0.0
  0
POINT
  5
6FF35
330
7011F
100
AcDbEntity
  8
Level 26
  6
Continuous
 62
   253
370
     0
100
AcDbPoint
 10
-249.0005
 20
107.0
 30
0.0
  0
LINE
  5
6FF36
330
7011F
100
AcDbEntity
  8
Level 26
  6
Continuous
 62
   253
370
     0
100
AcDbLine
 10
-249.0005
 20
140.0
 30
0.0
 11
-249.0005
 21
107.0
 31
0.0
  0
POINT
  5
6FF37
330
7011F
100
AcDbEntity
  8
Level 26
  6
Continuous
 62
   253
370
     0
100
AcDbPoint
 10
-249.0005
 20
137.0
 30
0.0
  0
POINT
  5
6FF38
330
7011F
100
AcDbEntity
  8
Level 26
  6
Continuous
 62
   253
370
     0
100
AcDbPoint
 10
248.9995
 20
137.0
 30
0.0
  0
LINE
  5
6FF39
330
7011F
100
AcDbEntity
  8
Level 26
  6
Continuous
 62
   253
370
     0
100
AcDbLine
 10
-249.0005
 20
140.0
 30
0.0
 11
248.9995
 21
140.0
 31
0.0
  0
LINE
  5
6FF3A
330
7011F
100
AcDbEntity
  8
Level 26
  6
Continuous
 62
   253
370
     0
100
AcDbLine
 10
-249.0005
 20
-137.0
 30
0.0
 11
248.9995
 21
-137.0
 31
0.0
  0
LINE
  5
6FF3B
330
7011F
100
AcDbEntity
  8
Level 26
  6
Continuous
 62
   253
370
     0
100
AcDbLine
 10
248.9995
 20
-107.0
 30
0.0
 11
248.9995
 21
-140.0
 31
0.0
  0
LINE
  5
6FF3C
330
7011F
100
AcDbEntity
  8
Level 26
  6
Continuous
 62
   253
370
     0
100
AcDbLine
 10
-249.0005
 20
-107.0
 30
0.0
 11
-249.0005
 21
-140.0
 31
0.0
  0
POINT
  5
6FF3D
330
7011F
100
AcDbEntity
  8
Level 26
  6
Continuous
 62
   253
370
     0
100
AcDbPoint
 10
-249.0005
 20
-137.0
 30
0.0
  0
POINT
  5
6FF3E
330
7011F
100
AcDbEntity
  8
Level 26
  6
Continuous
 62
   253
370
     0
100
AcDbPoint
 10
248.9995
 20
-137.0
 30
0.0
  0
LINE
  5
6FF3F
330
7011F
100
AcDbEntity
  8
Level 26
  6
Continuous
 62
   253
370
     0
100
AcDbLine
 10
-249.0005
 20
-140.0
 30
0.0
 11
248.9995
 21
-140.0
 31
0.0
  0
LINE
  5
6FF40
330
7011F
100
AcDbEntity
  8
Level 26
  6
Continuous
 62
   253
370
     0
100
AcDbLine
 10
248.9995
 20
-107.0
 30
0.0
 11
-249.0005
 21
-107.0
 31
0.0
  0
LINE
  5
6FF41
330
7011F
100
AcDbEntity
  8
Level 26
  6
Continuous
 62
   253
370
     0
100
AcDbLine
 10
248.9995
 20
-107.0
 30
0.0
 11
-249.0005
 21
-107.0
 31
0.0
  0
LINE
  5
6FF42
330
7011F
100
AcDbEntity
  8
Level 26
  6
Continuous
 62
   253
370
     0
100
AcDbLine
 10
248.9995
 20
-137.0
 30
0.0
 11
-249.0005
 21
-137.0
 31
0.0
  0
LINE
  5
6FF43
330
7011F
100
AcDbEntity
  8
Level 26
  6
Continuous
 62
   253
370
     0
100
AcDbLine
 10
248.9995
 20
-107.0
 30
0.0
 11
248.9995
 21
-137.0
 31
0.0
  0
POINT
  5
6FF44
330
7011F
100
AcDbEntity
  8
Level 26
  6
Continuous
 62
   253
370
     0
100
AcDbPoint
 10
248.9995
 20
-107.0
 30
0.0
  0
LINE
  5
6FF45
330
7011F
100
AcDbEntity
  8
Level 26
  6
Continuous
 62
   253
370
     0
100
AcDbLine
 10
-249.0005
 20
-107.0
 30
0.0
 11
-249.0005
 21
-137.0
 31
0.0
  0
POINT
  5
6FF46
330
7011F
100
AcDbEntity
  8
Level 26
  6
Continuous
 62
   253
370
     0
100
AcDbPoint
 10
-249.0005
 20
-107.0
 30
0.0
  0
LINE
  5
6FF47
330
7011F
100
AcDbEntity
  8
Level 26
  6
Continuous
 62
   253
370
     0
100
AcDbLine
 10
-142.8505
 20
-137.0
 30
0.0
 11
-126.8505
 21
-137.0
 31
0.0
  0
LINE
  5
6FF48
330
7011F
100
AcDbEntity
  8
Level 26
  6
Continuous
 62
   253
370
     0
100
AcDbLine
 10
-142.8505
 20
-140.0
 30
0.0
 11
-126.8505
 21
-140.0
 31
0.0
  0
LINE
  5
6FF49
330
7011F
100
AcDbEntity
  8
Level 26
  6
Continuous
 62
   253
370
     0
100
AcDbLine
 10
-142.8505
 20
140.0
 30
0.0
 11
-126.8505
 21
140.0
 31
0.0
  0
LINE
  5
6FF4A
330
7011F
100
AcDbEntity
  8
Level 26
  6
Continuous
 62
   253
370
     0
100
AcDbLine
 10
-142.8505
 20
137.0
 30
0.0
 11
-126.8505
 21
137.0
 31
0.0
  0
LINE
  5
6FF4B
330
7011F
100
AcDbEntity
  8
Level 26
  6
Continuous
 62
   253
370
     0
100
AcDbLine
 10
127.1495
 20
-137.0
 30
0.0
 11
143.1495
 21
-137.0
 31
0.0
  0
LINE
  5
6FF4C
330
7011F
100
AcDbEntity
  8
Level 26
  6
Continuous
 62
   253
370
     0
100
AcDbLine
 10
127.1495
 20
-140.0
 30
0.0
 11
143.1495
 21
-140.0
 31
0.0
  0
LINE
  5
6FF4D
330
7011F
100
AcDbEntity
  8
Level 26
  6
Continuous
 62
   253
370
     0
100
AcDbLine
 10
127.1495
 20
140.0
 30
0.0
 11
143.1495
 21
140.0
 31
0.0
  0
LINE
  5
6FF4E
330
7011F
100
AcDbEntity
  8
Level 26
  6
Continuous
 62
   253
370
     0
100
AcDbLine
 10
127.1495
 20
137.0
 30
0.0
 11
143.1495
 21
137.0
 31
0.0
  0
LINE
  5
6FF4F
330
7011F
100
AcDbEntity
  8
Level 26
  6
Continuous
 62
   253
370
     0
100
AcDbLine
 10
-142.8505
 20
140.0
 30
0.0
 11
-142.8505
 21
137.0
 31
0.0
  0
LINE
  5
6FF50
330
7011F
100
AcDbEntity
  8
Level 26
  6
Continuous
 62
   253
370
     0
100
AcDbLine
 10
-134.8505
 20
140.0
 30
0.0
 11
-134.8505
 21
137.0
 31
0.0
  0
LINE
  5
6FF51
330
7011F
100
AcDbEntity
  8
Level 26
  6
Continuous
 62
   253
370
     0
100
AcDbLine
 10
-126.8505
 20
140.0
 30
0.0
 11
-126.8505
 21
137.0
 31
0.0
  0
LINE
  5
6FF52
330
7011F
100
AcDbEntity
  8
Level 26
  6
Continuous
 62
   253
370
     0
100
AcDbLine
 10
-134.8505
 20
140.0
 30
0.0
 11
-134.8505
 21
137.0
 31
0.0
  0
LINE
  5
6FF53
330
7011F
100
AcDbEntity
  8
Level 26
  6
Continuous
 62
   253
370
     0
100
AcDbLine
 10
-142.8505
 20
-137.0
 30
0.0
 11
-142.8505
 21
-140.0
 31
0.0
  0
LINE
  5
6FF54
330
7011F
100
AcDbEntity
  8
Level 26
  6
Continuous
 62
   253
370
     0
100
AcDbLine
 10
-134.8505
 20
-137.0
 30
0.0
 11
-134.8505
 21
-140.0
 31
0.0
  0
LINE
  5
6FF55
330
7011F
100
AcDbEntity
  8
Level 26
  6
Continuous
 62
   253
370
     0
100
AcDbLine
 10
-126.8505
 20
-137.0
 30
0.0
 11
-126.8505
 21
-140.0
 31
0.0
  0
LINE
  5
6FF56
330
7011F
100
AcDbEntity
  8
Level 26
  6
Continuous
 62
   253
370
     0
100
AcDbLine
 10
-134.8505
 20
-137.0
 30
0.0
 11
-134.8505
 21
-140.0
 31
0.0
  0
LINE
  5
6FF57
330
7011F
100
AcDbEntity
  8
Level 26
  6
Continuous
 62
   253
370
     0
100
AcDbLine
 10
127.1495
 20
140.0
 30
0.0
 11
127.1495
 21
137.0
 31
0.0
  0
LINE
  5
6FF58
330
7011F
100
AcDbEntity
  8
Level 26
  6
Continuous
 62
   253
370
     0
100
AcDbLine
 10
135.1495
 20
140.0
 30
0.0
 11
135.1495
 21
137.0
 31
0.0
  0
LINE
  5
6FF59
330
7011F
100
AcDbEntity
  8
Level 26
  6
Continuous
 62
   253
370
     0
100
AcDbLine
 10
143.1495
 20
140.0
 30
0.0
 11
143.1495
 21
137.0
 31
0.0
  0
LINE
  5
6FF5A
330
7011F
100
AcDbEntity
  8
Level 26
  6
Continuous
 62
   253
370
     0
100
AcDbLine
 10
135.1495
 20
140.0
 30
0.0
 11
135.1495
 21
137.0
 31
0.0
  0
LINE
  5
6FF5B
330
7011F
100
AcDbEntity
  8
Level 26
  6
Continuous
 62
   253
370
     0
100
AcDbLine
 10
127.1495
 20
-137.0
 30
0.0
 11
127.1495
 21
-140.0
 31
0.0
  0
LINE
  5
6FF5C
330
7011F
100
AcDbEntity
  8
Level 26
  6
Continuous
 62
   253
370
     0
100
AcDbLine
 10
135.1495
 20
-137.0
 30
0.0
 11
135.1495
 21
-140.0
 31
0.0
  0
LINE
  5
6FF5D
330
7011F
100
AcDbEntity
  8
Level 26
  6
Continuous
 62
   253
370
     0
100
AcDbLine
 10
143.1495
 20
-137.0
 30
0.0
 11
143.1495
 21
-140.0
 31
0.0
  0
LINE
  5
6FF5E
330
7011F
100
AcDbEntity
  8
Level 26
  6
Continuous
 62
   253
370
     0
100
AcDbLine
 10
135.1495
 20
-137.0
 30
0.0
 11
135.1495
 21
-140.0
 31
0.0
  0
ENDBLK
  5
70121
330
7011F
100
AcDbEntity
  8
0
 62
    98
370
     0
100
AcDbBlockEnd
  0
BLOCK
  5
70123
330
70122
100
AcDbEntity
  8
0
 62
    98
370
     0
100
AcDbBlockBegin
  2
Smart Solid_2
 70
     0
 10
0.0
 20
0.0
 30
0.0
  3
Smart Solid_2
  1

  0
LINE
  5
6FF61
330
70122
100
AcDbEntity
  8
Level 26
  6
Continuous
 62
   253
370
     0
100
AcDbLine
 10
2.9995
 20
-42.250232
 30
0.0
 11
2.9995
 21
-28.655615
 31
0.0
  0
LINE
  5
6FF62
330
70122
100
AcDbEntity
  8
Level 26
  6
Continuous
 62
   253
370
     0
100
AcDbLine
 10
2.9995
 20
-28.655615
 30
0.0
 11
-3.0005
 21
-28.655615
 31
0.0
  0
LINE
  5
6FF63
330
70122
100
AcDbEntity
  8
Level 26
  6
Continuous
 62
   253
370
     0
100
AcDbLine
 10
-3.0005
 20
-42.250232
 30
0.0
 11
-3.0005
 21
-28.655615
 31
0.0
  0
LINE
  5
6FF64
330
70122
100
AcDbEntity
  8
Level 26
  6
Continuous
 62
   253
370
     0
100
AcDbLine
 10
2.9995
 20
-42.250232
 30
0.0
 11
-3.0005
 21
-42.250232
 31
0.0
  0
LINE
  5
6FF65
330
70122
100
AcDbEntity
  8
Level 26
  6
Continuous
 62
   253
370
     0
100
AcDbLine
 10
2.9995
 20
-90.938553
 30
0.0
 11
-3.0005
 21
-90.938553
 31
0.0
  0
LINE
  5
6FF66
330
70122
100
AcDbEntity
  8
Level 26
  6
Continuous
 62
   253
370
     0
100
AcDbLine
 10
2.9995
 20
-140.0
 30
0.0
 11
-3.0005
 21
-140.0
 31
0.0
  0
POINT
  5
6FF67
330
70122
100
AcDbEntity
  8
Level 26
  6
Continuous
 62
   253
370
     0
100
AcDbPoint
 10
-3.0005
 20
-140.0
 30
0.0
  0
LINE
  5
6FF68
330
70122
100
AcDbEntity
  8
Level 26
  6
Continuous
 62
   253
370
     0
100
AcDbLine
 10
-3.0005
 20
-90.938553
 30
0.0
 11
-3.0005
 21
-140.0
 31
0.0
  0
LINE
  5
6FF69
330
70122
100
AcDbEntity
  8
Level 26
  6
Continuous
 62
   253
370
     0
100
AcDbLine
 10
2.9995
 20
-140.0
 30
0.0
 11
-3.0005
 21
-140.0
 31
0.0
  0
LINE
  5
6FF6A
330
70122
100
AcDbEntity
  8
Level 26
  6
Continuous
 62
   253
370
     0
100
AcDbLine
 10
-3.0005
 20
-140.0
 30
0.0
 11
-3.0005
 21
140.0
 31
0.0
  0
LINE
  5
6FF6B
330
70122
100
AcDbEntity
  8
Level 26
  6
Continuous
 62
   253
370
     0
100
AcDbLine
 10
2.9995
 20
-140.0
 30
0.0
 11
2.9995
 21
140.0
 31
0.0
  0
POINT
  5
6FF6C
330
70122
100
AcDbEntity
  8
Level 26
  6
Continuous
 62
   253
370
     0
100
AcDbPoint
 10
2.9995
 20
-140.0
 30
0.0
  0
LINE
  5
6FF6D
330
70122
100
AcDbEntity
  8
Level 26
  6
Continuous
 62
   253
370
     0
100
AcDbLine
 10
2.9995
 20
-90.938553
 30
0.0
 11
2.9995
 21
-140.0
 31
0.0
  0
LINE
  5
6FF6E
330
70122
100
AcDbEntity
  8
Level 26
  6
Continuous
 62
   253
370
     0
100
AcDbLine
 10
2.9995
 20
95.0
 30
0.0
 11
2.9995
 21
110.0
 31
0.0
  0
LINE
  5
6FF6F
330
70122
100
AcDbEntity
  8
Level 26
  6
Continuous
 62
   253
370
     0
100
AcDbLine
 10
2.9995
 20
110.0
 30
0.0
 11
-3.0005
 21
110.0
 31
0.0
  0
LINE
  5
6FF70
330
70122
100
AcDbEntity
  8
Level 26
  6
Continuous
 62
   253
370
     0
100
AcDbLine
 10
-3.0005
 20
95.0
 30
0.0
 11
-3.0005
 21
110.0
 31
0.0
  0
LINE
  5
6FF71
330
70122
100
AcDbEntity
  8
Level 26
  6
Continuous
 62
   253
370
     0
100
AcDbLine
 10
2.9995
 20
95.0
 30
0.0
 11
-3.0005
 21
95.0
 31
0.0
  0
LINE
  5
6FF72
330
70122
100
AcDbEntity
  8
Level 26
  6
Continuous
 62
   253
370
     0
100
AcDbLine
 10
2.9995
 20
140.0
 30
0.0
 11
2.9995
 21
110.0
 31
0.0
  0
LINE
  5
6FF73
330
70122
100
AcDbEntity
  8
Level 26
  6
Continuous
 62
   253
370
     0
100
AcDbLine
 10
2.9995
 20
-28.655615
 30
0.0
 11
2.9995
 21
95.0
 31
0.0
  0
LINE
  5
6FF74
330
70122
100
AcDbEntity
  8
Level 26
  6
Continuous
 62
   253
370
     0
100
AcDbLine
 10
-3.0005
 20
140.0
 30
0.0
 11
2.9995
 21
140.0
 31
0.0
  0
POINT
  5
6FF75
330
70122
100
AcDbEntity
  8
Level 26
  6
Continuous
 62
   253
370
     0
100
AcDbPoint
 10
-3.0005
 20
140.0
 30
0.0
  0
POINT
  5
6FF76
330
70122
100
AcDbEntity
  8
Level 26
  6
Continuous
 62
   253
370
     0
100
AcDbPoint
 10
2.9995
 20
140.0
 30
0.0
  0
LINE
  5
6FF77
330
70122
100
AcDbEntity
  8
Level 26
  6
Continuous
 62
   253
370
     0
100
AcDbLine
 10
-3.0005
 20
95.0
 30
0.0
 11
-3.0005
 21
-28.655615
 31
0.0
  0
LINE
  5
6FF78
330
70122
100
AcDbEntity
  8
Level 26
  6
Continuous
 62
   253
370
     0
100
AcDbLine
 10
-3.0005
 20
140.0
 30
0.0
 11
-3.0005
 21
110.0
 31
0.0
  0
POINT
  5
6FF79
330
70122
100
AcDbEntity
  8
Level 26
  6
Continuous
 62
   253
370
     0
100
AcDbPoint
 10
-3.0005
 20
110.0
 30
0.0
  0
POINT
  5
6FF7A
330
70122
100
AcDbEntity
  8
Level 26
  6
Continuous
 62
   253
370
     0
100
AcDbPoint
 10
2.9995
 20
110.0
 30
0.0
  0
LINE
  5
6FF7B
330
70122
100
AcDbEntity
  8
Level 26
  6
Continuous
 62
   253
370
     0
100
AcDbLine
 10
-3.0005
 20
110.0
 30
0.0
 11
2.9995
 21
110.0
 31
0.0
  0
LINE
  5
6FF7C
330
70122
100
AcDbEntity
  8
Level 26
  6
Continuous
 62
   253
370
     0
100
AcDbLine
 10
-3.0005
 20
140.0
 30
0.0
 11
2.9995
 21
140.0
 31
0.0
  0
LINE
  5
6FF7D
330
70122
100
AcDbEntity
  8
Level 26
  6
Continuous
 62
   253
370
     0
100
AcDbLine
 10
2.9995
 20
-90.938553
 30
0.0
 11
2.9995
 21
-42.250232
 31
0.0
  0
LINE
  5
6FF7E
330
70122
100
AcDbEntity
  8
Level 26
  6
Continuous
 62
   253
370
     0
100
AcDbLine
 10
-3.0005
 20
-42.250232
 30
0.0
 11
-3.0005
 21
-90.938553
 31
0.0
  0
ENDBLK
  5
70124
330
70122
100
AcDbEntity
  8
0
 62
    98
370
     0
100
AcDbBlockEnd
  0
BLOCK
  5
70126
330
70125
100
AcDbEntity
  8
0
 62
    98
370
     0
100
AcDbBlockBegin
  2
Smart Solid_3
 70
     0
 10
0.0
 20
0.0
 30
0.0
  3
Smart Solid_3
  1

  0
LINE
  5
6FF81
330
70125
100
AcDbEntity
  8
Level 26
  6
Continuous
 62
   253
370
     0
100
AcDbLine
 10
2.9995
 20
-42.250232
 30
0.0
 11
2.9995
 21
-28.655615
 31
0.0
  0
LINE
  5
6FF82
330
70125
100
AcDbEntity
  8
Level 26
  6
Continuous
 62
   253
370
     0
100
AcDbLine
 10
2.9995
 20
-28.655615
 30
0.0
 11
-3.0005
 21
-28.655615
 31
0.0
  0
LINE
  5
6FF83
330
70125
100
AcDbEntity
  8
Level 26
  6
Continuous
 62
   253
370
     0
100
AcDbLine
 10
-3.0005
 20
-42.250232
 30
0.0
 11
-3.0005
 21
-28.655615
 31
0.0
  0
LINE
  5
6FF84
330
70125
100
AcDbEntity
  8
Level 26
  6
Continuous
 62
   253
370
     0
100
AcDbLine
 10
2.9995
 20
-42.250232
 30
0.0
 11
-3.0005
 21
-42.250232
 31
0.0
  0
LINE
  5
6FF85
330
70125
100
AcDbEntity
  8
Level 26
  6
Continuous
 62
   253
370
     0
100
AcDbLine
 10
2.9995
 20
-90.938553
 30
0.0
 11
-3.0005
 21
-90.938553
 31
0.0
  0
LINE
  5
6FF86
330
70125
100
AcDbEntity
  8
Level 26
  6
Continuous
 62
   253
370
     0
100
AcDbLine
 10
2.9995
 20
-140.0
 30
0.0
 11
-3.0005
 21
-140.0
 31
0.0
  0
POINT
  5
6FF87
330
70125
100
AcDbEntity
  8
Level 26
  6
Continuous
 62
   253
370
     0
100
AcDbPoint
 10
-3.0005
 20
-140.0
 30
0.0
  0
LINE
  5
6FF88
330
70125
100
AcDbEntity
  8
Level 26
  6
Continuous
 62
   253
370
     0
100
AcDbLine
 10
-3.0005
 20
-90.938553
 30
0.0
 11
-3.0005
 21
-140.0
 31
0.0
  0
LINE
  5
6FF89
330
70125
100
AcDbEntity
  8
Level 26
  6
Continuous
 62
   253
370
     0
100
AcDbLine
 10
2.9995
 20
-140.0
 30
0.0
 11
-3.0005
 21
-140.0
 31
0.0
  0
LINE
  5
6FF8A
330
70125
100
AcDbEntity
  8
Level 26
  6
Continuous
 62
   253
370
     0
100
AcDbLine
 10
-3.0005
 20
-140.0
 30
0.0
 11
-3.0005
 21
140.0
 31
0.0
  0
LINE
  5
6FF8B
330
70125
100
AcDbEntity
  8
Level 26
  6
Continuous
 62
   253
370
     0
100
AcDbLine
 10
2.9995
 20
-140.0
 30
0.0
 11
2.9995
 21
140.0
 31
0.0
  0
POINT
  5
6FF8C
330
70125
100
AcDbEntity
  8
Level 26
  6
Continuous
 62
   253
370
     0
100
AcDbPoint
 10
2.9995
 20
-140.0
 30
0.0
  0
LINE
  5
6FF8D
330
70125
100
AcDbEntity
  8
Level 26
  6
Continuous
 62
   253
370
     0
100
AcDbLine
 10
2.9995
 20
-90.938553
 30
0.0
 11
2.9995
 21
-140.0
 31
0.0
  0
LINE
  5
6FF8E
330
70125
100
AcDbEntity
  8
Level 26
  6
Continuous
 62
   253
370
     0
100
AcDbLine
 10
2.9995
 20
95.0
 30
0.0
 11
2.9995
 21
110.0
 31
0.0
  0
LINE
  5
6FF8F
330
70125
100
AcDbEntity
  8
Level 26
  6
Continuous
 62
   253
370
     0
100
AcDbLine
 10
2.9995
 20
110.0
 30
0.0
 11
-3.0005
 21
110.0
 31
0.0
  0
LINE
  5
6FF90
330
70125
100
AcDbEntity
  8
Level 26
  6
Continuous
 62
   253
370
     0
100
AcDbLine
 10
-3.0005
 20
95.0
 30
0.0
 11
-3.0005
 21
110.0
 31
0.0
  0
LINE
  5
6FF91
330
70125
100
AcDbEntity
  8
Level 26
  6
Continuous
 62
   253
370
     0
100
AcDbLine
 10
2.9995
 20
95.0
 30
0.0
 11
-3.0005
 21
95.0
 31
0.0
  0
LINE
  5
6FF92
330
70125
100
AcDbEntity
  8
Level 26
  6
Continuous
 62
   253
370
     0
100
AcDbLine
 10
2.9995
 20
140.0
 30
0.0
 11
2.9995
 21
110.0
 31
0.0
  0
LINE
  5
6FF93
330
70125
100
AcDbEntity
  8
Level 26
  6
Continuous
 62
   253
370
     0
100
AcDbLine
 10
2.9995
 20
-28.655615
 30
0.0
 11
2.9995
 21
95.0
 31
0.0
  0
LINE
  5
6FF94
330
70125
100
AcDbEntity
  8
Level 26
  6
Continuous
 62
   253
370
     0
100
AcDbLine
 10
-3.0005
 20
140.0
 30
0.0
 11
2.9995
 21
140.0
 31
0.0
  0
POINT
  5
6FF95
330
70125
100
AcDbEntity
  8
Level 26
  6
Continuous
 62
   253
370
     0
100
AcDbPoint
 10
-3.0005
 20
140.0
 30
0.0
  0
POINT
  5
6FF96
330
70125
100
AcDbEntity
  8
Level 26
  6
Continuous
 62
   253
370
     0
100
AcDbPoint
 10
2.9995
 20
140.0
 30
0.0
  0
LINE
  5
6FF97
330
70125
100
AcDbEntity
  8
Level 26
  6
Continuous
 62
   253
370
     0
100
AcDbLine
 10
-3.0005
 20
95.0
 30
0.0
 11
-3.0005
 21
-28.655615
 31
0.0
  0
LINE
  5
6FF98
330
70125
100
AcDbEntity
  8
Level 26
  6
Continuous
 62
   253
370
     0
100
AcDbLine
 10
-3.0005
 20
140.0
 30
0.0
 11
-3.0005
 21
110.0
 31
0.0
  0
POINT
  5
6FF99
330
70125
100
AcDbEntity
  8
Level 26
  6
Continuous
 62
   253
370
     0
100
AcDbPoint
 10
-3.0005
 20
110.0
 30
0.0
  0
POINT
  5
6FF9A
330
70125
100
AcDbEntity
  8
Level 26
  6
Continuous
 62
   253
370
     0
100
AcDbPoint
 10
2.9995
 20
110.0
 30
0.0
  0
LINE
  5
6FF9B
330
70125
100
AcDbEntity
  8
Level 26
  6
Continuous
 62
   253
370
     0
100
AcDbLine
 10
-3.0005
 20
110.0
 30
0.0
 11
2.9995
 21
110.0
 31
0.0
  0
LINE
  5
6FF9C
330
70125
100
AcDbEntity
  8
Level 26
  6
Continuous
 62
   253
370
     0
100
AcDbLine
 10
-3.0005
 20
140.0
 30
0.0
 11
2.9995
 21
140.0
 31
0.0
  0
LINE
  5
6FF9D
330
70125
100
AcDbEntity
  8
Level 26
  6
Continuous
 62
   253
370
     0
100
AcDbLine
 10
2.9995
 20
-90.938553
 30
0.0
 11
2.9995
 21
-42.250232
 31
0.0
  0
LINE
  5
6FF9E
330
70125
100
AcDbEntity
  8
Level 26
  6
Continuous
 62
   253
370
     0
100
AcDbLine
 10
-3.0005
 20
-42.250232
 30
0.0
 11
-3.0005
 21
-90.938553
 31
0.0
  0
ENDBLK
  5
70127
330
70125
100
AcDbEntity
  8
0
 62
    98
370
     0
100
AcDbBlockEnd
  0
BLOCK
  5
70129
330
70128
100
AcDbEntity
  8
0
 62
    98
370
     0
100
AcDbBlockBegin
  2
Feature Solid
 70
     0
 10
0.0
 20
0.0
 30
0.0
  3
Feature Solid
  1

  0
INSERT
  5
6FFA1
330
70128
100
AcDbEntity
  8
Level 26
  6
Continuous
 62
   253
370
     0
100
AcDbBlockReference
  2
CONE
 10
-4339.6125
 20
-3887.9345
 30
0.0
  0
ENDBLK
  5
7012A
330
70128
100
AcDbEntity
  8
0
 62
    98
370
     0
100
AcDbBlockEnd
  0
BLOCK
  5
7012C
330
7012B
100
AcDbEntity
  8
0
 62
    98
370
     0
100
AcDbBlockBegin
  2
CONE
 70
     0
 10
0.0
 20
0.0
 30
0.0
  3
CONE
  1

  0
ARC
  5
6FFA2
330
7012B
100
AcDbEntity
  8
Level 26
  6
Continuous
 62
   253
370
     0
100
AcDbCircle
 10
4339.612239
 20
3887.934828
 30
0.0
 40
21.2
100
AcDbArc
 50
0.0
 51
359.999994
  0
ARC
  5
6FFA3
330
7012B
100
AcDbEntity
  8
Level 26
  6
Continuous
 62
   253
370
     0
100
AcDbCircle
 10
-4339.612239
 20
3887.934828
 30
0.0
 40
21.2
210
0.0
220
0.0
230
-1.0
100
AcDbArc
 50
0.0
 51
359.999994
  0
POINT
  5
6FFA4
330
7012B
100
AcDbEntity
  8
Level 26
  6
Continuous
 62
   253
370
     0
100
AcDbPoint
 10
4318.412239
 20
3887.934828
 30
0.0
  0
POINT
  5
6FFA5
330
7012B
100
AcDbEntity
  8
Level 26
  6
Continuous
 62
   253
370
     0
100
AcDbPoint
 10
4339.612239
 20
3866.734828
 30
0.0
  0
POINT
  5
6FFA6
330
7012B
100
AcDbEntity
  8
Level 26
  6
Continuous
 62
   253
370
     0
100
AcDbPoint
 10
4360.812239
 20
3887.934828
 30
0.0
  0
POINT
  5
6FFA7
330
7012B
100
AcDbEntity
  8
Level 26
  6
Continuous
 62
   253
370
     0
100
AcDbPoint
 10
4339.612239
 20
3909.134828
 30
0.0
  0
ENDBLK
  5
7012D
330
7012B
100
AcDbEntity
  8
0
 62
    98
370
     0
100
AcDbBlockEnd
  0
ENDSEC
  0
SECTION
  2
ENTITIES
  0
INSERT
  5
6FD67
330
70045
100
AcDbEntity
  8
Level 25
  6
Continuous
 62
   160
370
     0
100
AcDbBlockReference
  2
FS10
 10
4324.320447
 20
103.60039
 30
0.0
  0
LWPOLYLINE
  5
6FFB9
330
70045
100
AcDbEntity
  8
Level 15
  6
DGN Style 2
 62
     7
370
    13
100
AcDbPolyline
 90
       15
 70
   129
 43
0.0
 10
1888.546762
 20
1350.837761
 10
914.320447
 20
1350.837761
 42
0.414214
 10
-85.679553
 20
350.837761
 10
-85.679553
 20
-144.025297
 42
0.414214
 10
914.320447
 20
-1144.025297
 10
1888.546762
 20
-1144.025297
 42
0.213422
 10
3006.580751
 20
-1644.025297
 10
3711.605897
 20
-1714.79961
 10
5232.728124
 20
-1714.79961
 42
0.394941
 10
6655.844883
 20
-194.142328
 10
6655.844883
 20
401.343107
 42
0.394941
 10
5232.728124
 20
1922.00039
 10
3711.605897
 20
1922.00039
 10
3006.580751
 20
1850.837761
 42
0.213422
 10
1888.546762
 20
1350.837761
  0
ENDSEC
  0
SECTION
  2
OBJECTS
  0
DICTIONARY
  5
7004C
330
0
100
AcDbDictionary
281
     1
  3
ACAD_COLOR
350
7008A
  3
ACAD_GROUP
350
70077
  3
ACAD_LAYOUT
350
70059
  3
ACAD_MATERIAL
350
7004E
  3
ACAD_MLEADERSTYLE
350
7008D
  3
ACAD_MLINESTYLE
350
70078
  3
ACAD_PLOTSETTINGS
350
70079
  3
ACAD_PLOTSTYLENAME
350
7004B
  3
ACAD_SCALELIST
350
7008B
  3
ACAD_TABLESTYLE
350
7008C
  3
ACAD_VISUALSTYLE
350
70071
  3
ACDB_RECOMPOSE_DATA
350
7013C
  3
AcDbVariableDictionary
350
70132
  0
DICTIONARY
  5
70064
330
70063
100
AcDbDictionary
280
     1
281
     1
  3
ACAD_LAYERFILTERS
360
700B7
  3
ACAD_LAYERSTATES
360
70065
  3
ACLYDICTIONARY
360
700B8
  0
DICTIONARY
  5
70048
330
70047
100
AcDbDictionary
280
     1
281
     1
  3
ADSK_XREC_LAYER_RECONCILED
360
70049
  0
DICTIONARY
  5
7012E
330
700B9
100
AcDbDictionary
280
     1
281
     1
  3
ACAD_SORTENTS
360
7012F
  0
DICTIONARY
  5
7008A
102
{ACAD_REACTORS
330
7004C
102
}
330
7004C
100
AcDbDictionary
281
     1
  0
DICTIONARY
  5
70077
102
{ACAD_REACTORS
330
7004C
102
}
330
7004C
100
AcDbDictionary
281
     1
  0
DICTIONARY
  5
70059
102
{ACAD_REACTORS
330
7004C
102
}
330
7004C
100
AcDbDictionary
281
     1
  3
Layout1
350
7005F
  3
Model
350
70058
  0
DICTIONARY
  5
7004E
102
{ACAD_REACTORS
330
7004C
102
}
330
7004C
100
AcDbDictionary
281
     1
  3
ByBlock
350
70082
  3
ByLayer
350
7007A
  3
Global
350
7004D
  0
DICTIONARY
  5
7008D
102
{ACAD_REACTORS
330
7004C
102
}
330
7004C
100
AcDbDictionary
281
     1
  0
DICTIONARY
  5
70078
102
{ACAD_REACTORS
330
7004C
102
}
330
7004C
100
AcDbDictionary
281
     1
  3
Standard
350
7008E
  0
DICTIONARY
  5
70079
102
{ACAD_REACTORS
330
7004C
102
}
330
7004C
100
AcDbDictionary
281
     1
  0
ACDBDICTIONARYWDFLT
  5
7004B
102
{ACAD_REACTORS
330
7004C
102
}
330
7004C
100
AcDbDictionary
281
     1
  3
Normal
350
7004A
100
AcDbDictionaryWithDefault
340
7004A
  0
DICTIONARY
  5
7008B
102
{ACAD_REACTORS
330
7004C
102
}
330
7004C
100
AcDbDictionary
281
     1
  3
A0
350
70093
  3
A1
350
70094
  3
A2
350
70095
  3
A3
350
70096
  3
A4
350
70097
  3
A5
350
70098
  3
A6
350
70099
  3
A7
350
7009A
  3
A8
350
7009B
  3
A9
350
7009C
  3
B0
350
7009D
  3
B1
350
7009E
  3
B2
350
7009F
  3
B3
350
700A0
  3
B4
350
700A1
  3
B5
350
700A2
  3
B6
350
700A3
  3
B7
350
700A4
  3
B8
350
700A5
  3
B9
350
700A6
  3
C0
350
700A7
  3
C1
350
700A8
  3
C2
350
700A9
  3
C3
350
700AA
  3
C4
350
700AB
  3
C5
350
700AC
  3
C6
350
700AD
  3
C7
350
700AE
  3
C8
350
700AF
  3
C9
350
700B0
  3
D0
350
700B1
  3
D1
350
700B2
  3
D2
350
700B3
  0
DICTIONARY
  5
7008C
102
{ACAD_REACTORS
330
7004C
102
}
330
7004C
100
AcDbDictionary
281
     1
  3
Standard
350
7008F
  0
DICTIONARY
  5
70071
102
{ACAD_REACTORS
330
7004C
102
}
330
7004C
100
AcDbDictionary
281
     1
  3
2dWireframe
350
70070
  3
Realistic
350
70091
  3
Wireframe
350
70092
  0
XRECORD
  5
7013C
102
{ACAD_REACTORS
330
7004C
102
}
330
7004C
100
AcDbXrecord
280
     1
 90
        1
330
7008F
  0
DICTIONARY
  5
70132
102
{ACAD_REACTORS
330
7004C
102
}
330
7004C
100
AcDbDictionary
281
     1
  3
CANNOSCALE
350
70138
  3
CMLEADERSTYLE
350
70134
  3
CTABLESTYLE
350
70133
  3
CVIEWDETAILSTYLE
350
70135
  3
CVIEWSECTIONSTYLE
350
70136
  3
LAYEREVAL
350
70139
  3
LAYERNOTIFY
350
7013A
  3
MSLTSCALE
350
70137
  0
DICTIONARY
  5
700B7
102
{ACAD_REACTORS
330
70064
102
}
330
70064
100
AcDbDictionary
281
     1
  0
DICTIONARY
  5
70065
102
{ACAD_REACTORS
330
70064
102
}
330
70064
100
AcDbDictionary
281
     1
  0
DICTIONARY
  5
700B8
102
{ACAD_REACTORS
330
70064
102
}
330
70064
100
AcDbDictionary
281
     1
  0
XRECORD
  5
70049
102
{ACAD_REACTORS
330
70048
102
}
330
70048
100
AcDbXrecord
280
     1
290
     1
  0
SORTENTSTABLE
  5
7012F
102
{ACAD_REACTORS
330
7012E
102
}
330
7012E
100
AcDbSortentsTable
330
700B9
331
6FEF9
  5
70038
331
70034
  5
7002C
331
7002F
  5
70027
331
6FF60
  5
70040
331
70037
  5
7002F
331
7003A
  5
70032
331
70028
  5
6FF60
331
70025
  5
6FF03
331
6FE3B
  5
6FE3B
331
7003D
  5
70035
331
70030
  5
70028
331
7002B
  5
70023
331
70042
  5
7003E
331
70033
  5
7002B
331
7002E
  5
70026
331
70036
  5
7002E
331
70039
  5
70031
331
6FFA0
  5
70042
331
6FEFE
  5
70039
331
70024
  5
6FEFE
331
6FE3A
  5
6FE3A
331
7003C
  5
70034
331
7002A
  5
6FFA0
331
70027
  5
6FF22
331
6FD76
  5
6FD76
331
6FE3D
  5
6FE3D
331
70041
  5
7003D
331
7003F
  5
70037
331
70032
  5
7002A
331
7002D
  5
70025
331
70035
  5
7002D
331
70038
  5
70030
331
6FF80
  5
70041
331
70023
  5
6FEF9
331
6FD68
  5
6FD68
331
6FF08
  5
7003B
331
7003B
  5
70033
331
70029
  5
6FF80
331
70026
  5
6FF08
331
6FE3C
  5
6FE3C
331
6FF22
  5
7003F
331
70040
  5
7003C
331
7003E
  5
70036
331
70031
  5
70029
331
6FF03
  5
7003A
331
7002C
  5
70024
  0
LAYOUT
  5
7005F
102
{ACAD_XDICTIONARY
360
70060
102
}
102
{ACAD_REACTORS
330
70059
102
}
330
70059
100
AcDbPlotSettings
  1

  2
none_device
  4
Letter_(8.50_x_11.00_Inches)
  6

 40
6.35
 41
6.35
 42
6.350006
 43
6.350006
 44
215.899994
 45
279.399994
 46
0.0
 47
0.0
 48
0.0
 49
0.0
140
0.0
141
0.0
142
1.0
143
1.0
 70
   688
 72
     0
 73
     1
 74
     5
  7

 75
    16
147
1.0
 76
     0
 77
     2
 78
   300
148
0.0
149
0.0
100
AcDbLayout
  1
Layout1
 70
     1
 71
     1
 10
-0.25
 20
-0.25
 11
10.75
 21
8.25
 12
0.0
 22
0.0
 32
0.0
 14
1.05
 24
0.8
 34
0.0
 15
9.45
 25
7.2
 35
0.0
146
0.0
 13
0.0
 23
0.0
 33
0.0
 16
1.0
 26
0.0
 36
0.0
 17
0.0
 27
1.0
 37
0.0
 76
     0
330
7005C
1001
ACAD_PSEXT
1000
None
1000
None
1000
Not applicable
1000
The layout will not be plotted unless a new plotter configuration name is selected.
1070
     0
  0
LAYOUT
  5
70058
102
{ACAD_XDICTIONARY
360
7005A
102
}
102
{ACAD_REACTORS
330
70059
102
}
330
70059
100
AcDbPlotSettings
  1

  2
none_device
  4
ANSI_A_(8.50_x_11.00_Inches)
  6

 40
6.35
 41
19.049999
 42
6.350006
 43
19.049988
 44
215.899994
 45
279.399994
 46
0.0
 47
0.0
 48
0.0
 49
0.0
140
0.0
141
0.0
142
1.0
143
2.584895
 70
 11952
 72
     0
 73
     1
 74
     0
  7

 75
     0
147
0.386863
 76
     0
 77
     2
 78
   300
148
0.0
149
0.0
100
AcDbLayout
  1
Model
 70
     1
 71
     0
 10
0.0
 20
0.0
 11
12.0
 21
9.0
 12
0.0
 22
0.0
 32
0.0
 14
0.0
 24
0.0
 34
0.0
 15
0.0
 25
0.0
 35
0.0
146
0.0
 13
0.0
 23
0.0
 33
0.0
 16
1.0
 26
0.0
 36
0.0
 17
0.0
 27
1.0
 37
0.0
 76
     0
330
70045
331
7006F
  0
MATERIAL
  5
70082
102
{ACAD_XDICTIONARY
360
70083
102
}
102
{ACAD_REACTORS
330
7004E
102
}
330
7004E
100
AcDbMaterial
  1
ByBlock
 72
     0
 43
0.020833
 43
0.0
 43
0.0
 43
0.0
 43
0.0
 43
0.020833
 43
0.0
 43
0.0
 43
0.0
 43
0.0
 43
1.0
 43
0.0
 43
0.0
 43
0.0
 43
0.0
 43
1.0
 77
     0
 47
0.020833
 47
0.0
 47
0.0
 47
0.0
 47
0.0
 47
0.020833
 47
0.0
 47
0.0
 47
0.0
 47
0.0
 47
1.0
 47
0.0
 47
0.0
 47
0.0
 47
0.0
 47
1.0
171
     0
 49
0.020833
 49
0.0
 49
0.0
 49
0.0
 49
0.0
 49
0.020833
 49
0.0
 49
0.0
 49
0.0
 49
0.0
 49
1.0
 49
0.0
 49
0.0
 49
0.0
 49
0.0
 49
1.0
175
     0
142
0.020833
142
0.0
142
0.0
142
0.0
142
0.0
142
0.020833
142
0.0
142
0.0
142
0.0
142
0.0
142
1.0
142
0.0
142
0.0
142
0.0
142
0.0
142
1.0
179
     0
144
0.020833
144
0.0
144
0.0
144
0.0
144
0.0
144
0.020833
144
0.0
144
0.0
144
0.0
144
0.0
144
1.0
144
0.0
144
0.0
144
0.0
144
0.0
144
1.0
147
0.020833
147
0.0
147
0.0
147
0.0
147
0.0
147
0.020833
147
0.0
147
0.0
147
0.0
147
0.0
147
1.0
147
0.0
147
0.0
147
0.0
147
0.0
147
1.0
  0
MATERIAL
  5
7007A
102
{ACAD_XDICTIONARY
360
7007B
102
}
102
{ACAD_REACTORS
330
7004E
102
}
330
7004E
100
AcDbMaterial
  1
ByLayer
 72
     0
 43
0.020833
 43
0.0
 43
0.0
 43
0.0
 43
0.0
 43
0.020833
 43
0.0
 43
0.0
 43
0.0
 43
0.0
 43
1.0
 43
0.0
 43
0.0
 43
0.0
 43
0.0
 43
1.0
 77
     0
 47
0.020833
 47
0.0
 47
0.0
 47
0.0
 47
0.0
 47
0.020833
 47
0.0
 47
0.0
 47
0.0
 47
0.0
 47
1.0
 47
0.0
 47
0.0
 47
0.0
 47
0.0
 47
1.0
171
     0
 49
0.020833
 49
0.0
 49
0.0
 49
0.0
 49
0.0
 49
0.020833
 49
0.0
 49
0.0
 49
0.0
 49
0.0
 49
1.0
 49
0.0
 49
0.0
 49
0.0
 49
0.0
 49
1.0
175
     0
142
0.020833
142
0.0
142
0.0
142
0.0
142
0.0
142
0.020833
142
0.0
142
0.0
142
0.0
142
0.0
142
1.0
142
0.0
142
0.0
142
0.0
142
0.0
142
1.0
179
     0
144
0.020833
144
0.0
144
0.0
144
0.0
144
0.0
144
0.020833
144
0.0
144
0.0
144
0.0
144
0.0
144
1.0
144
0.0
144
0.0
144
0.0
144
0.0
144
1.0
147
0.020833
147
0.0
147
0.0
147
0.0
147
0.0
147
0.020833
147
0.0
147
0.0
147
0.0
147
0.0
147
1.0
147
0.0
147
0.0
147
0.0
147
0.0
147
1.0
  0
MATERIAL
  5
7004D
102
{ACAD_XDICTIONARY
360
7004F
102
}
102
{ACAD_REACTORS
330
7004E
102
}
330
7004E
100
AcDbMaterial
  1
Global
 72
     0
 43
0.020833
 43
0.0
 43
0.0
 43
0.0
 43
0.0
 43
0.020833
 43
0.0
 43
0.0
 43
0.0
 43
0.0
 43
1.0
 43
0.0
 43
0.0
 43
0.0
 43
0.0
 43
1.0
 77
     0
 47
0.020833
 47
0.0
 47
0.0
 47
0.0
 47
0.0
 47
0.020833
 47
0.0
 47
0.0
 47
0.0
 47
0.0
 47
1.0
 47
0.0
 47
0.0
 47
0.0
 47
0.0
 47
1.0
171
     0
 49
0.020833
 49
0.0
 49
0.0
 49
0.0
 49
0.0
 49
0.020833
 49
0.0
 49
0.0
 49
0.0
 49
0.0
 49
1.0
 49
0.0
 49
0.0
 49
0.0
 49
0.0
 49
1.0
175
     0
142
0.020833
142
0.0
142
0.0
142
0.0
142
0.0
142
0.020833
142
0.0
142
0.0
142
0.0
142
0.0
142
1.0
142
0.0
142
0.0
142
0.0
142
0.0
142
1.0
179
     0
144
0.020833
144
0.0
144
0.0
144
0.0
144
0.0
144
0.020833
144
0.0
144
0.0
144
0.0
144
0.0
144
1.0
144
0.0
144
0.0
144
0.0
144
0.0
144
1.0
147
0.020833
147
0.0
147
0.0
147
0.0
147
0.0
147
0.020833
147
0.0
147
0.0
147
0.0
147
0.0
147
1.0
147
0.0
147
0.0
147
0.0
147
0.0
147
1.0
  0
MLINESTYLE
  5
7008E
102
{ACAD_REACTORS
330
70078
102
}
330
70078
100
AcDbMlineStyle
  2
STANDARD
 70
     0
  3

 62
   256
 51
90.0
 52
90.0
 71
     2
 49
0.5
 62
   256
  6
BYLAYER
 49
-0.5
 62
   256
  6
BYLAYER
  0
ACDBPLACEHOLDER
  5
7004A
102
{ACAD_REACTORS
330
7004B
102
}
330
7004B
  0
SCALE
  5
70093
102
{ACAD_REACTORS
330
7008B
102
}
330
7008B
100
AcDbScale
 70
     0
300
1:1
140
1.0
141
1.0
290
     1
  0
SCALE
  5
70094
102
{ACAD_REACTORS
330
7008B
102
}
330
7008B
100
AcDbScale
 70
     0
300
1:2
140
1.0
141
2.0
290
     0
  0
SCALE
  5
70095
102
{ACAD_REACTORS
330
7008B
102
}
330
7008B
100
AcDbScale
 70
     0
300
1:4
140
1.0
141
4.0
290
     0
  0
SCALE
  5
70096
102
{ACAD_REACTORS
330
7008B
102
}
330
7008B
100
AcDbScale
 70
     0
300
1:5
140
1.0
141
5.0
290
     0
  0
SCALE
  5
70097
102
{ACAD_REACTORS
330
7008B
102
}
330
7008B
100
AcDbScale
 70
     0
300
1:8
140
1.0
141
8.0
290
     0
  0
SCALE
  5
70098
102
{ACAD_REACTORS
330
7008B
102
}
330
7008B
100
AcDbScale
 70
     0
300
1:10
140
1.0
141
10.0
290
     0
  0
SCALE
  5
70099
102
{ACAD_REACTORS
330
7008B
102
}
330
7008B
100
AcDbScale
 70
     0
300
1:16
140
1.0
141
16.0
290
     0
  0
SCALE
  5
7009A
102
{ACAD_REACTORS
330
7008B
102
}
330
7008B
100
AcDbScale
 70
     0
300
1:20
140
1.0
141
20.0
290
     0
  0
SCALE
  5
7009B
102
{ACAD_REACTORS
330
7008B
102
}
330
7008B
100
AcDbScale
 70
     0
300
1:30
140
1.0
141
30.0
290
     0
  0
SCALE
  5
7009C
102
{ACAD_REACTORS
330
7008B
102
}
330
7008B
100
AcDbScale
 70
     0
300
1:40
140
1.0
141
40.0
290
     0
  0
SCALE
  5
7009D
102
{ACAD_REACTORS
330
7008B
102
}
330
7008B
100
AcDbScale
 70
     0
300
1:50
140
1.0
141
50.0
290
     0
  0
SCALE
  5
7009E
102
{ACAD_REACTORS
330
7008B
102
}
330
7008B
100
AcDbScale
 70
     0
300
1:100
140
1.0
141
100.0
290
     0
  0
SCALE
  5
7009F
102
{ACAD_REACTORS
330
7008B
102
}
330
7008B
100
AcDbScale
 70
     0
300
2:1
140
2.0
141
1.0
290
     0
  0
SCALE
  5
700A0
102
{ACAD_REACTORS
330
7008B
102
}
330
7008B
100
AcDbScale
 70
     0
300
4:1
140
4.0
141
1.0
290
     0
  0
SCALE
  5
700A1
102
{ACAD_REACTORS
330
7008B
102
}
330
7008B
100
AcDbScale
 70
     0
300
8:1
140
8.0
141
1.0
290
     0
  0
SCALE
  5
700A2
102
{ACAD_REACTORS
330
7008B
102
}
330
7008B
100
AcDbScale
 70
     0
300
10:1
140
10.0
141
1.0
290
     0
  0
SCALE
  5
700A3
102
{ACAD_REACTORS
330
7008B
102
}
330
7008B
100
AcDbScale
 70
     0
300
100:1
140
100.0
141
1.0
290
     0
  0
SCALE
  5
700A4
102
{ACAD_REACTORS
330
7008B
102
}
330
7008B
100
AcDbScale
 70
     0
300
1/128" = 1'-0"
140
0.007813
141
12.0
290
     0
  0
SCALE
  5
700A5
102
{ACAD_REACTORS
330
7008B
102
}
330
7008B
100
AcDbScale
 70
     0
300
1/64" = 1'-0"
140
0.015625
141
12.0
290
     0
  0
SCALE
  5
700A6
102
{ACAD_REACTORS
330
7008B
102
}
330
7008B
100
AcDbScale
 70
     0
300
1/32" = 1'-0"
140
0.03125
141
12.0
290
     0
  0
SCALE
  5
700A7
102
{ACAD_REACTORS
330
7008B
102
}
330
7008B
100
AcDbScale
 70
     0
300
1/16" = 1'-0"
140
0.0625
141
12.0
290
     0
  0
SCALE
  5
700A8
102
{ACAD_REACTORS
330
7008B
102
}
330
7008B
100
AcDbScale
 70
     0
300
3/32" = 1'-0"
140
0.09375
141
12.0
290
     0
  0
SCALE
  5
700A9
102
{ACAD_REACTORS
330
7008B
102
}
330
7008B
100
AcDbScale
 70
     0
300
1/8" = 1'-0"
140
0.125
141
12.0
290
     0
  0
SCALE
  5
700AA
102
{ACAD_REACTORS
330
7008B
102
}
330
7008B
100
AcDbScale
 70
     0
300
3/16" = 1'-0"
140
0.1875
141
12.0
290
     0
  0
SCALE
  5
700AB
102
{ACAD_REACTORS
330
7008B
102
}
330
7008B
100
AcDbScale
 70
     0
300
1/4" = 1'-0"
140
0.25
141
12.0
290
     0
  0
SCALE
  5
700AC
102
{ACAD_REACTORS
330
7008B
102
}
330
7008B
100
AcDbScale
 70
     0
300
3/8" = 1'-0"
140
0.375
141
12.0
290
     0
  0
SCALE
  5
700AD
102
{ACAD_REACTORS
330
7008B
102
}
330
7008B
100
AcDbScale
 70
     0
300
1/2" = 1'-0"
140
0.5
141
12.0
290
     0
  0
SCALE
  5
700AE
102
{ACAD_REACTORS
330
7008B
102
}
330
7008B
100
AcDbScale
 70
     0
300
3/4" = 1'-0"
140
0.75
141
12.0
290
     0
  0
SCALE
  5
700AF
102
{ACAD_REACTORS
330
7008B
102
}
330
7008B
100
AcDbScale
 70
     0
300
1" = 1'-0"
140
1.0
141
12.0
290
     0
  0
SCALE
  5
700B0
102
{ACAD_REACTORS
330
7008B
102
}
330
7008B
100
AcDbScale
 70
     0
300
1-1/2" = 1'-0"
140
1.5
141
12.0
290
     0
  0
SCALE
  5
700B1
102
{ACAD_REACTORS
330
7008B
102
}
330
7008B
100
AcDbScale
 70
     0
300
3" = 1'-0"
140
3.0
141
12.0
290
     0
  0
SCALE
  5
700B2
102
{ACAD_REACTORS
330
7008B
102
}
330
7008B
100
AcDbScale
 70
     0
300
6" = 1'-0"
140
6.0
141
12.0
290
     0
  0
SCALE
  5
700B3
102
{ACAD_REACTORS
330
7008B
102
}
330
7008B
100
AcDbScale
 70
     0
300
1'-0" = 1'-0"
140
12.0
141
12.0
290
     0
  0
TABLESTYLE
  5
7008F
102
{ACAD_XDICTIONARY
360
70090
102
}
102
{ACAD_REACTORS
330
7008C
102
}
330
7008C
100
AcDbTableStyle
280
     0
  3
Standard
 70
     0
 71
     0
 40
0.06
 41
0.06
280
     0
281
     0
  7
Standard
140
0.18
170
     2
 62
     0
 63
     7
283
     0
 90
        4
 91
        0
  1

274
    -2
284
     1
 64
     0
275
    -2
285
     1
 65
     0
276
    -2
286
     1
 66
     0
277
    -2
287
     1
 67
     0
278
    -2
288
     1
 68
     0
279
    -2
289
     1
 69
     0
  7
Standard
140
0.25
170
     5
 62
     0
 63
     7
283
     0
 90
        4
 91
        0
  1

274
    -2
284
     1
 64
     0
275
    -2
285
     1
 65
     0
276
    -2
286
     1
 66
     0
277
    -2
287
     1
 67
     0
278
    -2
288
     1
 68
     0
279
    -2
289
     1
 69
     0
  7
Standard
140
0.18
170
     5
 62
     0
 63
     7
283
     0
 90
        4
 91
        0
  1

274
    -2
284
     1
 64
     0
275
    -2
285
     1
 65
     0
276
    -2
286
     1
 66
     0
277
    -2
287
     1
 67
     0
278
    -2
288
     1
 68
     0
279
    -2
289
     1
 69
     0
  0
VISUALSTYLE
  5
70070
102
{ACAD_REACTORS
330
70071
102
}
330
70071
100
AcDbVisualStyle
  2
2dWireframe
 70
     4
177
     3
291
     0
 70
    58
 90
        0
176
     1
 90
        2
176
     1
 90
        0
176
     1
 90
        0
176
     1
 40
0.6
176
     1
 40
30.0
176
     1
 62
     7
420
 16777215
176
     1
 90
        1
176
     1
 90
        4
176
     1
 62
     7
176
     1
 62
   257
176
     1
 90
        1
176
     1
 90
        1
176
     1
 40
1.0
176
     1
 90
        0
176
     1
 62
   257
176
     1
 40
1.0
176
     1
 90
        1
176
     1
 90
        6
176
     1
 90
        2
176
     1
 62
     7
176
     1
 90
        5
176
     1
 90
        0
176
     1
 90
        0
176
     1
290
     0
176
     1
 90
        1
176
     1
 40
0.0
176
     1
 90
        0
176
     1
290
     1
176
     1
290
     1
176
     1
290
     0
176
     1
290
     0
176
     1
290
     0
176
     1
290
     0
176
     1
290
     0
176
     1
290
     0
176
     1
290
     0
176
     1
 90
       50
176
     1
 40
0.0
176
     1
 40
1.0
176
     1
 90
        0
176
     1
 62
    18
420
        0
176
     1
 90
       50
176
     1
 90
        3
176
     1
 62
     5
420
      255
176
     1
290
     0
176
     1
 90
       50
176
     1
 90
       50
176
     1
 90
       50
176
     1
290
     0
176
     1
 90
       50
176
     1
 62
   256
176
     0
 40
1.0
176
     0
 90
        2
176
     1
  1
strokes_ogs.tif
176
     1
290
     0
176
     1
 40
1.0
176
     1
 40
1.0
176
     1
  0
VISUALSTYLE
  5
70091
102
{ACAD_REACTORS
330
70071
102
}
330
70071
100
AcDbVisualStyle
  2
Realistic
 70
     8
177
     3
291
     0
 70
    58
 90
        2
176
     1
 90
        2
176
     1
 90
        0
176
     1
 90
        0
176
     1
 40
0.6
176
     1
 40
30.0
176
     1
 62
     7
420
 16777215
176
     1
 90
        1
176
     1
 90
        0
176
     1
 62
     7
176
     1
 62
   257
176
     1
 90
        1
176
     1
 90
        1
176
     1
 40
1.0
176
     1
 90
        8
176
     1
 62
     8
420
  7895160
176
     1
 40
1.0
176
     1
 90
        1
176
     1
 90
        6
176
     1
 90
        2
176
     1
 62
     7
176
     1
 90
        5
176
     1
 90
        0
176
     1
 90
        0
176
     1
290
     0
176
     1
 90
       13
176
     1
 40
0.0
176
     1
 90
        0
176
     1
290
     0
176
     1
290
     1
176
     1
290
     1
176
     1
290
     0
176
     1
290
     0
176
     1
290
     0
176
     1
290
     0
176
     1
290
     0
176
     1
290
     0
176
     1
 90
       50
176
     1
 40
0.0
176
     1
 40
1.0
176
     1
 90
        0
176
     1
 62
    18
420
        0
176
     1
 90
       50
176
     1
 90
        3
176
     1
 62
     5
420
      255
176
     1
290
     0
176
     1
 90
       50
176
     1
 90
       50
176
     1
 90
       50
176
     1
290
     0
176
     1
 90
       50
176
     1
 62
   256
176
     0
 40
1.0
176
     0
 90
        2
176
     1
  1
strokes_ogs.tif
176
     1
290
     0
176
     1
 40
1.0
176
     1
 40
1.0
176
     1
  0
VISUALSTYLE
  5
70092
102
{ACAD_REACTORS
330
70071
102
}
330
70071
100
AcDbVisualStyle
  2
Wireframe
 70
     5
177
     3
291
     0
 70
    58
 90
        0
176
     1
 90
        2
176
     1
 90
        0
176
     1
 90
        0
176
     1
 40
0.6
176
     1
 40
30.0
176
     1
 62
     7
420
 16777215
176
     1
 90
        1
176
     1
 90
        4
176
     1
 62
     7
176
     1
 62
   257
176
     1
 90
        1
176
     1
 90
        1
176
     1
 40
1.0
176
     1
 90
        0
176
     1
 62
   257
176
     1
 40
1.0
176
     1
 90
        1
176
     1
 90
        6
176
     1
 90
        2
176
     1
 62
     7
176
     1
 90
        3
176
     1
 90
        0
176
     1
 90
        0
176
     1
290
     0
176
     1
 90
        1
176
     1
 40
0.0
176
     1
 90
        0
176
     1
290
     0
176
     1
290
     1
176
     1
290
     1
176
     1
290
     0
176
     1
290
     0
176
     1
290
     0
176
     1
290
     0
176
     1
290
     0
176
     1
290
     0
176
     1
 90
       50
176
     1
 40
0.0
176
     1
 40
1.0
176
     1
 90
        0
176
     1
 62
    18
420
        0
176
     1
 90
       50
176
     1
 90
        3
176
     1
 62
     5
420
      255
176
     1
290
     0
176
     1
 90
       50
176
     1
 90
       50
176
     1
 90
       50
176
     1
290
     0
176
     1
 90
       50
176
     1
 62
   256
176
     0
 40
1.0
176
     0
 90
        2
176
     1
  1
strokes_ogs.tif
176
     1
290
     0
176
     1
 40
1.0
176
     1
 40
1.0
176
     1
  0
DICTIONARYVAR
  5
70138
102
{ACAD_REACTORS
330
70132
102
}
330
70132
100
DictionaryVariables
280
     0
  1
1:1
  0
DICTIONARYVAR
  5
70134
102
{ACAD_REACTORS
330
70132
102
}
330
70132
100
DictionaryVariables
280
     0
  1
STANDARD
  0
DICTIONARYVAR
  5
70133
102
{ACAD_REACTORS
330
70132
102
}
330
70132
100
DictionaryVariables
280
     0
  1
STANDARD
  0
DICTIONARYVAR
  5
70135
102
{ACAD_REACTORS
330
70132
102
}
330
70132
100
DictionaryVariables
280
     0
  1

  0
DICTIONARYVAR
  5
70136
102
{ACAD_REACTORS
330
70132
102
}
330
70132
100
DictionaryVariables
280
     0
  1

  0
DICTIONARYVAR
  5
70139
102
{ACAD_REACTORS
330
70132
102
}
330
70132
100
DictionaryVariables
280
     0
  1
1
  0
DICTIONARYVAR
  5
7013A
102
{ACAD_REACTORS
330
70132
102
}
330
70132
100
DictionaryVariables
280
     0
  1
15
  0
DICTIONARYVAR
  5
70137
102
{ACAD_REACTORS
330
70132
102
}
330
70132
100
DictionaryVariables
280
     0
  1
0
  0
DICTIONARY
  5
70060
330
7005F
100
AcDbDictionary
280
     1
281
     1
  0
DICTIONARY
  5
7005A
330
70058
100
AcDbDictionary
280
     1
281
     1
  0
DICTIONARY
  5
70083
330
70082
100
AcDbDictionary
280
     1
281
     1
  3
BUMPTILE
360
70084
  3
DIFFUSETILE
360
70085
  3
OPACITYTILE
360
70086
  3
REFLECTIONTILE
360
70087
  3
REFRACTIONTILE
360
70088
  3
SPECULARTILE
360
70089
  0
DICTIONARY
  5
7007B
330
7007A
100
AcDbDictionary
280
     1
281
     1
  3
BUMPTILE
360
7007C
  3
DIFFUSETILE
360
7007D
  3
OPACITYTILE
360
7007E
  3
REFLECTIONTILE
360
7007F
  3
REFRACTIONTILE
360
70080
  3
SPECULARTILE
360
70081
  0
DICTIONARY
  5
7004F
330
7004D
100
AcDbDictionary
280
     1
281
     1
  3
BUMPTILE
360
70050
  3
DIFFUSETILE
360
70051
  3
OPACITYTILE
360
70052
  3
REFLECTIONTILE
360
70053
  3
REFRACTIONTILE
360
70054
  3
SPECULARTILE
360
70055
  0
DICTIONARY
  5
70090
330
7008F
100
AcDbDictionary
280
     1
281
     1
  3
ACAD_ROUNDTRIP_2008_TABLESTYLE_CELLSTYLEMAP
360
7013B
  0
XRECORD
  5
70084
102
{ACAD_REACTORS
330
70083
102
}
330
70083
100
AcDbXrecord
280
     1
270
     1
271
     1
  0
XRECORD
  5
70085
102
{ACAD_REACTORS
330
70083
102
}
330
70083
100
AcDbXrecord
280
     1
270
     1
271
     1
  0
XRECORD
  5
70086
102
{ACAD_REACTORS
330
70083
102
}
330
70083
100
AcDbXrecord
280
     1
270
     1
271
     1
  0
XRECORD
  5
70087
102
{ACAD_REACTORS
330
70083
102
}
330
70083
100
AcDbXrecord
280
     1
270
     1
271
     1
  0
XRECORD
  5
70088
102
{ACAD_REACTORS
330
70083
102
}
330
70083
100
AcDbXrecord
280
     1
270
     1
271
     1
  0
XRECORD
  5
70089
102
{ACAD_REACTORS
330
70083
102
}
330
70083
100
AcDbXrecord
280
     1
270
     1
271
     1
  0
XRECORD
  5
7007C
102
{ACAD_REACTORS
330
7007B
102
}
330
7007B
100
AcDbXrecord
280
     1
270
     1
271
     1
  0
XRECORD
  5
7007D
102
{ACAD_REACTORS
330
7007B
102
}
330
7007B
100
AcDbXrecord
280
     1
270
     1
271
     1
  0
XRECORD
  5
7007E
102
{ACAD_REACTORS
330
7007B
102
}
330
7007B
100
AcDbXrecord
280
     1
270
     1
271
     1
  0
XRECORD
  5
7007F
102
{ACAD_REACTORS
330
7007B
102
}
330
7007B
100
AcDbXrecord
280
     1
270
     1
271
     1
  0
XRECORD
  5
70080
102
{ACAD_REACTORS
330
7007B
102
}
330
7007B
100
AcDbXrecord
280
     1
270
     1
271
     1
  0
XRECORD
  5
70081
102
{ACAD_REACTORS
330
7007B
102
}
330
7007B
100
AcDbXrecord
280
     1
270
     1
271
     1
  0
XRECORD
  5
70050
102
{ACAD_REACTORS
330
7004F
102
}
330
7004F
100
AcDbXrecord
280
     1
270
     1
271
     1
  0
XRECORD
  5
70051
102
{ACAD_REACTORS
330
7004F
102
}
330
7004F
100
AcDbXrecord
280
     1
270
     1
271
     1
  0
XRECORD
  5
70052
102
{ACAD_REACTORS
330
7004F
102
}
330
7004F
100
AcDbXrecord
280
     1
270
     1
271
     1
  0
XRECORD
  5
70053
102
{ACAD_REACTORS
330
7004F
102
}
330
7004F
100
AcDbXrecord
280
     1
270
     1
271
     1
  0
XRECORD
  5
70054
102
{ACAD_REACTORS
330
7004F
102
}
330
7004F
100
AcDbXrecord
280
     1
270
     1
271
     1
  0
XRECORD
  5
70055
102
{ACAD_REACTORS
330
7004F
102
}
330
7004F
100
AcDbXrecord
280
     1
270
     1
271
     1
  0
CELLSTYLEMAP
  5
7013B
102
{ACAD_REACTORS
330
70090
102
}
330
70090
100
AcDbCellStyleMap
 90
        3
300
CELLSTYLE
  1
TABLEFORMAT_BEGIN
 90
        5
170
     1
 91
        0
 92
    32768
 62
   257
 93
        1
300
CONTENTFORMAT
  1
CONTENTFORMAT_BEGIN
 90
        0
 91
        0
 92
        4
 93
        0
300

 40
0.0
140
1.0
 94
        5
 62
     0
340
70067
144
0.25
309
CONTENTFORMAT_END
171
     0
 94
        6
 95
        1
302
GRIDFORMAT
  1
GRIDFORMAT_BEGIN
 90
        0
 91
        1
 62
     0
 92
       -2
340
0
 93
        0
 40
0.045
309
GRIDFORMAT_END
 95
        2
302
GRIDFORMAT
  1
GRIDFORMAT_BEGIN
 90
        0
 91
        1
 62
     0
 92
       -2
340
0
 93
        0
 40
0.045
309
GRIDFORMAT_END
 95
        4
302
GRIDFORMAT
  1
GRIDFORMAT_BEGIN
 90
        0
 91
        1
 62
     0
 92
       -2
340
0
 93
        0
 40
0.045
309
GRIDFORMAT_END
 95
        8
302
GRIDFORMAT
  1
GRIDFORMAT_BEGIN
 90
        0
 91
        1
 62
     0
 92
       -2
340
0
 93
        0
 40
0.045
309
GRIDFORMAT_END
 95
       16
302
GRIDFORMAT
  1
GRIDFORMAT_BEGIN
 90
        0
 91
        1
 62
     0
 92
       -2
340
0
 93
        0
 40
0.045
309
GRIDFORMAT_END
 95
       32
302
GRIDFORMAT
  1
GRIDFORMAT_BEGIN
 90
        0
 91
        1
 62
     0
 92
       -2
340
0
 93
        0
 40
0.045
309
GRIDFORMAT_END
309
TABLEFORMAT_END
  1
CELLSTYLE_BEGIN
 90
        1
 91
        1
300
_TITLE
309
CELLSTYLE_END
300
CELLSTYLE
  1
TABLEFORMAT_BEGIN
 90
        5
170
     1
 91
        0
 92
        0
 62
   257
 93
        1
300
CONTENTFORMAT
  1
CONTENTFORMAT_BEGIN
 90
        0
 91
        0
 92
        4
 93
        0
300

 40
0.0
140
1.0
 94
        5
 62
     0
340
70067
144
0.18
309
CONTENTFORMAT_END
171
     0
 94
        6
 95
        1
302
GRIDFORMAT
  1
GRIDFORMAT_BEGIN
 90
        0
 91
        1
 62
     0
 92
       -2
340
0
 93
        0
 40
0.045
309
GRIDFORMAT_END
 95
        2
302
GRIDFORMAT
  1
GRIDFORMAT_BEGIN
 90
        0
 91
        1
 62
     0
 92
       -2
340
0
 93
        0
 40
0.045
309
GRIDFORMAT_END
 95
        4
302
GRIDFORMAT
  1
GRIDFORMAT_BEGIN
 90
        0
 91
        1
 62
     0
 92
       -2
340
0
 93
        0
 40
0.045
309
GRIDFORMAT_END
 95
        8
302
GRIDFORMAT
  1
GRIDFORMAT_BEGIN
 90
        0
 91
        1
 62
     0
 92
       -2
340
0
 93
        0
 40
0.045
309
GRIDFORMAT_END
 95
       16
302
GRIDFORMAT
  1
GRIDFORMAT_BEGIN
 90
        0
 91
        1
 62
     0
 92
       -2
340
0
 93
        0
 40
0.045
309
GRIDFORMAT_END
 95
       32
302
GRIDFORMAT
  1
GRIDFORMAT_BEGIN
 90
        0
 91
        1
 62
     0
 92
       -2
340
0
 93
        0
 40
0.045
309
GRIDFORMAT_END
309
TABLEFORMAT_END
  1
CELLSTYLE_BEGIN
 90
        2
 91
        1
300
_HEADER
309
CELLSTYLE_END
300
CELLSTYLE
  1
TABLEFORMAT_BEGIN
 90
        5
170
     1
 91
        0
 92
        0
 62
   257
 93
        1
300
CONTENTFORMAT
  1
CONTENTFORMAT_BEGIN
 90
        0
 91
        0
 92
        4
 93
        0
300

 40
0.0
140
1.0
 94
        2
 62
     0
340
70067
144
0.18
309
CONTENTFORMAT_END
171
     0
 94
        6
 95
        1
302
GRIDFORMAT
  1
GRIDFORMAT_BEGIN
 90
        0
 91
        1
 62
     0
 92
       -2
340
0
 93
        0
 40
0.045
309
GRIDFORMAT_END
 95
        2
302
GRIDFORMAT
  1
GRIDFORMAT_BEGIN
 90
        0
 91
        1
 62
     0
 92
       -2
340
0
 93
        0
 40
0.045
309
GRIDFORMAT_END
 95
        4
302
GRIDFORMAT
  1
GRIDFORMAT_BEGIN
 90
        0
 91
        1
 62
     0
 92
       -2
340
0
 93
        0
 40
0.045
309
GRIDFORMAT_END
 95
        8
302
GRIDFORMAT
  1
GRIDFORMAT_BEGIN
 90
        0
 91
        1
 62
     0
 92
       -2
340
0
 93
        0
 40
0.045
309
GRIDFORMAT_END
 95
       16
302
GRIDFORMAT
  1
GRIDFORMAT_BEGIN
 90
        0
 91
        1
 62
     0
 92
       -2
340
0
 93
        0
 40
0.045
309
GRIDFORMAT_END
 95
       32
302
GRIDFORMAT
  1
GRIDFORMAT_BEGIN
 90
        0
 91
        1
 62
     0
 92
       -2
340
0
 93
        0
 40
0.045
309
GRIDFORMAT_END
309
TABLEFORMAT_END
  1
CELLSTYLE_BEGIN
 90
        3
 91
        2
300
_DATA
309
CELLSTYLE_END
  0
ENDSEC
  0
SECTION
  2
ACDSDATA
 70
     2
 71
     6
  0
ACDSSCHEMA
 90
        0
  1
AcDb_Thumbnail_Schema
  2
AcDbDs::ID
280
    10
 91
        8
  2
Thumbnail_Data
280
    15
 91
        0
101
ACDSRECORD
 95
        0
 90
        1
  2
AcDbDs::TreatedAsObjectData
280
     1
291
     1
101
ACDSRECORD
 95
        0
 90
        2
  2
AcDbDs::Legacy
280
     1
291
     1
101
ACDSRECORD
  1
AcDbDs::ID
 90
        3
  2
AcDs:Indexable
280
     1
291
     1
101
ACDSRECORD
  1
AcDbDs::ID
 90
        4
  2
AcDbDs::HandleAttribute
280
     7
282
     1
  0
ACDSSCHEMA
 90
        1
  1
AcDbDs::TreatedAsObjectDataSchema
  2
AcDbDs::TreatedAsObjectData
280
     1
 91
        0
  0
ACDSSCHEMA
 90
        2
  1
AcDbDs::LegacySchema
  2
AcDbDs::Legacy
280
     1
 91
        0
  0
ACDSSCHEMA
 90
        3
  1
AcDbDs::IndexedPropertySchema
  2
AcDs:Indexable
280
     1
 91
        0
  0
ACDSSCHEMA
 90
        4
  1
AcDbDs::HandleAttributeSchema
  2
AcDbDs::HandleAttribute
280
     7
 91
        1
284
     1
  0
ACDSRECORD
 90
        0
  2
AcDbDs::ID
280
    10
320
7005F
  2
Thumbnail_Data
280
    15
 94
     1183
310
89504E470D0A1A0A0000000D4948445200000100000000C508030000008CFEDCE700000300504C5445FFFFFF000000FFFFFF0000000000000000000000000000000000000000000000000000330000660000990000CC0000FF0033000033330033660033990033CC0033FF0066000066330066660066990066CC0066FF0099
310
000099330099660099990099CC0099FF00CC0000CC3300CC6600CC9900CCCC00CCFF00FF0000FF3300FF6600FF9900FFCC00FFFF3300003300333300663300993300CC3300FF3333003333333333663333993333CC3333FF3366003366333366663366993366CC3366FF3399003399333399663399993399CC3399FF33CC00
310
33CC3333CC6633CC9933CCCC33CCFF33FF0033FF3333FF6633FF9933FFCC33FFFF6600006600336600666600996600CC6600FF6633006633336633666633996633CC6633FF6666006666336666666666996666CC6666FF6699006699336699666699996699CC6699FF66CC0066CC3366CC6666CC9966CCCC66CCFF66FF0066
310
FF3366FF6666FF9966FFCC66FFFF9900009900339900669900999900CC9900FF9933009933339933669933999933CC9933FF9966009966339966669966999966CC9966FF9999009999339999669999999999CC9999FF99CC0099CC3399CC6699CC9999CCCC99CCFF99FF0099FF3399FF6699FF9999FFCC99FFFFCC0000CC00
310
33CC0066CC0099CC00CCCC00FFCC3300CC3333CC3366CC3399CC33CCCC33FFCC6600CC6633CC6666CC6699CC66CCCC66FFCC9900CC9933CC9966CC9999CC99CCCC99FFCCCC00CCCC33CCCC66CCCC99CCCCCCCCCCFFCCFF00CCFF33CCFF66CCFF99CCFFCCCCFFFFFF0000FF0033FF0066FF0099FF00CCFF00FFFF3300FF3333
310
FF3366FF3399FF33CCFF33FFFF6600FF6633FF6666FF6699FF66CCFF66FFFF9900FF9933FF9966FF9999FF99CCFF99FFFFCC00FFCC33FFCC66FFCC99FFCCCCFFCCFFFFFF00FFFF33FFFF66FFFF99FFFFCCFFFFFF0000000D0D0D1A1A1A2828283535354343435050505D5D5D6B6B6B787878868686939393A1A1A1AEAEAEBB
310
BBBBC9C9C9D6D6D6E4E4E4F1F1F1FFFFFF000000000000000000000000000000000000000000000000000000000000790CAC0F0000015A4944415478DAEDD8410A8340100440FFFFCCF9C09EE61E104224896014844D579F64F420A587DE592A3A632CD5C101100F500500C0F36ACDF6D636BFCEEBAEF9E9177D0788FBF600
310
000000000000004D1000000000000000100F50FB4F4C9E8B5578FAFF0300000000000000000000000000000000B00BD069000D0000000000000000A009020000000000000000000000000000000052013A0DA001000000000000000000A8C2000000000000000000000000000000402A40FC420400000000000000002016C0
310
5900000000000000000000000000000000C803885F88000000000000000000C402380B0000000000000000000000000000000000E2003A0DA0010000000000000000344100000000000000000000000000000000C0E7C660F21C04080D0000000000000000C01F54DE73151900000000000000D0AFCDCFB6227CDDAB1C9CD7
310
5DF3D32FAA0902000000C00A109E658C110DF0000E6CC6FBCCF8EC2E0000000049454E44AE426082
  0
ACDSRECORD
 90
        0
  2
AcDbDs::ID
280
    10
320
70058
  2
Thumbnail_Data
280
    15
 94
     1017
310
89504E470D0A1A0A0000000D4948445200000100000000890803000000F46416F000000300504C5445FEFCF0000000FFFFFF0000000000000000000000000000000000000000000000000000330000660000990000CC0000FF0033000033330033660033990033CC0033FF0066000066330066660066990066CC0066FF0099
310
000099330099660099990099CC0099FF00CC0000CC3300CC6600CC9900CCCC00CCFF00FF0000FF3300FF6600FF9900FFCC00FFFF3300003300333300663300993300CC3300FF3333003333333333663333993333CC3333FF3366003366333366663366993366CC3366FF3399003399333399663399993399CC3399FF33CC00
310
33CC3333CC6633CC9933CCCC33CCFF33FF0033FF3333FF6633FF9933FFCC33FFFF6600006600336600666600996600CC6600FF6633006633336633666633996633CC6633FF6666006666336666666666996666CC6666FF6699006699336699666699996699CC6699FF66CC0066CC3366CC6666CC9966CCCC66CCFF66FF0066
310
FF3366FF6666FF9966FFCC66FFFF9900009900339900669900999900CC9900FF9933009933339933669933999933CC9933FF9966009966339966669966999966CC9966FF9999009999339999669999999999CC9999FF99CC0099CC3399CC6699CC9999CCCC99CCFF99FF0099FF3399FF6699FF9999FFCC99FFFFCC0000CC00
310
33CC0066CC0099CC00CCCC00FFCC3300CC3333CC3366CC3399CC33CCCC33FFCC6600CC6633CC6666CC6699CC66CCCC66FFCC9900CC9933CC9966CC9999CC99CCCC99FFCCCC00CCCC33CCCC66CCCC99CCCCCCCCCCFFCCFF00CCFF33CCFF66CCFF99CCFFCCCCFFFFFF0000FF0033FF0066FF0099FF00CCFF00FFFF3300FF3333
310
FF3366FF3399FF33CCFF33FFFF6600FF6633FF6666FF6699FF66CCFF66FFFF9900FF9933FF9966FF9999FF99CCFF99FFFFCC00FFCC33FFCC66FFCC99FFCCCCFFCCFFFFFF00FFFF33FFFF66FFFF99FFFFCCFFFFFF0000000D0D0D1A1A1A2828283535354343435050505D5D5D6B6B6B787878868686939393A1A1A1AEAEAEBB
310
BBBBC9C9C9D6D6D6E4E4E4F1F1F1FFFFFF0000000000000000000000000000000000000000000000000000000000007C77BAA7000000B44944415478DAEDD0310100000C0220FBB7B48931760C22903E1701020408102040800001020408102040800001020408102040800001020408102040800001020408102040800001
310
020408102040800001020408102040800001020408102040800001020408102040800001020408102040800001020408102040800001020408102040800001020408102040800001020408102040800001020408102040800001020408102040800001020408102040C099016B33700943E05F3C0000000049454E44AE4260
310
82
  0
ENDSEC
  0
EOF
