  0
SECTION
  2
HEADER
  9
$ACADVER
  1
AC1015
  9
$ACADMAINTVER
 70
     6
  9
$DWGCODEPAGE
  3
ANSI_1252
  9
$INSBASE
 10
0.0
 20
0.0
 30
0.0
  9
$EXTMIN
 10
-615.319
 20
-90.072
 30
0.0
  9
$EXTMAX
 10
7584.682
 20
3709.929
 30
0.0
  9
$LIMMIN
 10
-14590.7188
 20
-16265.4718
  9
$LIMMAX
 10
21560.0818
 20
19885.3288
  9
$ORTHOMODE
 70
     0
  9
$REGENMODE
 70
     1
  9
$FILLMODE
 70
     1
  9
$QTEXTMODE
 70
     0
  9
$MIRRTEXT
 70
     1
  9
$LTSCALE
 40
1.0
  9
$ATTMODE
 70
     1
  9
$TEXTSIZE
 40
100.0
  9
$TRACEWID
 40
0.05
  9
$TEXTSTYLE
  7
Standard
  9
$CLAYER
  8
Level 15
  9
$CELTYPE
  6
DGN Style 2
  9
$CECOLOR
 62
     7
  9
$CELTSCALE
 40
1.0
  9
$DISPSILH
 70
     0
  9
$DIMSCALE
 40
1.0
  9
$DIMASZ
 40
100.0
  9
$DIMEXO
 40
50.0
  9
$DIMDLI
 40
0.0
  9
$DIMRND
 40
0.0
  9
$DIMDLE
 40
0.0
  9
$DIMEXE
 40
50.0
  9
$DIMTP
 40
0.0
  9
$DIMTM
 40
0.0
  9
$DIMTXT
 40
100.0
  9
$DIMCEN
 40
0.09
  9
$DIMTSZ
 40
0.0
  9
$DIMTOL
 70
     0
  9
$DIMLIM
 70
     0
  9
$DIMTIH
 70
     0
  9
$DIMTOH
 70
     0
  9
$DIMSE1
 70
     0
  9
$DIMSE2
 70
     0
  9
$DIMTAD
 70
     1
  9
$DIMZIN
 70
    11
  9
$DIMBLK
  1
TerminatorOpen_0.5
  9
$DIMASO
 70
     1
  9
$DIMSHO
 70
     1
  9
$DIMPOST
  1

  9
$DIMAPOST
  1

  9
$DIMALT
 70
     0
  9
$DIMALTD
 70
     4
  9
$DIMALTF
 40
25.4
  9
$DIMLFAC
 40
1.0
  9
$DIMTOFL
 70
     0
  9
$DIMTVP
 40
0.0
  9
$DIMTIX
 70
     0
  9
$DIMSOXD
 70
     0
  9
$DIMSAH
 70
     0
  9
$DIMBLK1
  1

  9
$DIMBLK2
  1

  9
$DIMSTYLE
  2
Standard
  9
$DIMCLRD
 70
     0
  9
$DIMCLRE
 70
     0
  9
$DIMCLRT
 70
     0
  9
$DIMTFAC
 40
1.0
  9
$DIMGAP
 40
50.0
  9
$DIMJUST
 70
     0
  9
$DIMSD1
 70
     0
  9
$DIMSD2
 70
     0
  9
$DIMTOLJ
 70
     0
  9
$DIMTZIN
 70
    11
  9
$DIMALTZ
 70
    15
  9
$DIMALTTZ
 70
    15
  9
$DIMUPT
 70
     0
  9
$DIMDEC
 70
     0
  9
$DIMTDEC
 70
     0
  9
$DIMALTU
 70
     2
  9
$DIMALTTD
 70
     4
  9
$DIMTXSTY
  7
Style-ENGINEERING
  9
$DIMAUNIT
 70
     0
  9
$DIMADEC
 70
     0
  9
$DIMALTRND
 40
0.0
  9
$DIMAZIN
 70
     3
  9
$DIMDSEP
 70
    46
  9
$DIMATFIT
 70
     3
  9
$DIMFRAC
 70
     2
  9
$DIMLDRBLK
  1
TerminatorOpen_0.5
  9
$DIMLUNIT
 70
     2
  9
$DIMLWD
 70
    -2
  9
$DIMLWE
 70
    -2
  9
$DIMTMOVE
 70
     0
  9
$LUNITS
 70
     2
  9
$LUPREC
 70
     0
  9
$SKETCHINC
 40
0.1
  9
$FILLETRAD
 40
0.5
  9
$AUNITS
 70
     0
  9
$AUPREC
 70
     0
  9
$MENU
  1
.
  9
$ELEVATION
 40
0.0
  9
$PELEVATION
 40
0.0
  9
$THICKNESS
 40
0.0
  9
$LIMCHECK
 70
     0
  9
$CHAMFERA
 40
0.5
  9
$CHAMFERB
 40
0.5
  9
$CHAMFERC
 40
1.0
  9
$CHAMFERD
 40
0.0
  9
$SKPOLY
 70
     0
  9
$TDCREATE
 40
2451789.870802037
  9
$TDUCREATE
 40
2451789.537468704
  9
$TDUPDATE
 40
2451789.87089463
  9
$TDUUPDATE
 40
2451789.537561297
  9
$TDINDWG
 40
0.0000927662
  9
$TDUSRTIMER
 40
0.0000925926
  9
$USRTIMER
 70
     1
  9
$ANGBASE
 50
0.0
  9
$ANGDIR
 70
     0
  9
$PDMODE
 70
     0
  9
$PDSIZE
 40
0.0
  9
$PLINEWID
 40
0.0
  9
$SPLFRAME
 70
     0
  9
$SPLINETYPE
 70
     6
  9
$SPLINESEGS
 70
     8
  9
$HANDSEED
  5
7C950
  9
$SURFTAB1
 70
     6
  9
$SURFTAB2
 70
     6
  9
$SURFTYPE
 70
     6
  9
$SURFU
 70
     6
  9
$SURFV
 70
     6
  9
$UCSBASE
  2

  9
$UCSNAME
  2

  9
$UCSORG
 10
0.0
 20
0.0
 30
0.0
  9
$UCSXDIR
 10
1.0
 20
0.0
 30
0.0
  9
$UCSYDIR
 10
0.0
 20
1.0
 30
0.0
  9
$UCSORTHOREF
  2

  9
$UCSORTHOVIEW
 70
     0
  9
$UCSORGTOP
 10
0.0
 20
0.0
 30
0.0
  9
$UCSORGBOTTOM
 10
0.0
 20
0.0
 30
0.0
  9
$UCSORGLEFT
 10
0.0
 20
0.0
 30
0.0
  9
$UCSORGRIGHT
 10
0.0
 20
0.0
 30
0.0
  9
$UCSORGFRONT
 10
0.0
 20
0.0
 30
0.0
  9
$UCSORGBACK
 10
0.0
 20
0.0
 30
0.0
  9
$PUCSBASE
  2

  9
$PUCSNAME
  2

  9
$PUCSORG
 10
0.0
 20
0.0
 30
0.0
  9
$PUCSXDIR
 10
1.0
 20
0.0
 30
0.0
  9
$PUCSYDIR
 10
0.0
 20
1.0
 30
0.0
  9
$PUCSORTHOREF
  2

  9
$PUCSORTHOVIEW
 70
     0
  9
$PUCSORGTOP
 10
0.0
 20
0.0
 30
0.0
  9
$PUCSORGBOTTOM
 10
0.0
 20
0.0
 30
0.0
  9
$PUCSORGLEFT
 10
0.0
 20
0.0
 30
0.0
  9
$PUCSORGRIGHT
 10
0.0
 20
0.0
 30
0.0
  9
$PUCSORGFRONT
 10
0.0
 20
0.0
 30
0.0
  9
$PUCSORGBACK
 10
0.0
 20
0.0
 30
0.0
  9
$USERI1
 70
     0
  9
$USERI2
 70
     0
  9
$USERI3
 70
     0
  9
$USERI4
 70
     0
  9
$USERI5
 70
     0
  9
$USERR1
 40
0.0
  9
$USERR2
 40
0.0
  9
$USERR3
 40
0.0
  9
$USERR4
 40
0.0
  9
$USERR5
 40
0.0
  9
$WORLDVIEW
 70
     1
  9
$SHADEDGE
 70
     3
  9
$SHADEDIF
 70
    70
  9
$TILEMODE
 70
     1
  9
$MAXACTVP
 70
    64
  9
$PINSBASE
 10
0.0
 20
0.0
 30
0.0
  9
$PLIMCHECK
 70
     0
  9
$PEXTMIN
 10
1.000000E+20
 20
1.000000E+20
 30
1.000000E+20
  9
$PEXTMAX
 10
-1.000000E+20
 20
-1.000000E+20
 30
-1.000000E+20
  9
$PLIMMIN
 10
0.0
 20
0.0
  9
$PLIMMAX
 10
12.0
 20
9.0
  9
$UNITMODE
 70
     0
  9
$VISRETAIN
 70
     1
  9
$PLINEGEN
 70
     0
  9
$PSLTSCALE
 70
     0
  9
$TREEDEPTH
 70
  3020
  9
$CMLSTYLE
  2
Standard
  9
$CMLJUST
 70
     0
  9
$CMLSCALE
 40
1.0
  9
$PROXYGRAPHICS
 70
     1
  9
$MEASUREMENT
 70
     0
  9
$CELWEIGHT
370
    13
  9
$ENDCAPS
280
     0
  9
$JOINSTYLE
280
     0
  9
$LWDISPLAY
290
     1
  9
$INSUNITS
 70
     4
  9
$HYPERLINKBASE
  1

  9
$STYLESHEET
  1

  9
$XEDIT
290
     1
  9
$CEPSNTYPE
380
     0
  9
$PSTYLEMODE
290
     1
  9
$FINGERPRINTGUID
  2
{FDEAD576-A652-11D2-9A35-0060089B3A3F}
  9
$VERSIONGUID
  2
{A257D680-BC79-11D2-9A46-0060089B3A3F}
  9
$EXTNAMES
290
     1
  9
$PSVPSCALE
 40
0.0
  9
$OLESTARTUP
290
     0
  0
ENDSEC
  0
SECTION
  2
CLASSES
  0
CLASS
  1
ACDBDICTIONARYWDFLT
  2
AcDbDictionaryWithDefault
  3
ObjectDBX Classes
 90
        0
280
     0
281
     0
  0
CLASS
  1
ACDBPLACEHOLDER
  2
AcDbPlaceHolder
  3
ObjectDBX Classes
 90
        0
280
     0
281
     0
  0
CLASS
  1
LAYOUT
  2
AcDbLayout
  3
ObjectDBX Classes
 90
        0
280
     0
281
     0
  0
ENDSEC
  0
SECTION
  2
TABLES
  0
TABLE
  2
VPORT
  5
7C775
330
0
100
AcDbSymbolTable
 70
     3
  0
VPORT
  5
4B
330
7C775
100
AcDbSymbolTableRecord
100
AcDbViewportTableRecord
  2
*ACTIVE
 70
     0
 10
0.0
 20
0.0
 11
1.0
 21
1.0
 12
3621.6875
 22
1680.6775
 13
0.0
 23
0.0
 14
1.0
 24
1.0
 15
1.0
 25
1.0
 16
0.0
 26
0.0
 36
1.0
 17
0.0
 27
0.0
 37
0.0
 40
4590.97912
 41
2.064189
 42
50.0
 43
0.0
 44
0.0
 50
0.0
 51
0.0
 71
     0
 72
   100
 73
     1
 74
     2
 75
     0
 76
     0
 77
     0
 78
     1
281
     0
 65
     1
110
0.0
120
0.0
130
0.0
111
1.0
121
0.0
131
0.0
112
0.0
122
1.0
132
0.0
 79
     0
146
0.0
  0
ENDTAB
  0
TABLE
  2
LTYPE
  5
7C771
330
0
100
AcDbSymbolTable
 70
     3
  0
LTYPE
  5
7C772
330
7C771
100
AcDbSymbolTableRecord
100
AcDbLinetypeTableRecord
  2
ByBlock
 70
     0
  3

 72
    65
 73
     0
 40
0.0
  0
LTYPE
  5
7C763
330
7C771
100
AcDbSymbolTableRecord
100
AcDbLinetypeTableRecord
  2
ByLayer
 70
     0
  3

 72
    65
 73
     0
 40
0.0
  0
LTYPE
  5
7C761
330
7C771
100
AcDbSymbolTableRecord
100
AcDbLinetypeTableRecord
  2
Continuous
 70
     0
  3
Solid line
 72
    65
 73
     0
 40
0.0
  0
LTYPE
  5
4E1B6
330
7C771
100
AcDbSymbolTableRecord
100
AcDbLinetypeTableRecord
  2
Continuous_1
 70
     0
  3

 72
    65
 73
     0
 40
0.0
  0
LTYPE
  5
7C78A
330
7C771
100
AcDbSymbolTableRecord
100
AcDbLinetypeTableRecord
  2
DGN Style 2
 70
     0
  3
Dgn Style 2
 72
    65
 73
     2
 40
94.766495
 49
56.859897
 74
     0
 49
-37.906598
 74
     0
  0
ENDTAB
  0
TABLE
  2
LAYER
  5
7C76F
102
{ACAD_XDICTIONARY
360
7C780
102
}
330
0
100
AcDbSymbolTable
 70
    65
  0
LAYER
  5
7C75F
330
7C76F
100
AcDbSymbolTableRecord
100
AcDbLayerTableRecord
  2
0
 70
     0
 62
     7
  6
Continuous
370
    -3
390
7C760
  0
LAYER
  5
7
330
7C76F
100
AcDbSymbolTableRecord
100
AcDbLayerTableRecord
  2
Level 1
 70
     0
 62
     7
  6
Continuous
370
     0
390
7C760
  0
LAYER
  5
8
330
7C76F
100
AcDbSymbolTableRecord
100
AcDbLayerTableRecord
  2
Level 2
 70
     0
 62
     7
  6
Continuous
370
     0
390
7C760
  0
LAYER
  5
9
330
7C76F
100
AcDbSymbolTableRecord
100
AcDbLayerTableRecord
  2
Level 3
 70
     0
 62
     7
  6
Continuous
370
     0
390
7C760
  0
LAYER
  5
A
330
7C76F
100
AcDbSymbolTableRecord
100
AcDbLayerTableRecord
  2
Level 4
 70
     0
 62
     7
  6
Continuous
370
     0
390
7C760
  0
LAYER
  5
B
330
7C76F
100
AcDbSymbolTableRecord
100
AcDbLayerTableRecord
  2
Level 5
 70
     0
 62
     7
  6
Continuous
370
     0
390
7C760
  0
LAYER
  5
C
330
7C76F
100
AcDbSymbolTableRecord
100
AcDbLayerTableRecord
  2
Level 6
 70
     0
 62
     7
  6
Continuous
370
     0
390
7C760
  0
LAYER
  5
D
330
7C76F
100
AcDbSymbolTableRecord
100
AcDbLayerTableRecord
  2
Level 7
 70
     0
 62
     7
  6
Continuous
370
     0
390
7C760
  0
LAYER
  5
E
330
7C76F
100
AcDbSymbolTableRecord
100
AcDbLayerTableRecord
  2
Level 8
 70
     0
 62
     7
  6
Continuous
370
     0
390
7C760
  0
LAYER
  5
F
330
7C76F
100
AcDbSymbolTableRecord
100
AcDbLayerTableRecord
  2
Level 9
 70
     0
 62
     7
  6
Continuous
370
     0
390
7C760
  0
LAYER
  5
10
330
7C76F
100
AcDbSymbolTableRecord
100
AcDbLayerTableRecord
  2
Level 10
 70
     0
 62
     7
  6
Continuous
370
     0
390
7C760
  0
LAYER
  5
11
330
7C76F
100
AcDbSymbolTableRecord
100
AcDbLayerTableRecord
  2
Level 11
 70
     0
 62
     7
  6
Continuous
370
     0
390
7C760
  0
LAYER
  5
12
330
7C76F
100
AcDbSymbolTableRecord
100
AcDbLayerTableRecord
  2
Level 12
 70
     0
 62
     7
  6
Continuous
370
     0
390
7C760
  0
LAYER
  5
13
330
7C76F
100
AcDbSymbolTableRecord
100
AcDbLayerTableRecord
  2
Level 13
 70
     0
 62
     7
  6
Continuous
370
     0
390
7C760
  0
LAYER
  5
14
330
7C76F
100
AcDbSymbolTableRecord
100
AcDbLayerTableRecord
  2
Level 14
 70
     0
 62
     7
  6
Continuous
370
     0
390
7C760
  0
LAYER
  5
15
330
7C76F
100
AcDbSymbolTableRecord
100
AcDbLayerTableRecord
  2
Level 15
 70
     0
 62
     7
  6
Continuous
370
     0
390
7C760
  0
LAYER
  5
16
330
7C76F
100
AcDbSymbolTableRecord
100
AcDbLayerTableRecord
  2
Level 16
 70
     0
 62
     7
  6
Continuous
370
     0
390
7C760
  0
LAYER
  5
17
330
7C76F
100
AcDbSymbolTableRecord
100
AcDbLayerTableRecord
  2
Level 17
 70
     0
 62
     7
  6
Continuous
370
     0
390
7C760
  0
LAYER
  5
18
330
7C76F
100
AcDbSymbolTableRecord
100
AcDbLayerTableRecord
  2
Level 18
 70
     0
 62
     7
  6
Continuous
370
     0
390
7C760
  0
LAYER
  5
19
330
7C76F
100
AcDbSymbolTableRecord
100
AcDbLayerTableRecord
  2
Level 19
 70
     0
 62
     7
  6
Continuous
370
     0
390
7C760
  0
LAYER
  5
1A
330
7C76F
100
AcDbSymbolTableRecord
100
AcDbLayerTableRecord
  2
Level 20
 70
     0
 62
     7
  6
Continuous
370
     0
390
7C760
  0
LAYER
  5
1B
330
7C76F
100
AcDbSymbolTableRecord
100
AcDbLayerTableRecord
  2
Level 21
 70
     0
 62
     7
  6
Continuous
370
     0
390
7C760
  0
LAYER
  5
1C
330
7C76F
100
AcDbSymbolTableRecord
100
AcDbLayerTableRecord
  2
Level 22
 70
     0
 62
     7
  6
Continuous
370
     0
390
7C760
  0
LAYER
  5
1D
330
7C76F
100
AcDbSymbolTableRecord
100
AcDbLayerTableRecord
  2
Level 23
 70
     0
 62
     7
  6
Continuous
370
     0
390
7C760
  0
LAYER
  5
1E
330
7C76F
100
AcDbSymbolTableRecord
100
AcDbLayerTableRecord
  2
Level 24
 70
     0
 62
     7
  6
Continuous
370
     0
390
7C760
  0
LAYER
  5
1F
330
7C76F
100
AcDbSymbolTableRecord
100
AcDbLayerTableRecord
  2
Level 25
 70
     0
 62
     7
  6
Continuous
370
     0
390
7C760
  0
LAYER
  5
20
330
7C76F
100
AcDbSymbolTableRecord
100
AcDbLayerTableRecord
  2
Level 26
 70
     0
 62
     7
  6
Continuous
370
     0
390
7C760
  0
LAYER
  5
21
330
7C76F
100
AcDbSymbolTableRecord
100
AcDbLayerTableRecord
  2
Level 27
 70
     0
 62
     7
  6
Continuous
370
     0
390
7C760
  0
LAYER
  5
22
330
7C76F
100
AcDbSymbolTableRecord
100
AcDbLayerTableRecord
  2
Level 28
 70
     0
 62
     7
  6
Continuous
370
     0
390
7C760
  0
LAYER
  5
23
330
7C76F
100
AcDbSymbolTableRecord
100
AcDbLayerTableRecord
  2
Level 29
 70
     0
 62
     7
  6
Continuous
370
     0
390
7C760
  0
LAYER
  5
24
330
7C76F
100
AcDbSymbolTableRecord
100
AcDbLayerTableRecord
  2
Level 30
 70
     0
 62
     7
  6
Continuous
370
     0
390
7C760
  0
LAYER
  5
25
330
7C76F
100
AcDbSymbolTableRecord
100
AcDbLayerTableRecord
  2
Level 31
 70
     0
 62
     7
  6
Continuous
370
     0
390
7C760
  0
LAYER
  5
26
330
7C76F
100
AcDbSymbolTableRecord
100
AcDbLayerTableRecord
  2
Level 32
 70
     0
 62
     7
  6
Continuous
370
     0
390
7C760
  0
LAYER
  5
27
330
7C76F
100
AcDbSymbolTableRecord
100
AcDbLayerTableRecord
  2
Level 33
 70
     0
 62
     7
  6
Continuous
370
     0
390
7C760
  0
LAYER
  5
28
330
7C76F
100
AcDbSymbolTableRecord
100
AcDbLayerTableRecord
  2
Level 34
 70
     0
 62
     7
  6
Continuous
370
     0
390
7C760
  0
LAYER
  5
29
330
7C76F
100
AcDbSymbolTableRecord
100
AcDbLayerTableRecord
  2
Level 35
 70
     0
 62
     7
  6
Continuous
370
     0
390
7C760
  0
LAYER
  5
2A
330
7C76F
100
AcDbSymbolTableRecord
100
AcDbLayerTableRecord
  2
Level 36
 70
     0
 62
     7
  6
Continuous
370
     0
390
7C760
  0
LAYER
  5
2B
330
7C76F
100
AcDbSymbolTableRecord
100
AcDbLayerTableRecord
  2
Level 37
 70
     0
 62
     7
  6
Continuous
370
     0
390
7C760
  0
LAYER
  5
2C
330
7C76F
100
AcDbSymbolTableRecord
100
AcDbLayerTableRecord
  2
Level 38
 70
     0
 62
     7
  6
Continuous
370
     0
390
7C760
  0
LAYER
  5
2D
330
7C76F
100
AcDbSymbolTableRecord
100
AcDbLayerTableRecord
  2
Level 39
 70
     0
 62
     7
  6
Continuous
370
     0
390
7C760
  0
LAYER
  5
2E
330
7C76F
100
AcDbSymbolTableRecord
100
AcDbLayerTableRecord
  2
Level 40
 70
     0
 62
     7
  6
Continuous
370
     0
390
7C760
  0
LAYER
  5
2F
330
7C76F
100
AcDbSymbolTableRecord
100
AcDbLayerTableRecord
  2
Level 41
 70
     0
 62
     7
  6
Continuous
370
     0
390
7C760
  0
LAYER
  5
30
330
7C76F
100
AcDbSymbolTableRecord
100
AcDbLayerTableRecord
  2
Level 42
 70
     0
 62
     7
  6
Continuous
370
     0
390
7C760
  0
LAYER
  5
31
330
7C76F
100
AcDbSymbolTableRecord
100
AcDbLayerTableRecord
  2
Level 43
 70
     0
 62
     7
  6
Continuous
370
     0
390
7C760
  0
LAYER
  5
32
330
7C76F
100
AcDbSymbolTableRecord
100
AcDbLayerTableRecord
  2
Level 44
 70
     0
 62
     7
  6
Continuous
370
     0
390
7C760
  0
LAYER
  5
33
330
7C76F
100
AcDbSymbolTableRecord
100
AcDbLayerTableRecord
  2
Level 45
 70
     0
 62
     7
  6
Continuous
370
     0
390
7C760
  0
LAYER
  5
34
330
7C76F
100
AcDbSymbolTableRecord
100
AcDbLayerTableRecord
  2
Level 46
 70
     0
 62
     7
  6
Continuous
370
     0
390
7C760
  0
LAYER
  5
35
330
7C76F
100
AcDbSymbolTableRecord
100
AcDbLayerTableRecord
  2
Level 47
 70
     0
 62
     7
  6
Continuous
370
     0
390
7C760
  0
LAYER
  5
36
330
7C76F
100
AcDbSymbolTableRecord
100
AcDbLayerTableRecord
  2
Level 48
 70
     0
 62
     7
  6
Continuous
370
     0
390
7C760
  0
LAYER
  5
37
330
7C76F
100
AcDbSymbolTableRecord
100
AcDbLayerTableRecord
  2
Level 49
 70
     0
 62
     7
  6
Continuous
370
     0
390
7C760
  0
LAYER
  5
38
330
7C76F
100
AcDbSymbolTableRecord
100
AcDbLayerTableRecord
  2
Level 50
 70
     0
 62
     7
  6
Continuous
370
     0
390
7C760
  0
LAYER
  5
39
330
7C76F
100
AcDbSymbolTableRecord
100
AcDbLayerTableRecord
  2
Level 51
 70
     0
 62
     7
  6
Continuous
370
     0
390
7C760
  0
LAYER
  5
3A
330
7C76F
100
AcDbSymbolTableRecord
100
AcDbLayerTableRecord
  2
Level 52
 70
     0
 62
     7
  6
Continuous
370
     0
390
7C760
  0
LAYER
  5
3B
330
7C76F
100
AcDbSymbolTableRecord
100
AcDbLayerTableRecord
  2
Level 53
 70
     0
 62
     7
  6
Continuous
370
     0
390
7C760
  0
LAYER
  5
3C
330
7C76F
100
AcDbSymbolTableRecord
100
AcDbLayerTableRecord
  2
Level 54
 70
     0
 62
     7
  6
Continuous
370
     0
390
7C760
  0
LAYER
  5
3D
330
7C76F
100
AcDbSymbolTableRecord
100
AcDbLayerTableRecord
  2
Level 55
 70
     0
 62
     7
  6
Continuous
370
     0
390
7C760
  0
LAYER
  5
3E
330
7C76F
100
AcDbSymbolTableRecord
100
AcDbLayerTableRecord
  2
Level 56
 70
     0
 62
     7
  6
Continuous
370
     0
390
7C760
  0
LAYER
  5
3F
330
7C76F
100
AcDbSymbolTableRecord
100
AcDbLayerTableRecord
  2
Level 57
 70
     0
 62
     7
  6
Continuous
370
     0
390
7C760
  0
LAYER
  5
40
330
7C76F
100
AcDbSymbolTableRecord
100
AcDbLayerTableRecord
  2
Level 58
 70
     0
 62
     7
  6
Continuous
370
     0
390
7C760
  0
LAYER
  5
41
330
7C76F
100
AcDbSymbolTableRecord
100
AcDbLayerTableRecord
  2
Level 59
 70
     0
 62
     7
  6
Continuous
370
     0
390
7C760
  0
LAYER
  5
42
330
7C76F
100
AcDbSymbolTableRecord
100
AcDbLayerTableRecord
  2
Level 60
 70
     0
 62
     7
  6
Continuous
370
     0
390
7C760
  0
LAYER
  5
43
330
7C76F
100
AcDbSymbolTableRecord
100
AcDbLayerTableRecord
  2
Level 61
 70
     0
 62
     7
  6
Continuous
370
     0
390
7C760
  0
LAYER
  5
44
330
7C76F
100
AcDbSymbolTableRecord
100
AcDbLayerTableRecord
  2
Level 62
 70
     0
 62
     7
  6
Continuous
370
     0
390
7C760
  0
LAYER
  5
45
330
7C76F
100
AcDbSymbolTableRecord
100
AcDbLayerTableRecord
  2
Level 63
 70
     0
 62
     7
  6
Continuous
370
     0
390
7C760
  0
LAYER
  5
50CA0
330
7C76F
100
AcDbSymbolTableRecord
100
AcDbLayerTableRecord
  2
25
 70
     0
 62
     7
  6
Continuous
370
     0
390
7C760
  0
ENDTAB
  0
TABLE
  2
STYLE
  5
7C770
330
0
100
AcDbSymbolTable
 70
     2
  0
STYLE
  5
7C762
330
7C770
100
AcDbSymbolTableRecord
100
AcDbTextStyleTableRecord
  2
Standard
 70
     0
 40
0.0
 41
1.0
 50
0.0
 71
     0
 42
100.0
  3
txt
  4

  0
STYLE
  5
7C78B
330
7C770
100
AcDbSymbolTableRecord
100
AcDbTextStyleTableRecord
  2
Style-ENGINEERING
 70
     0
 40
0.0
 41
1.0
 50
0.0
 71
     0
 42
0.2
  3
ENGINEERING.shx
  4

  0
ENDTAB
  0
TABLE
  2
VIEW
  5
7C773
330
0
100
AcDbSymbolTable
 70
     0
  0
ENDTAB
  0
TABLE
  2
UCS
  5
7C774
330
0
100
AcDbSymbolTable
 70
     0
  0
ENDTAB
  0
TABLE
  2
APPID
  5
7C776
330
0
100
AcDbSymbolTable
 70
     1
  0
APPID
  5
7C77E
330
7C776
100
AcDbSymbolTableRecord
100
AcDbRegAppTableRecord
  2
ACAD
 70
     0
  0
ENDTAB
  0
TABLE
  2
DIMSTYLE
  5
7C777
330
0
100
AcDbSymbolTable
 70
     1
100
AcDbDimStyleTable
  0
DIMSTYLE
105
7C764
330
7C777
100
AcDbSymbolTableRecord
100
AcDbDimStyleTableRecord
  2
Standard
 70
     0
340
7C762
  0
ENDTAB
  0
TABLE
  2
BLOCK_RECORD
  5
7C766
330
0
100
AcDbSymbolTable
 70
    75
  0
BLOCK_RECORD
  5
7C767
330
7C766
100
AcDbSymbolTableRecord
100
AcDbBlockTableRecord
  2
*Model_Space
340
7C76A
  0
BLOCK_RECORD
  5
7C76B
330
7C766
100
AcDbSymbolTableRecord
100
AcDbBlockTableRecord
  2
*Paper_Space
340
7C76E
  0
BLOCK_RECORD
  5
7C705
330
7C766
100
AcDbSymbolTableRecord
100
AcDbBlockTableRecord
  2
*U0
340
0
  0
BLOCK_RECORD
  5
7C72C
330
7C766
100
AcDbSymbolTableRecord
100
AcDbBlockTableRecord
  2
*U1
340
0
  0
BLOCK_RECORD
  5
7C753
330
7C766
100
AcDbSymbolTableRecord
100
AcDbBlockTableRecord
  2
*U2
340
0
  0
BLOCK_RECORD
  5
7C755
330
7C766
100
AcDbSymbolTableRecord
100
AcDbBlockTableRecord
  2
*U3
340
0
  0
BLOCK_RECORD
  5
7C78C
330
7C766
100
AcDbSymbolTableRecord
100
AcDbBlockTableRecord
  2
TerminatorOpen_0.5
340
0
  0
BLOCK_RECORD
  5
7C793
330
7C766
100
AcDbSymbolTableRecord
100
AcDbBlockTableRecord
  2
SW26
340
0
102
{BLKREFS
331
7C329
102
}
  0
BLOCK_RECORD
  5
7C796
330
7C766
100
AcDbSymbolTableRecord
100
AcDbBlockTableRecord
  2
Smart Solid
340
0
102
{BLKREFS
331
7C32D
102
}
  0
BLOCK_RECORD
  5
7C799
330
7C766
100
AcDbSymbolTableRecord
100
AcDbBlockTableRecord
  2
Smart Solid_1
340
0
102
{BLKREFS
331
7C338
102
}
  0
BLOCK_RECORD
  5
7C79C
330
7C766
100
AcDbSymbolTableRecord
100
AcDbBlockTableRecord
  2
Smart Solid_2
340
0
102
{BLKREFS
331
7C343
102
}
  0
BLOCK_RECORD
  5
7C79F
330
7C766
100
AcDbSymbolTableRecord
100
AcDbBlockTableRecord
  2
Smart Solid_3
340
0
102
{BLKREFS
331
7C34B
102
}
  0
BLOCK_RECORD
  5
7C7A2
330
7C766
100
AcDbSymbolTableRecord
100
AcDbBlockTableRecord
  2
Smart Solid_4
340
0
102
{BLKREFS
331
7C35B
102
}
  0
BLOCK_RECORD
  5
7C7A5
330
7C766
100
AcDbSymbolTableRecord
100
AcDbBlockTableRecord
  2
Smart Solid_5
340
0
102
{BLKREFS
331
7C37F
102
}
  0
BLOCK_RECORD
  5
7C7A8
330
7C766
100
AcDbSymbolTableRecord
100
AcDbBlockTableRecord
  2
Smart Solid_6
340
0
102
{BLKREFS
331
7C3A3
102
}
  0
BLOCK_RECORD
  5
7C7AB
330
7C766
100
AcDbSymbolTableRecord
100
AcDbBlockTableRecord
  2
Smart Solid_7
340
0
102
{BLKREFS
331
7C3AB
102
}
  0
BLOCK_RECORD
  5
7C7AE
330
7C766
100
AcDbSymbolTableRecord
100
AcDbBlockTableRecord
  2
Smart Solid_8
340
0
102
{BLKREFS
331
7C3B3
102
}
  0
BLOCK_RECORD
  5
7C7B1
330
7C766
100
AcDbSymbolTableRecord
100
AcDbBlockTableRecord
  2
Smart Solid_9
340
0
102
{BLKREFS
331
7C3C3
102
}
  0
BLOCK_RECORD
  5
7C7B4
330
7C766
100
AcDbSymbolTableRecord
100
AcDbBlockTableRecord
  2
Smart Solid_10
340
0
102
{BLKREFS
331
7C3E7
102
}
  0
BLOCK_RECORD
  5
7C7B7
330
7C766
100
AcDbSymbolTableRecord
100
AcDbBlockTableRecord
  2
Smart Solid_11
340
0
102
{BLKREFS
331
7C40B
102
}
  0
BLOCK_RECORD
  5
7C7BA
330
7C766
100
AcDbSymbolTableRecord
100
AcDbBlockTableRecord
  2
Feature Solid
340
0
102
{BLKREFS
331
7C413
102
}
  0
BLOCK_RECORD
  5
7C7BD
330
7C766
100
AcDbSymbolTableRecord
100
AcDbBlockTableRecord
  2
UNITE
340
0
102
{BLKREFS
331
7C414
102
}
  0
BLOCK_RECORD
  5
7C7C0
330
7C766
100
AcDbSymbolTableRecord
100
AcDbBlockTableRecord
  2
Feature Solid_1
340
0
102
{BLKREFS
331
7C415
102
}
  0
BLOCK_RECORD
  5
7C7C3
330
7C766
100
AcDbSymbolTableRecord
100
AcDbBlockTableRecord
  2
RMFACE
340
0
102
{BLKREFS
331
7C416
102
}
  0
BLOCK_RECORD
  5
7C7C6
330
7C766
100
AcDbSymbolTableRecord
100
AcDbBlockTableRecord
  2
RMFACE_1
340
0
102
{BLKREFS
331
7C417
102
}
  0
BLOCK_RECORD
  5
7C7C9
330
7C766
100
AcDbSymbolTableRecord
100
AcDbBlockTableRecord
  2
RMFACE_2
340
0
102
{BLKREFS
331
7C418
102
}
  0
BLOCK_RECORD
  5
7C7CC
330
7C766
100
AcDbSymbolTableRecord
100
AcDbBlockTableRecord
  2
RMFACE_3
340
0
102
{BLKREFS
331
7C419
102
}
  0
BLOCK_RECORD
  5
7C7CF
330
7C766
100
AcDbSymbolTableRecord
100
AcDbBlockTableRecord
  2
ROUNDE
340
0
102
{BLKREFS
331
7C41A
102
}
  0
BLOCK_RECORD
  5
7C7D2
330
7C766
100
AcDbSymbolTableRecord
100
AcDbBlockTableRecord
  2
ROUNDE_1
340
0
102
{BLKREFS
331
7C41B
102
}
  0
BLOCK_RECORD
  5
7C7D5
330
7C766
100
AcDbSymbolTableRecord
100
AcDbBlockTableRecord
  2
ROUNDE_2
340
0
102
{BLKREFS
331
7C41C
102
}
  0
BLOCK_RECORD
  5
7C7D8
330
7C766
100
AcDbSymbolTableRecord
100
AcDbBlockTableRecord
  2
ROUNDE_3
340
0
102
{BLKREFS
331
7C41D
102
}
  0
BLOCK_RECORD
  5
7C7DB
330
7C766
100
AcDbSymbolTableRecord
100
AcDbBlockTableRecord
  2
SOLID
340
0
102
{BLKREFS
331
7C41E
102
}
  0
BLOCK_RECORD
  5
7C7DE
330
7C766
100
AcDbSymbolTableRecord
100
AcDbBlockTableRecord
  2
Feature Solid_2
340
0
102
{BLKREFS
331
7C427
102
}
  0
BLOCK_RECORD
  5
7C7E1
330
7C766
100
AcDbSymbolTableRecord
100
AcDbBlockTableRecord
  2
RMFACE_4
340
0
102
{BLKREFS
331
7C428
102
}
  0
BLOCK_RECORD
  5
7C7E4
330
7C766
100
AcDbSymbolTableRecord
100
AcDbBlockTableRecord
  2
RMFACE_5
340
0
102
{BLKREFS
331
7C429
102
}
  0
BLOCK_RECORD
  5
7C7E7
330
7C766
100
AcDbSymbolTableRecord
100
AcDbBlockTableRecord
  2
RMFACE_6
340
0
102
{BLKREFS
331
7C42A
102
}
  0
BLOCK_RECORD
  5
7C7EA
330
7C766
100
AcDbSymbolTableRecord
100
AcDbBlockTableRecord
  2
RMFACE_7
340
0
102
{BLKREFS
331
7C42B
102
}
  0
BLOCK_RECORD
  5
7C7ED
330
7C766
100
AcDbSymbolTableRecord
100
AcDbBlockTableRecord
  2
ROUNDE_4
340
0
102
{BLKREFS
331
7C42C
102
}
  0
BLOCK_RECORD
  5
7C7F0
330
7C766
100
AcDbSymbolTableRecord
100
AcDbBlockTableRecord
  2
ROUNDE_5
340
0
102
{BLKREFS
331
7C42D
102
}
  0
BLOCK_RECORD
  5
7C7F3
330
7C766
100
AcDbSymbolTableRecord
100
AcDbBlockTableRecord
  2
ROUNDE_6
340
0
102
{BLKREFS
331
7C42E
102
}
  0
BLOCK_RECORD
  5
7C7F6
330
7C766
100
AcDbSymbolTableRecord
100
AcDbBlockTableRecord
  2
ROUNDE_7
340
0
102
{BLKREFS
331
7C42F
102
}
  0
BLOCK_RECORD
  5
7C7F9
330
7C766
100
AcDbSymbolTableRecord
100
AcDbBlockTableRecord
  2
SOLID_1
340
0
102
{BLKREFS
331
7C430
102
}
  0
BLOCK_RECORD
  5
7C7FC
330
7C766
100
AcDbSymbolTableRecord
100
AcDbBlockTableRecord
  2
Feature Solid_3
340
0
102
{BLKREFS
331
7C441
102
}
  0
BLOCK_RECORD
  5
7C7FF
330
7C766
100
AcDbSymbolTableRecord
100
AcDbBlockTableRecord
  2
CUT
340
0
102
{BLKREFS
331
7C442
102
}
  0
BLOCK_RECORD
  5
7C802
330
7C766
100
AcDbSymbolTableRecord
100
AcDbBlockTableRecord
  2
SOLID_2
340
0
102
{BLKREFS
331
7C443
102
}
  0
BLOCK_RECORD
  5
7C805
330
7C766
100
AcDbSymbolTableRecord
100
AcDbBlockTableRecord
  2
Feature Solid_4
340
0
102
{BLKREFS
331
7C44A
102
}
  0
BLOCK_RECORD
  5
7C808
330
7C766
100
AcDbSymbolTableRecord
100
AcDbBlockTableRecord
  2
SLAB
340
0
102
{BLKREFS
331
7C44B
102
}
  0
BLOCK_RECORD
  5
7C80B
330
7C766
100
AcDbSymbolTableRecord
100
AcDbBlockTableRecord
  2
Feature Solid_5
340
0
102
{BLKREFS
331
7C458
102
}
  0
BLOCK_RECORD
  5
7C80E
330
7C766
100
AcDbSymbolTableRecord
100
AcDbBlockTableRecord
  2
UNITE_1
340
0
102
{BLKREFS
331
7C459
102
}
  0
BLOCK_RECORD
  5
7C811
330
7C766
100
AcDbSymbolTableRecord
100
AcDbBlockTableRecord
  2
Feature Solid_6
340
0
102
{BLKREFS
331
7C45A
102
}
  0
BLOCK_RECORD
  5
7C814
330
7C766
100
AcDbSymbolTableRecord
100
AcDbBlockTableRecord
  2
RMFACE_8
340
0
102
{BLKREFS
331
7C45B
102
}
  0
BLOCK_RECORD
  5
7C817
330
7C766
100
AcDbSymbolTableRecord
100
AcDbBlockTableRecord
  2
RMFACE_9
340
0
102
{BLKREFS
331
7C45C
102
}
  0
BLOCK_RECORD
  5
7C81A
330
7C766
100
AcDbSymbolTableRecord
100
AcDbBlockTableRecord
  2
RMFACE_10
340
0
102
{BLKREFS
331
7C45D
102
}
  0
BLOCK_RECORD
  5
7C81D
330
7C766
100
AcDbSymbolTableRecord
100
AcDbBlockTableRecord
  2
RMFACE_11
340
0
102
{BLKREFS
331
7C45E
102
}
  0
BLOCK_RECORD
  5
7C820
330
7C766
100
AcDbSymbolTableRecord
100
AcDbBlockTableRecord
  2
ROUNDE_8
340
0
102
{BLKREFS
331
7C45F
102
}
  0
BLOCK_RECORD
  5
7C823
330
7C766
100
AcDbSymbolTableRecord
100
AcDbBlockTableRecord
  2
ROUNDE_9
340
0
102
{BLKREFS
331
7C460
102
}
  0
BLOCK_RECORD
  5
7C826
330
7C766
100
AcDbSymbolTableRecord
100
AcDbBlockTableRecord
  2
ROUNDE_10
340
0
102
{BLKREFS
331
7C461
102
}
  0
BLOCK_RECORD
  5
7C829
330
7C766
100
AcDbSymbolTableRecord
100
AcDbBlockTableRecord
  2
ROUNDE_11
340
0
102
{BLKREFS
331
7C462
102
}
  0
BLOCK_RECORD
  5
7C82C
330
7C766
100
AcDbSymbolTableRecord
100
AcDbBlockTableRecord
  2
SOLID_3
340
0
102
{BLKREFS
331
7C463
102
}
  0
BLOCK_RECORD
  5
7C82F
330
7C766
100
AcDbSymbolTableRecord
100
AcDbBlockTableRecord
  2
Feature Solid_7
340
0
102
{BLKREFS
331
7C46C
102
}
  0
BLOCK_RECORD
  5
7C832
330
7C766
100
AcDbSymbolTableRecord
100
AcDbBlockTableRecord
  2
RMFACE_12
340
0
102
{BLKREFS
331
7C46D
102
}
  0
BLOCK_RECORD
  5
7C835
330
7C766
100
AcDbSymbolTableRecord
100
AcDbBlockTableRecord
  2
RMFACE_13
340
0
102
{BLKREFS
331
7C46E
102
}
  0
BLOCK_RECORD
  5
7C838
330
7C766
100
AcDbSymbolTableRecord
100
AcDbBlockTableRecord
  2
RMFACE_14
340
0
102
{BLKREFS
331
7C46F
102
}
  0
BLOCK_RECORD
  5
7C83B
330
7C766
100
AcDbSymbolTableRecord
100
AcDbBlockTableRecord
  2
RMFACE_15
340
0
102
{BLKREFS
331
7C470
102
}
  0
BLOCK_RECORD
  5
7C83E
330
7C766
100
AcDbSymbolTableRecord
100
AcDbBlockTableRecord
  2
ROUNDE_12
340
0
102
{BLKREFS
331
7C471
102
}
  0
BLOCK_RECORD
  5
7C841
330
7C766
100
AcDbSymbolTableRecord
100
AcDbBlockTableRecord
  2
ROUNDE_13
340
0
102
{BLKREFS
331
7C472
102
}
  0
BLOCK_RECORD
  5
7C844
330
7C766
100
AcDbSymbolTableRecord
100
AcDbBlockTableRecord
  2
ROUNDE_14
340
0
102
{BLKREFS
331
7C473
102
}
  0
BLOCK_RECORD
  5
7C847
330
7C766
100
AcDbSymbolTableRecord
100
AcDbBlockTableRecord
  2
ROUNDE_15
340
0
102
{BLKREFS
331
7C474
102
}
  0
BLOCK_RECORD
  5
7C84A
330
7C766
100
AcDbSymbolTableRecord
100
AcDbBlockTableRecord
  2
SOLID_4
340
0
102
{BLKREFS
331
7C475
102
}
  0
BLOCK_RECORD
  5
7C84D
330
7C766
100
AcDbSymbolTableRecord
100
AcDbBlockTableRecord
  2
Smart Solid_12
340
0
102
{BLKREFS
331
7C486
102
}
  0
BLOCK_RECORD
  5
7C850
330
7C766
100
AcDbSymbolTableRecord
100
AcDbBlockTableRecord
  2
Smart Solid_13
340
0
102
{BLKREFS
331
7C4C9
102
}
  0
BLOCK_RECORD
  5
7C853
330
7C766
100
AcDbSymbolTableRecord
100
AcDbBlockTableRecord
  2
Smart Solid_14
340
0
102
{BLKREFS
331
7C525
102
}
  0
BLOCK_RECORD
  5
7C856
330
7C766
100
AcDbSymbolTableRecord
100
AcDbBlockTableRecord
  2
Smart Solid_15
340
0
102
{BLKREFS
331
7C568
102
}
  0
BLOCK_RECORD
  5
7C859
330
7C766
100
AcDbSymbolTableRecord
100
AcDbBlockTableRecord
  2
Smart Solid_16
340
0
102
{BLKREFS
331
7C5C4
102
}
  0
BLOCK_RECORD
  5
7C85C
330
7C766
100
AcDbSymbolTableRecord
100
AcDbBlockTableRecord
  2
Smart Solid_17
340
0
102
{BLKREFS
331
7C607
102
}
  0
BLOCK_RECORD
  5
7C85F
330
7C766
100
AcDbSymbolTableRecord
100
AcDbBlockTableRecord
  2
Smart Solid_18
340
0
102
{BLKREFS
331
7C663
102
}
  0
BLOCK_RECORD
  5
7C862
330
7C766
100
AcDbSymbolTableRecord
100
AcDbBlockTableRecord
  2
Smart Solid_19
340
0
102
{BLKREFS
331
7C6A6
102
}
  0
ENDTAB
  0
ENDSEC
  0
SECTION
  2
BLOCKS
  0
BLOCK
  5
7C768
330
7C767
100
AcDbEntity
  8
0
100
AcDbBlockBegin
  2
*Model_Space
 70
     0
 71
     0
 10
0.0
 20
0.0
 30
0.0
  3
*Model_Space
  1

  0
ENDBLK
  5
7C769
330
7C767
100
AcDbEntity
  8
0
100
AcDbBlockEnd
  0
BLOCK
  5
7C76C
330
7C76B
100
AcDbEntity
 67
     1
  8
0
100
AcDbBlockBegin
  2
*Paper_Space
 70
     0
 71
     0
 10
0.0
 20
0.0
 30
0.0
  3
*Paper_Space
  1

  0
ENDBLK
  5
7C76D
330
7C76B
100
AcDbEntity
 67
     1
  8
0
100
AcDbBlockEnd
  0
BLOCK
  5
7C782
330
7C705
100
AcDbEntity
  8
0
100
AcDbBlockBegin
  2
*U0
 70
     1
 71
     0
 10
0.0
 20
0.0
 30
0.0
  3
*U0
  1

  0
3DSOLID
  5
7C706
330
7C705
100
AcDbEntity
  8
0
  6
Continuous
 62
    20
370
    13
100
AcDbModelerGeometry
 70
     1
  1
koo moj n o 
  1
ll P/:1 [:,681 ^ 336>1<: ^ \VL ]*63;:- nm ^ \VL kqoo QK mk K7* Y:= oh omenfekh monl 
  1
n fqfffffffffffffffj:rooh n:rono 
  1
=0;& {rn {n {rn {rn |
  1
3*2/ {rn {rn {m {o |
  1
,7:33 {rn {rn {rn {l {rn {n |
  1
9><: {rn {k {j {m {rn {i 90-(>-; ,6183: |
  1
9><: {rn {h {g {m {rn {f 90-(>-; ,6183: |
  1
300/ {rn {rn {no {l |
  1
/3>1:r,*-9><: {rn rnffqfffgoljhollooh rhfqffffffffffffhhl kqooomojgljkkjmfhm o rnqooooooooooooooom o o o kmfkqfihmfjooooook 90-(>-;@) V V V V |
  1
9><: {rn {nn {nm {m {rn {nl -:):-,:; ,6183: |
  1
300/ {rn {rn {nk {k |
  1
/3>1:r,*-9><: {rn rmhoqfffgoljinmmlkh goqoooooooooooomkm kqooomojgljkkjmfhm rnqooooooooooooooom o o o o rkmfkqfihmfjooooook 90-(>-;@) V V V V |
  1
<0:;8: {rn {nj {ni {nh {ng 90-(>-; {j {rn |
  1
9><: {rn {nf {mo {m {rn {mn 90-(>-; ,6183: |
  1
300/ {rn {mm {ml {h |
  1
/3>1:r,*-9><: {rn mooqooonfikmfihonj rhfqffffffffffffhhl kqooomojgljkkjmfhm o o rnqooooooooooooooom kmfkqfihmfjooooook o o 90-(>-;@) V V V V |
  1
<0:;8: {rn {mk {mj {mi {mh -:):-,:; {g {rn |
  1
<0:;8: {rn {mg {no {mf {lo 90-(>-; {j {rn |
  1
<0:;8: {rn {no {mg {mj {ln -:):-,:; {j {rn |
  1
<0:;8: {rn {lm {ll {no {ng -:):-,:; {lk {rn |
  1
:;8: {rn {lj {li {no {lh 90-(>-; |
  1
9><: {rn {lg {lf {m {rn {ko -:):-,:; ,6183: |
  1
300/ {rn {rn {kn {nn |
  1
/3>1:r,*-9><: {rn mooqooonfikmfihonj goqoooooooooooomkm kqooomojgljkkjmfhm o nqooooooooooooooom o o o rkmfkqfihmfjooooook 90-(>-;@) V V V V |
  1
300/ {rn {km {kl {h |
  1
<0:;8: {rn {kk {kk {kj {ki -:):-,:; {nm {rn |
  1
<0:;8: {rn {kh {nk {kg {kf -:):-,:; {g {rn |
  1
<0:;8: {rn {nk {kh {ni {ln 90-(>-; {g {rn |
  1
<0:;8: {rn {jo {jn {nk {mh 90-(>-; {jm {rn |
  1
:;8: {rn {jl {jk {mi {jj 90-(>-; |
  1
<0:;8: {rn {ni {nj {jo {ji -:):-,:; {j {rn |
  1
<0:;8: {rn {jh {jg {nj {lo -:):-,:; {jf {rn |
  1
:;8: {rn {li {io {nj {in 90-(>-; |
  1
:;8: {rn {lj {jk {mj {im 90-(>-; |
  1
<0:;8: {rn {il {nh {kh {ik -:):-,:; {lk {rn |
  1
<0:;8: {rn {nh {il {jh {ij -:):-,:; {lk {rn |
  1
300/ {rn {rn {il {lg |
  1
):-+:' {rn {ik {ii |
  1
):-+:' {rn {ng {ih |
  1
,+->687+r<*-): {rn rnffqfffgoljhollooh rhfqffffffffffffhhl rlqfffhfknikjjkjgkh kmfkqfihmfkffffffj o o Y roqonijlofhjhonnjlljh Y oqnofiilmllngijoji |
  1
9><: {rn {ig {if {m {rn {ho 90-(>-; ,6183: |
  1
300/ {rn {hn {kj {nf |
  1
<01:r,*-9><: {rn mooqooonfikmfiigmj rjgqffffffffffffmkh rlqfffhfknikjjlilog nqmmkioiljlgmmmgok:roni jqgmohiiofnlkihlgl:ronk n nqlfhnokijknggmfh:ronm iqjoooooooooooooof rlqhglkfhfjflhjlgml:ronl n V V o n iqkffffffffffffffn -:):-,:; V V V V |
  1
<0:;8: {rn {hm {kg {jn {hl -:):-,:; {mo {rn |
  1
300/ {rn {hk {hj {h |
  1
<0:;8: {rn {hi {hi {hh {hg -:):-,:; {mm {rn |
  1
<0:;8: {rn {ml {ml {hf {go -:):-,:; {nm {rn |
  1
<0:;8: {rn {hf {hf {ml {ki 90-(>-; {lf {rn |
  1
:;8: {rn {gn {gm {kj {gl 90-(>-; |
  1
<0:;8: {rn {mj {mk {lm {ik 90-(>-; {g {rn |
  1
<0:;8: {rn {kn {gk {mk {kf 90-(>-; {mo {rn |
  1
:;8: {rn {gj {jl {kg {gi 90-(>-; |
  1
<0:;8: {rn {gh {mi {mg {ji 90-(>-; {jm {rn |
  1
<0:;8: {rn {mi {gh {kn {hl 90-(>-; {jm {rn |
  1
300/ {rn {rn {gh {h |
  1
):-+:' {rn {mh {gg |
  1
):-+:' {rn {ji {gf |
  1
,+->687+r<*-): {rn rmhoqfffgoljinmmlkh goqoooooooooooomkm kqooomojgljkkjmfhm o rkmfkqfihmfjooooook o Y o Y oqolhmjmfomfflmfmhjg |
  1
:;8: {rn {jk {io {jo {fo 90-(>-; |
  1
<0:;8: {rn {fn {mf {ll {ij 90-(>-; {jf {rn |
  1
<0:;8: {rn {mf {fn {gh {fm -:):-,:; {jf {rn |
  1
300/ {rn {rn {jh {fl |
  1
):-+:' {rn {fm {fk |
  1
,+->687+r<*-): {rn mhnqooonfikmfihomn rhfqffffffffffffhhl kqooomojgljkkjmfhm o o kmfkqfihmfjooooook Y roqoongimikjnkfiikinon Y o |
  1
,+->687+r<*-): {rn rmhoqfffgoljinmmlkh rhfqffffffffffffhhl kqooomojgljkkjmfhm o o kmfkqfihmfjooooook Y roqoongimikjnkfiikinon Y o |
  1
<0:;8: {rn {ll {lm {gk {fj -:):-,:; {lk {rn |
  1
:;8: {rn {gj {lj {kh {fi 90-(>-; |
  1
:;8: {rn {li {fh {jh {fg 90-(>-; |
  1
/061+ {rn rmhoqfffgoljinmmlkh rhfqffffffffffffhhl rlqfffhfknikjjkjgkh |
  1
/061+ {rn mhnqooonfikmfihomn rhfqffffffffffffhhl rlqfffhfknikjjkjgkh |
  1
9><: {rn {fl {ff {m {rn {noo -:):-,:; ,6183: |
  1
300/ {rn {non {nom {lg |
  1
/3>1:r,*-9><: {rn mooqooonfikmfihonj rhfqffffffffffffhhl rlqfffhfknikjjkjgkh o o rnqooooooooooooooom kmfkqfihmfjooooook o o 90-(>-;@) V V V V |
  1
300/ {rn {rn {nol {nf |
  1
<0:;8: {rn {gk {kn {fn {nok -:):-,:; {mo {rn |
  1
:;8: {rn {noj {jl {jn {noi 90-(>-; |
  1
300/ {rn {jm {noh {h |
  1
<0:;8: {rn {nog {nog {nof {nno -:):-,:; {km {rn |
  1
<0:;8: {rn {kl {kl {nnn {nnm -:):-,:; {mm {rn |
  1
<0:;8: {rn {nnn {nnn {kl {hg 90-(>-; {nnl {rn |
  1
:;8: {rn {nnk {nnj {hh {nni 90-(>-; |
  1
<0:;8: {rn {kj {kj {kk {go 90-(>-; {lf {rn |
  1
:;8: {rn {gm {gn {hf {nnh 90-(>-; |
  1
):-+:' {rn {go {nng |
  1
):-+:' {rn {go {nnf |
  1
:336/,:r<*-): {rn mooqooonfikmfiigmj rjgqffffffffffffmkh kqooomojgljkkimjom nqmmkioiljlgmmmgok:roni jqgmohiiofnlkihlgl:ronk n nqlfhnokijknggmfh:ronm iqjoooooooooooooof rlqhglkfhfjflhjlgml:ronl n Y o Y lqnknjfmijljgfhfmh |
  1
<0:;8: {rn {kg {hm {il {fj 90-(>-; {mo {rn |
  1
):-+:' {rn {fj {nmo |
  1
,+->687+r<*-): {rn rmhoqfffgoljinmmlkh goqoooooooooooomkm kqooomojgljkkjmfhm o o kmfkqfihmfjooooook Y roqoongimikjnkfiikinon Y o |
  1
<0:;8: {rn {jn {jo {jg {fm 90-(>-; {jm {rn |
  1
/061+ {rn rmhoqfffgoljinmmlkh goqoooooooooooomkm kqooomojgljkkjmfhm |
  1
/061+ {rn rmhoqfffgoljinmmlkh rhfqffffffffffffhhl kqooomojgljkkjmfhm |
  1
,+->687+r<*-): {rn rnffqfffgoljhollooh rhfqffffffffffffhhl kqooomojgljkkjmfhm kmfkqfihmfkffffffj o o Y roqonijlofhjhonnjlljh Y oqnofiilmllngijoji |
  1
<0:;8: {rn {jg {jh {hm {nok 90-(>-; {jf {rn |
  1
:;8: {rn {io {noj {gh {nmn 90-(>-; |
  1
9><: {rn {nmm {jf {m {rn {nml 90-(>-; ,6183: |
  1
/061+ {rn mhnqooonfikmfihomn rhfqffffffffffffhhl kqooomojgljkkjmfhm |
  1
:;8: {rn {fh {gj {gk {nmk 90-(>-; |
  1
,+->687+r<*-): {rn rmhoqfffgoljinmmlkh goqoooooooooooomkm rlqfffhfknikjjkjgkh o rkmfkqfihmfjooooook o Y o Y oqolhmjmfomfflmfmhjg |
  1
):-+:' {rn {ij {nmj |
  1
,+->687+r<*-): {rn mhnqooonfikmfihomn rhfqffffffffffffhhl rlqfffhfknikjjkjgkh o kmfkqfihmfjooooook o Y o Y oqolhmjmfomfflmfmhjg |
  1
300/ {rn {nmi {nmh {ig |
  1
<01:r,*-9><: {rn rnffqfffgoljinmmnjn rjgqffffffffffffmkh rlqfffhfknikjjlilog fqifljmmgollgjmmgf:rolo jqgmohiiofnlkihkog:ronk n rnqlfhnokijknggmffg:ronm iqjoooooooooooooof rlqhglkfhfjflhjlgml:ronl n V V o n iqkffffffffffffffn -:):-,:; V V V V |
  1
300/ {rn {nmg {nmf {lg |
  1
<0:;8: {rn {nlo {nlo {nol {nln -:):-,:; {if {rn |
  1
<0:;8: {rn {nlm {nlm {nom {nln 90-(>-; {hn {rn |
  1
:;8: {rn {fh {noj {fn {nll 90-(>-; |
  1
):-+:' {rn {hl {nlk |
  1
,+->687+r<*-): {rn mooqooonfikmfihonj goqoooooooooooomkm kqooomojgljkkjmfhm rkmfkqfihmfkffffffj o o Y roqonijlofhjholmhliin Y oqnofiilmllngklgjl |
  1
<0:;8: {rn {nlj {nlj {nmh {nli -:):-,:; {hk {rn |
  1
<0:;8: {rn {hj {hj {nlh {nlg -:):-,:; {km {rn |
  1
<0:;8: {rn {nlh {nlh {hj {nno 90-(>-; {nlf {rn |
  1
:;8: {rn {nko {nkn {nof {nkm 90-(>-; |
  1
<0:;8: {rn {hh {hh {hi {nnm 90-(>-; {nnl {rn |
  1
:;8: {rn {nnj {nnk {nnn {nkl 90-(>-; |
  1
300/ {rn {nkk {hh {nkj |
  1
):-+:' {rn {nnm {nki |
  1
):-+:' {rn {nnm {nkh |
  1
:336/,:r<*-): {rn mooqooonfikmfiigmj jfqoooooooooooonff kqooomojgljkkimjom rfqifljmmgolllloimg:rolo rjqgmohiiofnlkihkog:ronk n nqlfhnokijknggmfkm:ronm riqjoooooooooooooof rlqhglkfhfjflhjlgml:ronl n Y jqjkjlgnoggogglomh:roni Y lqnknjfmijljgfhfli |
  1
:336/,:r<*-): {rn mooqooonfikmfiigmj rjgqffffffffffffmkh kqooomojgljkkimjom nqmmkioiljlgmmmgok:roni jqgmohiiofnlkihlgl:ronk n nqlfhnokijknggmfh:ronm iqjoooooooooooooof rlqhglkfhfjflhjlgml:ronl n Y lqnknjfmijljgfhfmh Y iqmglngjlohnhfjgjl |
  1
/061+ {rn mooqooonfikmfiifih rjmqkfffffffffffmkh kqooomojgljkkjghng |
  1
/061+ {rn mooqooonfikmfiiigi rijqkfffffffffffmkh kqooomojgljkkiimfk |
  1
/061+ {rn rmhoqfffgoljinmmlkh goqoooooooooooomkm rlqfffhfknikjjkjgkh |
  1
,+->687+r<*-): {rn mhnqooonfikmfihomn rhfqffffffffffffhhl kqooomojgljkkjmfhm o kmfkqfihmfjooooook o Y o Y oqolhmjmfomfflmfmhjg |
  1
9><: {rn {nkj {nlf {m {rn {nkg -:):-,:; ,6183: |
  1
/3>1:r,*-9><: {rn mhnqooonfikmfihomn rhfqffffffffffffhhl kqooomojgljkkjmfhm nqooooooooooooooom o o o o kmfkqfihmfjooooook 90-(>-;@) V V V V |
  1
,+->687+r<*-): {rn mooqooonfikmfihonj goqoooooooooooomkm rlqfffhfknikjjkjgkh rkmfkqfihmfkffffffj o o Y roqonijlofhjholmhliin Y oqnofiilmllngklgjl |
  1
/061+ {rn mhnqooonfikmfihomn goqoooooooooooomkm rlqfffhfknikjjkjgkh |
  1
300/ {rn {rn {nkf {ig |
  1
<0:;8: {rn {njo {njo {noh {nli 90-(>-; {ff {rn |
  1
300/ {rn {njn {njm {lg |
  1
<0:;8: {rn {njl {njl {njk {njj -:):-,:; {non {rn |
  1
<0:;8: {rn {nom {nom {nlm {nji -:):-,:; {if {rn |
  1
:;8: {rn {njh {njg {nol {njf 90-(>-; |
  1
<0:;8: {rn {nol {nol {nlo {nji 90-(>-; {hn {rn |
  1
,+->687+r<*-): {rn mhnqooonfikmfihomn goqoooooooooooomkm kqooomojgljkkjmfhm o o kmfkqfihmfjooooook Y roqoongimikjnkfiikinon Y o |
  1
/061+ {rn mhnqooonfikmfihomn goqoooooooooooomkm kqooomojgljkkjmfhm |
  1
<0:;8: {rn {noh {noh {njo {nio -:):-,:; {hk {rn |
  1
:;8: {rn {nin {nim {nmh {nil 90-(>-; |
  1
<0:;8: {rn {nof {nof {nog {nlg 90-(>-; {nlf {rn |
  1
:;8: {rn {nkn {nko {nlh {nik 90-(>-; |
  1
300/ {rn {nij {nof {nmm |
  1
):-+:' {rn {nlg {nii |
  1
):-+:' {rn {nlg {nih |
  1
:336/,:r<*-): {rn rnffqfffgoljinmmnjn jfqoooooooooooonff kqooomojgljkkimjom rnqmmkioiljlgmmmgok:roni rjqgmohiiofnlkihlgl:ronk n rnqlfhnokijknggmfh:ronm riqjoooooooooooooof rlqhglkfhfjflhjlgml:ronl n Y o Y lqnknjfmijljgfhfmh |
  1
:336/,:r<*-): {rn mooqooonfikmfiigmj jfqoooooooooooonff kqooomojgljkkimjom rfqifljmmgolllloimg:rolo rjqgmohiiofnlkihkog:ronk n nqlfhnokijknggmfkm:ronm riqjoooooooooooooof rlqhglkfhfjflhjlgml:ronl n Y lqnknjfmijljgfhfli Y iqmglngjlohnhfjghn |
  1
300/ {rn {rn {njk {nkj |
  1
9><: {rn {rn {nnl {m {rn {nig -:):-,:; ,6183: |
  1
/061+ {rn mooqooonfikmfiifih jmqjooooooooooonff kqooomojgljkkjghng |
  1
/061+ {rn mooqooonfikmfiiigi ijqjooooooooooonff kqooomojgljkkiimfk |
  1
<01:r,*-9><: {rn rnffqfffgoljinmmnjn jfqoooooooooooonff rlqfffhfknikjjlilog rnqmmkioiljlgmmmgok:roni rjqgmohiiofnlkihlgl:ronk n rnqlfhnokijknggmfh:ronm riqjoooooooooooooof rlqhglkfhfjflhjlgml:ronl n V V o n iqkffffffffffffffn -:):-,:; V V V V |
  1
<0:;8: {rn {nif {nif {nho {nhn 90-(>-; {nmi {rn |
  1
<0:;8: {rn {nmh {nmh {nlj {nio 90-(>-; {ff {rn |
  1
300/ {rn {lk {nho {lg |
  1
<0:;8: {rn {nhm {nhm {nhl {nhk -:):-,:; {nmg {rn |
  1
<0:;8: {rn {nmf {nmf {nhj {nhi -:):-,:; {non {rn |
  1
<0:;8: {rn {nhj {nhj {nmf {njj 90-(>-; {nkk {rn |
  1
:;8: {rn {nhh {nhg {njk {nhf 90-(>-; |
  1
:;8: {rn {njg {njh {nlm {ngo 90-(>-; |
  1
):-+:' {rn {nji {ngn |
  1
):-+:' {rn {nji {ngm |
  1
:336/,:r<*-): {rn mooqooonfikmfiigmj rjgqffffffffffffmkh rlqfffhfknikjjlilog rnqmmkioiljlgmmmgok:roni rjqgmohiiofnlkihlgl:ronk rn nqlfhnokijknggmfh:ronm iqjoooooooooooooof rlqhglkfhfjflhjlgml:ronl n Y jqjkjlgnoggogkoihj:roni Y lqnknjfmijljgfhfli |
  1
:;8: {rn {nim {nin {njo {ngl 90-(>-; |
  1
):-+:' {rn {nio {ngk |
  1
):-+:' {rn {nio {ngj |
  1
:336/,:r<*-): {rn rnffqfffgoljinmmnjn rjgqffffffffffffmkh kqooomojgljkkimjom fqifljmmgollgjmmgf:rolo jqgmohiiofnlkihkog:ronk n rnqlfhnokijknggmffg:ronm iqjoooooooooooooof rlqhglkfhfjflhjlgml:ronl n Y jqjkjlgnoggohfglml:roni Y lqnknjfmijljgfhfli |
  1
:336/,:r<*-): {rn rnffqfffgoljinmmnjn jfqoooooooooooonff kqooomojgljkkimjom rnqmmkioiljlgmmmgok:roni rjqgmohiiofnlkihlgl:ronk n rnqlfhnokijknggmfh:ronm riqjoooooooooooooof rlqhglkfhfjflhjlgml:ronl n Y lqnknjfmijljgfhfmh Y iqmglngjlohnhfjgjl |
  1
300/ {rn {rn {nhl {nmm |
  1
/061+ {rn rnffqfffgoljinmmmf jmqjooooooooooonff kqooomojgljkkjghng |
  1
/061+ {rn rnffqfffgoljinmmonm ijqjooooooooooonff kqooomojgljkkiimfk |
  1
<01:r,*-9><: {rn mooqooonfikmfiigmj jfqoooooooooooonff rlqfffhfknikjjlilog rfqifljmmgolllloimg:rolo rjqgmohiiofnlkihkog:ronk n nqlfhnokijknggmfkm:ronm riqjoooooooooooooof rlqhglkfhfjflhjlgml:ronl n V V o n iqkffffffffffffffn -:):-,:; V V V V |
  1
<0:;8: {rn {nkf {nkf {ngi {ngh 90-(>-; {nmi {rn |
  1
<0:;8: {rn {ngi {ngi {nkf {nhn -:):-,:; {njn {rn |
  1
:;8: {rn {ngg {ngf {nkf {nfo 90-(>-; |
  1
<0:;8: {rn {njm {njm {nfn {nfm -:):-,:; {nmg {rn |
  1
<0:;8: {rn {nfn {nfn {njm {nhk 90-(>-; {nij {rn |
  1
:;8: {rn {nfl {nfk {nhl {nfj 90-(>-; |
  1
<0:;8: {rn {njk {njk {njl {nhi 90-(>-; {nkk {rn |
  1
:;8: {rn {nhg {nhh {nhj {nfi 90-(>-; |
  1
):-+:' {rn {nhi {nfh |
  1
):-+:' {rn {nhi {nfg |
  1
:336/,:r<*-): {rn mooqooonfikmfiigmj jfqoooooooooooonff rlqfffhfknikjjlilog fqifljmmgolllloimg:rolo jqgmohiiofnlkihkog:ronk rn nqlfhnokijknggmfkm:ronm riqjoooooooooooooof rlqhglkfhfjflhjlgml:ronl n Y o Y lqnknjfmijljgfhfmh |
  1
:336/,:r<*-): {rn mooqooonfikmfiigmj rjgqffffffffffffmkh rlqfffhfknikjjlilog rnqmmkioiljlgmmmgok:roni rjqgmohiiofnlkihlgl:ronk rn nqlfhnokijknggmfh:ronm iqjoooooooooooooof rlqhglkfhfjflhjlgml:ronl n Y lqnknjfmijljgfhfli Y iqmglngjlohnhfjghn |
  1
/061+ {rn mooqooonfikmfiifih rjmqkfffffffffffmkh rlqfffhfknikjjkoofi |
  1
/061+ {rn mooqooonfikmfiiigi rijqkfffffffffffmkh rlqfffhfknikjjlmjmk |
  1
:336/,:r<*-): {rn rnffqfffgoljinmmnjn rjgqffffffffffffmkh kqooomojgljkkimjom fqifljmmgollgjmmgf:rolo jqgmohiiofnlkihkog:ronk n rnqlfhnokijknggmffg:ronm iqjoooooooooooooof rlqhglkfhfjflhjlgml:ronl n Y lqnknjfmijljgfhfli Y iqmglngjlohnhfjghn |
  1
/061+ {rn rnffqfffgoljinmmmf rjmqkfffffffffffmkh kqooomojgljkkjghng |
  1
/061+ {rn rnffqfffgoljinmmonm rijqkfffffffffffmkh kqooomojgljkkiimfk |
  1
<0:;8: {rn {nho {nho {nif {ngh -:):-,:; {njn {rn |
  1
:;8: {rn {ngf {ngg {nif {nff 90-(>-; |
  1
):-+:' {rn {ngh {moo |
  1
):-+:' {rn {ngh {mon |
  1
:336/,:r<*-): {rn rnffqfffgoljinmmnjn rjgqffffffffffffmkh rlqfffhfknikjjlilog rfqifljmmgollgjmmgf:rolo rjqgmohiiofnlkihkog:ronk rn rnqlfhnokijknggmffg:ronm iqjoooooooooooooof rlqhglkfhfjflhjlgml:ronl n Y o Y lqnknjfmijljgfhfmh |
  1
<0:;8: {rn {nhl {nhl {nhm {nfm 90-(>-; {nij {rn |
  1
:;8: {rn {nfk {nfl {nfn {mom 90-(>-; |
  1
):-+:' {rn {nfm {mol |
  1
):-+:' {rn {nfm {mok |
  1
:336/,:r<*-): {rn rnffqfffgoljinmmnjn jfqoooooooooooonff rlqfffhfknikjjlilog nqmmkioiljlgmmmgok:roni jqgmohiiofnlkihlgl:ronk rn rnqlfhnokijknggmfh:ronm riqjoooooooooooooof rlqhglkfhfjflhjlgml:ronl n Y jqjkjlgnoggogkoihj:roni Y lqnknjfmijljgfhfli |
  1
:336/,:r<*-): {rn mooqooonfikmfiigmj jfqoooooooooooonff rlqfffhfknikjjlilog fqifljmmgolllloimg:rolo jqgmohiiofnlkihkog:ronk rn nqlfhnokijknggmfkm:ronm riqjoooooooooooooof rlqhglkfhfjflhjlgml:ronl n Y lqnknjfmijljgfhfmh Y iqmglngjlohnhfjgjl |
  1
/061+ {rn mooqooonfikmfiifih jmqjooooooooooonff rlqfffhfknikjjkoofi |
  1
/061+ {rn mooqooonfikmfiiigi ijqjooooooooooonff rlqfffhfknikjjlmjmk |
  1
:336/,:r<*-): {rn rnffqfffgoljinmmnjn rjgqffffffffffffmkh rlqfffhfknikjjlilog rfqifljmmgollgjmmgf:rolo rjqgmohiiofnlkihkog:ronk rn rnqlfhnokijknggmffg:ronm iqjoooooooooooooof rlqhglkfhfjflhjlgml:ronl n Y lqnknjfmijljgfhfmh Y iqmglngjlohnhfjgjl |
  1
/061+ {rn rnffqfffgoljinmmmf rjmqkfffffffffffmkh rlqfffhfknikjjkoofi |
  1
/061+ {rn rnffqfffgoljinmmonm rijqkfffffffffffmkh rlqfffhfknikjjlmjmk |
  1
:336/,:r<*-): {rn rnffqfffgoljinmmnjn jfqoooooooooooonff rlqfffhfknikjjlilog nqmmkioiljlgmmmgok:roni jqgmohiiofnlkihlgl:ronk rn rnqlfhnokijknggmfh:ronm riqjoooooooooooooof rlqhglkfhfjflhjlgml:ronl n Y lqnknjfmijljgfhfli Y iqmglngjlohnhfjghn |
  1
/061+ {rn rnffqfffgoljinmmmf jmqjooooooooooonff rlqfffhfknikjjkoofi |
  1
/061+ {rn rnffqfffgoljinmmonm ijqjooooooooooonff rlqfffhfknikjjlmjmk |
  1
Z1;r09r^ \VLr;>+> 
  0
ENDBLK
  5
7C783
330
7C705
100
AcDbEntity
  8
0
100
AcDbBlockEnd
  0
BLOCK
  5
7C784
330
7C72C
100
AcDbEntity
  8
0
100
AcDbBlockBegin
  2
*U1
 70
     1
 71
     0
 10
0.0
 20
0.0
 30
0.0
  3
*U1
  1

  0
3DSOLID
  5
7C72D
330
7C72C
100
AcDbEntity
  8
0
  6
Continuous
 62
     7
370
    13
100
AcDbModelerGeometry
 70
     1
  1
koo moj n o 
  1
ll P/:1 [:,681 ^ 336>1<: ^ \VL ]*63;:- nm ^ \VL kqoo QK mk K7* Y:= oh omenfekh monl 
  1
n fqfffffffffffffffj:rooh n:rono 
  1
=0;& {rn {n {rn {rn |
  1
3*2/ {rn {rn {m {o |
  1
,7:33 {rn {rn {rn {l {rn {n |
  1
9><: {rn {k {j {m {rn {i 90-(>-; ,6183: |
  1
9><: {rn {h {g {m {rn {f 90-(>-; ,6183: |
  1
300/ {rn {rn {no {l |
  1
/3>1:r,*-9><: {rn rnffqfffgoljhollooh rhfqffffffffffffhhl rlqfffhfknikjjkjgkh o rnqooooooooooooooom o o o rkmfkqfihmfjooooook 90-(>-;@) V V V V |
  1
9><: {rn {nn {nm {m {rn {nl 90-(>-; ,6183: |
  1
300/ {rn {rn {nk {k |
  1
/3>1:r,*-9><: {rn rmhoqfffgoljinmmlkh goqoooooooooooomkm rlqfffhfknikjjkjgkh rnqooooooooooooooom o o o o kmfkqfihmfjooooook 90-(>-;@) V V V V |
  1
<0:;8: {rn {nj {ni {nh {ng 90-(>-; {j {rn |
  1
9><: {rn {nf {mo {m {rn {mn 90-(>-; ,6183: |
  1
300/ {rn {mm {ml {h |
  1
/3>1:r,*-9><: {rn mooqooonfikmfihonj rhfqffffffffffffhhl kqooomojgljkkjmfhm o o nqooooooooooooooom kmfkqfihmfjooooook o o 90-(>-;@) V V V V |
  1
<0:;8: {rn {mk {mj {mi {mh -:):-,:; {g {rn |
  1
<0:;8: {rn {mg {no {mf {lo -:):-,:; {j {rn |
  1
<0:;8: {rn {no {mg {mj {ln 90-(>-; {j {rn |
  1
<0:;8: {rn {lm {ll {no {ng -:):-,:; {lk {rn |
  1
:;8: {rn {lj {li {no {lh 90-(>-; |
  1
9><: {rn {lg {lf {m {rn {ko -:):-,:; ,6183: |
  1
300/ {rn {rn {kn {nn |
  1
/3>1:r,*-9><: {rn mooqooonfikmfihonj goqoooooooooooomkm rlqfffhfknikjjkjgkh o nqooooooooooooooom o o o kmfkqfihmfjooooook 90-(>-;@) V V V V |
  1
300/ {rn {km {kl {h |
  1
<0:;8: {rn {kk {kk {kj {ki 90-(>-; {nm {rn |
  1
<0:;8: {rn {kh {nk {kg {kf 90-(>-; {g {rn |
  1
<0:;8: {rn {nk {kh {ni {ln -:):-,:; {g {rn |
  1
<0:;8: {rn {jo {jn {nk {mh 90-(>-; {jm {rn |
  1
:;8: {rn {jl {jk {mi {jj 90-(>-; |
  1
<0:;8: {rn {ni {nj {jo {ji -:):-,:; {j {rn |
  1
<0:;8: {rn {jh {jg {nj {lo 90-(>-; {jf {rn |
  1
:;8: {rn {io {li {mf {in 90-(>-; |
  1
:;8: {rn {jk {lj {ni {im 90-(>-; |
  1
<0:;8: {rn {il {nh {kh {ik -:):-,:; {lk {rn |
  1
<0:;8: {rn {nh {il {jh {ij -:):-,:; {lk {rn |
  1
300/ {rn {rn {il {ii |
  1
):-+:' {rn {ik {ih |
  1
):-+:' {rn {ng {ig |
  1
,+->687+r<*-): {rn rnffqfffgoljhollooh rhfqffffffffffffhhl rlqfffhfknikjjkjgkh kmfkqfihmfkffffffj o o Y roqonijlofhjhonnjlljh Y oqnofiilmllngijoji |
  1
9><: {rn {if {ho {m {rn {hn -:):-,:; ,6183: |
  1
300/ {rn {hm {hl {nf |
  1
<01:r,*-9><: {rn mooqooonfikmfiigmj rjgqffffffffffffmkh kqooomojgljkkklkll nqmmkioiljlgmmmgok:roni jqgmohiiofnlkihlgl:ronk rn nqlfhnokijknggmfh:ronm iqjoooooooooooooof lqhglkfhfjflhjlgml:ronl n V V o n iqkffffffffffffffn -:):-,:; V V V V |
  1
<0:;8: {rn {hk {kg {jn {hj -:):-,:; {mo {rn |
  1
300/ {rn {hi {hh {h |
  1
<0:;8: {rn {hg {hg {hf {go 90-(>-; {mm {rn |
  1
<0:;8: {rn {ml {ml {gn {gm 90-(>-; {nm {rn |
  1
<0:;8: {rn {gn {gn {ml {ki -:):-,:; {hm {rn |
  1
:;8: {rn {gl {gk {ml {gj 90-(>-; |
  1
<0:;8: {rn {mj {mk {lm {ik 90-(>-; {g {rn |
  1
<0:;8: {rn {kn {gi {mk {kf -:):-,:; {mo {rn |
  1
:;8: {rn {jl {gh {mk {gg 90-(>-; |
  1
<0:;8: {rn {gf {mi {mg {ji 90-(>-; {jm {rn |
  1
<0:;8: {rn {mi {gf {kn {hj 90-(>-; {jm {rn |
  1
300/ {rn {rn {gf {h |
  1
):-+:' {rn {mh {fo |
  1
):-+:' {rn {ji {fn |
  1
,+->687+r<*-): {rn rmhoqfffgoljinmmlkh rhfqffffffffffffhhl kqooomojgljkkjmfhm o rkmfkqfihmfjooooook o Y roqolhmjmfomfflmfmhjg Y o |
  1
:;8: {rn {jk {io {jo {fm 90-(>-; |
  1
<0:;8: {rn {fl {mf {ll {ij 90-(>-; {jf {rn |
  1
<0:;8: {rn {mf {fl {gf {fk -:):-,:; {jf {rn |
  1
300/ {rn {rn {jh {fj |
  1
):-+:' {rn {fk {fi |
  1
,+->687+r<*-): {rn mhnqooonfikmfihomn rhfqffffffffffffhhl rlqfffhfknikjjkjgkh o o rkmfkqfihmfjooooook Y roqoongimikjnkfiikinon Y o |
  1
,+->687+r<*-): {rn rmhoqfffgoljinmmlkh rhfqffffffffffffhhl rlqfffhfknikjjkjgkh o o rkmfkqfihmfjooooook Y roqoongimikjnkfiikinon Y o |
  1
<0:;8: {rn {ll {lm {gi {fh -:):-,:; {lk {rn |
  1
:;8: {rn {gh {lj {kh {fg 90-(>-; |
  1
:;8: {rn {li {ff {jh {noo 90-(>-; |
  1
9><: {rn {non {nom {m {rn {nol -:):-,:; ,6183: |
  1
/061+ {rn rmhoqfffgoljinmmlkh rhfqffffffffffffhhl rlqfffhfknikjjkjgkh |
  1
/061+ {rn mhnqooonfikmfihomn rhfqffffffffffffhhl rlqfffhfknikjjkjgkh |
  1
9><: {rn {fj {nok {m {rn {noj -:):-,:; ,6183: |
  1
300/ {rn {noi {noh {lg |
  1
<01:r,*-9><: {rn mooqooonfikmfiigmj jfqoooooooooooonff kqooomojgljkkklkll rfqifljmmgolllloimg:rolo rjqgmohiiofnlkihkog:ronk rn nqlfhnokijknggmfkm:ronm riqjoooooooooooooof lqhglkfhfjflhjlgml:ronl n V V o n iqkffffffffffffffn -:):-,:; V V V V |
  1
300/ {rn {rn {kj {nf |
  1
<0:;8: {rn {nog {nog {nof {nno -:):-,:; {lf {rn |
  1
<0:;8: {rn {gi {kn {fl {nnn 90-(>-; {mo {rn |
  1
:;8: {rn {nnm {jl {jn {nnl 90-(>-; |
  1
300/ {rn {jm {nnk {h |
  1
<0:;8: {rn {nnj {nnj {nni {nnh 90-(>-; {km {rn |
  1
<0:;8: {rn {kl {kl {nng {nnf 90-(>-; {mm {rn |
  1
<0:;8: {rn {nng {nng {kl {go -:):-,:; {noi {rn |
  1
:;8: {rn {nmo {nmn {kl {nmm 90-(>-; |
  1
<0:;8: {rn {kj {kj {kk {gm -:):-,:; {hm {rn |
  1
:;8: {rn {gk {gl {kk {nml 90-(>-; |
  1
):-+:' {rn {gm {nmk |
  1
):-+:' {rn {gm {nmj |
  1
:336/,:r<*-): {rn mooqooonfikmfiigmj rjgqffffffffffffmkh kqooomojgljkkklkll nqmmkioiljlgmmmgok:roni jqgmohiiofnlkihlgl:ronk rn nqlfhnokijknggmfh:ronm iqjoooooooooooooof lqhglkfhfjflhjlgml:ronl n Y jqjkjlgnoggogkoihj:roni Y lqnknjfmijljgfhfli |
  1
<0:;8: {rn {kg {hk {il {fh 90-(>-; {mo {rn |
  1
):-+:' {rn {fh {nmi |
  1
,+->687+r<*-): {rn rmhoqfffgoljinmmlkh goqoooooooooooomkm rlqfffhfknikjjkjgkh o o rkmfkqfihmfjooooook Y roqoongimikjnkfiikinon Y o |
  1
<0:;8: {rn {jn {jo {jg {fk 90-(>-; {jm {rn |
  1
/061+ {rn rmhoqfffgoljinmmlkh goqoooooooooooomkm kqooomojgljkkjmfhm |
  1
/061+ {rn rmhoqfffgoljinmmlkh rhfqffffffffffffhhl kqooomojgljkkjmfhm |
  1
,+->687+r<*-): {rn rnffqfffgoljhollooh rhfqffffffffffffhhl kqooomojgljkkjmfhm kmfkqfihmfkffffffj o o Y roqonijlofhjhonnjlljh Y oqnofiilmllngijoji |
  1
<0:;8: {rn {jg {jh {hk {nnn -:):-,:; {jf {rn |
  1
:;8: {rn {io {nnm {gf {nmh 90-(>-; |
  1
9><: {rn {ii {jf {m {rn {nmg 90-(>-; ,6183: |
  1
/061+ {rn mhnqooonfikmfihomn rhfqffffffffffffhhl kqooomojgljkkjmfhm |
  1
:;8: {rn {ff {gh {gi {nmf 90-(>-; |
  1
,+->687+r<*-): {rn rmhoqfffgoljinmmlkh rhfqffffffffffffhhl rlqfffhfknikjjkjgkh o rkmfkqfihmfjooooook o Y roqolhmjmfomfflmfmhjg Y o |
  1
):-+:' {rn {ij {nlo |
  1
,+->687+r<*-): {rn mhnqooonfikmfihomn rhfqffffffffffffhhl rlqfffhfknikjjkjgkh o kmfkqfihmfjooooook o Y o Y oqolhmjmfomfflmfmhjg |
  1
9><: {rn {rn {nln {m {rn {nlm -:):-,:; ,6183: |
  1
300/ {rn {nll {nof {ii |
  1
/3>1:r,*-9><: {rn mooqooonfikmfihonj rhfqffffffffffffhhl rlqfffhfknikjjkjgkh o o nqooooooooooooooom kmfkqfihmfjooooook o o 90-(>-;@) V V V V |
  1
300/ {rn {nlk {nlj {if |
  1
<01:r,*-9><: {rn rnffqfffgoljinmmnjn jfqoooooooooooonff kqooomojgljkkklkll rnqmmkioiljlgmmmgok:roni rjqgmohiiofnlkihlgl:ronk rn rnqlfhnokijknggmfh:ronm riqjoooooooooooooof lqhglkfhfjflhjlgml:ronl n V V o n iqkffffffffffffffn -:):-,:; V V V V |
  1
300/ {rn {rn {hf {lg |
  1
<0:;8: {rn {nli {nli {nlh {nlg -:):-,:; {ho {rn |
  1
<0:;8: {rn {hl {hl {nlf {nko -:):-,:; {lf {rn |
  1
<0:;8: {rn {nlf {nlf {hl {nno 90-(>-; {nom {rn |
  1
:;8: {rn {nkn {nkm {nof {nkl 90-(>-; |
  1
:;8: {rn {nnm {ff {hk {nkk 90-(>-; |
  1
):-+:' {rn {hj {nkj |
  1
,+->687+r<*-): {rn mooqooonfikmfihonj goqoooooooooooomkm kqooomojgljkkjmfhm rkmfkqfihmfkffffffj o o Y roqonijlofhjholmhliin Y oqnofiilmllngklgjl |
  1
<0:;8: {rn {nki {nki {nkh {nkg 90-(>-; {hi {rn |
  1
<0:;8: {rn {hh {hh {nkf {njo 90-(>-; {km {rn |
  1
<0:;8: {rn {nkf {nkf {hh {nnh -:):-,:; {nlk {rn |
  1
:;8: {rn {njn {njm {hh {njl 90-(>-; |
  1
<0:;8: {rn {hf {hf {hg {nnf -:):-,:; {noi {rn |
  1
:;8: {rn {nmn {nmo {hg {njk 90-(>-; |
  1
):-+:' {rn {nnf {njj |
  1
):-+:' {rn {nnf {nji |
  1
:336/,:r<*-): {rn mooqooonfikmfiigmj jfqoooooooooooonff kqooomojgljkkklkll rfqifljmmgolllloimg:rolo rjqgmohiiofnlkihkog:ronk rn nqlfhnokijknggmfkm:ronm riqjoooooooooooooof lqhglkfhfjflhjlgml:ronl n Y o Y lqnknjfmijljgfhfmh |
  1
:336/,:r<*-): {rn mooqooonfikmfiigmj rjgqffffffffffffmkh kqooomojgljkkklkll nqmmkioiljlgmmmgok:roni jqgmohiiofnlkihlgl:ronk rn nqlfhnokijknggmfh:ronm iqjoooooooooooooof lqhglkfhfjflhjlgml:ronl n Y lqnknjfmijljgfhfli Y iqmglngjlohnhfjghn |
  1
/061+ {rn mooqooonfikmfiifih rjmqkfffffffffffmkh kqooomojgljkkkhmni |
  1
/061+ {rn mooqooonfikmfiiigi rijqkfffffffffffmkh kqooomojgljkklfikf |
  1
/061+ {rn rmhoqfffgoljinmmlkh goqoooooooooooomkm rlqfffhfknikjjkjgkh |
  1
,+->687+r<*-): {rn mhnqooonfikmfihomn rhfqffffffffffffhhl kqooomojgljkkjmfhm o kmfkqfihmfjooooook o Y o Y oqolhmjmfomfflmfmhjg |
  1
/3>1:r,*-9><: {rn mhnqooonfikmfihomn rhfqffffffffffffhhl rlqfffhfknikjjkjgkh nqooooooooooooooom o o o o rkmfkqfihmfjooooook 90-(>-;@) V V V V |
  1
,+->687+r<*-): {rn mooqooonfikmfihonj goqoooooooooooomkm rlqfffhfknikjjkjgkh rkmfkqfihmfkffffffj o o Y roqonijlofhjholmhliin Y oqnofiilmllngklgjl |
  1
/061+ {rn mhnqooonfikmfihomn goqoooooooooooomkm rlqfffhfknikjjkjgkh |
  1
300/ {rn {njh {njg {non |
  1
<01:r,*-9><: {rn rnffqfffgoljinmmnjn rjgqffffffffffffmkh kqooomojgljkkklkll fqifljmmgollgjmmgf:rolo jqgmohiiofnlkihkog:ronk rn rnqlfhnokijknggmffg:ronm iqjoooooooooooooof lqhglkfhfjflhjlgml:ronl n V V o n iqkffffffffffffffn -:):-,:; V V V V |
  1
300/ {rn {njf {nlh {ii |
  1
300/ {rn {rn {nni {if |
  1
<0:;8: {rn {nio {nio {nin {nim -:):-,:; {nok {rn |
  1
<0:;8: {rn {noh {noh {nil {nik -:):-,:; {ho {rn |
  1
<0:;8: {rn {nil {nil {noh {nlg 90-(>-; {nll {rn |
  1
:;8: {rn {nij {nii {nlh {nih 90-(>-; |
  1
<0:;8: {rn {nof {nof {nog {nko 90-(>-; {nom {rn |
  1
:;8: {rn {nkm {nkn {nlf {nig 90-(>-; |
  1
):-+:' {rn {nko {nif |
  1
):-+:' {rn {nko {nho |
  1
:336/,:r<*-): {rn mooqooonfikmfiigmj rjgqffffffffffffmkh rlqfffhfknikjjjjlgm rnqmmkioiljlgmmmgok:roni rjqgmohiiofnlkihlgl:ronk n nqlfhnokijknggmfh:ronm iqjoooooooooooooof lqhglkfhfjflhjlgml:ronl n Y o Y lqnknjfmijljgfhfmh |
  1
,+->687+r<*-): {rn mhnqooonfikmfihomn goqoooooooooooomkm rlqfffhfknikjjkjgkh o o rkmfkqfihmfjooooook Y roqoongimikjnkfiikinon Y o |
  1
/061+ {rn mhnqooonfikmfihomn goqoooooooooooomkm kqooomojgljkkjmfhm |
  1
<0:;8: {rn {nnk {nnk {nhn {nhm 90-(>-; {hi {rn |
  1
<0:;8: {rn {nhn {nhn {nnk {nkg -:):-,:; {njh {rn |
  1
:;8: {rn {nhl {nhk {nnk {nhj 90-(>-; |
  1
<0:;8: {rn {nni {nni {nnj {njo -:):-,:; {nlk {rn |
  1
:;8: {rn {njm {njn {nnj {nhi 90-(>-; |
  1
):-+:' {rn {njo {nhh |
  1
):-+:' {rn {njo {nhg |
  1
:336/,:r<*-): {rn rnffqfffgoljinmmnjn jfqoooooooooooonff kqooomojgljkkklkll rnqmmkioiljlgmmmgok:roni rjqgmohiiofnlkihlgl:ronk rn rnqlfhnokijknggmfh:ronm riqjoooooooooooooof lqhglkfhfjflhjlgml:ronl n Y jqjkjlgnoggogkoihj:roni Y lqnknjfmijljgfhfli |
  1
:336/,:r<*-): {rn mooqooonfikmfiigmj jfqoooooooooooonff kqooomojgljkkklkll rfqifljmmgolllloimg:rolo rjqgmohiiofnlkihkog:ronk rn nqlfhnokijknggmfkm:ronm riqjoooooooooooooof lqhglkfhfjflhjlgml:ronl n Y lqnknjfmijljgfhfmh Y iqmglngjlohnhfjgjl |
  1
/061+ {rn mooqooonfikmfiifih jmqjooooooooooonff kqooomojgljkkkhmni |
  1
/061+ {rn mooqooonfikmfiiigi ijqjooooooooooonff kqooomojgljkklfikf |
  1
300/ {rn {rn {nkh {non |
  1
<0:;8: {rn {nhf {nhf {ngo {ngn -:):-,:; {nln {rn |
  1
300/ {rn {ngm {nin {ii |
  1
<0:;8: {rn {nlj {nlj {ngl {ngk -:):-,:; {nok {rn |
  1
<0:;8: {rn {ngl {ngl {nlj {nim 90-(>-; {njf {rn |
  1
:;8: {rn {ngj {ngi {nin {ngh 90-(>-; |
  1
<0:;8: {rn {nlh {nlh {nli {nik 90-(>-; {nll {rn |
  1
:;8: {rn {nii {nij {nil {ngg 90-(>-; |
  1
):-+:' {rn {nik {ngf |
  1
):-+:' {rn {nik {nfo |
  1
:336/,:r<*-): {rn mooqooonfikmfiigmj jfqoooooooooooonff rlqfffhfknikjjjjlgm fqifljmmgolllloimg:rolo jqgmohiiofnlkihkog:ronk n nqlfhnokijknggmfkm:ronm riqjoooooooooooooof lqhglkfhfjflhjlgml:ronl n Y jqjkjlgnoggogglomh:roni Y lqnknjfmijljgfhfli |
  1
:336/,:r<*-): {rn mooqooonfikmfiigmj rjgqffffffffffffmkh rlqfffhfknikjjjjlgm rnqmmkioiljlgmmmgok:roni rjqgmohiiofnlkihlgl:ronk n nqlfhnokijknggmfh:ronm iqjoooooooooooooof lqhglkfhfjflhjlgml:ronl n Y lqnknjfmijljgfhfmh Y iqmglngjlohnhfjgjl |
  1
/061+ {rn mooqooonfikmfiifih rjmqkfffffffffffmkh rlqfffhfknikjjjnjfg |
  1
/061+ {rn mooqooonfikmfiiigi rijqkfffffffffffmkh rlqfffhfknikjjjfnh |
  1
<0:;8: {rn {nkh {nkh {nki {nhm -:):-,:; {njh {rn |
  1
:;8: {rn {nhk {nhl {nki {nfn 90-(>-; |
  1
):-+:' {rn {nhm {nfm |
  1
):-+:' {rn {nhm {nfl |
  1
:336/,:r<*-): {rn rnffqfffgoljinmmnjn rjgqffffffffffffmkh kqooomojgljkkklkll fqifljmmgollgjmmgf:rolo jqgmohiiofnlkihkog:ronk rn rnqlfhnokijknggmffg:ronm iqjoooooooooooooof lqhglkfhfjflhjlgml:ronl n Y o Y lqnknjfmijljgfhfmh |
  1
:336/,:r<*-): {rn rnffqfffgoljinmmnjn jfqoooooooooooonff kqooomojgljkkklkll rnqmmkioiljlgmmmgok:roni rjqgmohiiofnlkihlgl:ronk rn rnqlfhnokijknggmfh:ronm riqjoooooooooooooof lqhglkfhfjflhjlgml:ronl n Y lqnknjfmijljgfhfli Y iqmglngjlohnhfjghn |
  1
/061+ {rn rnffqfffgoljinmmmf jmqjooooooooooonff kqooomojgljkkkhmni |
  1
/061+ {rn rnffqfffgoljinmmonm ijqjooooooooooonff kqooomojgljkklfikf |
  1
<0:;8: {rn {njg {njg {nfk {nfj -:):-,:; {nln {rn |
  1
<0:;8: {rn {nfk {nfk {njg {ngn 90-(>-; {ngm {rn |
  1
:;8: {rn {nfi {nfh {ngo {nfg 90-(>-; |
  1
300/ {rn {lk {ngo {ii |
  1
<0:;8: {rn {nin {nin {nio {ngk 90-(>-; {njf {rn |
  1
:;8: {rn {ngi {ngj {ngl {nff 90-(>-; |
  1
):-+:' {rn {ngk {moo |
  1
):-+:' {rn {ngk {mon |
  1
:336/,:r<*-): {rn rnffqfffgoljinmmnjn jfqoooooooooooonff rlqfffhfknikjjjjlgm nqmmkioiljlgmmmgok:roni jqgmohiiofnlkihlgl:ronk n rnqlfhnokijknggmfh:ronm riqjoooooooooooooof lqhglkfhfjflhjlgml:ronl n Y o Y lqnknjfmijljgfhfmh |
  1
:336/,:r<*-): {rn mooqooonfikmfiigmj jfqoooooooooooonff rlqfffhfknikjjjjlgm fqifljmmgolllloimg:rolo jqgmohiiofnlkihkog:ronk n nqlfhnokijknggmfkm:ronm riqjoooooooooooooof lqhglkfhfjflhjlgml:ronl n Y lqnknjfmijljgfhfli Y iqmglngjlohnhfjghn |
  1
/061+ {rn mooqooonfikmfiifih jmqjooooooooooonff rlqfffhfknikjjjnjfg |
  1
/061+ {rn mooqooonfikmfiiigi ijqjooooooooooonff rlqfffhfknikjjjfnh |
  1
:336/,:r<*-): {rn rnffqfffgoljinmmnjn rjgqffffffffffffmkh kqooomojgljkkklkll fqifljmmgollgjmmgf:rolo jqgmohiiofnlkihkog:ronk rn rnqlfhnokijknggmffg:ronm iqjoooooooooooooof lqhglkfhfjflhjlgml:ronl n Y lqnknjfmijljgfhfmh Y iqmglngjlohnhfjgjl |
  1
/061+ {rn rnffqfffgoljinmmmf rjmqkfffffffffffmkh kqooomojgljkkkhmni |
  1
/061+ {rn rnffqfffgoljinmmonm rijqkfffffffffffmkh kqooomojgljkklfikf |
  1
<0:;8: {rn {ngo {ngo {nhf {nfj 90-(>-; {ngm {rn |
  1
:;8: {rn {nfh {nfi {nfk {mom 90-(>-; |
  1
):-+:' {rn {nfj {mol |
  1
):-+:' {rn {nfj {mok |
  1
:336/,:r<*-): {rn rnffqfffgoljinmmnjn rjgqffffffffffffmkh rlqfffhfknikjjjjlgm rfqifljmmgollgjmmgf:rolo rjqgmohiiofnlkihkog:ronk n rnqlfhnokijknggmffg:ronm iqjoooooooooooooof lqhglkfhfjflhjlgml:ronl n Y jqjkjlgnoggohfglml:roni Y lqnknjfmijljgfhfli |
  1
:336/,:r<*-): {rn rnffqfffgoljinmmnjn jfqoooooooooooonff rlqfffhfknikjjjjlgm nqmmkioiljlgmmmgok:roni jqgmohiiofnlkihlgl:ronk n rnqlfhnokijknggmfh:ronm riqjoooooooooooooof lqhglkfhfjflhjlgml:ronl n Y lqnknjfmijljgfhfmh Y iqmglngjlohnhfjgjl |
  1
/061+ {rn rnffqfffgoljinmmmf jmqjooooooooooonff rlqfffhfknikjjjnjfg |
  1
/061+ {rn rnffqfffgoljinmmonm ijqjooooooooooonff rlqfffhfknikjjjfnh |
  1
:336/,:r<*-): {rn rnffqfffgoljinmmnjn rjgqffffffffffffmkh rlqfffhfknikjjjjlgm rfqifljmmgollgjmmgf:rolo rjqgmohiiofnlkihkog:ronk n rnqlfhnokijknggmffg:ronm iqjoooooooooooooof lqhglkfhfjflhjlgml:ronl n Y lqnknjfmijljgfhfli Y iqmglngjlohnhfjghn |
  1
/061+ {rn rnffqfffgoljinmmmf rjmqkfffffffffffmkh rlqfffhfknikjjjnjfg |
  1
/061+ {rn rnffqfffgoljinmmonm rijqkfffffffffffmkh rlqfffhfknikjjjfnh |
  1
Z1;r09r^ \VLr;>+> 
  0
ENDBLK
  5
7C785
330
7C72C
100
AcDbEntity
  8
0
100
AcDbBlockEnd
  0
BLOCK
  5
7C786
330
7C753
100
AcDbEntity
  8
0
100
AcDbBlockBegin
  2
*U2
 70
     1
 71
     0
 10
0.0
 20
0.0
 30
0.0
  3
*U2
  1

  0
LWPOLYLINE
  5
7C754
330
7C753
100
AcDbEntity
  8
0
  6
Continuous
 62
    96
370
    13
100
AcDbPolyline
 90
        6
 70
   129
 43
0.0
 10
0.0
 20
0.0
 10
259.845143
 20
-450.06499
 10
779.535429
 20
-450.06499
 10
1039.380572
 20
0.0
 10
779.535429
 20
450.06499
 10
259.845143
 20
450.06499
  0
ENDBLK
  5
7C787
330
7C753
100
AcDbEntity
  8
0
100
AcDbBlockEnd
  0
BLOCK
  5
7C788
330
7C755
100
AcDbEntity
  8
0
100
AcDbBlockBegin
  2
*U3
 70
     1
 71
     0
 10
0.0
 20
0.0
 30
0.0
  3
*U3
  1

  0
3DSOLID
  5
7C756
330
7C755
100
AcDbEntity
  8
0
  6
Continuous
 62
    20
370
    13
100
AcDbModelerGeometry
 70
     1
  1
koo lh n o 
  1
ll P/:1 [:,681 ^ 336>1<: ^ \VL ]*63;:- nm ^ \VL kqoo QK mk K7* Y:= oh omenfekh monl 
  1
n fqfffffffffffffffj:rooh n:rono 
  1
=0;& {rn {n {rn {rn |
  1
3*2/ {rn {rn {m {o |
  1
,7:33 {rn {rn {rn {l {rn {n |
  1
9><: {rn {k {j {m {rn {i 90-(>-; ,6183: |
  1
9><: {rn {h {g {m {rn {f -:):-,:; ,6183: |
  1
300/ {rn {no {nn {l |
  1
<01:r,*-9><: {rn oqooonmnfolmffgogijnhi oqooojfllnjnmfillffmgj rnjniqjooilnhnolihg nqinonjhihgimmgnmn:roof o n ifqgkffffffffffffk o rnqnmkifjnlgjngolk:rooh n V V o n ifqgkfffffffffffg -:):-,:; V V V V |
  1
9><: {rn {rn {nm {m {rn {nl 90-(>-; ,6183: |
  1
300/ {rn {rn {nk {k |
  1
/3>1:r,*-9><: {rn oqooonmnfolmffgogijnhi oqooojfllnjnmfillffmgj rnillqjooilnhnolihg o o nqooooooooooooooom kmfkqfihmfjooooook o o 90-(>-;@) V V V V |
  1
300/ {rn {rn {nj {l |
  1
<0:;8: {rn {ni {ni {nk {nh 90-(>-; {j {rn |
  1
300/ {rn {rn {ng {h |
  1
/3>1:r,*-9><: {rn oqooonmifhjmfikfilnlim oqooojfllnjnmfillffmgj nillqkffligmgfilmm o o nqooooooooooooooom kmfkqfihmfjooooook o o 90-(>-;@) V V V V |
  1
<0:;8: {rn {nf {nf {nn {nh -:):-,:; {g {rn |
  1
<0:;8: {rn {mo {mo {ng {mn -:):-,:; {no {rn |
  1
<0:;8: {rn {nn {nn {nf {mm 90-(>-; {j {rn |
  1
:;8: {rn {ml {mk {nn {mj 90-(>-; |
  1
<0:;8: {rn {mi {mi {nj {mn 90-(>-; {nm {rn |
  1
<0:;8: {rn {nk {nk {ni {mm -:):-,:; {g {rn |
  1
<0:;8: {rn {nj {nj {mi {mh -:):-,:; {no {rn |
  1
:;8: {rn {mg {mf {ng {lo 90-(>-; |
  1
:;8: {rn {mk {ml {ni {ln 90-(>-; |
  1
):-+:' {rn {mm {lm |
  1
):-+:' {rn {mm {ll |
  1
:336/,:r<*-): {rn oqooonmnhnkfnnliomjmgh oqooojfllnjnmfillffmgj rnillqjooilnhnolihg o o n ifqgkffffffffffffk o o n Y o Y lqnknjfmijljgfhfln |
  1
<0:;8: {rn {ng {ng {mo {mh 90-(>-; {nm {rn |
  1
:;8: {rn {mf {mg {mi {lk 90-(>-; |
  1
):-+:' {rn {mh {lj |
  1
):-+:' {rn {mh {li |
  1
:336/,:r<*-): {rn oqooonmifhjmfikfilnlim oqooojfllnjnmfillffmgj nillqkffligmgfilmm o o n ifqhffikglfgmlgghm rmqijnhnllnohninffk o n Y iqiiijgfijmnonfnfn:rong Y lqnknjfmijljgfhfln |
  1
:336/,:r<*-): {rn oqooonmnhnkfnnliomjmgh oqooojfllnjnmfillffmgj rnillqjooilnhnolihg o o n ifqgkffffffffffffk o o n Y lqnknjfmijljgfhfln Y iqmglngjlohnhfjgim |
  1
/061+ {rn ifqgjonmnhnkfnnlih oqooojfllnjnmfillffmgj rnillqjooilnhnolihg |
  1
/061+ {rn rifqgkfghgmgjoggij oqooojfllnjnmfikmjkihh rnillqjooilnhnolihg |
  1
:336/,:r<*-): {rn oqooonmifhjmfikfilnlim oqooojfllnjnmfillffmgj nillqkffligmgfilmm o o n ifqhffikglfgmlgghm rmqijnhnllnohninffk o n Y lqnknjfmijljgfhfln Y iqmglngjlohnhfjgim |
  1
/061+ {rn ifqhffhhjlhljljlig rmqijnnnfffjjgijiji nillqkffligmgfilmm |
  1
/061+ {rn rifqhffjmnkmmfkmlfn mqijmloiimjgkjgkmn nillqkffligmgfilmm |
  1
Z1;r09r^ \VLr;>+> 
  0
ENDBLK
  5
7C789
330
7C755
100
AcDbEntity
  8
0
100
AcDbBlockEnd
  0
BLOCK
  5
7C790
330
7C78C
100
AcDbEntity
  8
0
100
AcDbBlockBegin
  2
TerminatorOpen_0.5
 70
     0
 71
     0
 10
0.0
 20
0.0
 30
0.0
  3
TerminatorOpen_0.5
  1

  0
LINE
  5
7C78D
330
7C78C
100
AcDbEntity
  8
0
  6
ByBlock
 62
     0
370
    -2
100
AcDbLine
 10
0.0
 20
0.0
 30
0.0
 11
-1.0
 21
0.0
 31
0.0
  0
LINE
  5
7C78E
330
7C78C
100
AcDbEntity
  8
0
  6
ByBlock
 62
     0
370
    -2
100
AcDbLine
 10
0.0
 20
0.0
 30
0.0
 11
-1.0
 21
0.25
 31
0.0
  0
LINE
  5
7C78F
330
7C78C
100
AcDbEntity
  8
0
  6
ByBlock
 62
     0
370
    -2
100
AcDbLine
 10
0.0
 20
0.0
 30
0.0
 11
-1.0
 21
-0.25
 31
0.0
  0
ENDBLK
  5
7C791
330
7C78C
100
AcDbEntity
  8
0
100
AcDbBlockEnd
  0
BLOCK
  5
7C794
330
7C793
100
AcDbEntity
  8
0
100
AcDbBlockBegin
  2
SW26
 70
     0
 71
     0
 10
0.0
 20
0.0
 30
0.0
  3
SW26
  1

  0
CIRCLE
  5
7C32A
330
7C793
100
AcDbEntity
  8
Level 1
  6
Continuous
 62
    20
370
     0
100
AcDbCircle
 10
0.0
 20
0.000004
 30
0.0
 40
69.84999999999999
  0
POINT
  5
7C32B
330
7C793
100
AcDbEntity
  8
Level 1
  6
Continuous
 62
   253
370
     0
100
AcDbPoint
 10
0.0
 20
-69.849996
 30
0.0
  0
POINT
  5
7C32C
330
7C793
100
AcDbEntity
  8
Level 1
  6
Continuous
 62
   253
370
     0
100
AcDbPoint
 10
0.0
 20
-69.849996
 30
0.0
  0
INSERT
  5
7C32D
330
7C793
100
AcDbEntity
  8
Level 25
  6
Continuous
 62
   174
370
     0
100
AcDbBlockReference
  2
Smart Solid
 10
0.0
 20
-169.849496
 30
0.0
  0
INSERT
  5
7C338
330
7C793
100
AcDbEntity
  8
Level 25
  6
Continuous
 62
   174
370
     0
100
AcDbBlockReference
  2
Smart Solid_1
 10
0.0
 20
169.849504
 30
0.0
  0
INSERT
  5
7C343
330
7C793
100
AcDbEntity
  8
Level 26
  6
Continuous
 62
    67
370
    13
100
AcDbBlockReference
  2
Smart Solid_2
 10
0.0
 20
-1265.455493
 30
0.0
  0
INSERT
  5
7C34B
330
7C793
100
AcDbEntity
  8
Level 26
  6
Continuous
 62
     7
370
     0
100
AcDbBlockReference
  2
Smart Solid_3
 10
0.190014
 20
-994.064481
 30
0.0
  0
INSERT
  5
7C35B
330
7C793
100
AcDbEntity
  8
Level 26
  6
Continuous
370
     0
100
AcDbBlockReference
  2
Smart Solid_4
 10
3.182482
 20
-1223.649996
 30
0.0
  0
INSERT
  5
7C37F
330
7C793
100
AcDbEntity
  8
Level 26
  6
Continuous
370
     0
100
AcDbBlockReference
  2
Smart Solid_5
 10
3.182482
 20
-790.287927
 30
0.0
  0
INSERT
  5
7C3A3
330
7C793
100
AcDbEntity
  8
Level 26
  6
Continuous
 62
    67
370
    13
100
AcDbBlockReference
  2
Smart Solid_6
 10
0.0
 20
-748.844499
 30
0.0
  0
INSERT
  5
7C3AB
330
7C793
100
AcDbEntity
  8
Level 26
  6
Continuous
 62
    67
370
    13
100
AcDbBlockReference
  2
Smart Solid_7
 10
0.0
 20
1265.455501
 30
0.0
  0
INSERT
  5
7C3B3
330
7C793
100
AcDbEntity
  8
Level 26
  6
Continuous
 62
     7
370
     0
100
AcDbBlockReference
  2
Smart Solid_8
 10
0.190014
 20
994.064489
 30
0.0
  0
INSERT
  5
7C3C3
330
7C793
100
AcDbEntity
  8
Level 26
  6
Continuous
370
     0
100
AcDbBlockReference
  2
Smart Solid_9
 10
3.182482
 20
1223.650004
 30
0.0
  0
INSERT
  5
7C3E7
330
7C793
100
AcDbEntity
  8
Level 26
  6
Continuous
370
     0
100
AcDbBlockReference
  2
Smart Solid_10
 10
3.182482
 20
790.287935
 30
0.0
  0
INSERT
  5
7C40B
330
7C793
100
AcDbEntity
  8
Level 26
  6
Continuous
 62
    67
370
    13
100
AcDbBlockReference
  2
Smart Solid_11
 10
0.0
 20
748.844507
 30
0.0
  0
INSERT
  5
7C413
330
7C793
100
AcDbEntity
  8
Level 27
  6
Continuous
 62
   152
370
    13
100
AcDbBlockReference
  2
Feature Solid
 10
2482.824593
 20
-4362.636623
 30
0.0
  0
INSERT
  5
7C441
330
7C793
100
AcDbEntity
  8
Level 25
  6
Continuous
 62
   174
370
    13
100
AcDbBlockReference
  2
Feature Solid_3
 10
0.0005
 20
0.0005
 30
0.0
  0
INSERT
  5
7C44A
330
7C793
100
AcDbEntity
  8
Level 27
  6
Continuous
 62
   152
370
     0
100
AcDbBlockReference
  2
Feature Solid_4
 10
0.0005
 20
0.0005
 30
0.0
  0
INSERT
  5
7C458
330
7C793
100
AcDbEntity
  8
Level 27
  6
Continuous
 62
   152
370
    13
100
AcDbBlockReference
  2
Feature Solid_5
 10
-0.0005
 20
0.0005
 30
0.0
  0
INSERT
  5
7C486
330
7C793
100
AcDbEntity
  8
Level 1
  6
Continuous
370
     0
100
AcDbBlockReference
  2
Smart Solid_12
 10
-0.000215
 20
-1307.150265
 30
0.0
  0
INSERT
  5
7C4C9
330
7C793
100
AcDbEntity
  8
Level 1
  6
Continuous
370
     0
100
AcDbBlockReference
  2
Smart Solid_13
 10
0.0
 20
-1307.149996
 30
0.0
  0
INSERT
  5
7C525
330
7C793
100
AcDbEntity
  8
Level 1
  6
Continuous
370
     0
100
AcDbBlockReference
  2
Smart Solid_14
 10
-0.000215
 20
-707.150265
 30
0.0
  0
INSERT
  5
7C568
330
7C793
100
AcDbEntity
  8
Level 1
  6
Continuous
370
     0
100
AcDbBlockReference
  2
Smart Solid_15
 10
0.0
 20
-707.149996
 30
0.0
  0
INSERT
  5
7C5C4
330
7C793
100
AcDbEntity
  8
Level 1
  6
Continuous
370
     0
100
AcDbBlockReference
  2
Smart Solid_16
 10
-0.000215
 20
707.149735
 30
0.0
  0
INSERT
  5
7C607
330
7C793
100
AcDbEntity
  8
Level 1
  6
Continuous
370
     0
100
AcDbBlockReference
  2
Smart Solid_17
 10
0.0
 20
707.150004
 30
0.0
  0
INSERT
  5
7C663
330
7C793
100
AcDbEntity
  8
Level 1
  6
Continuous
370
     0
100
AcDbBlockReference
  2
Smart Solid_18
 10
-0.000215
 20
1307.149735
 30
0.0
  0
INSERT
  5
7C6A6
330
7C793
100
AcDbEntity
  8
Level 1
  6
Continuous
370
     0
100
AcDbBlockReference
  2
Smart Solid_19
 10
0.0
 20
1307.150004
 30
0.0
  0
ENDBLK
  5
7C795
330
7C793
100
AcDbEntity
  8
0
100
AcDbBlockEnd
  0
BLOCK
  5
7C797
330
7C796
100
AcDbEntity
  8
0
100
AcDbBlockBegin
  2
Smart Solid
 70
     0
 71
     0
 10
0.0
 20
0.0
 30
0.0
  3
Smart Solid
  1

  0
LINE
  5
7C32E
330
7C796
100
AcDbEntity
  8
Level 25
  6
Continuous
 62
   174
370
     0
100
AcDbLine
 10
-3.0
 20
99.9995
 30
0.0
 11
3.0
 21
99.9995
 31
0.0
  0
LINE
  5
7C32F
330
7C796
100
AcDbEntity
  8
Level 25
  6
Continuous
 62
   174
370
     0
100
AcDbLine
 10
-3.0
 20
-100.000445
 30
0.0
 11
3.0
 21
-100.000445
 31
0.0
  0
LINE
  5
7C330
330
7C796
100
AcDbEntity
  8
Level 25
  6
Continuous
 62
   174
370
     0
100
AcDbLine
 10
-3.0
 20
99.9995
 30
0.0
 11
3.0
 21
99.9995
 31
0.0
  0
LINE
  5
7C331
330
7C796
100
AcDbEntity
  8
Level 25
  6
Continuous
 62
   174
370
     0
100
AcDbLine
 10
-3.0
 20
-100.000445
 30
0.0
 11
-3.0
 21
99.9995
 31
0.0
  0
LINE
  5
7C332
330
7C796
100
AcDbEntity
  8
Level 25
  6
Continuous
 62
   174
370
     0
100
AcDbLine
 10
-3.0
 20
99.9995
 30
0.0
 11
-3.0
 21
-100.000445
 31
0.0
  0
POINT
  5
7C333
330
7C796
100
AcDbEntity
  8
Level 25
  6
Continuous
 62
   174
370
     0
100
AcDbPoint
 10
-3.0
 20
99.9995
 30
0.0
  0
LINE
  5
7C334
330
7C796
100
AcDbEntity
  8
Level 25
  6
Continuous
 62
   174
370
     0
100
AcDbLine
 10
3.0
 20
-100.000445
 30
0.0
 11
3.0
 21
99.9995
 31
0.0
  0
LINE
  5
7C335
330
7C796
100
AcDbEntity
  8
Level 25
  6
Continuous
 62
   174
370
     0
100
AcDbLine
 10
3.0
 20
99.9995
 30
0.0
 11
3.0
 21
-100.000445
 31
0.0
  0
POINT
  5
7C336
330
7C796
100
AcDbEntity
  8
Level 25
  6
Continuous
 62
   174
370
     0
100
AcDbPoint
 10
3.0
 20
99.9995
 30
0.0
  0
ENDBLK
  5
7C798
330
7C796
100
AcDbEntity
  8
0
100
AcDbBlockEnd
  0
BLOCK
  5
7C79A
330
7C799
100
AcDbEntity
  8
0
100
AcDbBlockBegin
  2
Smart Solid_1
 70
     0
 71
     0
 10
0.0
 20
0.0
 30
0.0
  3
Smart Solid_1
  1

  0
LINE
  5
7C339
330
7C799
100
AcDbEntity
  8
Level 25
  6
Continuous
 62
   174
370
     0
100
AcDbLine
 10
-3.0
 20
-99.9995
 30
0.0
 11
3.0
 21
-99.9995
 31
0.0
  0
LINE
  5
7C33A
330
7C799
100
AcDbEntity
  8
Level 25
  6
Continuous
 62
   174
370
     0
100
AcDbLine
 10
-3.0
 20
100.000445
 30
0.0
 11
3.0
 21
100.000445
 31
0.0
  0
LINE
  5
7C33B
330
7C799
100
AcDbEntity
  8
Level 25
  6
Continuous
 62
   174
370
     0
100
AcDbLine
 10
-3.0
 20
-99.9995
 30
0.0
 11
3.0
 21
-99.9995
 31
0.0
  0
LINE
  5
7C33C
330
7C799
100
AcDbEntity
  8
Level 25
  6
Continuous
 62
   174
370
     0
100
AcDbLine
 10
-3.0
 20
100.000445
 30
0.0
 11
-3.0
 21
-99.9995
 31
0.0
  0
LINE
  5
7C33D
330
7C799
100
AcDbEntity
  8
Level 25
  6
Continuous
 62
   174
370
     0
100
AcDbLine
 10
-3.0
 20
-99.9995
 30
0.0
 11
-3.0
 21
100.000445
 31
0.0
  0
POINT
  5
7C33E
330
7C799
100
AcDbEntity
  8
Level 25
  6
Continuous
 62
   174
370
     0
100
AcDbPoint
 10
-3.0
 20
-99.9995
 30
0.0
  0
LINE
  5
7C33F
330
7C799
100
AcDbEntity
  8
Level 25
  6
Continuous
 62
   174
370
     0
100
AcDbLine
 10
3.0
 20
100.000445
 30
0.0
 11
3.0
 21
-99.9995
 31
0.0
  0
LINE
  5
7C340
330
7C799
100
AcDbEntity
  8
Level 25
  6
Continuous
 62
   174
370
     0
100
AcDbLine
 10
3.0
 20
-99.9995
 30
0.0
 11
3.0
 21
100.000445
 31
0.0
  0
POINT
  5
7C341
330
7C799
100
AcDbEntity
  8
Level 25
  6
Continuous
 62
   174
370
     0
100
AcDbPoint
 10
3.0
 20
-99.9995
 30
0.0
  0
ENDBLK
  5
7C79B
330
7C799
100
AcDbEntity
  8
0
100
AcDbBlockEnd
  0
BLOCK
  5
7C79D
330
7C79C
100
AcDbEntity
  8
0
100
AcDbBlockBegin
  2
Smart Solid_2
 70
     0
 71
     0
 10
0.0
 20
0.0
 30
0.0
  3
Smart Solid_2
  1

  0
ELLIPSE
  5
7C344
330
7C79C
100
AcDbEntity
  8
Level 26
  6
Continuous
 62
    67
370
    13
100
AcDbEllipse
 10
0.0
 20
41.694503
 30
0.0
 11
-15.0
 21
0.0
 31
0.0
210
0.0
220
0.0
230
1.0
 40
0.998682
 41
0.0
 42
6.283185307179586
  0
ELLIPSE
  5
7C345
330
7C79C
100
AcDbEntity
  8
Level 26
  6
Continuous
 62
    67
370
    13
100
AcDbEllipse
 10
0.0
 20
-41.694503
 30
0.0
 11
-15.0
 21
0.0
 31
0.0
210
0.0
220
0.0
230
1.0
 40
0.998682
 41
0.0
 42
6.283185307179586
  0
LINE
  5
7C346
330
7C79C
100
AcDbEntity
  8
Level 26
  6
Continuous
 62
    67
370
    13
100
AcDbLine
 10
15.0
 20
41.694503
 30
0.0
 11
15.0
 21
-41.694503
 31
0.0
  0
LINE
  5
7C347
330
7C79C
100
AcDbEntity
  8
Level 26
  6
Continuous
 62
    67
370
    13
100
AcDbLine
 10
0.0
 20
26.714266
 30
0.0
 11
0.0
 21
-56.674739
 31
0.0
  0
LINE
  5
7C348
330
7C79C
100
AcDbEntity
  8
Level 26
  6
Continuous
 62
    67
370
    13
100
AcDbLine
 10
-15.0
 20
41.694503
 30
0.0
 11
-15.0
 21
-41.694503
 31
0.0
  0
LINE
  5
7C349
330
7C79C
100
AcDbEntity
  8
Level 26
  6
Continuous
 62
    67
370
    13
100
AcDbLine
 10
0.0
 20
56.674739
 30
0.0
 11
0.0
 21
-26.714266
 31
0.0
  0
ENDBLK
  5
7C79E
330
7C79C
100
AcDbEntity
  8
0
100
AcDbBlockEnd
  0
BLOCK
  5
7C7A0
330
7C79F
100
AcDbEntity
  8
0
100
AcDbBlockBegin
  2
Smart Solid_3
 70
     0
 71
     0
 10
0.0
 20
0.0
 30
0.0
  3
Smart Solid_3
  1

  0
LINE
  5
7C34C
330
7C79F
100
AcDbEntity
  8
Level 26
  6
Continuous
 62
     7
370
     0
100
AcDbLine
 10
75.0
 20
198.776394
 30
0.0
 11
75.0
 21
-224.585515
 31
0.0
  0
LINE
  5
7C34D
330
7C79F
100
AcDbEntity
  8
Level 26
  6
Continuous
 62
     7
370
     0
100
AcDbLine
 10
-75.0
 20
198.776394
 30
0.0
 11
-75.0
 21
-224.585515
 31
0.0
  0
LINE
  5
7C34E
330
7C79F
100
AcDbEntity
  8
Level 26
  6
Continuous
 62
     7
370
     0
100
AcDbLine
 10
-75.0
 20
208.622021
 30
0.0
 11
-75.0
 21
-234.43114
 31
0.0
  0
LINE
  5
7C34F
330
7C79F
100
AcDbEntity
  8
Level 26
  6
Continuous
 62
     7
370
     0
100
AcDbLine
 10
75.0
 20
208.622021
 30
0.0
 11
75.0
 21
-234.43114
 31
0.0
  0
LINE
  5
7C350
330
7C79F
100
AcDbEntity
  8
Level 26
  6
Continuous
 62
     7
370
     0
100
AcDbLine
 10
-75.0
 20
208.622021
 30
0.0
 11
75.0
 21
208.622021
 31
0.0
  0
LINE
  5
7C351
330
7C79F
100
AcDbEntity
  8
Level 26
  6
Continuous
 62
     7
370
     0
100
AcDbLine
 10
-75.0
 20
198.776394
 30
0.0
 11
-75.0
 21
208.622021
 31
0.0
  0
LINE
  5
7C352
330
7C79F
100
AcDbEntity
  8
Level 26
  6
Continuous
 62
     7
370
     0
100
AcDbLine
 10
75.0
 20
198.776394
 30
0.0
 11
-75.0
 21
198.776394
 31
0.0
  0
LINE
  5
7C353
330
7C79F
100
AcDbEntity
  8
Level 26
  6
Continuous
 62
     7
370
     0
100
AcDbLine
 10
75.0
 20
208.622021
 30
0.0
 11
75.0
 21
198.776394
 31
0.0
  0
LINE
  5
7C354
330
7C79F
100
AcDbEntity
  8
Level 26
  6
Continuous
 62
     7
370
     0
100
AcDbLine
 10
-75.0
 20
-234.43114
 30
0.0
 11
75.0
 21
-234.43114
 31
0.0
  0
LINE
  5
7C355
330
7C79F
100
AcDbEntity
  8
Level 26
  6
Continuous
 62
     7
370
     0
100
AcDbLine
 10
-75.0
 20
-224.585515
 30
0.0
 11
-75.0
 21
-234.43114
 31
0.0
  0
LINE
  5
7C356
330
7C79F
100
AcDbEntity
  8
Level 26
  6
Continuous
 62
     7
370
     0
100
AcDbLine
 10
75.0
 20
-224.585515
 30
0.0
 11
-75.0
 21
-224.585515
 31
0.0
  0
LINE
  5
7C357
330
7C79F
100
AcDbEntity
  8
Level 26
  6
Continuous
 62
     7
370
     0
100
AcDbLine
 10
75.0
 20
-234.43114
 30
0.0
 11
75.0
 21
-224.585515
 31
0.0
  0
LINE
  5
7C358
330
7C79F
100
AcDbEntity
  8
Level 26
  6
Continuous
 62
     7
370
     0
100
AcDbLine
 10
75.0
 20
24.727597
 30
0.0
 11
-75.0
 21
24.727597
 31
0.0
  0
LINE
  5
7C359
330
7C79F
100
AcDbEntity
  8
Level 26
  6
Continuous
 62
     7
370
     0
100
AcDbLine
 10
75.0
 20
26.477931
 30
0.0
 11
-75.0
 21
26.477931
 31
0.0
  0
ENDBLK
  5
7C7A1
330
7C79F
100
AcDbEntity
  8
0
100
AcDbBlockEnd
  0
BLOCK
  5
7C7A3
330
7C7A2
100
AcDbEntity
  8
0
100
AcDbBlockBegin
  2
Smart Solid_4
 70
     0
 71
     0
 10
0.0
 20
0.0
 30
0.0
  3
Smart Solid_4
  1

  0
ELLIPSE
  5
7C35C
330
7C7A2
100
AcDbEntity
  8
Level 26
  6
Continuous
370
     0
100
AcDbEllipse
 10
39.260486
 20
0.0
 30
0.0
 11
0.0
 21
5.000000000000002
 31
0.0
210
0.0
220
0.0
230
-1.0
 40
0.825549
 41
0.0
 42
6.283185307179586
  0
LINE
  5
7C35D
330
7C7A2
100
AcDbEntity
  8
Level 26
  6
Continuous
370
     0
100
AcDbLine
 10
31.005
 20
-5.0
 30
0.0
 11
31.005
 21
5.0
 31
0.0
  0
ELLIPSE
  5
7C35E
330
7C7A2
100
AcDbEntity
  8
Level 26
  6
Continuous
370
     0
100
AcDbEllipse
 10
5.643046
 20
0.0
 30
0.0
 11
0.0
 21
5.000000000000002
 31
0.0
210
0.0
220
0.0
230
-1.0
 40
0.825549
 41
0.0
 42
6.283185307179586
  0
ELLIPSE
  5
7C35F
330
7C7A2
100
AcDbEntity
  8
Level 26
  6
Continuous
370
     0
100
AcDbEllipse
 10
-11.272694
 20
0.0
 30
0.0
 11
0.0
 21
5.000000000000002
 31
0.0
210
0.0
220
0.0
230
1.0
 40
0.866025
 41
0.0
 42
6.283185307179586
  0
ELLIPSE
  5
7C360
330
7C7A2
100
AcDbEntity
  8
Level 26
  6
Continuous
370
     0
100
AcDbEllipse
 10
-39.665786
 20
0.0
 30
0.0
 11
0.0
 21
5.000000000000002
 31
0.0
210
0.0
220
0.0
230
1.0
 40
0.866025
 41
0.0
 42
6.283185307179586
  0
LINE
  5
7C361
330
7C7A2
100
AcDbEntity
  8
Level 26
  6
Continuous
370
     0
100
AcDbLine
 10
-31.005532
 20
-5.0
 30
0.0
 11
-31.005532
 21
5.0
 31
0.0
  0
LINE
  5
7C362
330
7C7A2
100
AcDbEntity
  8
Level 26
  6
Continuous
370
     0
100
AcDbLine
 10
5.643046
 20
-5.0
 30
0.0
 11
39.260486
 21
-5.0
 31
0.0
  0
LINE
  5
7C363
330
7C7A2
100
AcDbEntity
  8
Level 26
  6
Continuous
370
     0
100
AcDbLine
 10
9.770789
 20
0.0
 30
0.0
 11
43.388229
 21
0.0
 31
0.0
  0
LINE
  5
7C364
330
7C7A2
100
AcDbEntity
  8
Level 26
  6
Continuous
370
     0
100
AcDbLine
 10
5.643046
 20
5.0
 30
0.0
 11
39.260486
 21
5.0
 31
0.0
  0
LINE
  5
7C365
330
7C7A2
100
AcDbEntity
  8
Level 26
  6
Continuous
370
     0
100
AcDbLine
 10
1.515303
 20
0.0
 30
0.0
 11
35.132743
 21
0.0
 31
0.0
  0
LINE
  5
7C366
330
7C7A2
100
AcDbEntity
  8
Level 26
  6
Continuous
370
     0
100
AcDbLine
 10
5.643046
 20
5.0
 30
0.0
 11
-11.272694
 21
5.0
 31
0.0
  0
LINE
  5
7C367
330
7C7A2
100
AcDbEntity
  8
Level 26
  6
Continuous
370
     0
100
AcDbLine
 10
9.770789
 20
0.0
 30
0.0
 11
-15.602821
 21
0.0
 31
0.0
  0
LINE
  5
7C368
330
7C7A2
100
AcDbEntity
  8
Level 26
  6
Continuous
370
     0
100
AcDbLine
 10
5.643046
 20
-5.0
 30
0.0
 11
-11.272694
 21
-5.0
 31
0.0
  0
LINE
  5
7C369
330
7C7A2
100
AcDbEntity
  8
Level 26
  6
Continuous
370
     0
100
AcDbLine
 10
1.515303
 20
0.0
 30
0.0
 11
-6.942567
 21
0.0
 31
0.0
  0
LINE
  5
7C36A
330
7C7A2
100
AcDbEntity
  8
Level 26
  6
Continuous
370
     0
100
AcDbLine
 10
-2.61244
 20
5.0
 30
0.0
 11
-2.61244
 21
-5.0
 31
0.0
  0
LINE
  5
7C36B
330
7C7A2
100
AcDbEntity
  8
Level 26
  6
Continuous
370
     0
100
AcDbLine
 10
-39.665786
 20
-5.0
 30
0.0
 11
-11.272694
 21
-5.0
 31
0.0
  0
LINE
  5
7C36C
330
7C7A2
100
AcDbEntity
  8
Level 26
  6
Continuous
370
     0
100
AcDbLine
 10
-43.995913
 20
0.0
 30
0.0
 11
-15.602821
 21
0.0
 31
0.0
  0
LINE
  5
7C36D
330
7C7A2
100
AcDbEntity
  8
Level 26
  6
Continuous
370
     0
100
AcDbLine
 10
-39.665786
 20
5.0
 30
0.0
 11
-11.272694
 21
5.0
 31
0.0
  0
LINE
  5
7C36E
330
7C7A2
100
AcDbEntity
  8
Level 26
  6
Continuous
370
     0
100
AcDbLine
 10
-35.335659
 20
0.0
 30
0.0
 11
-6.942567
 21
0.0
 31
0.0
  0
LINE
  5
7C36F
330
7C7A2
100
AcDbEntity
  8
Level 26
  6
Continuous
370
     0
100
AcDbLine
 10
-31.005532
 20
5.0
 30
0.0
 11
-41.005532
 21
5.0
 31
0.0
  0
LINE
  5
7C370
330
7C7A2
100
AcDbEntity
  8
Level 26
  6
Continuous
370
     0
100
AcDbLine
 10
-31.005532
 20
0.0
 30
0.0
 11
-46.005532
 21
0.0
 31
0.0
  0
LINE
  5
7C371
330
7C7A2
100
AcDbEntity
  8
Level 26
  6
Continuous
370
     0
100
AcDbLine
 10
-31.005532
 20
-5.0
 30
0.0
 11
-41.005532
 21
-5.0
 31
0.0
  0
LINE
  5
7C372
330
7C7A2
100
AcDbEntity
  8
Level 26
  6
Continuous
370
     0
100
AcDbLine
 10
-31.005532
 20
0.0
 30
0.0
 11
-36.005532
 21
0.0
 31
0.0
  0
ARC
  5
7C373
330
7C7A2
100
AcDbEntity
  8
Level 26
  6
Continuous
370
     0
100
AcDbCircle
 10
41.005532
 20
0.0
 30
0.0
 40
5.0
210
0.0
220
0.0
230
-1.0
100
AcDbArc
 50
0.0
 51
360.0
  0
LINE
  5
7C374
330
7C7A2
100
AcDbEntity
  8
Level 26
  6
Continuous
370
     0
100
AcDbLine
 10
-31.005532
 20
-5.0
 30
0.0
 11
-31.005532
 21
5.0
 31
0.0
  0
LINE
  5
7C375
330
7C7A2
100
AcDbEntity
  8
Level 26
  6
Continuous
370
     0
100
AcDbLine
 10
31.005
 20
-5.0
 30
0.0
 11
-31.005532
 21
-5.0
 31
0.0
  0
LINE
  5
7C376
330
7C7A2
100
AcDbEntity
  8
Level 26
  6
Continuous
370
     0
100
AcDbLine
 10
31.005
 20
0.0
 30
0.0
 11
-31.005532
 21
0.0
 31
0.0
  0
LINE
  5
7C377
330
7C7A2
100
AcDbEntity
  8
Level 26
  6
Continuous
370
     0
100
AcDbLine
 10
31.005
 20
5.0
 30
0.0
 11
-31.005532
 21
5.0
 31
0.0
  0
LINE
  5
7C378
330
7C7A2
100
AcDbEntity
  8
Level 26
  6
Continuous
370
     0
100
AcDbLine
 10
31.005
 20
0.0
 30
0.0
 11
-31.005532
 21
0.0
 31
0.0
  0
LINE
  5
7C379
330
7C7A2
100
AcDbEntity
  8
Level 26
  6
Continuous
370
     0
100
AcDbLine
 10
41.005
 20
5.0
 30
0.0
 11
31.005
 21
5.0
 31
0.0
  0
LINE
  5
7C37A
330
7C7A2
100
AcDbEntity
  8
Level 26
  6
Continuous
370
     0
100
AcDbLine
 10
46.005
 20
0.0
 30
0.0
 11
31.005
 21
0.0
 31
0.0
  0
LINE
  5
7C37B
330
7C7A2
100
AcDbEntity
  8
Level 26
  6
Continuous
370
     0
100
AcDbLine
 10
41.005
 20
-5.0
 30
0.0
 11
31.005
 21
-5.0
 31
0.0
  0
LINE
  5
7C37C
330
7C7A2
100
AcDbEntity
  8
Level 26
  6
Continuous
370
     0
100
AcDbLine
 10
36.005
 20
0.0
 30
0.0
 11
31.005
 21
0.0
 31
0.0
  0
ARC
  5
7C37D
330
7C7A2
100
AcDbEntity
  8
Level 26
  6
Continuous
370
     0
100
AcDbCircle
 10
41.005
 20
0.0
 30
0.0
 40
5.0
100
AcDbArc
 50
0.0
 51
360.0
  0
ENDBLK
  5
7C7A4
330
7C7A2
100
AcDbEntity
  8
0
100
AcDbBlockEnd
  0
BLOCK
  5
7C7A6
330
7C7A5
100
AcDbEntity
  8
0
100
AcDbBlockBegin
  2
Smart Solid_5
 70
     0
 71
     0
 10
0.0
 20
0.0
 30
0.0
  3
Smart Solid_5
  1

  0
ELLIPSE
  5
7C380
330
7C7A5
100
AcDbEntity
  8
Level 26
  6
Continuous
370
     0
100
AcDbEllipse
 10
39.260486
 20
0.0
 30
0.0
 11
0.0
 21
-5.000000000000002
 31
0.0
210
0.0
220
0.0
230
1.0
 40
0.825549
 41
0.0
 42
6.283185307179586
  0
LINE
  5
7C381
330
7C7A5
100
AcDbEntity
  8
Level 26
  6
Continuous
370
     0
100
AcDbLine
 10
31.005
 20
5.0
 30
0.0
 11
31.005
 21
-5.0
 31
0.0
  0
ELLIPSE
  5
7C382
330
7C7A5
100
AcDbEntity
  8
Level 26
  6
Continuous
370
     0
100
AcDbEllipse
 10
5.643046
 20
0.0
 30
0.0
 11
0.0
 21
-5.000000000000002
 31
0.0
210
0.0
220
0.0
230
1.0
 40
0.825549
 41
0.0
 42
6.283185307179586
  0
ELLIPSE
  5
7C383
330
7C7A5
100
AcDbEntity
  8
Level 26
  6
Continuous
370
     0
100
AcDbEllipse
 10
-11.272694
 20
0.0
 30
0.0
 11
0.0
 21
-5.000000000000001
 31
0.0
210
0.0
220
0.0
230
-1.0
 40
0.866025
 41
0.0
 42
6.283185307179586
  0
ELLIPSE
  5
7C384
330
7C7A5
100
AcDbEntity
  8
Level 26
  6
Continuous
370
     0
100
AcDbEllipse
 10
-39.665786
 20
0.0
 30
0.0
 11
0.0
 21
-5.000000000000001
 31
0.0
210
0.0
220
0.0
230
-1.0
 40
0.866025
 41
0.0
 42
6.283185307179586
  0
LINE
  5
7C385
330
7C7A5
100
AcDbEntity
  8
Level 26
  6
Continuous
370
     0
100
AcDbLine
 10
-31.005532
 20
5.0
 30
0.0
 11
-31.005532
 21
-5.0
 31
0.0
  0
LINE
  5
7C386
330
7C7A5
100
AcDbEntity
  8
Level 26
  6
Continuous
370
     0
100
AcDbLine
 10
5.643046
 20
5.0
 30
0.0
 11
39.260486
 21
5.0
 31
0.0
  0
LINE
  5
7C387
330
7C7A5
100
AcDbEntity
  8
Level 26
  6
Continuous
370
     0
100
AcDbLine
 10
9.770789
 20
0.0
 30
0.0
 11
43.388229
 21
0.0
 31
0.0
  0
LINE
  5
7C388
330
7C7A5
100
AcDbEntity
  8
Level 26
  6
Continuous
370
     0
100
AcDbLine
 10
5.643046
 20
-5.0
 30
0.0
 11
39.260486
 21
-5.0
 31
0.0
  0
LINE
  5
7C389
330
7C7A5
100
AcDbEntity
  8
Level 26
  6
Continuous
370
     0
100
AcDbLine
 10
1.515303
 20
0.0
 30
0.0
 11
35.132743
 21
0.0
 31
0.0
  0
LINE
  5
7C38A
330
7C7A5
100
AcDbEntity
  8
Level 26
  6
Continuous
370
     0
100
AcDbLine
 10
5.643046
 20
-5.0
 30
0.0
 11
-11.272694
 21
-5.0
 31
0.0
  0
LINE
  5
7C38B
330
7C7A5
100
AcDbEntity
  8
Level 26
  6
Continuous
370
     0
100
AcDbLine
 10
9.770789
 20
0.0
 30
0.0
 11
-15.602821
 21
0.0
 31
0.0
  0
LINE
  5
7C38C
330
7C7A5
100
AcDbEntity
  8
Level 26
  6
Continuous
370
     0
100
AcDbLine
 10
5.643046
 20
5.0
 30
0.0
 11
-11.272694
 21
5.0
 31
0.0
  0
LINE
  5
7C38D
330
7C7A5
100
AcDbEntity
  8
Level 26
  6
Continuous
370
     0
100
AcDbLine
 10
1.515303
 20
0.0
 30
0.0
 11
-6.942567
 21
0.0
 31
0.0
  0
LINE
  5
7C38E
330
7C7A5
100
AcDbEntity
  8
Level 26
  6
Continuous
370
     0
100
AcDbLine
 10
-2.61244
 20
-5.0
 30
0.0
 11
-2.61244
 21
5.0
 31
0.0
  0
LINE
  5
7C38F
330
7C7A5
100
AcDbEntity
  8
Level 26
  6
Continuous
370
     0
100
AcDbLine
 10
-39.665786
 20
5.0
 30
0.0
 11
-11.272694
 21
5.0
 31
0.0
  0
LINE
  5
7C390
330
7C7A5
100
AcDbEntity
  8
Level 26
  6
Continuous
370
     0
100
AcDbLine
 10
-43.995913
 20
0.0
 30
0.0
 11
-15.602821
 21
0.0
 31
0.0
  0
LINE
  5
7C391
330
7C7A5
100
AcDbEntity
  8
Level 26
  6
Continuous
370
     0
100
AcDbLine
 10
-39.665786
 20
-5.0
 30
0.0
 11
-11.272694
 21
-5.0
 31
0.0
  0
LINE
  5
7C392
330
7C7A5
100
AcDbEntity
  8
Level 26
  6
Continuous
370
     0
100
AcDbLine
 10
-35.335659
 20
0.0
 30
0.0
 11
-6.942567
 21
0.0
 31
0.0
  0
LINE
  5
7C393
330
7C7A5
100
AcDbEntity
  8
Level 26
  6
Continuous
370
     0
100
AcDbLine
 10
-31.005532
 20
-5.0
 30
0.0
 11
-41.005532
 21
-5.0
 31
0.0
  0
LINE
  5
7C394
330
7C7A5
100
AcDbEntity
  8
Level 26
  6
Continuous
370
     0
100
AcDbLine
 10
-31.005532
 20
0.0
 30
0.0
 11
-46.005532
 21
0.0
 31
0.0
  0
LINE
  5
7C395
330
7C7A5
100
AcDbEntity
  8
Level 26
  6
Continuous
370
     0
100
AcDbLine
 10
-31.005532
 20
5.0
 30
0.0
 11
-41.005532
 21
5.0
 31
0.0
  0
LINE
  5
7C396
330
7C7A5
100
AcDbEntity
  8
Level 26
  6
Continuous
370
     0
100
AcDbLine
 10
-31.005532
 20
0.0
 30
0.0
 11
-36.005532
 21
0.0
 31
0.0
  0
ARC
  5
7C397
330
7C7A5
100
AcDbEntity
  8
Level 26
  6
Continuous
370
     0
100
AcDbCircle
 10
-41.005532
 20
0.0
 30
0.0
 40
5.0
100
AcDbArc
 50
0.0
 51
360.0
  0
LINE
  5
7C398
330
7C7A5
100
AcDbEntity
  8
Level 26
  6
Continuous
370
     0
100
AcDbLine
 10
-31.005532
 20
5.0
 30
0.0
 11
-31.005532
 21
-5.0
 31
0.0
  0
LINE
  5
7C399
330
7C7A5
100
AcDbEntity
  8
Level 26
  6
Continuous
370
     0
100
AcDbLine
 10
31.005
 20
5.0
 30
0.0
 11
-31.005532
 21
5.0
 31
0.0
  0
LINE
  5
7C39A
330
7C7A5
100
AcDbEntity
  8
Level 26
  6
Continuous
370
     0
100
AcDbLine
 10
31.005
 20
0.0
 30
0.0
 11
-31.005532
 21
0.0
 31
0.0
  0
LINE
  5
7C39B
330
7C7A5
100
AcDbEntity
  8
Level 26
  6
Continuous
370
     0
100
AcDbLine
 10
31.005
 20
-5.0
 30
0.0
 11
-31.005532
 21
-5.0
 31
0.0
  0
LINE
  5
7C39C
330
7C7A5
100
AcDbEntity
  8
Level 26
  6
Continuous
370
     0
100
AcDbLine
 10
31.005
 20
0.0
 30
0.0
 11
-31.005532
 21
0.0
 31
0.0
  0
LINE
  5
7C39D
330
7C7A5
100
AcDbEntity
  8
Level 26
  6
Continuous
370
     0
100
AcDbLine
 10
41.005
 20
-5.0
 30
0.0
 11
31.005
 21
-5.0
 31
0.0
  0
LINE
  5
7C39E
330
7C7A5
100
AcDbEntity
  8
Level 26
  6
Continuous
370
     0
100
AcDbLine
 10
46.005
 20
0.0
 30
0.0
 11
31.005
 21
0.0
 31
0.0
  0
LINE
  5
7C39F
330
7C7A5
100
AcDbEntity
  8
Level 26
  6
Continuous
370
     0
100
AcDbLine
 10
41.005
 20
5.0
 30
0.0
 11
31.005
 21
5.0
 31
0.0
  0
LINE
  5
7C3A0
330
7C7A5
100
AcDbEntity
  8
Level 26
  6
Continuous
370
     0
100
AcDbLine
 10
36.005
 20
0.0
 30
0.0
 11
31.005
 21
0.0
 31
0.0
  0
ARC
  5
7C3A1
330
7C7A5
100
AcDbEntity
  8
Level 26
  6
Continuous
370
     0
100
AcDbCircle
 10
-41.005
 20
0.0
 30
0.0
 40
5.0
210
0.0
220
0.0
230
-1.0
100
AcDbArc
 50
0.0
 51
360.0
  0
ENDBLK
  5
7C7A7
330
7C7A5
100
AcDbEntity
  8
0
100
AcDbBlockEnd
  0
BLOCK
  5
7C7A9
330
7C7A8
100
AcDbEntity
  8
0
100
AcDbBlockBegin
  2
Smart Solid_6
 70
     0
 71
     0
 10
0.0
 20
0.0
 30
0.0
  3
Smart Solid_6
  1

  0
ELLIPSE
  5
7C3A4
330
7C7A8
100
AcDbEntity
  8
Level 26
  6
Continuous
 62
    67
370
    13
100
AcDbEllipse
 10
0.0
 20
-41.694503
 30
0.0
 11
-15.0
 21
0.0
 31
0.0
210
0.0
220
0.0
230
-1.0
 40
0.998682
 41
0.0
 42
6.283185307179586
  0
ELLIPSE
  5
7C3A5
330
7C7A8
100
AcDbEntity
  8
Level 26
  6
Continuous
 62
    67
370
    13
100
AcDbEllipse
 10
0.0
 20
41.694503
 30
0.0
 11
-15.0
 21
0.0
 31
0.0
210
0.0
220
0.0
230
-1.0
 40
0.998682
 41
0.0
 42
6.283185307179586
  0
LINE
  5
7C3A6
330
7C7A8
100
AcDbEntity
  8
Level 26
  6
Continuous
 62
    67
370
    13
100
AcDbLine
 10
15.0
 20
-41.694503
 30
0.0
 11
15.0
 21
41.694503
 31
0.0
  0
LINE
  5
7C3A7
330
7C7A8
100
AcDbEntity
  8
Level 26
  6
Continuous
 62
    67
370
    13
100
AcDbLine
 10
0.0
 20
-26.714266
 30
0.0
 11
0.0
 21
56.674739
 31
0.0
  0
LINE
  5
7C3A8
330
7C7A8
100
AcDbEntity
  8
Level 26
  6
Continuous
 62
    67
370
    13
100
AcDbLine
 10
-15.0
 20
-41.694503
 30
0.0
 11
-15.0
 21
41.694503
 31
0.0
  0
LINE
  5
7C3A9
330
7C7A8
100
AcDbEntity
  8
Level 26
  6
Continuous
 62
    67
370
    13
100
AcDbLine
 10
0.0
 20
-56.674739
 30
0.0
 11
0.0
 21
26.714266
 31
0.0
  0
ENDBLK
  5
7C7AA
330
7C7A8
100
AcDbEntity
  8
0
100
AcDbBlockEnd
  0
BLOCK
  5
7C7AC
330
7C7AB
100
AcDbEntity
  8
0
100
AcDbBlockBegin
  2
Smart Solid_7
 70
     0
 71
     0
 10
0.0
 20
0.0
 30
0.0
  3
Smart Solid_7
  1

  0
ELLIPSE
  5
7C3AC
330
7C7AB
100
AcDbEntity
  8
Level 26
  6
Continuous
 62
    67
370
    13
100
AcDbEllipse
 10
0.0
 20
-41.694503
 30
0.0
 11
-15.0
 21
0.0
 31
0.0
210
0.0
220
0.0
230
-1.0
 40
0.998682
 41
0.0
 42
6.283185307179586
  0
ELLIPSE
  5
7C3AD
330
7C7AB
100
AcDbEntity
  8
Level 26
  6
Continuous
 62
    67
370
    13
100
AcDbEllipse
 10
0.0
 20
41.694503
 30
0.0
 11
-15.0
 21
0.0
 31
0.0
210
0.0
220
0.0
230
-1.0
 40
0.998682
 41
0.0
 42
6.283185307179586
  0
LINE
  5
7C3AE
330
7C7AB
100
AcDbEntity
  8
Level 26
  6
Continuous
 62
    67
370
    13
100
AcDbLine
 10
15.0
 20
-41.694503
 30
0.0
 11
15.0
 21
41.694503
 31
0.0
  0
LINE
  5
7C3AF
330
7C7AB
100
AcDbEntity
  8
Level 26
  6
Continuous
 62
    67
370
    13
100
AcDbLine
 10
0.0
 20
-26.714266
 30
0.0
 11
0.0
 21
56.674739
 31
0.0
  0
LINE
  5
7C3B0
330
7C7AB
100
AcDbEntity
  8
Level 26
  6
Continuous
 62
    67
370
    13
100
AcDbLine
 10
-15.0
 20
-41.694503
 30
0.0
 11
-15.0
 21
41.694503
 31
0.0
  0
LINE
  5
7C3B1
330
7C7AB
100
AcDbEntity
  8
Level 26
  6
Continuous
 62
    67
370
    13
100
AcDbLine
 10
0.0
 20
-56.674739
 30
0.0
 11
0.0
 21
26.714266
 31
0.0
  0
ENDBLK
  5
7C7AD
330
7C7AB
100
AcDbEntity
  8
0
100
AcDbBlockEnd
  0
BLOCK
  5
7C7AF
330
7C7AE
100
AcDbEntity
  8
0
100
AcDbBlockBegin
  2
Smart Solid_8
 70
     0
 71
     0
 10
0.0
 20
0.0
 30
0.0
  3
Smart Solid_8
  1

  0
LINE
  5
7C3B4
330
7C7AE
100
AcDbEntity
  8
Level 26
  6
Continuous
 62
     7
370
     0
100
AcDbLine
 10
75.0
 20
-198.776394
 30
0.0
 11
75.0
 21
224.585515
 31
0.0
  0
LINE
  5
7C3B5
330
7C7AE
100
AcDbEntity
  8
Level 26
  6
Continuous
 62
     7
370
     0
100
AcDbLine
 10
-75.0
 20
-198.776394
 30
0.0
 11
-75.0
 21
224.585515
 31
0.0
  0
LINE
  5
7C3B6
330
7C7AE
100
AcDbEntity
  8
Level 26
  6
Continuous
 62
     7
370
     0
100
AcDbLine
 10
-75.0
 20
-208.622021
 30
0.0
 11
-75.0
 21
234.43114
 31
0.0
  0
LINE
  5
7C3B7
330
7C7AE
100
AcDbEntity
  8
Level 26
  6
Continuous
 62
     7
370
     0
100
AcDbLine
 10
75.0
 20
-208.622021
 30
0.0
 11
75.0
 21
234.43114
 31
0.0
  0
LINE
  5
7C3B8
330
7C7AE
100
AcDbEntity
  8
Level 26
  6
Continuous
 62
     7
370
     0
100
AcDbLine
 10
-75.0
 20
-208.622021
 30
0.0
 11
75.0
 21
-208.622021
 31
0.0
  0
LINE
  5
7C3B9
330
7C7AE
100
AcDbEntity
  8
Level 26
  6
Continuous
 62
     7
370
     0
100
AcDbLine
 10
-75.0
 20
-198.776394
 30
0.0
 11
-75.0
 21
-208.622021
 31
0.0
  0
LINE
  5
7C3BA
330
7C7AE
100
AcDbEntity
  8
Level 26
  6
Continuous
 62
     7
370
     0
100
AcDbLine
 10
75.0
 20
-198.776394
 30
0.0
 11
-75.0
 21
-198.776394
 31
0.0
  0
LINE
  5
7C3BB
330
7C7AE
100
AcDbEntity
  8
Level 26
  6
Continuous
 62
     7
370
     0
100
AcDbLine
 10
75.0
 20
-208.622021
 30
0.0
 11
75.0
 21
-198.776394
 31
0.0
  0
LINE
  5
7C3BC
330
7C7AE
100
AcDbEntity
  8
Level 26
  6
Continuous
 62
     7
370
     0
100
AcDbLine
 10
-75.0
 20
234.43114
 30
0.0
 11
75.0
 21
234.43114
 31
0.0
  0
LINE
  5
7C3BD
330
7C7AE
100
AcDbEntity
  8
Level 26
  6
Continuous
 62
     7
370
     0
100
AcDbLine
 10
-75.0
 20
224.585515
 30
0.0
 11
-75.0
 21
234.43114
 31
0.0
  0
LINE
  5
7C3BE
330
7C7AE
100
AcDbEntity
  8
Level 26
  6
Continuous
 62
     7
370
     0
100
AcDbLine
 10
75.0
 20
224.585515
 30
0.0
 11
-75.0
 21
224.585515
 31
0.0
  0
LINE
  5
7C3BF
330
7C7AE
100
AcDbEntity
  8
Level 26
  6
Continuous
 62
     7
370
     0
100
AcDbLine
 10
75.0
 20
234.43114
 30
0.0
 11
75.0
 21
224.585515
 31
0.0
  0
LINE
  5
7C3C0
330
7C7AE
100
AcDbEntity
  8
Level 26
  6
Continuous
 62
     7
370
     0
100
AcDbLine
 10
75.0
 20
-24.727597
 30
0.0
 11
-75.0
 21
-24.727597
 31
0.0
  0
LINE
  5
7C3C1
330
7C7AE
100
AcDbEntity
  8
Level 26
  6
Continuous
 62
     7
370
     0
100
AcDbLine
 10
75.0
 20
-26.477931
 30
0.0
 11
-75.0
 21
-26.477931
 31
0.0
  0
ENDBLK
  5
7C7B0
330
7C7AE
100
AcDbEntity
  8
0
100
AcDbBlockEnd
  0
BLOCK
  5
7C7B2
330
7C7B1
100
AcDbEntity
  8
0
100
AcDbBlockBegin
  2
Smart Solid_9
 70
     0
 71
     0
 10
0.0
 20
0.0
 30
0.0
  3
Smart Solid_9
  1

  0
ELLIPSE
  5
7C3C4
330
7C7B1
100
AcDbEntity
  8
Level 26
  6
Continuous
370
     0
100
AcDbEllipse
 10
39.260486
 20
0.0
 30
0.0
 11
0.0
 21
-5.000000000000002
 31
0.0
210
0.0
220
0.0
230
1.0
 40
0.825549
 41
0.0
 42
6.283185307179586
  0
LINE
  5
7C3C5
330
7C7B1
100
AcDbEntity
  8
Level 26
  6
Continuous
370
     0
100
AcDbLine
 10
31.005
 20
5.0
 30
0.0
 11
31.005
 21
-5.0
 31
0.0
  0
ELLIPSE
  5
7C3C6
330
7C7B1
100
AcDbEntity
  8
Level 26
  6
Continuous
370
     0
100
AcDbEllipse
 10
5.643046
 20
0.0
 30
0.0
 11
0.0
 21
-5.000000000000002
 31
0.0
210
0.0
220
0.0
230
1.0
 40
0.825549
 41
0.0
 42
6.283185307179586
  0
ELLIPSE
  5
7C3C7
330
7C7B1
100
AcDbEntity
  8
Level 26
  6
Continuous
370
     0
100
AcDbEllipse
 10
-11.272694
 20
0.0
 30
0.0
 11
0.0
 21
-5.000000000000001
 31
0.0
210
0.0
220
0.0
230
-1.0
 40
0.866025
 41
0.0
 42
6.283185307179586
  0
ELLIPSE
  5
7C3C8
330
7C7B1
100
AcDbEntity
  8
Level 26
  6
Continuous
370
     0
100
AcDbEllipse
 10
-39.665786
 20
0.0
 30
0.0
 11
0.0
 21
-5.000000000000001
 31
0.0
210
0.0
220
0.0
230
-1.0
 40
0.866025
 41
0.0
 42
6.283185307179586
  0
LINE
  5
7C3C9
330
7C7B1
100
AcDbEntity
  8
Level 26
  6
Continuous
370
     0
100
AcDbLine
 10
-31.005532
 20
5.0
 30
0.0
 11
-31.005532
 21
-5.0
 31
0.0
  0
LINE
  5
7C3CA
330
7C7B1
100
AcDbEntity
  8
Level 26
  6
Continuous
370
     0
100
AcDbLine
 10
5.643046
 20
5.0
 30
0.0
 11
39.260486
 21
5.0
 31
0.0
  0
LINE
  5
7C3CB
330
7C7B1
100
AcDbEntity
  8
Level 26
  6
Continuous
370
     0
100
AcDbLine
 10
9.770789
 20
0.0
 30
0.0
 11
43.388229
 21
0.0
 31
0.0
  0
LINE
  5
7C3CC
330
7C7B1
100
AcDbEntity
  8
Level 26
  6
Continuous
370
     0
100
AcDbLine
 10
5.643046
 20
-5.0
 30
0.0
 11
39.260486
 21
-5.0
 31
0.0
  0
LINE
  5
7C3CD
330
7C7B1
100
AcDbEntity
  8
Level 26
  6
Continuous
370
     0
100
AcDbLine
 10
1.515303
 20
0.0
 30
0.0
 11
35.132743
 21
0.0
 31
0.0
  0
LINE
  5
7C3CE
330
7C7B1
100
AcDbEntity
  8
Level 26
  6
Continuous
370
     0
100
AcDbLine
 10
5.643046
 20
-5.0
 30
0.0
 11
-11.272694
 21
-5.0
 31
0.0
  0
LINE
  5
7C3CF
330
7C7B1
100
AcDbEntity
  8
Level 26
  6
Continuous
370
     0
100
AcDbLine
 10
9.770789
 20
0.0
 30
0.0
 11
-15.602821
 21
0.0
 31
0.0
  0
LINE
  5
7C3D0
330
7C7B1
100
AcDbEntity
  8
Level 26
  6
Continuous
370
     0
100
AcDbLine
 10
5.643046
 20
5.0
 30
0.0
 11
-11.272694
 21
5.0
 31
0.0
  0
LINE
  5
7C3D1
330
7C7B1
100
AcDbEntity
  8
Level 26
  6
Continuous
370
     0
100
AcDbLine
 10
1.515303
 20
0.0
 30
0.0
 11
-6.942567
 21
0.0
 31
0.0
  0
LINE
  5
7C3D2
330
7C7B1
100
AcDbEntity
  8
Level 26
  6
Continuous
370
     0
100
AcDbLine
 10
-2.61244
 20
-5.0
 30
0.0
 11
-2.61244
 21
5.0
 31
0.0
  0
LINE
  5
7C3D3
330
7C7B1
100
AcDbEntity
  8
Level 26
  6
Continuous
370
     0
100
AcDbLine
 10
-39.665786
 20
5.0
 30
0.0
 11
-11.272694
 21
5.0
 31
0.0
  0
LINE
  5
7C3D4
330
7C7B1
100
AcDbEntity
  8
Level 26
  6
Continuous
370
     0
100
AcDbLine
 10
-43.995913
 20
0.0
 30
0.0
 11
-15.602821
 21
0.0
 31
0.0
  0
LINE
  5
7C3D5
330
7C7B1
100
AcDbEntity
  8
Level 26
  6
Continuous
370
     0
100
AcDbLine
 10
-39.665786
 20
-5.0
 30
0.0
 11
-11.272694
 21
-5.0
 31
0.0
  0
LINE
  5
7C3D6
330
7C7B1
100
AcDbEntity
  8
Level 26
  6
Continuous
370
     0
100
AcDbLine
 10
-35.335659
 20
0.0
 30
0.0
 11
-6.942567
 21
0.0
 31
0.0
  0
LINE
  5
7C3D7
330
7C7B1
100
AcDbEntity
  8
Level 26
  6
Continuous
370
     0
100
AcDbLine
 10
-31.005532
 20
-5.0
 30
0.0
 11
-41.005532
 21
-5.0
 31
0.0
  0
LINE
  5
7C3D8
330
7C7B1
100
AcDbEntity
  8
Level 26
  6
Continuous
370
     0
100
AcDbLine
 10
-31.005532
 20
0.0
 30
0.0
 11
-46.005532
 21
0.0
 31
0.0
  0
LINE
  5
7C3D9
330
7C7B1
100
AcDbEntity
  8
Level 26
  6
Continuous
370
     0
100
AcDbLine
 10
-31.005532
 20
5.0
 30
0.0
 11
-41.005532
 21
5.0
 31
0.0
  0
LINE
  5
7C3DA
330
7C7B1
100
AcDbEntity
  8
Level 26
  6
Continuous
370
     0
100
AcDbLine
 10
-31.005532
 20
0.0
 30
0.0
 11
-36.005532
 21
0.0
 31
0.0
  0
ARC
  5
7C3DB
330
7C7B1
100
AcDbEntity
  8
Level 26
  6
Continuous
370
     0
100
AcDbCircle
 10
-41.005532
 20
0.0
 30
0.0
 40
5.0
100
AcDbArc
 50
0.0
 51
360.0
  0
LINE
  5
7C3DC
330
7C7B1
100
AcDbEntity
  8
Level 26
  6
Continuous
370
     0
100
AcDbLine
 10
-31.005532
 20
5.0
 30
0.0
 11
-31.005532
 21
-5.0
 31
0.0
  0
LINE
  5
7C3DD
330
7C7B1
100
AcDbEntity
  8
Level 26
  6
Continuous
370
     0
100
AcDbLine
 10
31.005
 20
5.0
 30
0.0
 11
-31.005532
 21
5.0
 31
0.0
  0
LINE
  5
7C3DE
330
7C7B1
100
AcDbEntity
  8
Level 26
  6
Continuous
370
     0
100
AcDbLine
 10
31.005
 20
0.0
 30
0.0
 11
-31.005532
 21
0.0
 31
0.0
  0
LINE
  5
7C3DF
330
7C7B1
100
AcDbEntity
  8
Level 26
  6
Continuous
370
     0
100
AcDbLine
 10
31.005
 20
-5.0
 30
0.0
 11
-31.005532
 21
-5.0
 31
0.0
  0
LINE
  5
7C3E0
330
7C7B1
100
AcDbEntity
  8
Level 26
  6
Continuous
370
     0
100
AcDbLine
 10
31.005
 20
0.0
 30
0.0
 11
-31.005532
 21
0.0
 31
0.0
  0
LINE
  5
7C3E1
330
7C7B1
100
AcDbEntity
  8
Level 26
  6
Continuous
370
     0
100
AcDbLine
 10
41.005
 20
-5.0
 30
0.0
 11
31.005
 21
-5.0
 31
0.0
  0
LINE
  5
7C3E2
330
7C7B1
100
AcDbEntity
  8
Level 26
  6
Continuous
370
     0
100
AcDbLine
 10
46.005
 20
0.0
 30
0.0
 11
31.005
 21
0.0
 31
0.0
  0
LINE
  5
7C3E3
330
7C7B1
100
AcDbEntity
  8
Level 26
  6
Continuous
370
     0
100
AcDbLine
 10
41.005
 20
5.0
 30
0.0
 11
31.005
 21
5.0
 31
0.0
  0
LINE
  5
7C3E4
330
7C7B1
100
AcDbEntity
  8
Level 26
  6
Continuous
370
     0
100
AcDbLine
 10
36.005
 20
0.0
 30
0.0
 11
31.005
 21
0.0
 31
0.0
  0
ARC
  5
7C3E5
330
7C7B1
100
AcDbEntity
  8
Level 26
  6
Continuous
370
     0
100
AcDbCircle
 10
-41.005
 20
0.0
 30
0.0
 40
5.0
210
0.0
220
0.0
230
-1.0
100
AcDbArc
 50
0.0
 51
360.0
  0
ENDBLK
  5
7C7B3
330
7C7B1
100
AcDbEntity
  8
0
100
AcDbBlockEnd
  0
BLOCK
  5
7C7B5
330
7C7B4
100
AcDbEntity
  8
0
100
AcDbBlockBegin
  2
Smart Solid_10
 70
     0
 71
     0
 10
0.0
 20
0.0
 30
0.0
  3
Smart Solid_10
  1

  0
ELLIPSE
  5
7C3E8
330
7C7B4
100
AcDbEntity
  8
Level 26
  6
Continuous
370
     0
100
AcDbEllipse
 10
39.260486
 20
0.0
 30
0.0
 11
0.0
 21
5.000000000000002
 31
0.0
210
0.0
220
0.0
230
-1.0
 40
0.825549
 41
0.0
 42
6.283185307179586
  0
LINE
  5
7C3E9
330
7C7B4
100
AcDbEntity
  8
Level 26
  6
Continuous
370
     0
100
AcDbLine
 10
31.005
 20
-5.0
 30
0.0
 11
31.005
 21
5.0
 31
0.0
  0
ELLIPSE
  5
7C3EA
330
7C7B4
100
AcDbEntity
  8
Level 26
  6
Continuous
370
     0
100
AcDbEllipse
 10
5.643046
 20
0.0
 30
0.0
 11
0.0
 21
5.000000000000002
 31
0.0
210
0.0
220
0.0
230
-1.0
 40
0.825549
 41
0.0
 42
6.283185307179586
  0
ELLIPSE
  5
7C3EB
330
7C7B4
100
AcDbEntity
  8
Level 26
  6
Continuous
370
     0
100
AcDbEllipse
 10
-11.272694
 20
0.0
 30
0.0
 11
0.0
 21
5.000000000000002
 31
0.0
210
0.0
220
0.0
230
1.0
 40
0.866025
 41
0.0
 42
6.283185307179586
  0
ELLIPSE
  5
7C3EC
330
7C7B4
100
AcDbEntity
  8
Level 26
  6
Continuous
370
     0
100
AcDbEllipse
 10
-39.665786
 20
0.0
 30
0.0
 11
0.0
 21
5.000000000000002
 31
0.0
210
0.0
220
0.0
230
1.0
 40
0.866025
 41
0.0
 42
6.283185307179586
  0
LINE
  5
7C3ED
330
7C7B4
100
AcDbEntity
  8
Level 26
  6
Continuous
370
     0
100
AcDbLine
 10
-31.005532
 20
-5.0
 30
0.0
 11
-31.005532
 21
5.0
 31
0.0
  0
LINE
  5
7C3EE
330
7C7B4
100
AcDbEntity
  8
Level 26
  6
Continuous
370
     0
100
AcDbLine
 10
5.643046
 20
-5.0
 30
0.0
 11
39.260486
 21
-5.0
 31
0.0
  0
LINE
  5
7C3EF
330
7C7B4
100
AcDbEntity
  8
Level 26
  6
Continuous
370
     0
100
AcDbLine
 10
9.770789
 20
0.0
 30
0.0
 11
43.388229
 21
0.0
 31
0.0
  0
LINE
  5
7C3F0
330
7C7B4
100
AcDbEntity
  8
Level 26
  6
Continuous
370
     0
100
AcDbLine
 10
5.643046
 20
5.0
 30
0.0
 11
39.260486
 21
5.0
 31
0.0
  0
LINE
  5
7C3F1
330
7C7B4
100
AcDbEntity
  8
Level 26
  6
Continuous
370
     0
100
AcDbLine
 10
1.515303
 20
0.0
 30
0.0
 11
35.132743
 21
0.0
 31
0.0
  0
LINE
  5
7C3F2
330
7C7B4
100
AcDbEntity
  8
Level 26
  6
Continuous
370
     0
100
AcDbLine
 10
5.643046
 20
5.0
 30
0.0
 11
-11.272694
 21
5.0
 31
0.0
  0
LINE
  5
7C3F3
330
7C7B4
100
AcDbEntity
  8
Level 26
  6
Continuous
370
     0
100
AcDbLine
 10
9.770789
 20
0.0
 30
0.0
 11
-15.602821
 21
0.0
 31
0.0
  0
LINE
  5
7C3F4
330
7C7B4
100
AcDbEntity
  8
Level 26
  6
Continuous
370
     0
100
AcDbLine
 10
5.643046
 20
-5.0
 30
0.0
 11
-11.272694
 21
-5.0
 31
0.0
  0
LINE
  5
7C3F5
330
7C7B4
100
AcDbEntity
  8
Level 26
  6
Continuous
370
     0
100
AcDbLine
 10
1.515303
 20
0.0
 30
0.0
 11
-6.942567
 21
0.0
 31
0.0
  0
LINE
  5
7C3F6
330
7C7B4
100
AcDbEntity
  8
Level 26
  6
Continuous
370
     0
100
AcDbLine
 10
-2.61244
 20
5.0
 30
0.0
 11
-2.61244
 21
-5.0
 31
0.0
  0
LINE
  5
7C3F7
330
7C7B4
100
AcDbEntity
  8
Level 26
  6
Continuous
370
     0
100
AcDbLine
 10
-39.665786
 20
-5.0
 30
0.0
 11
-11.272694
 21
-5.0
 31
0.0
  0
LINE
  5
7C3F8
330
7C7B4
100
AcDbEntity
  8
Level 26
  6
Continuous
370
     0
100
AcDbLine
 10
-43.995913
 20
0.0
 30
0.0
 11
-15.602821
 21
0.0
 31
0.0
  0
LINE
  5
7C3F9
330
7C7B4
100
AcDbEntity
  8
Level 26
  6
Continuous
370
     0
100
AcDbLine
 10
-39.665786
 20
5.0
 30
0.0
 11
-11.272694
 21
5.0
 31
0.0
  0
LINE
  5
7C3FA
330
7C7B4
100
AcDbEntity
  8
Level 26
  6
Continuous
370
     0
100
AcDbLine
 10
-35.335659
 20
0.0
 30
0.0
 11
-6.942567
 21
0.0
 31
0.0
  0
LINE
  5
7C3FB
330
7C7B4
100
AcDbEntity
  8
Level 26
  6
Continuous
370
     0
100
AcDbLine
 10
-31.005532
 20
5.0
 30
0.0
 11
-41.005532
 21
5.0
 31
0.0
  0
LINE
  5
7C3FC
330
7C7B4
100
AcDbEntity
  8
Level 26
  6
Continuous
370
     0
100
AcDbLine
 10
-31.005532
 20
0.0
 30
0.0
 11
-46.005532
 21
0.0
 31
0.0
  0
LINE
  5
7C3FD
330
7C7B4
100
AcDbEntity
  8
Level 26
  6
Continuous
370
     0
100
AcDbLine
 10
-31.005532
 20
-5.0
 30
0.0
 11
-41.005532
 21
-5.0
 31
0.0
  0
LINE
  5
7C3FE
330
7C7B4
100
AcDbEntity
  8
Level 26
  6
Continuous
370
     0
100
AcDbLine
 10
-31.005532
 20
0.0
 30
0.0
 11
-36.005532
 21
0.0
 31
0.0
  0
ARC
  5
7C3FF
330
7C7B4
100
AcDbEntity
  8
Level 26
  6
Continuous
370
     0
100
AcDbCircle
 10
41.005532
 20
0.0
 30
0.0
 40
5.0
210
0.0
220
0.0
230
-1.0
100
AcDbArc
 50
0.0
 51
360.0
  0
LINE
  5
7C400
330
7C7B4
100
AcDbEntity
  8
Level 26
  6
Continuous
370
     0
100
AcDbLine
 10
-31.005532
 20
-5.0
 30
0.0
 11
-31.005532
 21
5.0
 31
0.0
  0
LINE
  5
7C401
330
7C7B4
100
AcDbEntity
  8
Level 26
  6
Continuous
370
     0
100
AcDbLine
 10
31.005
 20
-5.0
 30
0.0
 11
-31.005532
 21
-5.0
 31
0.0
  0
LINE
  5
7C402
330
7C7B4
100
AcDbEntity
  8
Level 26
  6
Continuous
370
     0
100
AcDbLine
 10
31.005
 20
0.0
 30
0.0
 11
-31.005532
 21
0.0
 31
0.0
  0
LINE
  5
7C403
330
7C7B4
100
AcDbEntity
  8
Level 26
  6
Continuous
370
     0
100
AcDbLine
 10
31.005
 20
5.0
 30
0.0
 11
-31.005532
 21
5.0
 31
0.0
  0
LINE
  5
7C404
330
7C7B4
100
AcDbEntity
  8
Level 26
  6
Continuous
370
     0
100
AcDbLine
 10
31.005
 20
0.0
 30
0.0
 11
-31.005532
 21
0.0
 31
0.0
  0
LINE
  5
7C405
330
7C7B4
100
AcDbEntity
  8
Level 26
  6
Continuous
370
     0
100
AcDbLine
 10
41.005
 20
5.0
 30
0.0
 11
31.005
 21
5.0
 31
0.0
  0
LINE
  5
7C406
330
7C7B4
100
AcDbEntity
  8
Level 26
  6
Continuous
370
     0
100
AcDbLine
 10
46.005
 20
0.0
 30
0.0
 11
31.005
 21
0.0
 31
0.0
  0
LINE
  5
7C407
330
7C7B4
100
AcDbEntity
  8
Level 26
  6
Continuous
370
     0
100
AcDbLine
 10
41.005
 20
-5.0
 30
0.0
 11
31.005
 21
-5.0
 31
0.0
  0
LINE
  5
7C408
330
7C7B4
100
AcDbEntity
  8
Level 26
  6
Continuous
370
     0
100
AcDbLine
 10
36.005
 20
0.0
 30
0.0
 11
31.005
 21
0.0
 31
0.0
  0
ARC
  5
7C409
330
7C7B4
100
AcDbEntity
  8
Level 26
  6
Continuous
370
     0
100
AcDbCircle
 10
41.005
 20
0.0
 30
0.0
 40
5.0
100
AcDbArc
 50
0.0
 51
360.0
  0
ENDBLK
  5
7C7B6
330
7C7B4
100
AcDbEntity
  8
0
100
AcDbBlockEnd
  0
BLOCK
  5
7C7B8
330
7C7B7
100
AcDbEntity
  8
0
100
AcDbBlockBegin
  2
Smart Solid_11
 70
     0
 71
     0
 10
0.0
 20
0.0
 30
0.0
  3
Smart Solid_11
  1

  0
ELLIPSE
  5
7C40C
330
7C7B7
100
AcDbEntity
  8
Level 26
  6
Continuous
 62
    67
370
    13
100
AcDbEllipse
 10
0.0
 20
41.694503
 30
0.0
 11
-15.0
 21
0.0
 31
0.0
210
0.0
220
0.0
230
1.0
 40
0.998682
 41
0.0
 42
6.283185307179586
  0
ELLIPSE
  5
7C40D
330
7C7B7
100
AcDbEntity
  8
Level 26
  6
Continuous
 62
    67
370
    13
100
AcDbEllipse
 10
0.0
 20
-41.694503
 30
0.0
 11
-15.0
 21
0.0
 31
0.0
210
0.0
220
0.0
230
1.0
 40
0.998682
 41
0.0
 42
6.283185307179586
  0
LINE
  5
7C40E
330
7C7B7
100
AcDbEntity
  8
Level 26
  6
Continuous
 62
    67
370
    13
100
AcDbLine
 10
15.0
 20
41.694503
 30
0.0
 11
15.0
 21
-41.694503
 31
0.0
  0
LINE
  5
7C40F
330
7C7B7
100
AcDbEntity
  8
Level 26
  6
Continuous
 62
    67
370
    13
100
AcDbLine
 10
0.0
 20
26.714266
 30
0.0
 11
0.0
 21
-56.674739
 31
0.0
  0
LINE
  5
7C410
330
7C7B7
100
AcDbEntity
  8
Level 26
  6
Continuous
 62
    67
370
    13
100
AcDbLine
 10
-15.0
 20
41.694503
 30
0.0
 11
-15.0
 21
-41.694503
 31
0.0
  0
LINE
  5
7C411
330
7C7B7
100
AcDbEntity
  8
Level 26
  6
Continuous
 62
    67
370
    13
100
AcDbLine
 10
0.0
 20
56.674739
 30
0.0
 11
0.0
 21
-26.714266
 31
0.0
  0
ENDBLK
  5
7C7B9
330
7C7B7
100
AcDbEntity
  8
0
100
AcDbBlockEnd
  0
BLOCK
  5
7C7BB
330
7C7BA
100
AcDbEntity
  8
0
100
AcDbBlockBegin
  2
Feature Solid
 70
     0
 71
     0
 10
0.0
 20
0.0
 30
0.0
  3
Feature Solid
  1

  0
INSERT
  5
7C414
330
7C7BA
100
AcDbEntity
  8
Level 27
  6
Continuous
 62
   152
370
    13
100
AcDbBlockReference
  2
UNITE
 10
0.0
 20
0.0
 30
0.0
  0
ENDBLK
  5
7C7BC
330
7C7BA
100
AcDbEntity
  8
0
100
AcDbBlockEnd
  0
BLOCK
  5
7C7BE
330
7C7BD
100
AcDbEntity
  8
0
100
AcDbBlockBegin
  2
UNITE
 70
     0
 71
     0
 10
0.0
 20
0.0
 30
0.0
  3
UNITE
  1

  0
INSERT
  5
7C415
330
7C7BD
100
AcDbEntity
  8
Level 27
  6
Continuous
 62
   152
370
    13
100
AcDbBlockReference
  2
Feature Solid_1
 10
0.0
 20
0.0
 30
0.0
  0
INSERT
  5
7C427
330
7C7BD
100
AcDbEntity
  8
Level 27
  6
Continuous
 62
   152
370
    13
100
AcDbBlockReference
  2
Feature Solid_2
 10
0.0
 20
0.0
 30
0.0
  0
ENDBLK
  5
7C7BF
330
7C7BD
100
AcDbEntity
  8
0
100
AcDbBlockEnd
  0
BLOCK
  5
7C7C1
330
7C7C0
100
AcDbEntity
  8
0
100
AcDbBlockBegin
  2
Feature Solid_1
 70
     0
 71
     0
 10
0.0
 20
0.0
 30
0.0
  3
Feature Solid_1
  1

  0
INSERT
  5
7C416
330
7C7C0
100
AcDbEntity
  8
Level 27
  6
Continuous
 62
   152
370
    13
100
AcDbBlockReference
  2
RMFACE
 10
17.175407
 20
-13.137069
 30
0.0
  0
ENDBLK
  5
7C7C2
330
7C7C0
100
AcDbEntity
  8
0
100
AcDbBlockEnd
  0
BLOCK
  5
7C7C4
330
7C7C3
100
AcDbEntity
  8
0
100
AcDbBlockBegin
  2
RMFACE
 70
     0
 71
     0
 10
0.0
 20
0.0
 30
0.0
  3
RMFACE
  1

  0
INSERT
  5
7C417
330
7C7C3
100
AcDbEntity
  8
Level 27
  6
Continuous
 62
   152
370
    13
100
AcDbBlockReference
  2
RMFACE_1
 10
0.0
 20
0.0
 30
0.0
  0
ENDBLK
  5
7C7C5
330
7C7C3
100
AcDbEntity
  8
0
100
AcDbBlockEnd
  0
BLOCK
  5
7C7C7
330
7C7C6
100
AcDbEntity
  8
0
100
AcDbBlockBegin
  2
RMFACE_1
 70
     0
 71
     0
 10
0.0
 20
0.0
 30
0.0
  3
RMFACE_1
  1

  0
INSERT
  5
7C418
330
7C7C6
100
AcDbEntity
  8
Level 27
  6
Continuous
 62
   152
370
    13
100
AcDbBlockReference
  2
RMFACE_2
 10
0.0
 20
0.0
 30
0.0
  0
ENDBLK
  5
7C7C8
330
7C7C6
100
AcDbEntity
  8
0
100
AcDbBlockEnd
  0
BLOCK
  5
7C7CA
330
7C7C9
100
AcDbEntity
  8
0
100
AcDbBlockBegin
  2
RMFACE_2
 70
     0
 71
     0
 10
0.0
 20
0.0
 30
0.0
  3
RMFACE_2
  1

  0
INSERT
  5
7C419
330
7C7C9
100
AcDbEntity
  8
Level 27
  6
Continuous
 62
   152
370
    13
100
AcDbBlockReference
  2
RMFACE_3
 10
0.0
 20
0.0
 30
0.0
  0
ENDBLK
  5
7C7CB
330
7C7C9
100
AcDbEntity
  8
0
100
AcDbBlockEnd
  0
BLOCK
  5
7C7CD
330
7C7CC
100
AcDbEntity
  8
0
100
AcDbBlockBegin
  2
RMFACE_3
 70
     0
 71
     0
 10
0.0
 20
0.0
 30
0.0
  3
RMFACE_3
  1

  0
INSERT
  5
7C41A
330
7C7CC
100
AcDbEntity
  8
Level 27
  6
Continuous
 62
   152
370
    13
100
AcDbBlockReference
  2
ROUNDE
 10
0.0
 20
0.0
 30
0.0
  0
ENDBLK
  5
7C7CE
330
7C7CC
100
AcDbEntity
  8
0
100
AcDbBlockEnd
  0
BLOCK
  5
7C7D0
330
7C7CF
100
AcDbEntity
  8
0
100
AcDbBlockBegin
  2
ROUNDE
 70
     0
 71
     0
 10
0.0
 20
0.0
 30
0.0
  3
ROUNDE
  1

  0
INSERT
  5
7C41B
330
7C7CF
100
AcDbEntity
  8
Level 27
  6
Continuous
 62
   152
370
    13
100
AcDbBlockReference
  2
ROUNDE_1
 10
0.0
 20
0.0
 30
0.0
  0
ARC
  5
7C426
330
7C7CF
100
AcDbEntity
  8
Level 27
  6
Continuous
 62
   152
370
    13
100
AcDbCircle
 10
2442.0
 20
4624.773696
 30
0.0
 40
22.0
210
0.0
220
0.0
230
-1.0
100
AcDbArc
 50
90.0
 51
180.0
  0
ENDBLK
  5
7C7D1
330
7C7CF
100
AcDbEntity
  8
0
100
AcDbBlockEnd
  0
BLOCK
  5
7C7D3
330
7C7D2
100
AcDbEntity
  8
0
100
AcDbBlockBegin
  2
ROUNDE_1
 70
     0
 71
     0
 10
0.0
 20
0.0
 30
0.0
  3
ROUNDE_1
  1

  0
INSERT
  5
7C41C
330
7C7D2
100
AcDbEntity
  8
Level 27
  6
Continuous
 62
   152
370
    13
100
AcDbBlockReference
  2
ROUNDE_2
 10
0.0
 20
0.0
 30
0.0
  0
ARC
  5
7C425
330
7C7D2
100
AcDbEntity
  8
Level 27
  6
Continuous
 62
   152
370
    13
100
AcDbCircle
 10
2558.0
 20
4624.773696
 30
0.0
 40
22.0
210
0.0
220
0.0
230
-1.0
100
AcDbArc
 50
360.0
 51
90.0
  0
ENDBLK
  5
7C7D4
330
7C7D2
100
AcDbEntity
  8
0
100
AcDbBlockEnd
  0
BLOCK
  5
7C7D6
330
7C7D5
100
AcDbEntity
  8
0
100
AcDbBlockBegin
  2
ROUNDE_2
 70
     0
 71
     0
 10
0.0
 20
0.0
 30
0.0
  3
ROUNDE_2
  1

  0
INSERT
  5
7C41D
330
7C7D5
100
AcDbEntity
  8
Level 27
  6
Continuous
 62
   152
370
    13
100
AcDbBlockReference
  2
ROUNDE_3
 10
0.0
 20
0.0
 30
0.0
  0
ARC
  5
7C424
330
7C7D5
100
AcDbEntity
  8
Level 27
  6
Continuous
 62
   152
370
    13
100
AcDbCircle
 10
2442.0
 20
4126.773696
 30
0.0
 40
22.0
210
0.0
220
0.0
230
-1.0
100
AcDbArc
 50
180.0
 51
270.0
  0
ENDBLK
  5
7C7D7
330
7C7D5
100
AcDbEntity
  8
0
100
AcDbBlockEnd
  0
BLOCK
  5
7C7D9
330
7C7D8
100
AcDbEntity
  8
0
100
AcDbBlockBegin
  2
ROUNDE_3
 70
     0
 71
     0
 10
0.0
 20
0.0
 30
0.0
  3
ROUNDE_3
  1

  0
INSERT
  5
7C41E
330
7C7D8
100
AcDbEntity
  8
Level 27
  6
Continuous
 62
   152
370
    13
100
AcDbBlockReference
  2
SOLID
 10
0.0
 20
0.0
 30
0.0
  0
ARC
  5
7C423
330
7C7D8
100
AcDbEntity
  8
Level 27
  6
Continuous
 62
   152
370
    13
100
AcDbCircle
 10
2558.0
 20
4126.773696
 30
0.0
 40
22.0
210
0.0
220
0.0
230
-1.0
100
AcDbArc
 50
270.0
 51
0.0
  0
ENDBLK
  5
7C7DA
330
7C7D8
100
AcDbEntity
  8
0
100
AcDbBlockEnd
  0
BLOCK
  5
7C7DC
330
7C7DB
100
AcDbEntity
  8
0
100
AcDbBlockBegin
  2
SOLID
 70
     0
 71
     0
 10
0.0
 20
0.0
 30
0.0
  3
SOLID
  1

  0
LINE
  5
7C41F
330
7C7DB
100
AcDbEntity
  8
Level 27
  6
Continuous
 62
   152
370
    13
100
AcDbLine
 10
-2558.0
 20
4104.773696
 30
0.0
 11
-2442.0
 21
4104.773696
 31
0.0
  0
LINE
  5
7C420
330
7C7DB
100
AcDbEntity
  8
Level 27
  6
Continuous
 62
   152
370
    13
100
AcDbLine
 10
-2580.0
 20
4624.773696
 30
0.0
 11
-2580.0
 21
4126.773696
 31
0.0
  0
LINE
  5
7C421
330
7C7DB
100
AcDbEntity
  8
Level 27
  6
Continuous
 62
   152
370
    13
100
AcDbLine
 10
-2442.0
 20
4646.773696
 30
0.0
 11
-2558.0
 21
4646.773696
 31
0.0
  0
LINE
  5
7C422
330
7C7DB
100
AcDbEntity
  8
Level 27
  6
Continuous
 62
   152
370
    13
100
AcDbLine
 10
-2420.0
 20
4126.773696
 30
0.0
 11
-2420.0
 21
4624.773696
 31
0.0
  0
ENDBLK
  5
7C7DD
330
7C7DB
100
AcDbEntity
  8
0
100
AcDbBlockEnd
  0
BLOCK
  5
7C7DF
330
7C7DE
100
AcDbEntity
  8
0
100
AcDbBlockBegin
  2
Feature Solid_2
 70
     0
 71
     0
 10
0.0
 20
0.0
 30
0.0
  3
Feature Solid_2
  1

  0
INSERT
  5
7C428
330
7C7DE
100
AcDbEntity
  8
Level 27
  6
Continuous
 62
   152
370
    13
100
AcDbBlockReference
  2
RMFACE_4
 10
17.175407
 20
-13.137069
 30
0.0
  0
ENDBLK
  5
7C7E0
330
7C7DE
100
AcDbEntity
  8
0
100
AcDbBlockEnd
  0
BLOCK
  5
7C7E2
330
7C7E1
100
AcDbEntity
  8
0
100
AcDbBlockBegin
  2
RMFACE_4
 70
     0
 71
     0
 10
0.0
 20
0.0
 30
0.0
  3
RMFACE_4
  1

  0
INSERT
  5
7C429
330
7C7E1
100
AcDbEntity
  8
Level 27
  6
Continuous
 62
   152
370
    13
100
AcDbBlockReference
  2
RMFACE_5
 10
0.0
 20
0.0
 30
0.0
  0
ENDBLK
  5
7C7E3
330
7C7E1
100
AcDbEntity
  8
0
100
AcDbBlockEnd
  0
BLOCK
  5
7C7E5
330
7C7E4
100
AcDbEntity
  8
0
100
AcDbBlockBegin
  2
RMFACE_5
 70
     0
 71
     0
 10
0.0
 20
0.0
 30
0.0
  3
RMFACE_5
  1

  0
INSERT
  5
7C42A
330
7C7E4
100
AcDbEntity
  8
Level 27
  6
Continuous
 62
   152
370
    13
100
AcDbBlockReference
  2
RMFACE_6
 10
0.0
 20
0.0
 30
0.0
  0
ENDBLK
  5
7C7E6
330
7C7E4
100
AcDbEntity
  8
0
100
AcDbBlockEnd
  0
BLOCK
  5
7C7E8
330
7C7E7
100
AcDbEntity
  8
0
100
AcDbBlockBegin
  2
RMFACE_6
 70
     0
 71
     0
 10
0.0
 20
0.0
 30
0.0
  3
RMFACE_6
  1

  0
INSERT
  5
7C42B
330
7C7E7
100
AcDbEntity
  8
Level 27
  6
Continuous
 62
   152
370
    13
100
AcDbBlockReference
  2
RMFACE_7
 10
0.0
 20
0.0
 30
0.0
  0
ENDBLK
  5
7C7E9
330
7C7E7
100
AcDbEntity
  8
0
100
AcDbBlockEnd
  0
BLOCK
  5
7C7EB
330
7C7EA
100
AcDbEntity
  8
0
100
AcDbBlockBegin
  2
RMFACE_7
 70
     0
 71
     0
 10
0.0
 20
0.0
 30
0.0
  3
RMFACE_7
  1

  0
INSERT
  5
7C42C
330
7C7EA
100
AcDbEntity
  8
Level 27
  6
Continuous
 62
   152
370
    13
100
AcDbBlockReference
  2
ROUNDE_4
 10
0.0
 20
0.0
 30
0.0
  0
ENDBLK
  5
7C7EC
330
7C7EA
100
AcDbEntity
  8
0
100
AcDbBlockEnd
  0
BLOCK
  5
7C7EE
330
7C7ED
100
AcDbEntity
  8
0
100
AcDbBlockBegin
  2
ROUNDE_4
 70
     0
 71
     0
 10
0.0
 20
0.0
 30
0.0
  3
ROUNDE_4
  1

  0
INSERT
  5
7C42D
330
7C7ED
100
AcDbEntity
  8
Level 27
  6
Continuous
 62
   152
370
    13
100
AcDbBlockReference
  2
ROUNDE_5
 10
0.0
 20
0.0
 30
0.0
  0
POINT
  5
7C43E
330
7C7ED
100
AcDbEntity
  8
Level 27
  6
Continuous
 62
   152
370
    13
100
AcDbPoint
 10
-2442.0
 20
4646.773696
 30
0.0
  0
POINT
  5
7C43F
330
7C7ED
100
AcDbEntity
  8
Level 27
  6
Continuous
 62
   152
370
    13
100
AcDbPoint
 10
-2420.0
 20
4624.773696
 30
0.0
  0
ARC
  5
7C440
330
7C7ED
100
AcDbEntity
  8
Level 27
  6
Continuous
 62
   152
370
    13
100
AcDbCircle
 10
-2442.0
 20
4624.773696
 30
0.0
 40
22.0
100
AcDbArc
 50
360.0
 51
90.0
  0
ENDBLK
  5
7C7EF
330
7C7ED
100
AcDbEntity
  8
0
100
AcDbBlockEnd
  0
BLOCK
  5
7C7F1
330
7C7F0
100
AcDbEntity
  8
0
100
AcDbBlockBegin
  2
ROUNDE_5
 70
     0
 71
     0
 10
0.0
 20
0.0
 30
0.0
  3
ROUNDE_5
  1

  0
INSERT
  5
7C42E
330
7C7F0
100
AcDbEntity
  8
Level 27
  6
Continuous
 62
   152
370
    13
100
AcDbBlockReference
  2
ROUNDE_6
 10
0.0
 20
0.0
 30
0.0
  0
POINT
  5
7C43B
330
7C7F0
100
AcDbEntity
  8
Level 27
  6
Continuous
 62
   152
370
    13
100
AcDbPoint
 10
-2580.0
 20
4624.773696
 30
0.0
  0
POINT
  5
7C43C
330
7C7F0
100
AcDbEntity
  8
Level 27
  6
Continuous
 62
   152
370
    13
100
AcDbPoint
 10
-2558.0
 20
4646.773696
 30
0.0
  0
ARC
  5
7C43D
330
7C7F0
100
AcDbEntity
  8
Level 27
  6
Continuous
 62
   152
370
    13
100
AcDbCircle
 10
-2558.0
 20
4624.773696
 30
0.0
 40
22.0
100
AcDbArc
 50
90.0
 51
180.0
  0
ENDBLK
  5
7C7F2
330
7C7F0
100
AcDbEntity
  8
0
100
AcDbBlockEnd
  0
BLOCK
  5
7C7F4
330
7C7F3
100
AcDbEntity
  8
0
100
AcDbBlockBegin
  2
ROUNDE_6
 70
     0
 71
     0
 10
0.0
 20
0.0
 30
0.0
  3
ROUNDE_6
  1

  0
INSERT
  5
7C42F
330
7C7F3
100
AcDbEntity
  8
Level 27
  6
Continuous
 62
   152
370
    13
100
AcDbBlockReference
  2
ROUNDE_7
 10
0.0
 20
0.0
 30
0.0
  0
POINT
  5
7C438
330
7C7F3
100
AcDbEntity
  8
Level 27
  6
Continuous
 62
   152
370
    13
100
AcDbPoint
 10
-2420.0
 20
4126.773696
 30
0.0
  0
POINT
  5
7C439
330
7C7F3
100
AcDbEntity
  8
Level 27
  6
Continuous
 62
   152
370
    13
100
AcDbPoint
 10
-2442.0
 20
4104.773696
 30
0.0
  0
ARC
  5
7C43A
330
7C7F3
100
AcDbEntity
  8
Level 27
  6
Continuous
 62
   152
370
    13
100
AcDbCircle
 10
-2442.0
 20
4126.773696
 30
0.0
 40
22.0
100
AcDbArc
 50
270.0
 51
0.0
  0
ENDBLK
  5
7C7F5
330
7C7F3
100
AcDbEntity
  8
0
100
AcDbBlockEnd
  0
BLOCK
  5
7C7F7
330
7C7F6
100
AcDbEntity
  8
0
100
AcDbBlockBegin
  2
ROUNDE_7
 70
     0
 71
     0
 10
0.0
 20
0.0
 30
0.0
  3
ROUNDE_7
  1

  0
INSERT
  5
7C430
330
7C7F6
100
AcDbEntity
  8
Level 27
  6
Continuous
 62
   152
370
    13
100
AcDbBlockReference
  2
SOLID_1
 10
0.0
 20
0.0
 30
0.0
  0
POINT
  5
7C435
330
7C7F6
100
AcDbEntity
  8
Level 27
  6
Continuous
 62
   152
370
    13
100
AcDbPoint
 10
-2558.0
 20
4104.773696
 30
0.0
  0
POINT
  5
7C436
330
7C7F6
100
AcDbEntity
  8
Level 27
  6
Continuous
 62
   152
370
    13
100
AcDbPoint
 10
-2580.0
 20
4126.773696
 30
0.0
  0
ARC
  5
7C437
330
7C7F6
100
AcDbEntity
  8
Level 27
  6
Continuous
 62
   152
370
    13
100
AcDbCircle
 10
-2558.0
 20
4126.773696
 30
0.0
 40
22.0
100
AcDbArc
 50
180.0
 51
270.0
  0
ENDBLK
  5
7C7F8
330
7C7F6
100
AcDbEntity
  8
0
100
AcDbBlockEnd
  0
BLOCK
  5
7C7FA
330
7C7F9
100
AcDbEntity
  8
0
100
AcDbBlockBegin
  2
SOLID_1
 70
     0
 71
     0
 10
0.0
 20
0.0
 30
0.0
  3
SOLID_1
  1

  0
LINE
  5
7C431
330
7C7F9
100
AcDbEntity
  8
Level 27
  6
Continuous
 62
   152
370
    13
100
AcDbLine
 10
-2558.0
 20
4104.773696
 30
0.0
 11
-2442.0
 21
4104.773696
 31
0.0
  0
LINE
  5
7C432
330
7C7F9
100
AcDbEntity
  8
Level 27
  6
Continuous
 62
   152
370
    13
100
AcDbLine
 10
-2580.0
 20
4624.773696
 30
0.0
 11
-2580.0
 21
4126.773696
 31
0.0
  0
LINE
  5
7C433
330
7C7F9
100
AcDbEntity
  8
Level 27
  6
Continuous
 62
   152
370
    13
100
AcDbLine
 10
-2442.0
 20
4646.773696
 30
0.0
 11
-2558.0
 21
4646.773696
 31
0.0
  0
LINE
  5
7C434
330
7C7F9
100
AcDbEntity
  8
Level 27
  6
Continuous
 62
   152
370
    13
100
AcDbLine
 10
-2420.0
 20
4126.773696
 30
0.0
 11
-2420.0
 21
4624.773696
 31
0.0
  0
ENDBLK
  5
7C7FB
330
7C7F9
100
AcDbEntity
  8
0
100
AcDbBlockEnd
  0
BLOCK
  5
7C7FD
330
7C7FC
100
AcDbEntity
  8
0
100
AcDbBlockBegin
  2
Feature Solid_3
 70
     0
 71
     0
 10
0.0
 20
0.0
 30
0.0
  3
Feature Solid_3
  1

  0
INSERT
  5
7C442
330
7C7FC
100
AcDbEntity
  8
Level 25
  6
Continuous
 62
   174
370
    13
100
AcDbBlockReference
  2
CUT
 10
2482.824093
 20
-4362.637123
 30
0.0
  0
ENDBLK
  5
7C7FE
330
7C7FC
100
AcDbEntity
  8
0
100
AcDbBlockEnd
  0
BLOCK
  5
7C800
330
7C7FF
100
AcDbEntity
  8
0
100
AcDbBlockBegin
  2
CUT
 70
     0
 71
     0
 10
0.0
 20
0.0
 30
0.0
  3
CUT
  1

  0
INSERT
  5
7C443
330
7C7FF
100
AcDbEntity
  8
Level 25
  6
Continuous
 62
   174
370
    13
100
AcDbBlockReference
  2
SOLID_2
 10
0.0
 20
0.0
 30
0.0
  0
ARC
  5
7C449
330
7C7FF
100
AcDbEntity
  8
Level 25
  6
Continuous
 62
   174
370
    13
100
AcDbCircle
 10
2482.824593
 20
4362.636623
 30
0.0
 40
69.85000000000001
210
0.0
220
0.0
230
-1.0
100
AcDbArc
 50
0.0
 51
360.0
  0
ENDBLK
  5
7C801
330
7C7FF
100
AcDbEntity
  8
0
100
AcDbBlockEnd
  0
BLOCK
  5
7C803
330
7C802
100
AcDbEntity
  8
0
100
AcDbBlockBegin
  2
SOLID_2
 70
     0
 71
     0
 10
0.0
 20
0.0
 30
0.0
  3
SOLID_2
  1

  0
ARC
  5
7C444
330
7C802
100
AcDbEntity
  8
Level 25
  6
Continuous
 62
   174
370
    13
100
AcDbCircle
 10
-2482.824593
 20
4362.636627
 30
0.0
 40
69.84999999999999
100
AcDbArc
 50
0.0
 51
360.0
  0
LINE
  5
7C445
330
7C802
100
AcDbEntity
  8
Level 25
  6
Continuous
 62
   174
370
    13
100
AcDbLine
 10
-2412.974593
 20
4362.636623
 30
0.0
 11
-2412.974593
 21
4362.636627
 31
0.0
  0
LINE
  5
7C446
330
7C802
100
AcDbEntity
  8
Level 25
  6
Continuous
 62
   174
370
    13
100
AcDbLine
 10
-2482.824593
 20
4292.786623
 30
0.0
 11
-2482.824593
 21
4292.786627
 31
0.0
  0
LINE
  5
7C447
330
7C802
100
AcDbEntity
  8
Level 25
  6
Continuous
 62
   174
370
    13
100
AcDbLine
 10
-2552.674593
 20
4362.636623
 30
0.0
 11
-2552.674593
 21
4362.636627
 31
0.0
  0
LINE
  5
7C448
330
7C802
100
AcDbEntity
  8
Level 25
  6
Continuous
 62
   174
370
    13
100
AcDbLine
 10
-2482.824593
 20
4432.486623
 30
0.0
 11
-2482.824593
 21
4432.486627
 31
0.0
  0
ENDBLK
  5
7C804
330
7C802
100
AcDbEntity
  8
0
100
AcDbBlockEnd
  0
BLOCK
  5
7C806
330
7C805
100
AcDbEntity
  8
0
100
AcDbBlockBegin
  2
Feature Solid_4
 70
     0
 71
     0
 10
0.0
 20
0.0
 30
0.0
  3
Feature Solid_4
  1

  0
INSERT
  5
7C44B
330
7C805
100
AcDbEntity
  8
Level 27
  6
Continuous
 62
   152
370
     0
100
AcDbBlockReference
  2
SLAB
 10
2482.824093
 20
-4362.637123
 30
0.0
  0
ENDBLK
  5
7C807
330
7C805
100
AcDbEntity
  8
0
100
AcDbBlockEnd
  0
BLOCK
  5
7C809
330
7C808
100
AcDbEntity
  8
0
100
AcDbBlockBegin
  2
SLAB
 70
     0
 71
     0
 10
0.0
 20
0.0
 30
0.0
  3
SLAB
  1

  0
LINE
  5
7C44C
330
7C808
100
AcDbEntity
  8
Level 27
  6
Continuous
 62
   152
370
     0
100
AcDbLine
 10
-2520.324593
 20
2962.636627
 30
0.0
 11
-2445.324593
 21
2962.636627
 31
0.0
  0
LINE
  5
7C44D
330
7C808
100
AcDbEntity
  8
Level 27
  6
Continuous
 62
   152
370
     0
100
AcDbLine
 10
-2445.324593
 20
2962.636627
 30
0.0
 11
-2445.324593
 21
5762.636627
 31
0.0
  0
LINE
  5
7C44E
330
7C808
100
AcDbEntity
  8
Level 27
  6
Continuous
 62
   152
370
     0
100
AcDbLine
 10
-2445.324593
 20
5762.636627
 30
0.0
 11
-2520.324593
 21
5762.636627
 31
0.0
  0
LINE
  5
7C44F
330
7C808
100
AcDbEntity
  8
Level 27
  6
Continuous
 62
   152
370
     0
100
AcDbLine
 10
-2520.324593
 20
5762.636627
 30
0.0
 11
-2520.324593
 21
2962.636627
 31
0.0
  0
POINT
  5
7C450
330
7C808
100
AcDbEntity
  8
Level 27
  6
Continuous
 62
   152
370
     0
100
AcDbPoint
 10
-2445.324593
 20
2962.636627
 30
0.0
  0
POINT
  5
7C451
330
7C808
100
AcDbEntity
  8
Level 27
  6
Continuous
 62
   152
370
     0
100
AcDbPoint
 10
-2445.324593
 20
5762.636627
 30
0.0
  0
POINT
  5
7C452
330
7C808
100
AcDbEntity
  8
Level 27
  6
Continuous
 62
   152
370
     0
100
AcDbPoint
 10
-2520.324593
 20
5762.636627
 30
0.0
  0
POINT
  5
7C453
330
7C808
100
AcDbEntity
  8
Level 27
  6
Continuous
 62
   152
370
     0
100
AcDbPoint
 10
-2520.324593
 20
2962.636627
 30
0.0
  0
LINE
  5
7C454
330
7C808
100
AcDbEntity
  8
Level 27
  6
Continuous
 62
   152
370
     0
100
AcDbLine
 10
-2520.324593
 20
2962.636627
 30
0.0
 11
-2520.324593
 21
5762.636627
 31
0.0
  0
LINE
  5
7C455
330
7C808
100
AcDbEntity
  8
Level 27
  6
Continuous
 62
   152
370
     0
100
AcDbLine
 10
-2520.324593
 20
5762.636627
 30
0.0
 11
-2445.324593
 21
5762.636627
 31
0.0
  0
LINE
  5
7C456
330
7C808
100
AcDbEntity
  8
Level 27
  6
Continuous
 62
   152
370
     0
100
AcDbLine
 10
-2445.324593
 20
5762.636627
 30
0.0
 11
-2445.324593
 21
2962.636627
 31
0.0
  0
LINE
  5
7C457
330
7C808
100
AcDbEntity
  8
Level 27
  6
Continuous
 62
   152
370
     0
100
AcDbLine
 10
-2445.324593
 20
2962.636627
 30
0.0
 11
-2520.324593
 21
2962.636627
 31
0.0
  0
ENDBLK
  5
7C80A
330
7C808
100
AcDbEntity
  8
0
100
AcDbBlockEnd
  0
BLOCK
  5
7C80C
330
7C80B
100
AcDbEntity
  8
0
100
AcDbBlockBegin
  2
Feature Solid_5
 70
     0
 71
     0
 10
0.0
 20
0.0
 30
0.0
  3
Feature Solid_5
  1

  0
INSERT
  5
7C459
330
7C80B
100
AcDbEntity
  8
Level 27
  6
Continuous
 62
   152
370
    13
100
AcDbBlockReference
  2
UNITE_1
 10
2482.825093
 20
-4362.637123
 30
0.0
  0
ENDBLK
  5
7C80D
330
7C80B
100
AcDbEntity
  8
0
100
AcDbBlockEnd
  0
BLOCK
  5
7C80F
330
7C80E
100
AcDbEntity
  8
0
100
AcDbBlockBegin
  2
UNITE_1
 70
     0
 71
     0
 10
0.0
 20
0.0
 30
0.0
  3
UNITE_1
  1

  0
INSERT
  5
7C45A
330
7C80E
100
AcDbEntity
  8
Level 27
  6
Continuous
 62
   152
370
    13
100
AcDbBlockReference
  2
Feature Solid_6
 10
0.0
 20
0.0
 30
0.0
  0
INSERT
  5
7C46C
330
7C80E
100
AcDbEntity
  8
Level 27
  6
Continuous
 62
   152
370
    13
100
AcDbBlockReference
  2
Feature Solid_7
 10
0.0
 20
0.0
 30
0.0
  0
ENDBLK
  5
7C810
330
7C80E
100
AcDbEntity
  8
0
100
AcDbBlockEnd
  0
BLOCK
  5
7C812
330
7C811
100
AcDbEntity
  8
0
100
AcDbBlockBegin
  2
Feature Solid_6
 70
     0
 71
     0
 10
0.0
 20
0.0
 30
0.0
  3
Feature Solid_6
  1

  0
INSERT
  5
7C45B
330
7C811
100
AcDbEntity
  8
Level 27
  6
Continuous
 62
   152
370
    13
100
AcDbBlockReference
  2
RMFACE_8
 10
17.175407
 20
-13.137069
 30
0.0
  0
ENDBLK
  5
7C813
330
7C811
100
AcDbEntity
  8
0
100
AcDbBlockEnd
  0
BLOCK
  5
7C815
330
7C814
100
AcDbEntity
  8
0
100
AcDbBlockBegin
  2
RMFACE_8
 70
     0
 71
     0
 10
0.0
 20
0.0
 30
0.0
  3
RMFACE_8
  1

  0
INSERT
  5
7C45C
330
7C814
100
AcDbEntity
  8
Level 27
  6
Continuous
 62
   152
370
    13
100
AcDbBlockReference
  2
RMFACE_9
 10
0.0
 20
0.0
 30
0.0
  0
ENDBLK
  5
7C816
330
7C814
100
AcDbEntity
  8
0
100
AcDbBlockEnd
  0
BLOCK
  5
7C818
330
7C817
100
AcDbEntity
  8
0
100
AcDbBlockBegin
  2
RMFACE_9
 70
     0
 71
     0
 10
0.0
 20
0.0
 30
0.0
  3
RMFACE_9
  1

  0
INSERT
  5
7C45D
330
7C817
100
AcDbEntity
  8
Level 27
  6
Continuous
 62
   152
370
    13
100
AcDbBlockReference
  2
RMFACE_10
 10
0.0
 20
0.0
 30
0.0
  0
ENDBLK
  5
7C819
330
7C817
100
AcDbEntity
  8
0
100
AcDbBlockEnd
  0
BLOCK
  5
7C81B
330
7C81A
100
AcDbEntity
  8
0
100
AcDbBlockBegin
  2
RMFACE_10
 70
     0
 71
     0
 10
0.0
 20
0.0
 30
0.0
  3
RMFACE_10
  1

  0
INSERT
  5
7C45E
330
7C81A
100
AcDbEntity
  8
Level 27
  6
Continuous
 62
   152
370
    13
100
AcDbBlockReference
  2
RMFACE_11
 10
0.0
 20
0.0
 30
0.0
  0
ENDBLK
  5
7C81C
330
7C81A
100
AcDbEntity
  8
0
100
AcDbBlockEnd
  0
BLOCK
  5
7C81E
330
7C81D
100
AcDbEntity
  8
0
100
AcDbBlockBegin
  2
RMFACE_11
 70
     0
 71
     0
 10
0.0
 20
0.0
 30
0.0
  3
RMFACE_11
  1

  0
INSERT
  5
7C45F
330
7C81D
100
AcDbEntity
  8
Level 27
  6
Continuous
 62
   152
370
    13
100
AcDbBlockReference
  2
ROUNDE_8
 10
0.0
 20
0.0
 30
0.0
  0
ENDBLK
  5
7C81F
330
7C81D
100
AcDbEntity
  8
0
100
AcDbBlockEnd
  0
BLOCK
  5
7C821
330
7C820
100
AcDbEntity
  8
0
100
AcDbBlockBegin
  2
ROUNDE_8
 70
     0
 71
     0
 10
0.0
 20
0.0
 30
0.0
  3
ROUNDE_8
  1

  0
INSERT
  5
7C460
330
7C820
100
AcDbEntity
  8
Level 27
  6
Continuous
 62
   152
370
    13
100
AcDbBlockReference
  2
ROUNDE_9
 10
0.0
 20
0.0
 30
0.0
  0
ARC
  5
7C46B
330
7C820
100
AcDbEntity
  8
Level 27
  6
Continuous
 62
   152
370
    13
100
AcDbCircle
 10
2442.0
 20
4624.773696
 30
0.0
 40
22.0
210
0.0
220
0.0
230
-1.0
100
AcDbArc
 50
90.0
 51
180.0
  0
ENDBLK
  5
7C822
330
7C820
100
AcDbEntity
  8
0
100
AcDbBlockEnd
  0
BLOCK
  5
7C824
330
7C823
100
AcDbEntity
  8
0
100
AcDbBlockBegin
  2
ROUNDE_9
 70
     0
 71
     0
 10
0.0
 20
0.0
 30
0.0
  3
ROUNDE_9
  1

  0
INSERT
  5
7C461
330
7C823
100
AcDbEntity
  8
Level 27
  6
Continuous
 62
   152
370
    13
100
AcDbBlockReference
  2
ROUNDE_10
 10
0.0
 20
0.0
 30
0.0
  0
ARC
  5
7C46A
330
7C823
100
AcDbEntity
  8
Level 27
  6
Continuous
 62
   152
370
    13
100
AcDbCircle
 10
2558.0
 20
4624.773696
 30
0.0
 40
22.0
210
0.0
220
0.0
230
-1.0
100
AcDbArc
 50
360.0
 51
90.0
  0
ENDBLK
  5
7C825
330
7C823
100
AcDbEntity
  8
0
100
AcDbBlockEnd
  0
BLOCK
  5
7C827
330
7C826
100
AcDbEntity
  8
0
100
AcDbBlockBegin
  2
ROUNDE_10
 70
     0
 71
     0
 10
0.0
 20
0.0
 30
0.0
  3
ROUNDE_10
  1

  0
INSERT
  5
7C462
330
7C826
100
AcDbEntity
  8
Level 27
  6
Continuous
 62
   152
370
    13
100
AcDbBlockReference
  2
ROUNDE_11
 10
0.0
 20
0.0
 30
0.0
  0
ARC
  5
7C469
330
7C826
100
AcDbEntity
  8
Level 27
  6
Continuous
 62
   152
370
    13
100
AcDbCircle
 10
2442.0
 20
4126.773696
 30
0.0
 40
22.0
210
0.0
220
0.0
230
-1.0
100
AcDbArc
 50
180.0
 51
270.0
  0
ENDBLK
  5
7C828
330
7C826
100
AcDbEntity
  8
0
100
AcDbBlockEnd
  0
BLOCK
  5
7C82A
330
7C829
100
AcDbEntity
  8
0
100
AcDbBlockBegin
  2
ROUNDE_11
 70
     0
 71
     0
 10
0.0
 20
0.0
 30
0.0
  3
ROUNDE_11
  1

  0
INSERT
  5
7C463
330
7C829
100
AcDbEntity
  8
Level 27
  6
Continuous
 62
   152
370
    13
100
AcDbBlockReference
  2
SOLID_3
 10
0.0
 20
0.0
 30
0.0
  0
ARC
  5
7C468
330
7C829
100
AcDbEntity
  8
Level 27
  6
Continuous
 62
   152
370
    13
100
AcDbCircle
 10
2558.0
 20
4126.773696
 30
0.0
 40
22.0
210
0.0
220
0.0
230
-1.0
100
AcDbArc
 50
270.0
 51
0.0
  0
ENDBLK
  5
7C82B
330
7C829
100
AcDbEntity
  8
0
100
AcDbBlockEnd
  0
BLOCK
  5
7C82D
330
7C82C
100
AcDbEntity
  8
0
100
AcDbBlockBegin
  2
SOLID_3
 70
     0
 71
     0
 10
0.0
 20
0.0
 30
0.0
  3
SOLID_3
  1

  0
LINE
  5
7C464
330
7C82C
100
AcDbEntity
  8
Level 27
  6
Continuous
 62
   152
370
    13
100
AcDbLine
 10
-2558.0
 20
4104.773696
 30
0.0
 11
-2442.0
 21
4104.773696
 31
0.0
  0
LINE
  5
7C465
330
7C82C
100
AcDbEntity
  8
Level 27
  6
Continuous
 62
   152
370
    13
100
AcDbLine
 10
-2580.0
 20
4624.773696
 30
0.0
 11
-2580.0
 21
4126.773696
 31
0.0
  0
LINE
  5
7C466
330
7C82C
100
AcDbEntity
  8
Level 27
  6
Continuous
 62
   152
370
    13
100
AcDbLine
 10
-2442.0
 20
4646.773696
 30
0.0
 11
-2558.0
 21
4646.773696
 31
0.0
  0
LINE
  5
7C467
330
7C82C
100
AcDbEntity
  8
Level 27
  6
Continuous
 62
   152
370
    13
100
AcDbLine
 10
-2420.0
 20
4126.773696
 30
0.0
 11
-2420.0
 21
4624.773696
 31
0.0
  0
ENDBLK
  5
7C82E
330
7C82C
100
AcDbEntity
  8
0
100
AcDbBlockEnd
  0
BLOCK
  5
7C830
330
7C82F
100
AcDbEntity
  8
0
100
AcDbBlockBegin
  2
Feature Solid_7
 70
     0
 71
     0
 10
0.0
 20
0.0
 30
0.0
  3
Feature Solid_7
  1

  0
INSERT
  5
7C46D
330
7C82F
100
AcDbEntity
  8
Level 27
  6
Continuous
 62
   152
370
    13
100
AcDbBlockReference
  2
RMFACE_12
 10
17.175407
 20
-13.137069
 30
0.0
  0
ENDBLK
  5
7C831
330
7C82F
100
AcDbEntity
  8
0
100
AcDbBlockEnd
  0
BLOCK
  5
7C833
330
7C832
100
AcDbEntity
  8
0
100
AcDbBlockBegin
  2
RMFACE_12
 70
     0
 71
     0
 10
0.0
 20
0.0
 30
0.0
  3
RMFACE_12
  1

  0
INSERT
  5
7C46E
330
7C832
100
AcDbEntity
  8
Level 27
  6
Continuous
 62
   152
370
    13
100
AcDbBlockReference
  2
RMFACE_13
 10
0.0
 20
0.0
 30
0.0
  0
ENDBLK
  5
7C834
330
7C832
100
AcDbEntity
  8
0
100
AcDbBlockEnd
  0
BLOCK
  5
7C836
330
7C835
100
AcDbEntity
  8
0
100
AcDbBlockBegin
  2
RMFACE_13
 70
     0
 71
     0
 10
0.0
 20
0.0
 30
0.0
  3
RMFACE_13
  1

  0
INSERT
  5
7C46F
330
7C835
100
AcDbEntity
  8
Level 27
  6
Continuous
 62
   152
370
    13
100
AcDbBlockReference
  2
RMFACE_14
 10
0.0
 20
0.0
 30
0.0
  0
ENDBLK
  5
7C837
330
7C835
100
AcDbEntity
  8
0
100
AcDbBlockEnd
  0
BLOCK
  5
7C839
330
7C838
100
AcDbEntity
  8
0
100
AcDbBlockBegin
  2
RMFACE_14
 70
     0
 71
     0
 10
0.0
 20
0.0
 30
0.0
  3
RMFACE_14
  1

  0
INSERT
  5
7C470
330
7C838
100
AcDbEntity
  8
Level 27
  6
Continuous
 62
   152
370
    13
100
AcDbBlockReference
  2
RMFACE_15
 10
0.0
 20
0.0
 30
0.0
  0
ENDBLK
  5
7C83A
330
7C838
100
AcDbEntity
  8
0
100
AcDbBlockEnd
  0
BLOCK
  5
7C83C
330
7C83B
100
AcDbEntity
  8
0
100
AcDbBlockBegin
  2
RMFACE_15
 70
     0
 71
     0
 10
0.0
 20
0.0
 30
0.0
  3
RMFACE_15
  1

  0
INSERT
  5
7C471
330
7C83B
100
AcDbEntity
  8
Level 27
  6
Continuous
 62
   152
370
    13
100
AcDbBlockReference
  2
ROUNDE_12
 10
0.0
 20
0.0
 30
0.0
  0
ENDBLK
  5
7C83D
330
7C83B
100
AcDbEntity
  8
0
100
AcDbBlockEnd
  0
BLOCK
  5
7C83F
330
7C83E
100
AcDbEntity
  8
0
100
AcDbBlockBegin
  2
ROUNDE_12
 70
     0
 71
     0
 10
0.0
 20
0.0
 30
0.0
  3
ROUNDE_12
  1

  0
INSERT
  5
7C472
330
7C83E
100
AcDbEntity
  8
Level 27
  6
Continuous
 62
   152
370
    13
100
AcDbBlockReference
  2
ROUNDE_13
 10
0.0
 20
0.0
 30
0.0
  0
POINT
  5
7C483
330
7C83E
100
AcDbEntity
  8
Level 27
  6
Continuous
 62
   152
370
    13
100
AcDbPoint
 10
-2442.0
 20
4646.773696
 30
0.0
  0
POINT
  5
7C484
330
7C83E
100
AcDbEntity
  8
Level 27
  6
Continuous
 62
   152
370
    13
100
AcDbPoint
 10
-2420.0
 20
4624.773696
 30
0.0
  0
ARC
  5
7C485
330
7C83E
100
AcDbEntity
  8
Level 27
  6
Continuous
 62
   152
370
    13
100
AcDbCircle
 10
-2442.0
 20
4624.773696
 30
0.0
 40
22.0
100
AcDbArc
 50
360.0
 51
90.0
  0
ENDBLK
  5
7C840
330
7C83E
100
AcDbEntity
  8
0
100
AcDbBlockEnd
  0
BLOCK
  5
7C842
330
7C841
100
AcDbEntity
  8
0
100
AcDbBlockBegin
  2
ROUNDE_13
 70
     0
 71
     0
 10
0.0
 20
0.0
 30
0.0
  3
ROUNDE_13
  1

  0
INSERT
  5
7C473
330
7C841
100
AcDbEntity
  8
Level 27
  6
Continuous
 62
   152
370
    13
100
AcDbBlockReference
  2
ROUNDE_14
 10
0.0
 20
0.0
 30
0.0
  0
POINT
  5
7C480
330
7C841
100
AcDbEntity
  8
Level 27
  6
Continuous
 62
   152
370
    13
100
AcDbPoint
 10
-2580.0
 20
4624.773696
 30
0.0
  0
POINT
  5
7C481
330
7C841
100
AcDbEntity
  8
Level 27
  6
Continuous
 62
   152
370
    13
100
AcDbPoint
 10
-2558.0
 20
4646.773696
 30
0.0
  0
ARC
  5
7C482
330
7C841
100
AcDbEntity
  8
Level 27
  6
Continuous
 62
   152
370
    13
100
AcDbCircle
 10
-2558.0
 20
4624.773696
 30
0.0
 40
22.0
100
AcDbArc
 50
90.0
 51
180.0
  0
ENDBLK
  5
7C843
330
7C841
100
AcDbEntity
  8
0
100
AcDbBlockEnd
  0
BLOCK
  5
7C845
330
7C844
100
AcDbEntity
  8
0
100
AcDbBlockBegin
  2
ROUNDE_14
 70
     0
 71
     0
 10
0.0
 20
0.0
 30
0.0
  3
ROUNDE_14
  1

  0
INSERT
  5
7C474
330
7C844
100
AcDbEntity
  8
Level 27
  6
Continuous
 62
   152
370
    13
100
AcDbBlockReference
  2
ROUNDE_15
 10
0.0
 20
0.0
 30
0.0
  0
POINT
  5
7C47D
330
7C844
100
AcDbEntity
  8
Level 27
  6
Continuous
 62
   152
370
    13
100
AcDbPoint
 10
-2420.0
 20
4126.773696
 30
0.0
  0
POINT
  5
7C47E
330
7C844
100
AcDbEntity
  8
Level 27
  6
Continuous
 62
   152
370
    13
100
AcDbPoint
 10
-2442.0
 20
4104.773696
 30
0.0
  0
ARC
  5
7C47F
330
7C844
100
AcDbEntity
  8
Level 27
  6
Continuous
 62
   152
370
    13
100
AcDbCircle
 10
-2442.0
 20
4126.773696
 30
0.0
 40
22.0
100
AcDbArc
 50
270.0
 51
0.0
  0
ENDBLK
  5
7C846
330
7C844
100
AcDbEntity
  8
0
100
AcDbBlockEnd
  0
BLOCK
  5
7C848
330
7C847
100
AcDbEntity
  8
0
100
AcDbBlockBegin
  2
ROUNDE_15
 70
     0
 71
     0
 10
0.0
 20
0.0
 30
0.0
  3
ROUNDE_15
  1

  0
INSERT
  5
7C475
330
7C847
100
AcDbEntity
  8
Level 27
  6
Continuous
 62
   152
370
    13
100
AcDbBlockReference
  2
SOLID_4
 10
0.0
 20
0.0
 30
0.0
  0
POINT
  5
7C47A
330
7C847
100
AcDbEntity
  8
Level 27
  6
Continuous
 62
   152
370
    13
100
AcDbPoint
 10
-2558.0
 20
4104.773696
 30
0.0
  0
POINT
  5
7C47B
330
7C847
100
AcDbEntity
  8
Level 27
  6
Continuous
 62
   152
370
    13
100
AcDbPoint
 10
-2580.0
 20
4126.773696
 30
0.0
  0
ARC
  5
7C47C
330
7C847
100
AcDbEntity
  8
Level 27
  6
Continuous
 62
   152
370
    13
100
AcDbCircle
 10
-2558.0
 20
4126.773696
 30
0.0
 40
22.0
100
AcDbArc
 50
180.0
 51
270.0
  0
ENDBLK
  5
7C849
330
7C847
100
AcDbEntity
  8
0
100
AcDbBlockEnd
  0
BLOCK
  5
7C84B
330
7C84A
100
AcDbEntity
  8
0
100
AcDbBlockBegin
  2
SOLID_4
 70
     0
 71
     0
 10
0.0
 20
0.0
 30
0.0
  3
SOLID_4
  1

  0
LINE
  5
7C476
330
7C84A
100
AcDbEntity
  8
Level 27
  6
Continuous
 62
   152
370
    13
100
AcDbLine
 10
-2558.0
 20
4104.773696
 30
0.0
 11
-2442.0
 21
4104.773696
 31
0.0
  0
LINE
  5
7C477
330
7C84A
100
AcDbEntity
  8
Level 27
  6
Continuous
 62
   152
370
    13
100
AcDbLine
 10
-2580.0
 20
4624.773696
 30
0.0
 11
-2580.0
 21
4126.773696
 31
0.0
  0
LINE
  5
7C478
330
7C84A
100
AcDbEntity
  8
Level 27
  6
Continuous
 62
   152
370
    13
100
AcDbLine
 10
-2442.0
 20
4646.773696
 30
0.0
 11
-2558.0
 21
4646.773696
 31
0.0
  0
LINE
  5
7C479
330
7C84A
100
AcDbEntity
  8
Level 27
  6
Continuous
 62
   152
370
    13
100
AcDbLine
 10
-2420.0
 20
4126.773696
 30
0.0
 11
-2420.0
 21
4624.773696
 31
0.0
  0
ENDBLK
  5
7C84C
330
7C84A
100
AcDbEntity
  8
0
100
AcDbBlockEnd
  0
BLOCK
  5
7C84E
330
7C84D
100
AcDbEntity
  8
0
100
AcDbBlockBegin
  2
Smart Solid_12
 70
     0
 71
     0
 10
0.0
 20
0.0
 30
0.0
  3
Smart Solid_12
  1

  0
LINE
  5
7C487
330
7C84D
100
AcDbEntity
  8
Level 1
  6
Continuous
370
     0
100
AcDbLine
 10
17.000215
 20
10.000269
 30
0.0
 11
22.000215
 21
15.000269
 31
0.0
  0
LINE
  5
7C488
330
7C84D
100
AcDbEntity
  8
Level 1
  6
Continuous
370
     0
100
AcDbLine
 10
22.000215
 20
-14.999731
 30
0.0
 11
17.000215
 21
-9.999731
 31
0.0
  0
LINE
  5
7C489
330
7C84D
100
AcDbEntity
  8
Level 1
  6
Continuous
370
     0
100
AcDbLine
 10
22.000215
 20
15.000269
 30
0.0
 11
22.000215
 21
-14.999731
 31
0.0
  0
LINE
  5
7C48A
330
7C84D
100
AcDbEntity
  8
Level 1
  6
Continuous
370
     0
100
AcDbLine
 10
17.000215
 20
10.000269
 30
0.0
 11
17.000215
 21
-9.999731
 31
0.0
  0
LINE
  5
7C48B
330
7C84D
100
AcDbEntity
  8
Level 1
  6
Continuous
370
     0
100
AcDbLine
 10
-16.999785
 20
10.000269
 30
0.0
 11
-21.999785
 21
15.000269
 31
0.0
  0
LINE
  5
7C48C
330
7C84D
100
AcDbEntity
  8
Level 1
  6
Continuous
370
     0
100
AcDbLine
 10
-21.999785
 20
15.000269
 30
0.0
 11
22.000215
 21
15.000269
 31
0.0
  0
LINE
  5
7C48D
330
7C84D
100
AcDbEntity
  8
Level 1
  6
Continuous
370
     0
100
AcDbLine
 10
-16.999785
 20
10.000269
 30
0.0
 11
17.000215
 21
10.000269
 31
0.0
  0
LINE
  5
7C48E
330
7C84D
100
AcDbEntity
  8
Level 1
  6
Continuous
370
     0
100
AcDbLine
 10
-16.999785
 20
-9.999731
 30
0.0
 11
-21.999785
 21
-14.999731
 31
0.0
  0
LINE
  5
7C48F
330
7C84D
100
AcDbEntity
  8
Level 1
  6
Continuous
370
     0
100
AcDbLine
 10
-21.999785
 20
-14.999731
 30
0.0
 11
-21.999785
 21
15.000269
 31
0.0
  0
LINE
  5
7C490
330
7C84D
100
AcDbEntity
  8
Level 1
  6
Continuous
370
     0
100
AcDbLine
 10
-16.999785
 20
-9.999731
 30
0.0
 11
-16.999785
 21
10.000269
 31
0.0
  0
LINE
  5
7C491
330
7C84D
100
AcDbEntity
  8
Level 1
  6
Continuous
370
     0
100
AcDbLine
 10
22.000215
 20
-14.999731
 30
0.0
 11
-21.999785
 21
-14.999731
 31
0.0
  0
LINE
  5
7C492
330
7C84D
100
AcDbEntity
  8
Level 1
  6
Continuous
370
     0
100
AcDbLine
 10
17.000215
 20
-9.999731
 30
0.0
 11
-16.999785
 21
-9.999731
 31
0.0
  0
LINE
  5
7C493
330
7C84D
100
AcDbEntity
  8
Level 1
  6
Continuous
370
     0
100
AcDbLine
 10
25.000215
 20
-59.999731
 30
0.0
 11
-24.999785
 21
-59.999731
 31
0.0
  0
LINE
  5
7C494
330
7C84D
100
AcDbEntity
  8
Level 1
  6
Continuous
370
     0
100
AcDbLine
 10
25.000215
 20
60.000269
 30
0.0
 11
-24.999785
 21
60.000269
 31
0.0
  0
LINE
  5
7C495
330
7C84D
100
AcDbEntity
  8
Level 1
  6
Continuous
370
     0
100
AcDbLine
 10
25.000215
 20
60.000269
 30
0.0
 11
-24.999785
 21
60.000269
 31
0.0
  0
LINE
  5
7C496
330
7C84D
100
AcDbEntity
  8
Level 1
  6
Continuous
370
     0
100
AcDbLine
 10
25.000215
 20
-59.999731
 30
0.0
 11
-24.999785
 21
-59.999731
 31
0.0
  0
LINE
  5
7C497
330
7C84D
100
AcDbEntity
  8
Level 1
  6
Continuous
370
     0
100
AcDbLine
 10
25.000215
 20
60.000269
 30
0.0
 11
25.000215
 21
-59.999731
 31
0.0
  0
POINT
  5
7C498
330
7C84D
100
AcDbEntity
  8
Level 1
  6
Continuous
370
     0
100
AcDbPoint
 10
25.000215
 20
60.000269
 30
0.0
  0
LINE
  5
7C499
330
7C84D
100
AcDbEntity
  8
Level 1
  6
Continuous
370
     0
100
AcDbLine
 10
25.000215
 20
-59.999731
 30
0.0
 11
25.000215
 21
60.000269
 31
0.0
  0
POINT
  5
7C49A
330
7C84D
100
AcDbEntity
  8
Level 1
  6
Continuous
370
     0
100
AcDbPoint
 10
25.000215
 20
-59.999731
 30
0.0
  0
LINE
  5
7C49B
330
7C84D
100
AcDbEntity
  8
Level 1
  6
Continuous
370
     0
100
AcDbLine
 10
-24.999785
 20
60.000269
 30
0.0
 11
-24.999785
 21
-59.999731
 31
0.0
  0
POINT
  5
7C49C
330
7C84D
100
AcDbEntity
  8
Level 1
  6
Continuous
370
     0
100
AcDbPoint
 10
-24.999785
 20
60.000269
 30
0.0
  0
LINE
  5
7C49D
330
7C84D
100
AcDbEntity
  8
Level 1
  6
Continuous
370
     0
100
AcDbLine
 10
-24.999785
 20
-59.999731
 30
0.0
 11
-24.999785
 21
60.000269
 31
0.0
  0
POINT
  5
7C49E
330
7C84D
100
AcDbEntity
  8
Level 1
  6
Continuous
370
     0
100
AcDbPoint
 10
-24.999785
 20
-59.999731
 30
0.0
  0
LINE
  5
7C49F
330
7C84D
100
AcDbEntity
  8
Level 1
  6
Continuous
370
     0
100
AcDbLine
 10
0.000215
 20
-9.999731
 30
0.0
 11
-16.999785
 21
-9.999731
 31
0.0
  0
LINE
  5
7C4A0
330
7C84D
100
AcDbEntity
  8
Level 1
  6
Continuous
370
     0
100
AcDbLine
 10
-16.999785
 20
-9.999731
 30
0.0
 11
-16.999785
 21
10.000269
 31
0.0
  0
LINE
  5
7C4A1
330
7C84D
100
AcDbEntity
  8
Level 1
  6
Continuous
370
     0
100
AcDbLine
 10
0.000215
 20
10.000269
 30
0.0
 11
-16.999785
 21
10.000269
 31
0.0
  0
LINE
  5
7C4A2
330
7C84D
100
AcDbEntity
  8
Level 1
  6
Continuous
370
     0
100
AcDbLine
 10
17.000215
 20
10.000269
 30
0.0
 11
0.000215
 21
10.000269
 31
0.0
  0
LINE
  5
7C4A3
330
7C84D
100
AcDbEntity
  8
Level 1
  6
Continuous
370
     0
100
AcDbLine
 10
17.000215
 20
10.000269
 30
0.0
 11
17.000215
 21
-9.999731
 31
0.0
  0
LINE
  5
7C4A4
330
7C84D
100
AcDbEntity
  8
Level 1
  6
Continuous
370
     0
100
AcDbLine
 10
17.000215
 20
-9.999731
 30
0.0
 11
0.000215
 21
-9.999731
 31
0.0
  0
LINE
  5
7C4A5
330
7C84D
100
AcDbEntity
  8
Level 1
  6
Continuous
370
     0
100
AcDbLine
 10
0.000215
 20
10.000269
 30
0.0
 11
0.000215
 21
-9.999731
 31
0.0
  0
POINT
  5
7C4A6
330
7C84D
100
AcDbEntity
  8
Level 1
  6
Continuous
370
     0
100
AcDbPoint
 10
-16.999785
 20
-9.999731
 30
0.0
  0
POINT
  5
7C4A7
330
7C84D
100
AcDbEntity
  8
Level 1
  6
Continuous
370
     0
100
AcDbPoint
 10
-16.999785
 20
10.000269
 30
0.0
  0
POINT
  5
7C4A8
330
7C84D
100
AcDbEntity
  8
Level 1
  6
Continuous
370
     0
100
AcDbPoint
 10
17.000215
 20
10.000269
 30
0.0
  0
POINT
  5
7C4A9
330
7C84D
100
AcDbEntity
  8
Level 1
  6
Continuous
370
     0
100
AcDbPoint
 10
17.000215
 20
-9.999731
 30
0.0
  0
LINE
  5
7C4AA
330
7C84D
100
AcDbEntity
  8
Level 1
  6
Continuous
370
     0
100
AcDbLine
 10
-5.999785
 20
10.000269
 30
0.0
 11
6.000215
 21
10.000269
 31
0.0
  0
LINE
  5
7C4AB
330
7C84D
100
AcDbEntity
  8
Level 1
  6
Continuous
370
     0
100
AcDbLine
 10
-5.999785
 20
-9.999731
 30
0.0
 11
6.000215
 21
-9.999731
 31
0.0
  0
POINT
  5
7C4AC
330
7C84D
100
AcDbEntity
  8
Level 1
  6
Continuous
370
     0
100
AcDbPoint
 10
-4.999785
 20
-45.999731
 30
0.0
  0
POINT
  5
7C4AD
330
7C84D
100
AcDbEntity
  8
Level 1
  6
Continuous
370
     0
100
AcDbPoint
 10
-4.999785
 20
-35.999731
 30
0.0
  0
POINT
  5
7C4AE
330
7C84D
100
AcDbEntity
  8
Level 1
  6
Continuous
370
     0
100
AcDbPoint
 10
5.000215
 20
-35.999731
 30
0.0
  0
POINT
  5
7C4AF
330
7C84D
100
AcDbEntity
  8
Level 1
  6
Continuous
370
     0
100
AcDbPoint
 10
5.000215
 20
-45.999731
 30
0.0
  0
LINE
  5
7C4B0
330
7C84D
100
AcDbEntity
  8
Level 1
  6
Continuous
370
     0
100
AcDbLine
 10
5.000215
 20
-35.999731
 30
0.0
 11
5.000215
 21
-45.999731
 31
0.0
  0
LINE
  5
7C4B1
330
7C84D
100
AcDbEntity
  8
Level 1
  6
Continuous
370
     0
100
AcDbLine
 10
-4.999785
 20
-35.999731
 30
0.0
 11
5.000215
 21
-35.999731
 31
0.0
  0
LINE
  5
7C4B2
330
7C84D
100
AcDbEntity
  8
Level 1
  6
Continuous
370
     0
100
AcDbLine
 10
-4.999785
 20
-45.999731
 30
0.0
 11
-4.999785
 21
-35.999731
 31
0.0
  0
LINE
  5
7C4B3
330
7C84D
100
AcDbEntity
  8
Level 1
  6
Continuous
370
     0
100
AcDbLine
 10
5.000215
 20
-45.999731
 30
0.0
 11
-4.999785
 21
-45.999731
 31
0.0
  0
LINE
  5
7C4B4
330
7C84D
100
AcDbEntity
  8
Level 1
  6
Continuous
370
     0
100
AcDbLine
 10
5.000215
 20
-35.999731
 30
0.0
 11
5.000215
 21
-45.999731
 31
0.0
  0
LINE
  5
7C4B5
330
7C84D
100
AcDbEntity
  8
Level 1
  6
Continuous
370
     0
100
AcDbLine
 10
-4.999785
 20
-35.999731
 30
0.0
 11
5.000215
 21
-35.999731
 31
0.0
  0
LINE
  5
7C4B6
330
7C84D
100
AcDbEntity
  8
Level 1
  6
Continuous
370
     0
100
AcDbLine
 10
-4.999785
 20
-45.999731
 30
0.0
 11
-4.999785
 21
-35.999731
 31
0.0
  0
LINE
  5
7C4B7
330
7C84D
100
AcDbEntity
  8
Level 1
  6
Continuous
370
     0
100
AcDbLine
 10
5.000215
 20
-45.999731
 30
0.0
 11
-4.999785
 21
-45.999731
 31
0.0
  0
POINT
  5
7C4B8
330
7C84D
100
AcDbEntity
  8
Level 1
  6
Continuous
370
     0
100
AcDbPoint
 10
-4.999785
 20
46.000269
 30
0.0
  0
POINT
  5
7C4B9
330
7C84D
100
AcDbEntity
  8
Level 1
  6
Continuous
370
     0
100
AcDbPoint
 10
-4.999785
 20
36.000269
 30
0.0
  0
POINT
  5
7C4BA
330
7C84D
100
AcDbEntity
  8
Level 1
  6
Continuous
370
     0
100
AcDbPoint
 10
5.000215
 20
36.000269
 30
0.0
  0
POINT
  5
7C4BB
330
7C84D
100
AcDbEntity
  8
Level 1
  6
Continuous
370
     0
100
AcDbPoint
 10
5.000215
 20
46.000269
 30
0.0
  0
LINE
  5
7C4BC
330
7C84D
100
AcDbEntity
  8
Level 1
  6
Continuous
370
     0
100
AcDbLine
 10
5.000215
 20
36.000269
 30
0.0
 11
5.000215
 21
46.000269
 31
0.0
  0
LINE
  5
7C4BD
330
7C84D
100
AcDbEntity
  8
Level 1
  6
Continuous
370
     0
100
AcDbLine
 10
-4.999785
 20
36.000269
 30
0.0
 11
5.000215
 21
36.000269
 31
0.0
  0
LINE
  5
7C4BE
330
7C84D
100
AcDbEntity
  8
Level 1
  6
Continuous
370
     0
100
AcDbLine
 10
-4.999785
 20
46.000269
 30
0.0
 11
-4.999785
 21
36.000269
 31
0.0
  0
LINE
  5
7C4BF
330
7C84D
100
AcDbEntity
  8
Level 1
  6
Continuous
370
     0
100
AcDbLine
 10
5.000215
 20
46.000269
 30
0.0
 11
-4.999785
 21
46.000269
 31
0.0
  0
LINE
  5
7C4C0
330
7C84D
100
AcDbEntity
  8
Level 1
  6
Continuous
370
     0
100
AcDbLine
 10
5.000215
 20
36.000269
 30
0.0
 11
5.000215
 21
46.000269
 31
0.0
  0
LINE
  5
7C4C1
330
7C84D
100
AcDbEntity
  8
Level 1
  6
Continuous
370
     0
100
AcDbLine
 10
-4.999785
 20
36.000269
 30
0.0
 11
5.000215
 21
36.000269
 31
0.0
  0
LINE
  5
7C4C2
330
7C84D
100
AcDbEntity
  8
Level 1
  6
Continuous
370
     0
100
AcDbLine
 10
-4.999785
 20
46.000269
 30
0.0
 11
-4.999785
 21
36.000269
 31
0.0
  0
LINE
  5
7C4C3
330
7C84D
100
AcDbEntity
  8
Level 1
  6
Continuous
370
     0
100
AcDbLine
 10
5.000215
 20
46.000269
 30
0.0
 11
-4.999785
 21
46.000269
 31
0.0
  0
LINE
  5
7C4C4
330
7C84D
100
AcDbEntity
  8
Level 1
  6
Continuous
370
     0
100
AcDbLine
 10
0.000215
 20
-9.999731
 30
0.0
 11
0.000215
 21
10.000269
 31
0.0
  0
LINE
  5
7C4C5
330
7C84D
100
AcDbEntity
  8
Level 1
  6
Continuous
370
     0
100
AcDbLine
 10
-5.999785
 20
-9.999731
 30
0.0
 11
-5.999785
 21
10.000269
 31
0.0
  0
LINE
  5
7C4C6
330
7C84D
100
AcDbEntity
  8
Level 1
  6
Continuous
370
     0
100
AcDbLine
 10
0.000215
 20
-9.999731
 30
0.0
 11
0.000215
 21
10.000269
 31
0.0
  0
LINE
  5
7C4C7
330
7C84D
100
AcDbEntity
  8
Level 1
  6
Continuous
370
     0
100
AcDbLine
 10
6.000215
 20
-9.999731
 30
0.0
 11
6.000215
 21
10.000269
 31
0.0
  0
ENDBLK
  5
7C84F
330
7C84D
100
AcDbEntity
  8
0
100
AcDbBlockEnd
  0
BLOCK
  5
7C851
330
7C850
100
AcDbEntity
  8
0
100
AcDbBlockBegin
  2
Smart Solid_13
 70
     0
 71
     0
 10
0.0
 20
0.0
 30
0.0
  3
Smart Solid_13
  1

  0
SPLINE
  5
7C4CA
330
7C850
100
AcDbEntity
  8
Level 1
  6
Continuous
370
     0
100
AcDbSpline
210
0.0
220
0.0
230
1.0
 70
     8
 71
     3
 72
    10
 73
     6
 74
     0
 42
0.0000000001
 43
0.00000001
 40
0.0
 40
0.0
 40
0.0
 40
0.0
 40
0.5
 40
0.5
 40
1.0
 40
1.0
 40
1.0
 40
1.0
 10
0.0000000000009095
 20
12.49999999999898
 30
0.0
 10
1.144234616963331
 20
12.49999999999898
 30
0.0
 10
2.459741923757974
 20
12.84456631853891
 30
0.0
 10
4.741551363973031
 20
14.55640378338558
 30
0.0
 10
5.653533143085497
 20
15.94675313088567
 30
0.0
 10
5.916079783100486
 20
17.49999999999898
 30
0.0
  0
SPLINE
  5
7C4CD
330
7C850
100
AcDbEntity
  8
Level 1
  6
Continuous
370
     0
100
AcDbSpline
210
0.0
220
0.0
230
1.0
 70
     8
 71
     3
 72
    23
 73
    19
 74
     0
 42
0.0000000001
 43
0.00000001
 40
0.0
 40
0.0
 40
0.0
 40
0.0
 40
0.1764098497766841
 40
0.1764098497766841
 40
0.1764098497766841
 40
0.3523170903485055
 40
0.3523170903485055
 40
0.3523170903485055
 40
0.5378859856821643
 40
0.5378859856821643
 40
0.5378859856821643
 40
0.748315805522099
 40
0.748315805522099
 40
0.748315805522099
 40
0.9965525029493831
 40
0.9965525029493831
 40
0.9965525029493831
 40
1.0
 40
1.0
 40
1.0
 40
1.0
 10
-5.916079783098667
 20
17.49999999999898
 30
0.0
 10
-5.82521316338125
 20
16.9624258281317
 30
0.0
 10
-5.655916824469387
 20
16.42474691981533
 30
0.0
 10
-5.423117111224656
 20
15.93293926874628
 30
0.0
 10
-5.190638434499306
 20
15.44180983250487
 30
0.0
 10
-4.889488869595425
 20
14.98333111275349
 30
0.0
 10
-4.548031013795026
 20
14.58650873291481
 30
0.0
 10
-4.18755088259195
 20
14.16757977544967
 30
0.0
 10
-3.774265457017464
 20
13.80693916730661
 30
0.0
 10
-3.342847902437825
 20
13.51749381323339
 30
0.0
 10
-2.853791017583717
 20
13.1893772549339
 30
0.0
 10
-2.331048772183294
 20
12.9448731689107
 30
0.0
 10
-1.814915758131065
 20
12.78107695532674
 30
0.0
 10
-1.206475075458002
 20
12.58798665244217
 30
0.0
 10
-0.5944927542936966
 20
12.50230448077514
 30
0.0
 10
-0.023731788924124
 20
12.50004693332301
 30
0.0
 10
-0.0158145771547424
 20
12.5000156181444
 30
0.0
 10
-0.0079106053149189
 20
12.49999999999898
 30
0.0
 10
0.0000000000009095
 20
12.49999999999898
 30
0.0
  0
SPLINE
  5
7C4D0
330
7C850
100
AcDbEntity
  8
Level 1
  6
Continuous
370
     0
100
AcDbSpline
210
0.0
220
0.0
230
1.0
 70
     8
 71
     3
 72
    11
 73
     7
 74
     0
 42
0.0000000001
 43
0.00000001
 40
0.0
 40
0.0
 40
0.0
 40
0.0
 40
0.6948005484414143
 40
0.6948005484414143
 40
0.6948005484414143
 40
1.0
 40
1.0
 40
1.0
 40
1.0
 10
5.916079783100486
 20
17.49999999999898
 30
0.0
 10
5.993030815778184
 20
17.9552484487117
 30
0.0
 10
6.017421119965547
 20
18.42639265553737
 30
0.0
 10
5.987385954987985
 20
18.88885656226694
 30
0.0
 10
5.974073947236775
 20
19.0938270731865
 30
0.0
 10
5.950185563582181
 20
19.2982274816045
 30
0.0
 10
5.916079783100486
 20
19.49999999999898
 30
0.0
  0
SPLINE
  5
7C4D3
330
7C850
100
AcDbEntity
  8
Level 1
  6
Continuous
370
     0
100
AcDbSpline
210
0.0
220
0.0
230
1.0
 70
     8
 71
     3
 72
    11
 73
     7
 74
     0
 42
0.0000000001
 43
0.00000001
 40
0.0
 40
0.0
 40
0.0
 40
0.0
 40
0.9414272520826061
 40
0.9414272520826061
 40
0.9414272520826061
 40
1.0
 40
1.0
 40
1.0
 40
1.0
 10
-5.916079783098667
 20
19.49999999999989
 30
0.0
 10
-6.020229994566307
 20
18.88383903952956
 30
0.0
 10
-6.026725349087428
 20
18.23575927989077
 30
0.0
 10
-5.934681496778467
 20
17.61707557979867
 30
0.0
 10
-5.928864066054302
 20
17.57797302731581
 30
0.0
 10
-5.922662369822319
 20
17.53894310823353
 30
0.0
 10
-5.916079783098667
 20
17.49999999999989
 30
0.0
  0
SPLINE
  5
7C4D6
330
7C850
100
AcDbEntity
  8
Level 1
  6
Continuous
370
     0
100
AcDbSpline
210
0.0
220
0.0
230
1.0
 70
     8
 71
     3
 72
    10
 73
     6
 74
     0
 42
0.0000000001
 43
0.00000001
 40
0.0
 40
0.0
 40
0.0
 40
0.0
 40
0.5
 40
0.5
 40
1.0
 40
1.0
 40
1.0
 40
1.0
 10
0.0000000000009095
 20
24.49999999999898
 30
0.0
 10
-1.144234616834638
 20
24.49999999999898
 30
0.0
 10
-2.459741923756155
 20
24.15543368145723
 30
0.0
 10
-4.741551363956205
 20
22.4435962166292
 30
0.0
 10
-5.653533143082768
 20
21.05324686911695
 30
0.0
 10
-5.916079783098667
 20
19.49999999999989
 30
0.0
  0
SPLINE
  5
7C4D9
330
7C850
100
AcDbEntity
  8
Level 1
  6
Continuous
370
     0
100
AcDbSpline
210
0.0
220
0.0
230
1.0
 70
     8
 71
     3
 72
    23
 73
    19
 74
     0
 42
0.0000000001
 43
0.00000001
 40
0.0
 40
0.0
 40
0.0
 40
0.0
 40
0.1764098497766914
 40
0.1764098497766914
 40
0.1764098497766914
 40
0.3523170903485184
 40
0.3523170903485184
 40
0.3523170903485184
 40
0.537885985682182
 40
0.537885985682182
 40
0.537885985682182
 40
0.74831580552212
 40
0.74831580552212
 40
0.74831580552212
 40
0.9965525029493837
 40
0.9965525029493837
 40
0.9965525029493837
 40
1.0
 40
1.0
 40
1.0
 40
1.0
 10
5.916079783100486
 20
19.49999999999898
 30
0.0
 10
5.825213163383069
 20
20.03757417186716
 30
0.0
 10
5.655916824471206
 20
20.57525308018353
 30
0.0
 10
5.423117111225565
 20
21.06706073125167
 30
0.0
 10
5.19063843450158
 20
21.55819016749399
 30
0.0
 10
4.889488869597244
 20
22.01666888724537
 30
0.0
 10
4.548031013796845
 20
22.41349126708406
 30
0.0
 10
4.187550882593769
 20
22.83242022455011
 30
0.0
 10
3.774265457019283
 20
23.19306083269123
 30
0.0
 10
3.342847902439644
 20
23.48250618676548
 30
0.0
 10
2.853791017585536
 20
23.81062274506496
 30
0.0
 10
2.331048772185113
 20
24.05512683108816
 30
0.0
 10
1.814915758131974
 20
24.21892304467212
 30
0.0
 10
1.206475075459821
 20
24.41201334755669
 30
0.0
 10
0.5944927543550875
 20
24.49769551922464
 30
0.0
 10
0.023731788924124
 20
24.49995306667586
 30
0.0
 10
0.0158145771529234
 20
24.49998438185355
 30
0.0
 10
0.0079106053158284
 20
24.49999999999898
 30
0.0
 10
0.0000000000009095
 20
24.49999999999898
 30
0.0
  0
SPLINE
  5
7C4DC
330
7C850
100
AcDbEntity
  8
Level 1
  6
Continuous
370
     0
100
AcDbSpline
210
0.0
220
0.0
230
1.0
 70
     8
 71
     3
 72
    10
 73
     6
 74
     0
 42
0.0000000001
 43
0.00000001
 40
0.0
 40
0.0
 40
0.0
 40
0.0
 40
0.5
 40
0.5
 40
1.0
 40
1.0
 40
1.0
 40
1.0
 10
0.0000000000009095
 20
-12.50000000000011
 30
0.0
 10
1.144234614891957
 20
-12.50000000000011
 30
0.0
 10
2.459741923745696
 20
-12.84456631858097
 30
0.0
 10
4.741551363712006
 20
-14.5564037831399
 30
0.0
 10
5.653533143076857
 20
-15.94675313083747
 30
0.0
 10
5.916079783100486
 20
-17.50000000000011
 30
0.0
  0
SPLINE
  5
7C4DF
330
7C850
100
AcDbEntity
  8
Level 1
  6
Continuous
370
     0
100
AcDbSpline
210
0.0
220
0.0
230
1.0
 70
     8
 71
     3
 72
    23
 73
    19
 74
     0
 42
0.0000000001
 43
0.00000001
 40
0.0
 40
0.0
 40
0.0
 40
0.0
 40
0.1764098497709442
 40
0.1764098497709442
 40
0.1764098497709442
 40
0.3523170903370414
 40
0.3523170903370414
 40
0.3523170903370414
 40
0.5378859856646627
 40
0.5378859856646627
 40
0.5378859856646627
 40
0.7483158054977563
 40
0.7483158054977563
 40
0.7483158054977563
 40
0.9965525029169888
 40
0.9965525029169888
 40
0.9965525029169888
 40
1.0
 40
1.0
 40
1.0
 40
1.0
 10
-5.916079783098667
 20
-17.50000000000011
 30
0.0
 10
-5.82521316338125
 20
-16.96242582813289
 30
0.0
 10
-5.655916824469387
 20
-16.42474691981647
 30
0.0
 10
-5.423117111223746
 20
-15.93293926874748
 30
0.0
 10
-5.190638434499306
 20
-15.44180983250504
 30
0.0
 10
-4.889488869595425
 20
-14.98333111275463
 30
0.0
 10
-4.548031013795026
 20
-14.58650873291595
 30
0.0
 10
-4.18755088259195
 20
-14.16757977544995
 30
0.0
 10
-3.774265457017464
 20
-13.8069391673078
 30
0.0
 10
-3.342847902437825
 20
-13.51749381323447
 30
0.0
 10
-2.853791017583717
 20
-13.1893772549351
 30
0.0
 10
-2.331048772183294
 20
-12.9448731689119
 30
0.0
 10
-1.814915758130155
 20
-12.78107695532788
 30
0.0
 10
-1.206475075456183
 20
-12.58798665244234
 30
0.0
 10
-0.5944927552154695
 20
-12.50230448077537
 30
0.0
 10
-0.0237317888850157
 20
-12.5000469333242
 30
0.0
 10
-0.0158145771006275
 20
-12.5000156181456
 30
0.0
 10
-0.0079106047469395
 20
-12.50000000000011
 30
0.0
 10
0.0000000000009095
 20
-12.50000000000011
 30
0.0
  0
LINE
  5
7C4E2
330
7C850
100
AcDbEntity
  8
Level 1
  6
Continuous
370
     0
100
AcDbLine
 10
-12.0
 20
-17.5
 30
0.0
 11
12.0
 21
-17.5
 31
0.0
  0
LINE
  5
7C4E3
330
7C850
100
AcDbEntity
  8
Level 1
  6
Continuous
370
     0
100
AcDbLine
 10
-7.0
 20
-12.5
 30
0.0
 11
7.0
 21
-12.5
 31
0.0
  0
LINE
  5
7C4E4
330
7C850
100
AcDbEntity
  8
Level 1
  6
Continuous
370
     0
100
AcDbLine
 10
-7.0
 20
-24.5
 30
0.0
 11
7.0
 21
-24.5
 31
0.0
  0
LINE
  5
7C4E5
330
7C850
100
AcDbEntity
  8
Level 1
  6
Continuous
370
     0
100
AcDbLine
 10
-12.0
 20
-19.5
 30
0.0
 11
12.0
 21
-19.5
 31
0.0
  0
LINE
  5
7C4E6
330
7C850
100
AcDbEntity
  8
Level 1
  6
Continuous
370
     0
100
AcDbLine
 10
6.5
 20
-24.5
 30
0.0
 11
-6.5
 21
-24.5
 31
0.0
  0
LINE
  5
7C4E7
330
7C850
100
AcDbEntity
  8
Level 1
  6
Continuous
370
     0
100
AcDbLine
 10
-6.5
 20
-12.5
 30
0.0
 11
6.5
 21
-12.5
 31
0.0
  0
SPLINE
  5
7C4E8
330
7C850
100
AcDbEntity
  8
Level 1
  6
Continuous
370
     0
100
AcDbSpline
210
0.0
220
0.0
230
1.0
 70
     8
 71
     3
 72
    10
 73
     6
 74
     0
 42
0.0000000001
 43
0.00000001
 40
0.0
 40
0.0
 40
0.0
 40
0.0
 40
0.5
 40
0.5
 40
1.0
 40
1.0
 40
1.0
 40
1.0
 10
0.0000000000009095
 20
-24.50000000000011
 30
0.0
 10
-1.144234618899645
 20
-24.50000000000011
 30
0.0
 10
-2.459741923767979
 20
-24.15543368149935
 30
0.0
 10
-4.741551364215866
 20
-22.44359621638444
 30
0.0
 10
-5.653533143091863
 20
-21.05324686906869
 30
0.0
 10
-5.916079783098667
 20
-19.50000000000011
 30
0.0
  0
SPLINE
  5
7C4EB
330
7C850
100
AcDbEntity
  8
Level 1
  6
Continuous
370
     0
100
AcDbSpline
210
0.0
220
0.0
230
1.0
 70
     8
 71
     3
 72
    23
 73
    19
 74
     0
 42
0.0000000001
 43
0.00000001
 40
0.0
 40
0.0
 40
0.0
 40
0.0
 40
0.1764098497709599
 40
0.1764098497709599
 40
0.1764098497709599
 40
0.3523170903370737
 40
0.3523170903370737
 40
0.3523170903370737
 40
0.5378859856647082
 40
0.5378859856647082
 40
0.5378859856647082
 40
0.7483158054978046
 40
0.7483158054978046
 40
0.7483158054978046
 40
0.9965525029169808
 40
0.9965525029169808
 40
0.9965525029169808
 40
1.0
 40
1.0
 40
1.0
 40
1.0
 10
5.916079783100486
 20
-19.50000000000011
 30
0.0
 10
5.825213163383069
 20
-20.03757417186733
 30
0.0
 10
5.655916824471206
 20
-20.57525308018376
 30
0.0
 10
5.423117111225565
 20
-21.06706073125275
 30
0.0
 10
5.19063843450158
 20
-21.55819016749518
 30
0.0
 10
4.889488869597244
 20
-22.01666888724651
 30
0.0
 10
4.548031013796845
 20
-22.41349126708423
 30
0.0
 10
4.187550882593769
 20
-22.83242022455028
 30
0.0
 10
3.774265457020192
 20
-23.19306083269242
 30
0.0
 10
3.342847902439644
 20
-23.48250618676667
 30
0.0
 10
2.853791017585536
 20
-23.81062274506604
 30
0.0
 10
2.331048772186023
 20
-24.05512683108833
 30
0.0
 10
1.814915758132884
 20
-24.21892304467326
 30
0.0
 10
1.206475075462095
 20
-24.41201334755783
 30
0.0
 10
0.5944927534351336
 20
-24.49769551922486
 30
0.0
 10
0.0237317889632322
 20
-24.49995306667694
 30
0.0
 10
0.0158145772061289
 20
-24.49998438185463
 30
0.0
 10
0.0079106047742243
 20
-24.50000000000011
 30
0.0
 10
0.0000000000009095
 20
-24.50000000000011
 30
0.0
  0
SPLINE
  5
7C4EE
330
7C850
100
AcDbEntity
  8
Level 1
  6
Continuous
370
     0
100
AcDbSpline
210
0.0
220
0.0
230
1.0
 70
     8
 71
     3
 72
    11
 73
     7
 74
     0
 42
0.0000000001
 43
0.00000001
 40
0.0
 40
0.0
 40
0.0
 40
0.0
 40
0.6948005484415863
 40
0.6948005484415863
 40
0.6948005484415863
 40
1.0
 40
1.0
 40
1.0
 40
1.0
 10
5.916079783100486
 20
-17.50000000000011
 30
0.0
 10
5.993030815778184
 20
-17.95524844871284
 30
0.0
 10
6.017421119965547
 20
-18.42639265553851
 30
0.0
 10
5.987385954987985
 20
-18.88885656226807
 30
0.0
 10
5.974073947236775
 20
-19.0938270731877
 30
0.0
 10
5.950185563582181
 20
-19.29822748160467
 30
0.0
 10
5.916079783100486
 20
-19.50000000000011
 30
0.0
  0
SPLINE
  5
7C4F1
330
7C850
100
AcDbEntity
  8
Level 1
  6
Continuous
370
     0
100
AcDbSpline
210
0.0
220
0.0
230
1.0
 70
     8
 71
     3
 72
    11
 73
     7
 74
     0
 42
0.0000000001
 43
0.00000001
 40
0.0
 40
0.0
 40
0.0
 40
0.0
 40
0.9414272520824305
 40
0.9414272520824305
 40
0.9414272520824305
 40
1.0
 40
1.0
 40
1.0
 40
1.0
 10
-5.916079783098667
 20
-19.50000000000011
 30
0.0
 10
-6.020229994566307
 20
-18.8838390395307
 30
0.0
 10
-6.026725349087428
 20
-18.23575927989197
 30
0.0
 10
-5.934681496778467
 20
-17.6170755797998
 30
0.0
 10
-5.928864066054302
 20
-17.57797302731603
 30
0.0
 10
-5.922662369822319
 20
-17.53894310823375
 30
0.0
 10
-5.916079783098667
 20
-17.50000000000011
 30
0.0
  0
ARC
  5
7C4F4
330
7C850
100
AcDbEntity
  8
Level 1
  6
Continuous
370
     0
100
AcDbCircle
 10
0.0
 20
-18.5
 30
0.0
 40
6.000000000000001
100
AcDbArc
 50
0.0
 51
360.0
  0
ARC
  5
7C4F5
330
7C850
100
AcDbEntity
  8
Level 1
  6
Continuous
370
     0
100
AcDbCircle
 10
0.0
 20
18.5
 30
0.0
 40
6.0
210
0.0
220
0.0
230
-1.0
100
AcDbArc
 50
0.0
 51
360.0
  0
LINE
  5
7C4F6
330
7C850
100
AcDbEntity
  8
Level 1
  6
Continuous
370
     0
100
AcDbLine
 10
7.0
 20
24.5
 30
0.0
 11
-7.0
 21
24.5
 31
0.0
  0
LINE
  5
7C4F7
330
7C850
100
AcDbEntity
  8
Level 1
  6
Continuous
370
     0
100
AcDbLine
 10
12.0
 20
19.5
 30
0.0
 11
-12.0
 21
19.5
 31
0.0
  0
LINE
  5
7C4F8
330
7C850
100
AcDbEntity
  8
Level 1
  6
Continuous
370
     0
100
AcDbLine
 10
12.0
 20
17.5
 30
0.0
 11
-12.0
 21
17.5
 31
0.0
  0
LINE
  5
7C4F9
330
7C850
100
AcDbEntity
  8
Level 1
  6
Continuous
370
     0
100
AcDbLine
 10
7.0
 20
12.5
 30
0.0
 11
-7.0
 21
12.5
 31
0.0
  0
LINE
  5
7C4FA
330
7C850
100
AcDbEntity
  8
Level 1
  6
Continuous
370
     0
100
AcDbLine
 10
6.5
 20
24.5
 30
0.0
 11
-6.5
 21
24.5
 31
0.0
  0
LINE
  5
7C4FB
330
7C850
100
AcDbEntity
  8
Level 1
  6
Continuous
370
     0
100
AcDbLine
 10
6.5
 20
12.5
 30
0.0
 11
-6.5
 21
12.5
 31
0.0
  0
LINE
  5
7C4FC
330
7C850
100
AcDbEntity
  8
Level 1
  6
Continuous
370
     0
100
AcDbLine
 10
12.0
 20
-19.5
 30
0.0
 11
12.0
 21
-17.5
 31
0.0
  0
LINE
  5
7C4FD
330
7C850
100
AcDbEntity
  8
Level 1
  6
Continuous
370
     0
100
AcDbLine
 10
0.0
 20
-19.5
 30
0.0
 11
0.0
 21
-17.5
 31
0.0
  0
LINE
  5
7C4FE
330
7C850
100
AcDbEntity
  8
Level 1
  6
Continuous
370
     0
100
AcDbLine
 10
-12.0
 20
-19.5
 30
0.0
 11
-12.0
 21
-17.5
 31
0.0
  0
LINE
  5
7C4FF
330
7C850
100
AcDbEntity
  8
Level 1
  6
Continuous
370
     0
100
AcDbLine
 10
0.0
 20
-24.5
 30
0.0
 11
0.0
 21
-12.5
 31
0.0
  0
LINE
  5
7C500
330
7C850
100
AcDbEntity
  8
Level 1
  6
Continuous
370
     0
100
AcDbLine
 10
6.5
 20
-24.5
 30
0.0
 11
6.5
 21
-12.5
 31
0.0
  0
LINE
  5
7C501
330
7C850
100
AcDbEntity
  8
Level 1
  6
Continuous
370
     0
100
AcDbLine
 10
0.0
 20
-24.5
 30
0.0
 11
0.0
 21
-12.5
 31
0.0
  0
LINE
  5
7C502
330
7C850
100
AcDbEntity
  8
Level 1
  6
Continuous
370
     0
100
AcDbLine
 10
-6.5
 20
-24.5
 30
0.0
 11
-6.5
 21
-12.5
 31
0.0
  0
ARC
  5
7C503
330
7C850
100
AcDbEntity
  8
Level 1
  6
Continuous
370
     0
100
AcDbCircle
 10
-7.0
 20
-19.5
 30
0.0
 40
5.000000000000002
100
AcDbArc
 50
180.0
 51
270.0
  0
LINE
  5
7C504
330
7C850
100
AcDbEntity
  8
Level 1
  6
Continuous
370
     0
100
AcDbLine
 10
0.0
 20
-24.5
 30
0.0
 11
0.0
 21
-19.5
 31
0.0
  0
ARC
  5
7C505
330
7C850
100
AcDbEntity
  8
Level 1
  6
Continuous
370
     0
100
AcDbCircle
 10
-7.0
 20
-19.5
 30
0.0
 40
5.000000000000002
210
0.0
220
0.0
230
-1.0
100
AcDbArc
 50
180.0
 51
270.0
  0
ARC
  5
7C506
330
7C850
100
AcDbEntity
  8
Level 1
  6
Continuous
370
     0
100
AcDbCircle
 10
-7.0
 20
-17.5
 30
0.0
 40
5.000000000000002
100
AcDbArc
 50
90.0
 51
180.0
  0
LINE
  5
7C507
330
7C850
100
AcDbEntity
  8
Level 1
  6
Continuous
370
     0
100
AcDbLine
 10
0.0
 20
-17.5
 30
0.0
 11
0.0
 21
-12.5
 31
0.0
  0
ARC
  5
7C508
330
7C850
100
AcDbEntity
  8
Level 1
  6
Continuous
370
     0
100
AcDbCircle
 10
-7.0
 20
-17.5
 30
0.0
 40
5.000000000000002
210
0.0
220
0.0
230
-1.0
100
AcDbArc
 50
90.0
 51
180.0
  0
POINT
  5
7C509
330
7C850
100
AcDbEntity
  8
Level 1
  6
Continuous
370
     0
100
AcDbPoint
 10
6.0
 20
-18.5
 30
0.0
  0
POINT
  5
7C50A
330
7C850
100
AcDbEntity
  8
Level 1
  6
Continuous
370
     0
100
AcDbPoint
 10
0.0
 20
-24.5
 30
0.0
  0
POINT
  5
7C50B
330
7C850
100
AcDbEntity
  8
Level 1
  6
Continuous
370
     0
100
AcDbPoint
 10
-6.0
 20
-18.5
 30
0.0
  0
POINT
  5
7C50C
330
7C850
100
AcDbEntity
  8
Level 1
  6
Continuous
370
     0
100
AcDbPoint
 10
0.0
 20
-12.5
 30
0.0
  0
LINE
  5
7C50D
330
7C850
100
AcDbEntity
  8
Level 1
  6
Continuous
370
     0
100
AcDbLine
 10
-6.0
 20
-18.5
 30
0.0
 11
-6.0
 21
18.5
 31
0.0
  0
LINE
  5
7C50E
330
7C850
100
AcDbEntity
  8
Level 1
  6
Continuous
370
     0
100
AcDbLine
 10
0.0
 20
-24.5
 30
0.0
 11
0.0
 21
24.5
 31
0.0
  0
LINE
  5
7C50F
330
7C850
100
AcDbEntity
  8
Level 1
  6
Continuous
370
     0
100
AcDbLine
 10
6.0
 20
-18.5
 30
0.0
 11
6.0
 21
18.5
 31
0.0
  0
LINE
  5
7C510
330
7C850
100
AcDbEntity
  8
Level 1
  6
Continuous
370
     0
100
AcDbLine
 10
0.0
 20
-12.5
 30
0.0
 11
0.0
 21
12.5
 31
0.0
  0
LINE
  5
7C511
330
7C850
100
AcDbEntity
  8
Level 1
  6
Continuous
370
     0
100
AcDbLine
 10
6.0
 20
0.0
 30
0.0
 11
-6.0
 21
0.0
 31
0.0
  0
ARC
  5
7C512
330
7C850
100
AcDbEntity
  8
Level 1
  6
Continuous
370
     0
100
AcDbCircle
 10
0.0
 20
18.5
 30
0.0
 40
6.000000000000002
100
AcDbArc
 50
0.0
 51
360.0
  0
POINT
  5
7C513
330
7C850
100
AcDbEntity
  8
Level 1
  6
Continuous
370
     0
100
AcDbPoint
 10
6.0
 20
18.5
 30
0.0
  0
POINT
  5
7C514
330
7C850
100
AcDbEntity
  8
Level 1
  6
Continuous
370
     0
100
AcDbPoint
 10
0.0
 20
24.5
 30
0.0
  0
POINT
  5
7C515
330
7C850
100
AcDbEntity
  8
Level 1
  6
Continuous
370
     0
100
AcDbPoint
 10
-6.0
 20
18.5
 30
0.0
  0
POINT
  5
7C516
330
7C850
100
AcDbEntity
  8
Level 1
  6
Continuous
370
     0
100
AcDbPoint
 10
0.0
 20
12.5
 30
0.0
  0
LINE
  5
7C517
330
7C850
100
AcDbEntity
  8
Level 1
  6
Continuous
370
     0
100
AcDbLine
 10
12.0
 20
17.5
 30
0.0
 11
12.0
 21
19.5
 31
0.0
  0
LINE
  5
7C518
330
7C850
100
AcDbEntity
  8
Level 1
  6
Continuous
370
     0
100
AcDbLine
 10
0.0
 20
17.5
 30
0.0
 11
0.0
 21
19.5
 31
0.0
  0
LINE
  5
7C519
330
7C850
100
AcDbEntity
  8
Level 1
  6
Continuous
370
     0
100
AcDbLine
 10
-12.0
 20
17.5
 30
0.0
 11
-12.0
 21
19.5
 31
0.0
  0
LINE
  5
7C51A
330
7C850
100
AcDbEntity
  8
Level 1
  6
Continuous
370
     0
100
AcDbLine
 10
0.0
 20
12.5
 30
0.0
 11
0.0
 21
24.5
 31
0.0
  0
LINE
  5
7C51B
330
7C850
100
AcDbEntity
  8
Level 1
  6
Continuous
370
     0
100
AcDbLine
 10
6.5
 20
12.5
 30
0.0
 11
6.5
 21
24.5
 31
0.0
  0
LINE
  5
7C51C
330
7C850
100
AcDbEntity
  8
Level 1
  6
Continuous
370
     0
100
AcDbLine
 10
0.0
 20
12.5
 30
0.0
 11
0.0
 21
24.5
 31
0.0
  0
LINE
  5
7C51D
330
7C850
100
AcDbEntity
  8
Level 1
  6
Continuous
370
     0
100
AcDbLine
 10
-6.5
 20
12.5
 30
0.0
 11
-6.5
 21
24.5
 31
0.0
  0
ARC
  5
7C51E
330
7C850
100
AcDbEntity
  8
Level 1
  6
Continuous
370
     0
100
AcDbCircle
 10
7.0
 20
17.5
 30
0.0
 40
5.000000000000002
100
AcDbArc
 50
270.0
 51
0.0
  0
LINE
  5
7C51F
330
7C850
100
AcDbEntity
  8
Level 1
  6
Continuous
370
     0
100
AcDbLine
 10
0.0
 20
12.5
 30
0.0
 11
0.0
 21
17.5
 31
0.0
  0
ARC
  5
7C520
330
7C850
100
AcDbEntity
  8
Level 1
  6
Continuous
370
     0
100
AcDbCircle
 10
7.0
 20
17.5
 30
0.0
 40
5.000000000000002
210
0.0
220
0.0
230
-1.0
100
AcDbArc
 50
270.0
 51
0.0
  0
ARC
  5
7C521
330
7C850
100
AcDbEntity
  8
Level 1
  6
Continuous
370
     0
100
AcDbCircle
 10
7.0
 20
19.5
 30
0.0
 40
5.000000000000002
100
AcDbArc
 50
360.0
 51
90.0
  0
LINE
  5
7C522
330
7C850
100
AcDbEntity
  8
Level 1
  6
Continuous
370
     0
100
AcDbLine
 10
0.0
 20
19.5
 30
0.0
 11
0.0
 21
24.5
 31
0.0
  0
ARC
  5
7C523
330
7C850
100
AcDbEntity
  8
Level 1
  6
Continuous
370
     0
100
AcDbCircle
 10
7.0
 20
19.5
 30
0.0
 40
5.000000000000002
210
0.0
220
0.0
230
-1.0
100
AcDbArc
 50
360.0
 51
90.0
  0
ENDBLK
  5
7C852
330
7C850
100
AcDbEntity
  8
0
100
AcDbBlockEnd
  0
BLOCK
  5
7C854
330
7C853
100
AcDbEntity
  8
0
100
AcDbBlockBegin
  2
Smart Solid_14
 70
     0
 71
     0
 10
0.0
 20
0.0
 30
0.0
  3
Smart Solid_14
  1

  0
LINE
  5
7C526
330
7C853
100
AcDbEntity
  8
Level 1
  6
Continuous
370
     0
100
AcDbLine
 10
17.000215
 20
10.000269
 30
0.0
 11
22.000215
 21
15.000269
 31
0.0
  0
LINE
  5
7C527
330
7C853
100
AcDbEntity
  8
Level 1
  6
Continuous
370
     0
100
AcDbLine
 10
22.000215
 20
-14.999731
 30
0.0
 11
17.000215
 21
-9.999731
 31
0.0
  0
LINE
  5
7C528
330
7C853
100
AcDbEntity
  8
Level 1
  6
Continuous
370
     0
100
AcDbLine
 10
22.000215
 20
15.000269
 30
0.0
 11
22.000215
 21
-14.999731
 31
0.0
  0
LINE
  5
7C529
330
7C853
100
AcDbEntity
  8
Level 1
  6
Continuous
370
     0
100
AcDbLine
 10
17.000215
 20
10.000269
 30
0.0
 11
17.000215
 21
-9.999731
 31
0.0
  0
LINE
  5
7C52A
330
7C853
100
AcDbEntity
  8
Level 1
  6
Continuous
370
     0
100
AcDbLine
 10
-16.999785
 20
10.000269
 30
0.0
 11
-21.999785
 21
15.000269
 31
0.0
  0
LINE
  5
7C52B
330
7C853
100
AcDbEntity
  8
Level 1
  6
Continuous
370
     0
100
AcDbLine
 10
-21.999785
 20
15.000269
 30
0.0
 11
22.000215
 21
15.000269
 31
0.0
  0
LINE
  5
7C52C
330
7C853
100
AcDbEntity
  8
Level 1
  6
Continuous
370
     0
100
AcDbLine
 10
-16.999785
 20
10.000269
 30
0.0
 11
17.000215
 21
10.000269
 31
0.0
  0
LINE
  5
7C52D
330
7C853
100
AcDbEntity
  8
Level 1
  6
Continuous
370
     0
100
AcDbLine
 10
-16.999785
 20
-9.999731
 30
0.0
 11
-21.999785
 21
-14.999731
 31
0.0
  0
LINE
  5
7C52E
330
7C853
100
AcDbEntity
  8
Level 1
  6
Continuous
370
     0
100
AcDbLine
 10
-21.999785
 20
-14.999731
 30
0.0
 11
-21.999785
 21
15.000269
 31
0.0
  0
LINE
  5
7C52F
330
7C853
100
AcDbEntity
  8
Level 1
  6
Continuous
370
     0
100
AcDbLine
 10
-16.999785
 20
-9.999731
 30
0.0
 11
-16.999785
 21
10.000269
 31
0.0
  0
LINE
  5
7C530
330
7C853
100
AcDbEntity
  8
Level 1
  6
Continuous
370
     0
100
AcDbLine
 10
22.000215
 20
-14.999731
 30
0.0
 11
-21.999785
 21
-14.999731
 31
0.0
  0
LINE
  5
7C531
330
7C853
100
AcDbEntity
  8
Level 1
  6
Continuous
370
     0
100
AcDbLine
 10
17.000215
 20
-9.999731
 30
0.0
 11
-16.999785
 21
-9.999731
 31
0.0
  0
LINE
  5
7C532
330
7C853
100
AcDbEntity
  8
Level 1
  6
Continuous
370
     0
100
AcDbLine
 10
25.000215
 20
-59.999731
 30
0.0
 11
-24.999785
 21
-59.999731
 31
0.0
  0
LINE
  5
7C533
330
7C853
100
AcDbEntity
  8
Level 1
  6
Continuous
370
     0
100
AcDbLine
 10
25.000215
 20
60.000269
 30
0.0
 11
-24.999785
 21
60.000269
 31
0.0
  0
LINE
  5
7C534
330
7C853
100
AcDbEntity
  8
Level 1
  6
Continuous
370
     0
100
AcDbLine
 10
25.000215
 20
60.000269
 30
0.0
 11
-24.999785
 21
60.000269
 31
0.0
  0
LINE
  5
7C535
330
7C853
100
AcDbEntity
  8
Level 1
  6
Continuous
370
     0
100
AcDbLine
 10
25.000215
 20
-59.999731
 30
0.0
 11
-24.999785
 21
-59.999731
 31
0.0
  0
LINE
  5
7C536
330
7C853
100
AcDbEntity
  8
Level 1
  6
Continuous
370
     0
100
AcDbLine
 10
25.000215
 20
60.000269
 30
0.0
 11
25.000215
 21
-59.999731
 31
0.0
  0
POINT
  5
7C537
330
7C853
100
AcDbEntity
  8
Level 1
  6
Continuous
370
     0
100
AcDbPoint
 10
25.000215
 20
60.000269
 30
0.0
  0
LINE
  5
7C538
330
7C853
100
AcDbEntity
  8
Level 1
  6
Continuous
370
     0
100
AcDbLine
 10
25.000215
 20
-59.999731
 30
0.0
 11
25.000215
 21
60.000269
 31
0.0
  0
POINT
  5
7C539
330
7C853
100
AcDbEntity
  8
Level 1
  6
Continuous
370
     0
100
AcDbPoint
 10
25.000215
 20
-59.999731
 30
0.0
  0
LINE
  5
7C53A
330
7C853
100
AcDbEntity
  8
Level 1
  6
Continuous
370
     0
100
AcDbLine
 10
-24.999785
 20
60.000269
 30
0.0
 11
-24.999785
 21
-59.999731
 31
0.0
  0
POINT
  5
7C53B
330
7C853
100
AcDbEntity
  8
Level 1
  6
Continuous
370
     0
100
AcDbPoint
 10
-24.999785
 20
60.000269
 30
0.0
  0
LINE
  5
7C53C
330
7C853
100
AcDbEntity
  8
Level 1
  6
Continuous
370
     0
100
AcDbLine
 10
-24.999785
 20
-59.999731
 30
0.0
 11
-24.999785
 21
60.000269
 31
0.0
  0
POINT
  5
7C53D
330
7C853
100
AcDbEntity
  8
Level 1
  6
Continuous
370
     0
100
AcDbPoint
 10
-24.999785
 20
-59.999731
 30
0.0
  0
LINE
  5
7C53E
330
7C853
100
AcDbEntity
  8
Level 1
  6
Continuous
370
     0
100
AcDbLine
 10
0.000215
 20
-9.999731
 30
0.0
 11
-16.999785
 21
-9.999731
 31
0.0
  0
LINE
  5
7C53F
330
7C853
100
AcDbEntity
  8
Level 1
  6
Continuous
370
     0
100
AcDbLine
 10
-16.999785
 20
-9.999731
 30
0.0
 11
-16.999785
 21
10.000269
 31
0.0
  0
LINE
  5
7C540
330
7C853
100
AcDbEntity
  8
Level 1
  6
Continuous
370
     0
100
AcDbLine
 10
0.000215
 20
10.000269
 30
0.0
 11
-16.999785
 21
10.000269
 31
0.0
  0
LINE
  5
7C541
330
7C853
100
AcDbEntity
  8
Level 1
  6
Continuous
370
     0
100
AcDbLine
 10
17.000215
 20
10.000269
 30
0.0
 11
0.000215
 21
10.000269
 31
0.0
  0
LINE
  5
7C542
330
7C853
100
AcDbEntity
  8
Level 1
  6
Continuous
370
     0
100
AcDbLine
 10
17.000215
 20
10.000269
 30
0.0
 11
17.000215
 21
-9.999731
 31
0.0
  0
LINE
  5
7C543
330
7C853
100
AcDbEntity
  8
Level 1
  6
Continuous
370
     0
100
AcDbLine
 10
17.000215
 20
-9.999731
 30
0.0
 11
0.000215
 21
-9.999731
 31
0.0
  0
LINE
  5
7C544
330
7C853
100
AcDbEntity
  8
Level 1
  6
Continuous
370
     0
100
AcDbLine
 10
0.000215
 20
10.000269
 30
0.0
 11
0.000215
 21
-9.999731
 31
0.0
  0
POINT
  5
7C545
330
7C853
100
AcDbEntity
  8
Level 1
  6
Continuous
370
     0
100
AcDbPoint
 10
-16.999785
 20
-9.999731
 30
0.0
  0
POINT
  5
7C546
330
7C853
100
AcDbEntity
  8
Level 1
  6
Continuous
370
     0
100
AcDbPoint
 10
-16.999785
 20
10.000269
 30
0.0
  0
POINT
  5
7C547
330
7C853
100
AcDbEntity
  8
Level 1
  6
Continuous
370
     0
100
AcDbPoint
 10
17.000215
 20
10.000269
 30
0.0
  0
POINT
  5
7C548
330
7C853
100
AcDbEntity
  8
Level 1
  6
Continuous
370
     0
100
AcDbPoint
 10
17.000215
 20
-9.999731
 30
0.0
  0
LINE
  5
7C549
330
7C853
100
AcDbEntity
  8
Level 1
  6
Continuous
370
     0
100
AcDbLine
 10
-5.999785
 20
10.000269
 30
0.0
 11
6.000215
 21
10.000269
 31
0.0
  0
LINE
  5
7C54A
330
7C853
100
AcDbEntity
  8
Level 1
  6
Continuous
370
     0
100
AcDbLine
 10
-5.999785
 20
-9.999731
 30
0.0
 11
6.000215
 21
-9.999731
 31
0.0
  0
POINT
  5
7C54B
330
7C853
100
AcDbEntity
  8
Level 1
  6
Continuous
370
     0
100
AcDbPoint
 10
-4.999785
 20
-45.999731
 30
0.0
  0
POINT
  5
7C54C
330
7C853
100
AcDbEntity
  8
Level 1
  6
Continuous
370
     0
100
AcDbPoint
 10
-4.999785
 20
-35.999731
 30
0.0
  0
POINT
  5
7C54D
330
7C853
100
AcDbEntity
  8
Level 1
  6
Continuous
370
     0
100
AcDbPoint
 10
5.000215
 20
-35.999731
 30
0.0
  0
POINT
  5
7C54E
330
7C853
100
AcDbEntity
  8
Level 1
  6
Continuous
370
     0
100
AcDbPoint
 10
5.000215
 20
-45.999731
 30
0.0
  0
LINE
  5
7C54F
330
7C853
100
AcDbEntity
  8
Level 1
  6
Continuous
370
     0
100
AcDbLine
 10
5.000215
 20
-35.999731
 30
0.0
 11
5.000215
 21
-45.999731
 31
0.0
  0
LINE
  5
7C550
330
7C853
100
AcDbEntity
  8
Level 1
  6
Continuous
370
     0
100
AcDbLine
 10
-4.999785
 20
-35.999731
 30
0.0
 11
5.000215
 21
-35.999731
 31
0.0
  0
LINE
  5
7C551
330
7C853
100
AcDbEntity
  8
Level 1
  6
Continuous
370
     0
100
AcDbLine
 10
-4.999785
 20
-45.999731
 30
0.0
 11
-4.999785
 21
-35.999731
 31
0.0
  0
LINE
  5
7C552
330
7C853
100
AcDbEntity
  8
Level 1
  6
Continuous
370
     0
100
AcDbLine
 10
5.000215
 20
-45.999731
 30
0.0
 11
-4.999785
 21
-45.999731
 31
0.0
  0
LINE
  5
7C553
330
7C853
100
AcDbEntity
  8
Level 1
  6
Continuous
370
     0
100
AcDbLine
 10
5.000215
 20
-35.999731
 30
0.0
 11
5.000215
 21
-45.999731
 31
0.0
  0
LINE
  5
7C554
330
7C853
100
AcDbEntity
  8
Level 1
  6
Continuous
370
     0
100
AcDbLine
 10
-4.999785
 20
-35.999731
 30
0.0
 11
5.000215
 21
-35.999731
 31
0.0
  0
LINE
  5
7C555
330
7C853
100
AcDbEntity
  8
Level 1
  6
Continuous
370
     0
100
AcDbLine
 10
-4.999785
 20
-45.999731
 30
0.0
 11
-4.999785
 21
-35.999731
 31
0.0
  0
LINE
  5
7C556
330
7C853
100
AcDbEntity
  8
Level 1
  6
Continuous
370
     0
100
AcDbLine
 10
5.000215
 20
-45.999731
 30
0.0
 11
-4.999785
 21
-45.999731
 31
0.0
  0
POINT
  5
7C557
330
7C853
100
AcDbEntity
  8
Level 1
  6
Continuous
370
     0
100
AcDbPoint
 10
-4.999785
 20
46.000269
 30
0.0
  0
POINT
  5
7C558
330
7C853
100
AcDbEntity
  8
Level 1
  6
Continuous
370
     0
100
AcDbPoint
 10
-4.999785
 20
36.000269
 30
0.0
  0
POINT
  5
7C559
330
7C853
100
AcDbEntity
  8
Level 1
  6
Continuous
370
     0
100
AcDbPoint
 10
5.000215
 20
36.000269
 30
0.0
  0
POINT
  5
7C55A
330
7C853
100
AcDbEntity
  8
Level 1
  6
Continuous
370
     0
100
AcDbPoint
 10
5.000215
 20
46.000269
 30
0.0
  0
LINE
  5
7C55B
330
7C853
100
AcDbEntity
  8
Level 1
  6
Continuous
370
     0
100
AcDbLine
 10
5.000215
 20
36.000269
 30
0.0
 11
5.000215
 21
46.000269
 31
0.0
  0
LINE
  5
7C55C
330
7C853
100
AcDbEntity
  8
Level 1
  6
Continuous
370
     0
100
AcDbLine
 10
-4.999785
 20
36.000269
 30
0.0
 11
5.000215
 21
36.000269
 31
0.0
  0
LINE
  5
7C55D
330
7C853
100
AcDbEntity
  8
Level 1
  6
Continuous
370
     0
100
AcDbLine
 10
-4.999785
 20
46.000269
 30
0.0
 11
-4.999785
 21
36.000269
 31
0.0
  0
LINE
  5
7C55E
330
7C853
100
AcDbEntity
  8
Level 1
  6
Continuous
370
     0
100
AcDbLine
 10
5.000215
 20
46.000269
 30
0.0
 11
-4.999785
 21
46.000269
 31
0.0
  0
LINE
  5
7C55F
330
7C853
100
AcDbEntity
  8
Level 1
  6
Continuous
370
     0
100
AcDbLine
 10
5.000215
 20
36.000269
 30
0.0
 11
5.000215
 21
46.000269
 31
0.0
  0
LINE
  5
7C560
330
7C853
100
AcDbEntity
  8
Level 1
  6
Continuous
370
     0
100
AcDbLine
 10
-4.999785
 20
36.000269
 30
0.0
 11
5.000215
 21
36.000269
 31
0.0
  0
LINE
  5
7C561
330
7C853
100
AcDbEntity
  8
Level 1
  6
Continuous
370
     0
100
AcDbLine
 10
-4.999785
 20
46.000269
 30
0.0
 11
-4.999785
 21
36.000269
 31
0.0
  0
LINE
  5
7C562
330
7C853
100
AcDbEntity
  8
Level 1
  6
Continuous
370
     0
100
AcDbLine
 10
5.000215
 20
46.000269
 30
0.0
 11
-4.999785
 21
46.000269
 31
0.0
  0
LINE
  5
7C563
330
7C853
100
AcDbEntity
  8
Level 1
  6
Continuous
370
     0
100
AcDbLine
 10
0.000215
 20
-9.999731
 30
0.0
 11
0.000215
 21
10.000269
 31
0.0
  0
LINE
  5
7C564
330
7C853
100
AcDbEntity
  8
Level 1
  6
Continuous
370
     0
100
AcDbLine
 10
-5.999785
 20
-9.999731
 30
0.0
 11
-5.999785
 21
10.000269
 31
0.0
  0
LINE
  5
7C565
330
7C853
100
AcDbEntity
  8
Level 1
  6
Continuous
370
     0
100
AcDbLine
 10
0.000215
 20
-9.999731
 30
0.0
 11
0.000215
 21
10.000269
 31
0.0
  0
LINE
  5
7C566
330
7C853
100
AcDbEntity
  8
Level 1
  6
Continuous
370
     0
100
AcDbLine
 10
6.000215
 20
-9.999731
 30
0.0
 11
6.000215
 21
10.000269
 31
0.0
  0
ENDBLK
  5
7C855
330
7C853
100
AcDbEntity
  8
0
100
AcDbBlockEnd
  0
BLOCK
  5
7C857
330
7C856
100
AcDbEntity
  8
0
100
AcDbBlockBegin
  2
Smart Solid_15
 70
     0
 71
     0
 10
0.0
 20
0.0
 30
0.0
  3
Smart Solid_15
  1

  0
SPLINE
  5
7C569
330
7C856
100
AcDbEntity
  8
Level 1
  6
Continuous
370
     0
100
AcDbSpline
210
0.0
220
0.0
230
1.0
 70
     8
 71
     3
 72
    10
 73
     6
 74
     0
 42
0.0000000001
 43
0.00000001
 40
0.0
 40
0.0
 40
0.0
 40
0.0
 40
0.5
 40
0.5
 40
1.0
 40
1.0
 40
1.0
 40
1.0
 10
0.0
 20
12.5
 30
0.0
 10
1.144234616962422
 20
12.5
 30
0.0
 10
2.459741923757065
 20
12.84456631853982
 30
0.0
 10
4.741551363973031
 20
14.55640378338467
 30
0.0
 10
5.653533143084587
 20
15.94675313088487
 30
0.0
 10
5.916079783099576
 20
17.5
 30
0.0
  0
SPLINE
  5
7C56C
330
7C856
100
AcDbEntity
  8
Level 1
  6
Continuous
370
     0
100
AcDbSpline
210
0.0
220
0.0
230
1.0
 70
     8
 71
     3
 72
    23
 73
    19
 74
     0
 42
0.0000000001
 43
0.00000001
 40
0.0
 40
0.0
 40
0.0
 40
0.0
 40
0.1764098497766841
 40
0.1764098497766841
 40
0.1764098497766841
 40
0.3523170903485055
 40
0.3523170903485055
 40
0.3523170903485055
 40
0.5378859856821643
 40
0.5378859856821643
 40
0.5378859856821643
 40
0.748315805522099
 40
0.748315805522099
 40
0.748315805522099
 40
0.9965525029493831
 40
0.9965525029493831
 40
0.9965525029493831
 40
1.0
 40
1.0
 40
1.0
 40
1.0
 10
-5.916079783099576
 20
17.5
 30
0.0
 10
-5.825213163382159
 20
16.96242582813261
 30
0.0
 10
-5.655916824470296
 20
16.42474691981624
 30
0.0
 10
-5.423117111224656
 20
15.93293926874731
 30
0.0
 10
-5.190638434500215
 20
15.44180983250385
 30
0.0
 10
-4.889488869596335
 20
14.9833311127536
 30
0.0
 10
-4.548031013795935
 20
14.58650873291481
 30
0.0
 10
-4.187550882592859
 20
14.16757977544876
 30
0.0
 10
-3.774265457019283
 20
13.80693916730752
 30
0.0
 10
-3.342847902438734
 20
13.51749381323339
 30
0.0
 10
-2.853791017584626
 20
13.18937725493402
 30
0.0
 10
-2.331048772184204
 20
12.94487316891173
 30
0.0
 10
-1.814915758131974
 20
12.78107695532776
 30
0.0
 10
-1.206475075458911
 20
12.58798665244308
 30
0.0
 10
-0.5944927542946061
 20
12.50230448077423
 30
0.0
 10
-0.023731788925943
 20
12.50004693332312
 30
0.0
 10
-0.0158145771547424
 20
12.50001561814543
 30
0.0
 10
-0.0079106053158284
 20
12.5
 30
0.0
 10
0.0
 20
12.5
 30
0.0
  0
SPLINE
  5
7C56F
330
7C856
100
AcDbEntity
  8
Level 1
  6
Continuous
370
     0
100
AcDbSpline
210
0.0
220
0.0
230
1.0
 70
     8
 71
     3
 72
    11
 73
     7
 74
     0
 42
0.0000000001
 43
0.00000001
 40
0.0
 40
0.0
 40
0.0
 40
0.0
 40
0.6948005484414143
 40
0.6948005484414143
 40
0.6948005484414143
 40
1.0
 40
1.0
 40
1.0
 40
1.0
 10
5.916079783099576
 20
17.5
 30
0.0
 10
5.993030815777274
 20
17.95524844871261
 30
0.0
 10
6.017421119965547
 20
18.42639265553839
 30
0.0
 10
5.987385954987531
 20
18.88885656226785
 30
0.0
 10
5.974073947235866
 20
19.0938270731865
 30
0.0
 10
5.950185563581272
 20
19.29822748160359
 30
0.0
 10
5.916079783099576
 20
19.5
 30
0.0
  0
SPLINE
  5
7C572
330
7C856
100
AcDbEntity
  8
Level 1
  6
Continuous
370
     0
100
AcDbSpline
210
0.0
220
0.0
230
1.0
 70
     8
 71
     3
 72
    11
 73
     7
 74
     0
 42
0.0000000001
 43
0.00000001
 40
0.0
 40
0.0
 40
0.0
 40
0.0
 40
0.9414272520826061
 40
0.9414272520826061
 40
0.9414272520826061
 40
1.0
 40
1.0
 40
1.0
 40
1.0
 10
-5.916079783099576
 20
19.5
 30
0.0
 10
-6.020229994567217
 20
18.88383903953059
 30
0.0
 10
-6.026725349088338
 20
18.23575927989168
 30
0.0
 10
-5.934681496779376
 20
17.61707557979958
 30
0.0
 10
-5.928864066054757
 20
17.57797302731501
 30
0.0
 10
-5.922662369823229
 20
17.53894310823262
 30
0.0
 10
-5.916079783099576
 20
17.5
 30
0.0
  0
SPLINE
  5
7C575
330
7C856
100
AcDbEntity
  8
Level 1
  6
Continuous
370
     0
100
AcDbSpline
210
0.0
220
0.0
230
1.0
 70
     8
 71
     3
 72
    10
 73
     6
 74
     0
 42
0.0000000001
 43
0.00000001
 40
0.0
 40
0.0
 40
0.0
 40
0.0
 40
0.5
 40
0.5
 40
1.0
 40
1.0
 40
1.0
 40
1.0
 10
0.0
 20
24.5
 30
0.0
 10
-1.144234616834638
 20
24.5
 30
0.0
 10
-2.45974192375661
 20
24.15543368145814
 30
0.0
 10
-4.741551363956205
 20
22.4435962166292
 30
0.0
 10
-5.653533143084587
 20
21.05324686911695
 30
0.0
 10
-5.916079783099576
 20
19.5
 30
0.0
  0
SPLINE
  5
7C578
330
7C856
100
AcDbEntity
  8
Level 1
  6
Continuous
370
     0
100
AcDbSpline
210
0.0
220
0.0
230
1.0
 70
     8
 71
     3
 72
    23
 73
    19
 74
     0
 42
0.0000000001
 43
0.00000001
 40
0.0
 40
0.0
 40
0.0
 40
0.0
 40
0.1764098497766914
 40
0.1764098497766914
 40
0.1764098497766914
 40
0.3523170903485184
 40
0.3523170903485184
 40
0.3523170903485184
 40
0.537885985682182
 40
0.537885985682182
 40
0.537885985682182
 40
0.74831580552212
 40
0.74831580552212
 40
0.74831580552212
 40
0.9965525029493837
 40
0.9965525029493837
 40
0.9965525029493837
 40
1.0
 40
1.0
 40
1.0
 40
1.0
 10
5.916079783099576
 20
19.5
 30
0.0
 10
5.825213163382614
 20
20.03757417186716
 30
0.0
 10
5.655916824470296
 20
20.57525308018353
 30
0.0
 10
5.423117111224656
 20
21.0670607312527
 30
0.0
 10
5.19063843450067
 20
21.5581901674941
 30
0.0
 10
4.889488869596335
 20
22.0166688872464
 30
0.0
 10
4.54803101379639
 20
22.41349126708406
 30
0.0
 10
4.187550882592859
 20
22.8324202245492
 30
0.0
 10
3.774265457018373
 20
23.19306083269225
 30
0.0
 10
3.342847902437825
 20
23.48250618676639
 30
0.0
 10
2.853791017584626
 20
23.81062274506485
 30
0.0
 10
2.331048772184204
 20
24.05512683108805
 30
0.0
 10
1.814915758131065
 20
24.21892304467224
 30
0.0
 10
1.206475075459366
 20
24.41201334755669
 30
0.0
 10
0.5944927543532685
 20
24.49769551922373
 30
0.0
 10
0.023731788922305
 20
24.49995306667688
 30
0.0
 10
0.0158145771511045
 20
24.49998438185457
 30
0.0
 10
0.0079106053153737
 20
24.5
 30
0.0
 10
0.0
 20
24.5
 30
0.0
  0
SPLINE
  5
7C57B
330
7C856
100
AcDbEntity
  8
Level 1
  6
Continuous
370
     0
100
AcDbSpline
210
0.0
220
0.0
230
1.0
 70
     8
 71
     3
 72
    10
 73
     6
 74
     0
 42
0.0000000001
 43
0.00000001
 40
0.0
 40
0.0
 40
0.0
 40
0.0
 40
0.5
 40
0.5
 40
1.0
 40
1.0
 40
1.0
 40
1.0
 10
0.0
 20
-12.5
 30
0.0
 10
1.144234614891957
 20
-12.5
 30
0.0
 10
2.459741923743877
 20
-12.84456631858097
 30
0.0
 10
4.74155136371246
 20
-14.55640378313888
 30
0.0
 10
5.653533143076402
 20
-15.94675313083644
 30
0.0
 10
5.916079783099576
 20
-17.5
 30
0.0
  0
SPLINE
  5
7C57E
330
7C856
100
AcDbEntity
  8
Level 1
  6
Continuous
370
     0
100
AcDbSpline
210
0.0
220
0.0
230
1.0
 70
     8
 71
     3
 72
    23
 73
    19
 74
     0
 42
0.0000000001
 43
0.00000001
 40
0.0
 40
0.0
 40
0.0
 40
0.0
 40
0.1764098497709442
 40
0.1764098497709442
 40
0.1764098497709442
 40
0.3523170903370414
 40
0.3523170903370414
 40
0.3523170903370414
 40
0.5378859856646627
 40
0.5378859856646627
 40
0.5378859856646627
 40
0.7483158054977563
 40
0.7483158054977563
 40
0.7483158054977563
 40
0.9965525029169888
 40
0.9965525029169888
 40
0.9965525029169888
 40
1.0
 40
1.0
 40
1.0
 40
1.0
 10
-5.916079783099576
 20
-17.5
 30
0.0
 10
-5.825213163382159
 20
-16.96242582813284
 30
0.0
 10
-5.655916824470296
 20
-16.42474691981647
 30
0.0
 10
-5.423117111224656
 20
-15.93293926874753
 30
0.0
 10
-5.190638434500215
 20
-15.4418098325059
 30
0.0
 10
-4.889488869596335
 20
-14.9833311127536
 30
0.0
 10
-4.548031013795935
 20
-14.58650873291504
 30
0.0
 10
-4.187550882592859
 20
-14.16757977544989
 30
0.0
 10
-3.774265457018373
 20
-13.80693916730775
 30
0.0
 10
-3.34284790243737
 20
-13.51749381323361
 30
0.0
 10
-2.853791017584626
 20
-13.18937725493515
 30
0.0
 10
-2.331048772184204
 20
-12.94487316891195
 30
0.0
 10
-1.814915758131065
 20
-12.78107695532776
 30
0.0
 10
-1.206475075457092
 20
-12.58798665244331
 30
0.0
 10
-0.594492755216379
 20
-12.50230448077627
 30
0.0
 10
-0.023731788884561
 20
-12.50004693332312
 30
0.0
 10
-0.015814577101537
 20
-12.50001561814565
 30
0.0
 10
-0.0079106047469395
 20
-12.5
 30
0.0
 10
0.0
 20
-12.5
 30
0.0
  0
LINE
  5
7C581
330
7C856
100
AcDbEntity
  8
Level 1
  6
Continuous
370
     0
100
AcDbLine
 10
-12.0
 20
-17.5
 30
0.0
 11
12.0
 21
-17.5
 31
0.0
  0
LINE
  5
7C582
330
7C856
100
AcDbEntity
  8
Level 1
  6
Continuous
370
     0
100
AcDbLine
 10
-7.0
 20
-12.5
 30
0.0
 11
7.0
 21
-12.5
 31
0.0
  0
LINE
  5
7C583
330
7C856
100
AcDbEntity
  8
Level 1
  6
Continuous
370
     0
100
AcDbLine
 10
-7.0
 20
-24.5
 30
0.0
 11
7.0
 21
-24.5
 31
0.0
  0
LINE
  5
7C584
330
7C856
100
AcDbEntity
  8
Level 1
  6
Continuous
370
     0
100
AcDbLine
 10
-12.0
 20
-19.5
 30
0.0
 11
12.0
 21
-19.5
 31
0.0
  0
LINE
  5
7C585
330
7C856
100
AcDbEntity
  8
Level 1
  6
Continuous
370
     0
100
AcDbLine
 10
6.5
 20
-24.5
 30
0.0
 11
-6.5
 21
-24.5
 31
0.0
  0
LINE
  5
7C586
330
7C856
100
AcDbEntity
  8
Level 1
  6
Continuous
370
     0
100
AcDbLine
 10
-6.5
 20
-12.5
 30
0.0
 11
6.5
 21
-12.5
 31
0.0
  0
SPLINE
  5
7C587
330
7C856
100
AcDbEntity
  8
Level 1
  6
Continuous
370
     0
100
AcDbSpline
210
0.0
220
0.0
230
1.0
 70
     8
 71
     3
 72
    10
 73
     6
 74
     0
 42
0.0000000001
 43
0.00000001
 40
0.0
 40
0.0
 40
0.0
 40
0.0
 40
0.5
 40
0.5
 40
1.0
 40
1.0
 40
1.0
 40
1.0
 10
0.0
 20
-24.5
 30
0.0
 10
-1.1442346189001
 20
-24.5
 30
0.0
 10
-2.459741923769798
 20
-24.15543368149929
 30
0.0
 10
-4.741551364216775
 20
-22.44359621638432
 30
0.0
 10
-5.653533143091863
 20
-21.05324686906874
 30
0.0
 10
-5.916079783099576
 20
-19.5
 30
0.0
  0
SPLINE
  5
7C58A
330
7C856
100
AcDbEntity
  8
Level 1
  6
Continuous
370
     0
100
AcDbSpline
210
0.0
220
0.0
230
1.0
 70
     8
 71
     3
 72
    23
 73
    19
 74
     0
 42
0.0000000001
 43
0.00000001
 40
0.0
 40
0.0
 40
0.0
 40
0.0
 40
0.1764098497709599
 40
0.1764098497709599
 40
0.1764098497709599
 40
0.3523170903370737
 40
0.3523170903370737
 40
0.3523170903370737
 40
0.5378859856647082
 40
0.5378859856647082
 40
0.5378859856647082
 40
0.7483158054978046
 40
0.7483158054978046
 40
0.7483158054978046
 40
0.9965525029169808
 40
0.9965525029169808
 40
0.9965525029169808
 40
1.0
 40
1.0
 40
1.0
 40
1.0
 10
5.916079783099576
 20
-19.5
 30
0.0
 10
5.825213163382614
 20
-20.03757417186739
 30
0.0
 10
5.655916824470296
 20
-20.57525308018376
 30
0.0
 10
5.423117111224656
 20
-21.0670607312527
 30
0.0
 10
5.19063843450067
 20
-21.5581901674941
 30
0.0
 10
4.889488869596335
 20
-22.0166688872464
 30
0.0
 10
4.54803101379639
 20
-22.41349126708519
 30
0.0
 10
4.187550882592859
 20
-22.83242022455124
 30
0.0
 10
3.774265457019283
 20
-23.19306083269248
 30
0.0
 10
3.342847902438734
 20
-23.48250618676661
 30
0.0
 10
2.853791017584626
 20
-23.81062274506508
 30
0.0
 10
2.331048772184204
 20
-24.05512683108827
 30
0.0
 10
1.814915758131974
 20
-24.21892304467224
 30
0.0
 10
1.206475075461185
 20
-24.41201334755692
 30
0.0
 10
0.5944927534333147
 20
-24.49769551922577
 30
0.0
 10
0.0237317889632322
 20
-24.49995306667688
 30
0.0
 10
0.0158145772052194
 20
-24.49998438185457
 30
0.0
 10
0.0079106047733148
 20
-24.5
 30
0.0
 10
0.0
 20
-24.5
 30
0.0
  0
SPLINE
  5
7C58D
330
7C856
100
AcDbEntity
  8
Level 1
  6
Continuous
370
     0
100
AcDbSpline
210
0.0
220
0.0
230
1.0
 70
     8
 71
     3
 72
    11
 73
     7
 74
     0
 42
0.0000000001
 43
0.00000001
 40
0.0
 40
0.0
 40
0.0
 40
0.0
 40
0.6948005484415863
 40
0.6948005484415863
 40
0.6948005484415863
 40
1.0
 40
1.0
 40
1.0
 40
1.0
 10
5.916079783099576
 20
-17.5
 30
0.0
 10
5.993030815777274
 20
-17.95524844871284
 30
0.0
 10
6.017421119965547
 20
-18.42639265553839
 30
0.0
 10
5.987385954987531
 20
-18.88885656226807
 30
0.0
 10
5.974073947235866
 20
-19.09382707318673
 30
0.0
 10
5.950185563581272
 20
-19.29822748160564
 30
0.0
 10
5.916079783099576
 20
-19.5
 30
0.0
  0
SPLINE
  5
7C590
330
7C856
100
AcDbEntity
  8
Level 1
  6
Continuous
370
     0
100
AcDbSpline
210
0.0
220
0.0
230
1.0
 70
     8
 71
     3
 72
    11
 73
     7
 74
     0
 42
0.0000000001
 43
0.00000001
 40
0.0
 40
0.0
 40
0.0
 40
0.0
 40
0.9414272520824305
 40
0.9414272520824305
 40
0.9414272520824305
 40
1.0
 40
1.0
 40
1.0
 40
1.0
 10
-5.916079783099576
 20
-19.5
 30
0.0
 10
-6.020229994567217
 20
-18.88383903953059
 30
0.0
 10
-6.026725349088338
 20
-18.23575927989191
 30
0.0
 10
-5.934681496779376
 20
-17.6170755797998
 30
0.0
 10
-5.928864066054757
 20
-17.57797302731683
 30
0.0
 10
-5.922662369823229
 20
-17.53894310823466
 30
0.0
 10
-5.916079783099576
 20
-17.5
 30
0.0
  0
ARC
  5
7C593
330
7C856
100
AcDbEntity
  8
Level 1
  6
Continuous
370
     0
100
AcDbCircle
 10
0.0
 20
-18.5
 30
0.0
 40
6.000000000000001
100
AcDbArc
 50
0.0
 51
360.0
  0
ARC
  5
7C594
330
7C856
100
AcDbEntity
  8
Level 1
  6
Continuous
370
     0
100
AcDbCircle
 10
0.0
 20
18.5
 30
0.0
 40
6.0
210
0.0
220
0.0
230
-1.0
100
AcDbArc
 50
0.0
 51
360.0
  0
LINE
  5
7C595
330
7C856
100
AcDbEntity
  8
Level 1
  6
Continuous
370
     0
100
AcDbLine
 10
7.0
 20
24.5
 30
0.0
 11
-7.0
 21
24.5
 31
0.0
  0
LINE
  5
7C596
330
7C856
100
AcDbEntity
  8
Level 1
  6
Continuous
370
     0
100
AcDbLine
 10
12.0
 20
19.5
 30
0.0
 11
-12.0
 21
19.5
 31
0.0
  0
LINE
  5
7C597
330
7C856
100
AcDbEntity
  8
Level 1
  6
Continuous
370
     0
100
AcDbLine
 10
12.0
 20
17.5
 30
0.0
 11
-12.0
 21
17.5
 31
0.0
  0
LINE
  5
7C598
330
7C856
100
AcDbEntity
  8
Level 1
  6
Continuous
370
     0
100
AcDbLine
 10
7.0
 20
12.5
 30
0.0
 11
-7.0
 21
12.5
 31
0.0
  0
LINE
  5
7C599
330
7C856
100
AcDbEntity
  8
Level 1
  6
Continuous
370
     0
100
AcDbLine
 10
6.5
 20
24.5
 30
0.0
 11
-6.5
 21
24.5
 31
0.0
  0
LINE
  5
7C59A
330
7C856
100
AcDbEntity
  8
Level 1
  6
Continuous
370
     0
100
AcDbLine
 10
6.5
 20
12.5
 30
0.0
 11
-6.5
 21
12.5
 31
0.0
  0
LINE
  5
7C59B
330
7C856
100
AcDbEntity
  8
Level 1
  6
Continuous
370
     0
100
AcDbLine
 10
12.0
 20
-19.5
 30
0.0
 11
12.0
 21
-17.5
 31
0.0
  0
LINE
  5
7C59C
330
7C856
100
AcDbEntity
  8
Level 1
  6
Continuous
370
     0
100
AcDbLine
 10
0.0
 20
-19.5
 30
0.0
 11
0.0
 21
-17.5
 31
0.0
  0
LINE
  5
7C59D
330
7C856
100
AcDbEntity
  8
Level 1
  6
Continuous
370
     0
100
AcDbLine
 10
-12.0
 20
-19.5
 30
0.0
 11
-12.0
 21
-17.5
 31
0.0
  0
LINE
  5
7C59E
330
7C856
100
AcDbEntity
  8
Level 1
  6
Continuous
370
     0
100
AcDbLine
 10
0.0
 20
-24.5
 30
0.0
 11
0.0
 21
-12.5
 31
0.0
  0
LINE
  5
7C59F
330
7C856
100
AcDbEntity
  8
Level 1
  6
Continuous
370
     0
100
AcDbLine
 10
6.5
 20
-24.5
 30
0.0
 11
6.5
 21
-12.5
 31
0.0
  0
LINE
  5
7C5A0
330
7C856
100
AcDbEntity
  8
Level 1
  6
Continuous
370
     0
100
AcDbLine
 10
0.0
 20
-24.5
 30
0.0
 11
0.0
 21
-12.5
 31
0.0
  0
LINE
  5
7C5A1
330
7C856
100
AcDbEntity
  8
Level 1
  6
Continuous
370
     0
100
AcDbLine
 10
-6.5
 20
-24.5
 30
0.0
 11
-6.5
 21
-12.5
 31
0.0
  0
ARC
  5
7C5A2
330
7C856
100
AcDbEntity
  8
Level 1
  6
Continuous
370
     0
100
AcDbCircle
 10
-7.0
 20
-19.5
 30
0.0
 40
5.000000000000002
100
AcDbArc
 50
180.0
 51
270.0
  0
LINE
  5
7C5A3
330
7C856
100
AcDbEntity
  8
Level 1
  6
Continuous
370
     0
100
AcDbLine
 10
0.0
 20
-24.5
 30
0.0
 11
0.0
 21
-19.5
 31
0.0
  0
ARC
  5
7C5A4
330
7C856
100
AcDbEntity
  8
Level 1
  6
Continuous
370
     0
100
AcDbCircle
 10
-7.0
 20
-19.5
 30
0.0
 40
5.000000000000002
210
0.0
220
0.0
230
-1.0
100
AcDbArc
 50
180.0
 51
270.0
  0
ARC
  5
7C5A5
330
7C856
100
AcDbEntity
  8
Level 1
  6
Continuous
370
     0
100
AcDbCircle
 10
-7.0
 20
-17.5
 30
0.0
 40
5.000000000000002
100
AcDbArc
 50
90.0
 51
180.0
  0
LINE
  5
7C5A6
330
7C856
100
AcDbEntity
  8
Level 1
  6
Continuous
370
     0
100
AcDbLine
 10
0.0
 20
-17.5
 30
0.0
 11
0.0
 21
-12.5
 31
0.0
  0
ARC
  5
7C5A7
330
7C856
100
AcDbEntity
  8
Level 1
  6
Continuous
370
     0
100
AcDbCircle
 10
-7.0
 20
-17.5
 30
0.0
 40
5.000000000000002
210
0.0
220
0.0
230
-1.0
100
AcDbArc
 50
90.0
 51
180.0
  0
POINT
  5
7C5A8
330
7C856
100
AcDbEntity
  8
Level 1
  6
Continuous
370
     0
100
AcDbPoint
 10
6.0
 20
-18.5
 30
0.0
  0
POINT
  5
7C5A9
330
7C856
100
AcDbEntity
  8
Level 1
  6
Continuous
370
     0
100
AcDbPoint
 10
0.0
 20
-24.5
 30
0.0
  0
POINT
  5
7C5AA
330
7C856
100
AcDbEntity
  8
Level 1
  6
Continuous
370
     0
100
AcDbPoint
 10
-6.0
 20
-18.5
 30
0.0
  0
POINT
  5
7C5AB
330
7C856
100
AcDbEntity
  8
Level 1
  6
Continuous
370
     0
100
AcDbPoint
 10
0.0
 20
-12.5
 30
0.0
  0
LINE
  5
7C5AC
330
7C856
100
AcDbEntity
  8
Level 1
  6
Continuous
370
     0
100
AcDbLine
 10
-6.0
 20
-18.5
 30
0.0
 11
-6.0
 21
18.5
 31
0.0
  0
LINE
  5
7C5AD
330
7C856
100
AcDbEntity
  8
Level 1
  6
Continuous
370
     0
100
AcDbLine
 10
0.0
 20
-24.5
 30
0.0
 11
0.0
 21
24.5
 31
0.0
  0
LINE
  5
7C5AE
330
7C856
100
AcDbEntity
  8
Level 1
  6
Continuous
370
     0
100
AcDbLine
 10
6.0
 20
-18.5
 30
0.0
 11
6.0
 21
18.5
 31
0.0
  0
LINE
  5
7C5AF
330
7C856
100
AcDbEntity
  8
Level 1
  6
Continuous
370
     0
100
AcDbLine
 10
0.0
 20
-12.5
 30
0.0
 11
0.0
 21
12.5
 31
0.0
  0
LINE
  5
7C5B0
330
7C856
100
AcDbEntity
  8
Level 1
  6
Continuous
370
     0
100
AcDbLine
 10
6.0
 20
0.0
 30
0.0
 11
-6.0
 21
0.0
 31
0.0
  0
ARC
  5
7C5B1
330
7C856
100
AcDbEntity
  8
Level 1
  6
Continuous
370
     0
100
AcDbCircle
 10
0.0
 20
18.5
 30
0.0
 40
6.000000000000002
100
AcDbArc
 50
0.0
 51
360.0
  0
POINT
  5
7C5B2
330
7C856
100
AcDbEntity
  8
Level 1
  6
Continuous
370
     0
100
AcDbPoint
 10
6.0
 20
18.5
 30
0.0
  0
POINT
  5
7C5B3
330
7C856
100
AcDbEntity
  8
Level 1
  6
Continuous
370
     0
100
AcDbPoint
 10
0.0
 20
24.5
 30
0.0
  0
POINT
  5
7C5B4
330
7C856
100
AcDbEntity
  8
Level 1
  6
Continuous
370
     0
100
AcDbPoint
 10
-6.0
 20
18.5
 30
0.0
  0
POINT
  5
7C5B5
330
7C856
100
AcDbEntity
  8
Level 1
  6
Continuous
370
     0
100
AcDbPoint
 10
0.0
 20
12.5
 30
0.0
  0
LINE
  5
7C5B6
330
7C856
100
AcDbEntity
  8
Level 1
  6
Continuous
370
     0
100
AcDbLine
 10
12.0
 20
17.5
 30
0.0
 11
12.0
 21
19.5
 31
0.0
  0
LINE
  5
7C5B7
330
7C856
100
AcDbEntity
  8
Level 1
  6
Continuous
370
     0
100
AcDbLine
 10
0.0
 20
17.5
 30
0.0
 11
0.0
 21
19.5
 31
0.0
  0
LINE
  5
7C5B8
330
7C856
100
AcDbEntity
  8
Level 1
  6
Continuous
370
     0
100
AcDbLine
 10
-12.0
 20
17.5
 30
0.0
 11
-12.0
 21
19.5
 31
0.0
  0
LINE
  5
7C5B9
330
7C856
100
AcDbEntity
  8
Level 1
  6
Continuous
370
     0
100
AcDbLine
 10
0.0
 20
12.5
 30
0.0
 11
0.0
 21
24.5
 31
0.0
  0
LINE
  5
7C5BA
330
7C856
100
AcDbEntity
  8
Level 1
  6
Continuous
370
     0
100
AcDbLine
 10
6.5
 20
12.5
 30
0.0
 11
6.5
 21
24.5
 31
0.0
  0
LINE
  5
7C5BB
330
7C856
100
AcDbEntity
  8
Level 1
  6
Continuous
370
     0
100
AcDbLine
 10
0.0
 20
12.5
 30
0.0
 11
0.0
 21
24.5
 31
0.0
  0
LINE
  5
7C5BC
330
7C856
100
AcDbEntity
  8
Level 1
  6
Continuous
370
     0
100
AcDbLine
 10
-6.5
 20
12.5
 30
0.0
 11
-6.5
 21
24.5
 31
0.0
  0
ARC
  5
7C5BD
330
7C856
100
AcDbEntity
  8
Level 1
  6
Continuous
370
     0
100
AcDbCircle
 10
7.0
 20
17.5
 30
0.0
 40
5.000000000000002
100
AcDbArc
 50
270.0
 51
0.0
  0
LINE
  5
7C5BE
330
7C856
100
AcDbEntity
  8
Level 1
  6
Continuous
370
     0
100
AcDbLine
 10
0.0
 20
12.5
 30
0.0
 11
0.0
 21
17.5
 31
0.0
  0
ARC
  5
7C5BF
330
7C856
100
AcDbEntity
  8
Level 1
  6
Continuous
370
     0
100
AcDbCircle
 10
7.0
 20
17.5
 30
0.0
 40
5.000000000000002
210
0.0
220
0.0
230
-1.0
100
AcDbArc
 50
270.0
 51
0.0
  0
ARC
  5
7C5C0
330
7C856
100
AcDbEntity
  8
Level 1
  6
Continuous
370
     0
100
AcDbCircle
 10
7.0
 20
19.5
 30
0.0
 40
5.000000000000002
100
AcDbArc
 50
360.0
 51
90.0
  0
LINE
  5
7C5C1
330
7C856
100
AcDbEntity
  8
Level 1
  6
Continuous
370
     0
100
AcDbLine
 10
0.0
 20
19.5
 30
0.0
 11
0.0
 21
24.5
 31
0.0
  0
ARC
  5
7C5C2
330
7C856
100
AcDbEntity
  8
Level 1
  6
Continuous
370
     0
100
AcDbCircle
 10
7.0
 20
19.5
 30
0.0
 40
5.000000000000002
210
0.0
220
0.0
230
-1.0
100
AcDbArc
 50
360.0
 51
90.0
  0
ENDBLK
  5
7C858
330
7C856
100
AcDbEntity
  8
0
100
AcDbBlockEnd
  0
BLOCK
  5
7C85A
330
7C859
100
AcDbEntity
  8
0
100
AcDbBlockBegin
  2
Smart Solid_16
 70
     0
 71
     0
 10
0.0
 20
0.0
 30
0.0
  3
Smart Solid_16
  1

  0
LINE
  5
7C5C5
330
7C859
100
AcDbEntity
  8
Level 1
  6
Continuous
370
     0
100
AcDbLine
 10
17.000215
 20
10.000269
 30
0.0
 11
22.000215
 21
15.000269
 31
0.0
  0
LINE
  5
7C5C6
330
7C859
100
AcDbEntity
  8
Level 1
  6
Continuous
370
     0
100
AcDbLine
 10
22.000215
 20
-14.999731
 30
0.0
 11
17.000215
 21
-9.999731
 31
0.0
  0
LINE
  5
7C5C7
330
7C859
100
AcDbEntity
  8
Level 1
  6
Continuous
370
     0
100
AcDbLine
 10
22.000215
 20
15.000269
 30
0.0
 11
22.000215
 21
-14.999731
 31
0.0
  0
LINE
  5
7C5C8
330
7C859
100
AcDbEntity
  8
Level 1
  6
Continuous
370
     0
100
AcDbLine
 10
17.000215
 20
10.000269
 30
0.0
 11
17.000215
 21
-9.999731
 31
0.0
  0
LINE
  5
7C5C9
330
7C859
100
AcDbEntity
  8
Level 1
  6
Continuous
370
     0
100
AcDbLine
 10
-16.999785
 20
10.000269
 30
0.0
 11
-21.999785
 21
15.000269
 31
0.0
  0
LINE
  5
7C5CA
330
7C859
100
AcDbEntity
  8
Level 1
  6
Continuous
370
     0
100
AcDbLine
 10
-21.999785
 20
15.000269
 30
0.0
 11
22.000215
 21
15.000269
 31
0.0
  0
LINE
  5
7C5CB
330
7C859
100
AcDbEntity
  8
Level 1
  6
Continuous
370
     0
100
AcDbLine
 10
-16.999785
 20
10.000269
 30
0.0
 11
17.000215
 21
10.000269
 31
0.0
  0
LINE
  5
7C5CC
330
7C859
100
AcDbEntity
  8
Level 1
  6
Continuous
370
     0
100
AcDbLine
 10
-16.999785
 20
-9.999731
 30
0.0
 11
-21.999785
 21
-14.999731
 31
0.0
  0
LINE
  5
7C5CD
330
7C859
100
AcDbEntity
  8
Level 1
  6
Continuous
370
     0
100
AcDbLine
 10
-21.999785
 20
-14.999731
 30
0.0
 11
-21.999785
 21
15.000269
 31
0.0
  0
LINE
  5
7C5CE
330
7C859
100
AcDbEntity
  8
Level 1
  6
Continuous
370
     0
100
AcDbLine
 10
-16.999785
 20
-9.999731
 30
0.0
 11
-16.999785
 21
10.000269
 31
0.0
  0
LINE
  5
7C5CF
330
7C859
100
AcDbEntity
  8
Level 1
  6
Continuous
370
     0
100
AcDbLine
 10
22.000215
 20
-14.999731
 30
0.0
 11
-21.999785
 21
-14.999731
 31
0.0
  0
LINE
  5
7C5D0
330
7C859
100
AcDbEntity
  8
Level 1
  6
Continuous
370
     0
100
AcDbLine
 10
17.000215
 20
-9.999731
 30
0.0
 11
-16.999785
 21
-9.999731
 31
0.0
  0
LINE
  5
7C5D1
330
7C859
100
AcDbEntity
  8
Level 1
  6
Continuous
370
     0
100
AcDbLine
 10
25.000215
 20
-59.999731
 30
0.0
 11
-24.999785
 21
-59.999731
 31
0.0
  0
LINE
  5
7C5D2
330
7C859
100
AcDbEntity
  8
Level 1
  6
Continuous
370
     0
100
AcDbLine
 10
25.000215
 20
60.000269
 30
0.0
 11
-24.999785
 21
60.000269
 31
0.0
  0
LINE
  5
7C5D3
330
7C859
100
AcDbEntity
  8
Level 1
  6
Continuous
370
     0
100
AcDbLine
 10
25.000215
 20
60.000269
 30
0.0
 11
-24.999785
 21
60.000269
 31
0.0
  0
LINE
  5
7C5D4
330
7C859
100
AcDbEntity
  8
Level 1
  6
Continuous
370
     0
100
AcDbLine
 10
25.000215
 20
-59.999731
 30
0.0
 11
-24.999785
 21
-59.999731
 31
0.0
  0
LINE
  5
7C5D5
330
7C859
100
AcDbEntity
  8
Level 1
  6
Continuous
370
     0
100
AcDbLine
 10
25.000215
 20
60.000269
 30
0.0
 11
25.000215
 21
-59.999731
 31
0.0
  0
POINT
  5
7C5D6
330
7C859
100
AcDbEntity
  8
Level 1
  6
Continuous
370
     0
100
AcDbPoint
 10
25.000215
 20
60.000269
 30
0.0
  0
LINE
  5
7C5D7
330
7C859
100
AcDbEntity
  8
Level 1
  6
Continuous
370
     0
100
AcDbLine
 10
25.000215
 20
-59.999731
 30
0.0
 11
25.000215
 21
60.000269
 31
0.0
  0
POINT
  5
7C5D8
330
7C859
100
AcDbEntity
  8
Level 1
  6
Continuous
370
     0
100
AcDbPoint
 10
25.000215
 20
-59.999731
 30
0.0
  0
LINE
  5
7C5D9
330
7C859
100
AcDbEntity
  8
Level 1
  6
Continuous
370
     0
100
AcDbLine
 10
-24.999785
 20
60.000269
 30
0.0
 11
-24.999785
 21
-59.999731
 31
0.0
  0
POINT
  5
7C5DA
330
7C859
100
AcDbEntity
  8
Level 1
  6
Continuous
370
     0
100
AcDbPoint
 10
-24.999785
 20
60.000269
 30
0.0
  0
LINE
  5
7C5DB
330
7C859
100
AcDbEntity
  8
Level 1
  6
Continuous
370
     0
100
AcDbLine
 10
-24.999785
 20
-59.999731
 30
0.0
 11
-24.999785
 21
60.000269
 31
0.0
  0
POINT
  5
7C5DC
330
7C859
100
AcDbEntity
  8
Level 1
  6
Continuous
370
     0
100
AcDbPoint
 10
-24.999785
 20
-59.999731
 30
0.0
  0
LINE
  5
7C5DD
330
7C859
100
AcDbEntity
  8
Level 1
  6
Continuous
370
     0
100
AcDbLine
 10
0.000215
 20
-9.999731
 30
0.0
 11
-16.999785
 21
-9.999731
 31
0.0
  0
LINE
  5
7C5DE
330
7C859
100
AcDbEntity
  8
Level 1
  6
Continuous
370
     0
100
AcDbLine
 10
-16.999785
 20
-9.999731
 30
0.0
 11
-16.999785
 21
10.000269
 31
0.0
  0
LINE
  5
7C5DF
330
7C859
100
AcDbEntity
  8
Level 1
  6
Continuous
370
     0
100
AcDbLine
 10
0.000215
 20
10.000269
 30
0.0
 11
-16.999785
 21
10.000269
 31
0.0
  0
LINE
  5
7C5E0
330
7C859
100
AcDbEntity
  8
Level 1
  6
Continuous
370
     0
100
AcDbLine
 10
17.000215
 20
10.000269
 30
0.0
 11
0.000215
 21
10.000269
 31
0.0
  0
LINE
  5
7C5E1
330
7C859
100
AcDbEntity
  8
Level 1
  6
Continuous
370
     0
100
AcDbLine
 10
17.000215
 20
10.000269
 30
0.0
 11
17.000215
 21
-9.999731
 31
0.0
  0
LINE
  5
7C5E2
330
7C859
100
AcDbEntity
  8
Level 1
  6
Continuous
370
     0
100
AcDbLine
 10
17.000215
 20
-9.999731
 30
0.0
 11
0.000215
 21
-9.999731
 31
0.0
  0
LINE
  5
7C5E3
330
7C859
100
AcDbEntity
  8
Level 1
  6
Continuous
370
     0
100
AcDbLine
 10
0.000215
 20
10.000269
 30
0.0
 11
0.000215
 21
-9.999731
 31
0.0
  0
POINT
  5
7C5E4
330
7C859
100
AcDbEntity
  8
Level 1
  6
Continuous
370
     0
100
AcDbPoint
 10
-16.999785
 20
-9.999731
 30
0.0
  0
POINT
  5
7C5E5
330
7C859
100
AcDbEntity
  8
Level 1
  6
Continuous
370
     0
100
AcDbPoint
 10
-16.999785
 20
10.000269
 30
0.0
  0
POINT
  5
7C5E6
330
7C859
100
AcDbEntity
  8
Level 1
  6
Continuous
370
     0
100
AcDbPoint
 10
17.000215
 20
10.000269
 30
0.0
  0
POINT
  5
7C5E7
330
7C859
100
AcDbEntity
  8
Level 1
  6
Continuous
370
     0
100
AcDbPoint
 10
17.000215
 20
-9.999731
 30
0.0
  0
LINE
  5
7C5E8
330
7C859
100
AcDbEntity
  8
Level 1
  6
Continuous
370
     0
100
AcDbLine
 10
-5.999785
 20
10.000269
 30
0.0
 11
6.000215
 21
10.000269
 31
0.0
  0
LINE
  5
7C5E9
330
7C859
100
AcDbEntity
  8
Level 1
  6
Continuous
370
     0
100
AcDbLine
 10
-5.999785
 20
-9.999731
 30
0.0
 11
6.000215
 21
-9.999731
 31
0.0
  0
POINT
  5
7C5EA
330
7C859
100
AcDbEntity
  8
Level 1
  6
Continuous
370
     0
100
AcDbPoint
 10
-4.999785
 20
-45.999731
 30
0.0
  0
POINT
  5
7C5EB
330
7C859
100
AcDbEntity
  8
Level 1
  6
Continuous
370
     0
100
AcDbPoint
 10
-4.999785
 20
-35.999731
 30
0.0
  0
POINT
  5
7C5EC
330
7C859
100
AcDbEntity
  8
Level 1
  6
Continuous
370
     0
100
AcDbPoint
 10
5.000215
 20
-35.999731
 30
0.0
  0
POINT
  5
7C5ED
330
7C859
100
AcDbEntity
  8
Level 1
  6
Continuous
370
     0
100
AcDbPoint
 10
5.000215
 20
-45.999731
 30
0.0
  0
LINE
  5
7C5EE
330
7C859
100
AcDbEntity
  8
Level 1
  6
Continuous
370
     0
100
AcDbLine
 10
5.000215
 20
-35.999731
 30
0.0
 11
5.000215
 21
-45.999731
 31
0.0
  0
LINE
  5
7C5EF
330
7C859
100
AcDbEntity
  8
Level 1
  6
Continuous
370
     0
100
AcDbLine
 10
-4.999785
 20
-35.999731
 30
0.0
 11
5.000215
 21
-35.999731
 31
0.0
  0
LINE
  5
7C5F0
330
7C859
100
AcDbEntity
  8
Level 1
  6
Continuous
370
     0
100
AcDbLine
 10
-4.999785
 20
-45.999731
 30
0.0
 11
-4.999785
 21
-35.999731
 31
0.0
  0
LINE
  5
7C5F1
330
7C859
100
AcDbEntity
  8
Level 1
  6
Continuous
370
     0
100
AcDbLine
 10
5.000215
 20
-45.999731
 30
0.0
 11
-4.999785
 21
-45.999731
 31
0.0
  0
LINE
  5
7C5F2
330
7C859
100
AcDbEntity
  8
Level 1
  6
Continuous
370
     0
100
AcDbLine
 10
5.000215
 20
-35.999731
 30
0.0
 11
5.000215
 21
-45.999731
 31
0.0
  0
LINE
  5
7C5F3
330
7C859
100
AcDbEntity
  8
Level 1
  6
Continuous
370
     0
100
AcDbLine
 10
-4.999785
 20
-35.999731
 30
0.0
 11
5.000215
 21
-35.999731
 31
0.0
  0
LINE
  5
7C5F4
330
7C859
100
AcDbEntity
  8
Level 1
  6
Continuous
370
     0
100
AcDbLine
 10
-4.999785
 20
-45.999731
 30
0.0
 11
-4.999785
 21
-35.999731
 31
0.0
  0
LINE
  5
7C5F5
330
7C859
100
AcDbEntity
  8
Level 1
  6
Continuous
370
     0
100
AcDbLine
 10
5.000215
 20
-45.999731
 30
0.0
 11
-4.999785
 21
-45.999731
 31
0.0
  0
POINT
  5
7C5F6
330
7C859
100
AcDbEntity
  8
Level 1
  6
Continuous
370
     0
100
AcDbPoint
 10
-4.999785
 20
46.000269
 30
0.0
  0
POINT
  5
7C5F7
330
7C859
100
AcDbEntity
  8
Level 1
  6
Continuous
370
     0
100
AcDbPoint
 10
-4.999785
 20
36.000269
 30
0.0
  0
POINT
  5
7C5F8
330
7C859
100
AcDbEntity
  8
Level 1
  6
Continuous
370
     0
100
AcDbPoint
 10
5.000215
 20
36.000269
 30
0.0
  0
POINT
  5
7C5F9
330
7C859
100
AcDbEntity
  8
Level 1
  6
Continuous
370
     0
100
AcDbPoint
 10
5.000215
 20
46.000269
 30
0.0
  0
LINE
  5
7C5FA
330
7C859
100
AcDbEntity
  8
Level 1
  6
Continuous
370
     0
100
AcDbLine
 10
5.000215
 20
36.000269
 30
0.0
 11
5.000215
 21
46.000269
 31
0.0
  0
LINE
  5
7C5FB
330
7C859
100
AcDbEntity
  8
Level 1
  6
Continuous
370
     0
100
AcDbLine
 10
-4.999785
 20
36.000269
 30
0.0
 11
5.000215
 21
36.000269
 31
0.0
  0
LINE
  5
7C5FC
330
7C859
100
AcDbEntity
  8
Level 1
  6
Continuous
370
     0
100
AcDbLine
 10
-4.999785
 20
46.000269
 30
0.0
 11
-4.999785
 21
36.000269
 31
0.0
  0
LINE
  5
7C5FD
330
7C859
100
AcDbEntity
  8
Level 1
  6
Continuous
370
     0
100
AcDbLine
 10
5.000215
 20
46.000269
 30
0.0
 11
-4.999785
 21
46.000269
 31
0.0
  0
LINE
  5
7C5FE
330
7C859
100
AcDbEntity
  8
Level 1
  6
Continuous
370
     0
100
AcDbLine
 10
5.000215
 20
36.000269
 30
0.0
 11
5.000215
 21
46.000269
 31
0.0
  0
LINE
  5
7C5FF
330
7C859
100
AcDbEntity
  8
Level 1
  6
Continuous
370
     0
100
AcDbLine
 10
-4.999785
 20
36.000269
 30
0.0
 11
5.000215
 21
36.000269
 31
0.0
  0
LINE
  5
7C600
330
7C859
100
AcDbEntity
  8
Level 1
  6
Continuous
370
     0
100
AcDbLine
 10
-4.999785
 20
46.000269
 30
0.0
 11
-4.999785
 21
36.000269
 31
0.0
  0
LINE
  5
7C601
330
7C859
100
AcDbEntity
  8
Level 1
  6
Continuous
370
     0
100
AcDbLine
 10
5.000215
 20
46.000269
 30
0.0
 11
-4.999785
 21
46.000269
 31
0.0
  0
LINE
  5
7C602
330
7C859
100
AcDbEntity
  8
Level 1
  6
Continuous
370
     0
100
AcDbLine
 10
0.000215
 20
-9.999731
 30
0.0
 11
0.000215
 21
10.000269
 31
0.0
  0
LINE
  5
7C603
330
7C859
100
AcDbEntity
  8
Level 1
  6
Continuous
370
     0
100
AcDbLine
 10
-5.999785
 20
-9.999731
 30
0.0
 11
-5.999785
 21
10.000269
 31
0.0
  0
LINE
  5
7C604
330
7C859
100
AcDbEntity
  8
Level 1
  6
Continuous
370
     0
100
AcDbLine
 10
0.000215
 20
-9.999731
 30
0.0
 11
0.000215
 21
10.000269
 31
0.0
  0
LINE
  5
7C605
330
7C859
100
AcDbEntity
  8
Level 1
  6
Continuous
370
     0
100
AcDbLine
 10
6.000215
 20
-9.999731
 30
0.0
 11
6.000215
 21
10.000269
 31
0.0
  0
ENDBLK
  5
7C85B
330
7C859
100
AcDbEntity
  8
0
100
AcDbBlockEnd
  0
BLOCK
  5
7C85D
330
7C85C
100
AcDbEntity
  8
0
100
AcDbBlockBegin
  2
Smart Solid_17
 70
     0
 71
     0
 10
0.0
 20
0.0
 30
0.0
  3
Smart Solid_17
  1

  0
SPLINE
  5
7C608
330
7C85C
100
AcDbEntity
  8
Level 1
  6
Continuous
370
     0
100
AcDbSpline
210
0.0
220
0.0
230
1.0
 70
     8
 71
     3
 72
    10
 73
     6
 74
     0
 42
0.0000000001
 43
0.00000001
 40
0.0
 40
0.0
 40
0.0
 40
0.0
 40
0.5
 40
0.5
 40
1.0
 40
1.0
 40
1.0
 40
1.0
 10
0.0000000000009095
 20
12.49999999999909
 30
0.0
 10
1.144234616963331
 20
12.49999999999909
 30
0.0
 10
2.459741923757974
 20
12.84456631853891
 30
0.0
 10
4.741551363973031
 20
14.55640378338558
 30
0.0
 10
5.653533143085497
 20
15.94675313088601
 30
0.0
 10
5.916079783100486
 20
17.49999999999909
 30
0.0
  0
SPLINE
  5
7C60B
330
7C85C
100
AcDbEntity
  8
Level 1
  6
Continuous
370
     0
100
AcDbSpline
210
0.0
220
0.0
230
1.0
 70
     8
 71
     3
 72
    23
 73
    19
 74
     0
 42
0.0000000001
 43
0.00000001
 40
0.0
 40
0.0
 40
0.0
 40
0.0
 40
0.1764098497766841
 40
0.1764098497766841
 40
0.1764098497766841
 40
0.3523170903485055
 40
0.3523170903485055
 40
0.3523170903485055
 40
0.5378859856821643
 40
0.5378859856821643
 40
0.5378859856821643
 40
0.748315805522099
 40
0.748315805522099
 40
0.748315805522099
 40
0.9965525029493831
 40
0.9965525029493831
 40
0.9965525029493831
 40
1.0
 40
1.0
 40
1.0
 40
1.0
 10
-5.916079783098667
 20
17.49999999999909
 30
0.0
 10
-5.82521316338125
 20
16.96242582813193
 30
0.0
 10
-5.655916824469387
 20
16.42474691981533
 30
0.0
 10
-5.423117111224656
 20
15.9329392687464
 30
0.0
 10
-5.190638434499306
 20
15.44180983250499
 30
0.0
 10
-4.889488869595425
 20
14.9833311127536
 30
0.0
 10
-4.548031013795026
 20
14.58650873291481
 30
0.0
 10
-4.18755088259195
 20
14.16757977544967
 30
0.0
 10
-3.774265457017464
 20
13.80693916730661
 30
0.0
 10
-3.342847902437825
 20
13.51749381323361
 30
0.0
 10
-2.853791017583717
 20
13.18937725493424
 30
0.0
 10
-2.331048772183294
 20
12.94487316891082
 30
0.0
 10
-1.814915758131065
 20
12.78107695532708
 30
0.0
 10
-1.206475075458002
 20
12.5879866524424
 30
0.0
 10
-0.5944927542936966
 20
12.50230448077537
 30
0.0
 10
-0.023731788924124
 20
12.50004693332312
 30
0.0
 10
-0.0158145771547424
 20
12.50001561814452
 30
0.0
 10
-0.0079106053149189
 20
12.49999999999909
 30
0.0
 10
0.0000000000009095
 20
12.49999999999909
 30
0.0
  0
SPLINE
  5
7C60E
330
7C85C
100
AcDbEntity
  8
Level 1
  6
Continuous
370
     0
100
AcDbSpline
210
0.0
220
0.0
230
1.0
 70
     8
 71
     3
 72
    11
 73
     7
 74
     0
 42
0.0000000001
 43
0.00000001
 40
0.0
 40
0.0
 40
0.0
 40
0.0
 40
0.6948005484414143
 40
0.6948005484414143
 40
0.6948005484414143
 40
1.0
 40
1.0
 40
1.0
 40
1.0
 10
5.916079783100486
 20
17.49999999999909
 30
0.0
 10
5.993030815778184
 20
17.9552484487117
 30
0.0
 10
6.017421119965547
 20
18.42639265553771
 30
0.0
 10
5.98738595498844
 20
18.88885656226694
 30
0.0
 10
5.974073947236775
 20
19.09382707318582
 30
0.0
 10
5.950185563582181
 20
19.2982274816045
 30
0.0
 10
5.916079783100486
 20
19.49999999999909
 30
0.0
  0
SPLINE
  5
7C611
330
7C85C
100
AcDbEntity
  8
Level 1
  6
Continuous
370
     0
100
AcDbSpline
210
0.0
220
0.0
230
1.0
 70
     8
 71
     3
 72
    11
 73
     7
 74
     0
 42
0.0000000001
 43
0.00000001
 40
0.0
 40
0.0
 40
0.0
 40
0.0
 40
0.9414272520826061
 40
0.9414272520826061
 40
0.9414272520826061
 40
1.0
 40
1.0
 40
1.0
 40
1.0
 10
-5.916079783098667
 20
19.49999999999909
 30
0.0
 10
-6.020229994566307
 20
18.8838390395299
 30
0.0
 10
-6.026725349087428
 20
18.23575927989077
 30
0.0
 10
-5.934681496778467
 20
17.61707557979889
 30
0.0
 10
-5.928864066054302
 20
17.57797302731615
 30
0.0
 10
-5.922662369822319
 20
17.53894310823353
 30
0.0
 10
-5.916079783098667
 20
17.49999999999909
 30
0.0
  0
SPLINE
  5
7C614
330
7C85C
100
AcDbEntity
  8
Level 1
  6
Continuous
370
     0
100
AcDbSpline
210
0.0
220
0.0
230
1.0
 70
     8
 71
     3
 72
    10
 73
     6
 74
     0
 42
0.0000000001
 43
0.00000001
 40
0.0
 40
0.0
 40
0.0
 40
0.0
 40
0.5
 40
0.5
 40
1.0
 40
1.0
 40
1.0
 40
1.0
 10
0.0000000000009095
 20
24.49999999999909
 30
0.0
 10
-1.144234616834638
 20
24.49999999999909
 30
0.0
 10
-2.459741923756155
 20
24.15543368145745
 30
0.0
 10
-4.741551363956205
 20
22.44359621662943
 30
0.0
 10
-5.653533143082768
 20
21.05324686911717
 30
0.0
 10
-5.916079783098667
 20
19.49999999999909
 30
0.0
  0
SPLINE
  5
7C617
330
7C85C
100
AcDbEntity
  8
Level 1
  6
Continuous
370
     0
100
AcDbSpline
210
0.0
220
0.0
230
1.0
 70
     8
 71
     3
 72
    23
 73
    19
 74
     0
 42
0.0000000001
 43
0.00000001
 40
0.0
 40
0.0
 40
0.0
 40
0.0
 40
0.1764098497766914
 40
0.1764098497766914
 40
0.1764098497766914
 40
0.3523170903485184
 40
0.3523170903485184
 40
0.3523170903485184
 40
0.537885985682182
 40
0.537885985682182
 40
0.537885985682182
 40
0.74831580552212
 40
0.74831580552212
 40
0.74831580552212
 40
0.9965525029493837
 40
0.9965525029493837
 40
0.9965525029493837
 40
1.0
 40
1.0
 40
1.0
 40
1.0
 10
5.916079783100486
 20
19.49999999999909
 30
0.0
 10
5.825213163383523
 20
20.03757417186716
 30
0.0
 10
5.655916824471206
 20
20.57525308018285
 30
0.0
 10
5.423117111225565
 20
21.06706073125179
 30
0.0
 10
5.19063843450158
 20
21.55819016749501
 30
0.0
 10
4.889488869597244
 20
22.01666888724549
 30
0.0
 10
4.548031013796845
 20
22.41349126708428
 30
0.0
 10
4.187550882593769
 20
22.83242022455033
 30
0.0
 10
3.774265457019283
 20
23.19306083269157
 30
0.0
 10
3.342847902439644
 20
23.48250618676548
 30
0.0
 10
2.853791017585536
 20
23.81062274506576
 30
0.0
 10
2.331048772185113
 20
24.05512683108736
 30
0.0
 10
1.814915758131974
 20
24.21892304467156
 30
0.0
 10
1.206475075460276
 20
24.41201334755669
 30
0.0
 10
0.5944927543550875
 20
24.49769551922464
 30
0.0
 10
0.023731788924124
 20
24.49995306667597
 30
0.0
 10
0.0158145771529234
 20
24.49998438185367
 30
0.0
 10
0.0079106053162832
 20
24.49999999999909
 30
0.0
 10
0.0000000000009095
 20
24.49999999999909
 30
0.0
  0
SPLINE
  5
7C61A
330
7C85C
100
AcDbEntity
  8
Level 1
  6
Continuous
370
     0
100
AcDbSpline
210
0.0
220
0.0
230
1.0
 70
     8
 71
     3
 72
    10
 73
     6
 74
     0
 42
0.0000000001
 43
0.00000001
 40
0.0
 40
0.0
 40
0.0
 40
0.0
 40
0.5
 40
0.5
 40
1.0
 40
1.0
 40
1.0
 40
1.0
 10
0.0000000000009095
 20
-12.50000000000091
 30
0.0
 10
1.144234614891957
 20
-12.50000000000091
 30
0.0
 10
2.459741923745696
 20
-12.84456631858166
 30
0.0
 10
4.741551363712006
 20
-14.55640378313956
 30
0.0
 10
5.653533143076857
 20
-15.94675313083735
 30
0.0
 10
5.916079783100486
 20
-17.5
 30
0.0
  0
SPLINE
  5
7C61D
330
7C85C
100
AcDbEntity
  8
Level 1
  6
Continuous
370
     0
100
AcDbSpline
210
0.0
220
0.0
230
1.0
 70
     8
 71
     3
 72
    23
 73
    19
 74
     0
 42
0.0000000001
 43
0.00000001
 40
0.0
 40
0.0
 40
0.0
 40
0.0
 40
0.1764098497709442
 40
0.1764098497709442
 40
0.1764098497709442
 40
0.3523170903370414
 40
0.3523170903370414
 40
0.3523170903370414
 40
0.5378859856646627
 40
0.5378859856646627
 40
0.5378859856646627
 40
0.7483158054977563
 40
0.7483158054977563
 40
0.7483158054977563
 40
0.9965525029169888
 40
0.9965525029169888
 40
0.9965525029169888
 40
1.0
 40
1.0
 40
1.0
 40
1.0
 10
-5.916079783098667
 20
-17.5
 30
0.0
 10
-5.82521316338125
 20
-16.96242582813193
 30
0.0
 10
-5.655916824469387
 20
-16.42474691981624
 30
0.0
 10
-5.423117111223746
 20
-15.93293926874731
 30
0.0
 10
-5.190638434499306
 20
-15.44180983250499
 30
0.0
 10
-4.889488869595425
 20
-14.98333111275451
 30
0.0
 10
-4.548031013795026
 20
-14.58650873291572
 30
0.0
 10
-4.18755088259195
 20
-14.16757977544967
 30
0.0
 10
-3.774265457017464
 20
-13.80693916730843
 30
0.0
 10
-3.342847902437825
 20
-13.51749381323452
 30
0.0
 10
-2.853791017583717
 20
-13.18937725493424
 30
0.0
 10
-2.331048772183294
 20
-12.94487316891173
 30
0.0
 10
-1.814915758130155
 20
-12.78107695532754
 30
0.0
 10
-1.206475075456183
 20
-12.5879866524424
 30
0.0
 10
-0.5944927552154695
 20
-12.50230448077537
 30
0.0
 10
-0.0237317888850157
 20
-12.50004693332403
 30
0.0
 10
-0.0158145771006275
 20
-12.50001561814634
 30
0.0
 10
-0.0079106047469395
 20
-12.50000000000091
 30
0.0
 10
0.0000000000009095
 20
-12.50000000000091
 30
0.0
  0
LINE
  5
7C620
330
7C85C
100
AcDbEntity
  8
Level 1
  6
Continuous
370
     0
100
AcDbLine
 10
-12.0
 20
-17.5
 30
0.0
 11
12.0
 21
-17.5
 31
0.0
  0
LINE
  5
7C621
330
7C85C
100
AcDbEntity
  8
Level 1
  6
Continuous
370
     0
100
AcDbLine
 10
-7.0
 20
-12.5
 30
0.0
 11
7.0
 21
-12.5
 31
0.0
  0
LINE
  5
7C622
330
7C85C
100
AcDbEntity
  8
Level 1
  6
Continuous
370
     0
100
AcDbLine
 10
-7.0
 20
-24.5
 30
0.0
 11
7.0
 21
-24.5
 31
0.0
  0
LINE
  5
7C623
330
7C85C
100
AcDbEntity
  8
Level 1
  6
Continuous
370
     0
100
AcDbLine
 10
-12.0
 20
-19.5
 30
0.0
 11
12.0
 21
-19.5
 31
0.0
  0
LINE
  5
7C624
330
7C85C
100
AcDbEntity
  8
Level 1
  6
Continuous
370
     0
100
AcDbLine
 10
6.5
 20
-24.5
 30
0.0
 11
-6.5
 21
-24.5
 31
0.0
  0
LINE
  5
7C625
330
7C85C
100
AcDbEntity
  8
Level 1
  6
Continuous
370
     0
100
AcDbLine
 10
-6.5
 20
-12.5
 30
0.0
 11
6.5
 21
-12.5
 31
0.0
  0
SPLINE
  5
7C626
330
7C85C
100
AcDbEntity
  8
Level 1
  6
Continuous
370
     0
100
AcDbSpline
210
0.0
220
0.0
230
1.0
 70
     8
 71
     3
 72
    10
 73
     6
 74
     0
 42
0.0000000001
 43
0.00000001
 40
0.0
 40
0.0
 40
0.0
 40
0.0
 40
0.5
 40
0.5
 40
1.0
 40
1.0
 40
1.0
 40
1.0
 10
0.0000000000009095
 20
-24.50000000000091
 30
0.0
 10
-1.144234618899191
 20
-24.50000000000091
 30
0.0
 10
-2.459741923767979
 20
-24.15543368149929
 30
0.0
 10
-4.741551364215866
 20
-22.44359621638341
 30
0.0
 10
-5.653533143091863
 20
-21.05324686906852
 30
0.0
 10
-5.916079783098667
 20
-19.5
 30
0.0
  0
SPLINE
  5
7C629
330
7C85C
100
AcDbEntity
  8
Level 1
  6
Continuous
370
     0
100
AcDbSpline
210
0.0
220
0.0
230
1.0
 70
     8
 71
     3
 72
    23
 73
    19
 74
     0
 42
0.0000000001
 43
0.00000001
 40
0.0
 40
0.0
 40
0.0
 40
0.0
 40
0.1764098497709599
 40
0.1764098497709599
 40
0.1764098497709599
 40
0.3523170903370737
 40
0.3523170903370737
 40
0.3523170903370737
 40
0.5378859856647082
 40
0.5378859856647082
 40
0.5378859856647082
 40
0.7483158054978046
 40
0.7483158054978046
 40
0.7483158054978046
 40
0.9965525029169808
 40
0.9965525029169808
 40
0.9965525029169808
 40
1.0
 40
1.0
 40
1.0
 40
1.0
 10
5.916079783100486
 20
-19.5
 30
0.0
 10
5.825213163383523
 20
-20.03757417186807
 30
0.0
 10
5.655916824471206
 20
-20.57525308018467
 30
0.0
 10
5.423117111225565
 20
-21.0670607312527
 30
0.0
 10
5.19063843450158
 20
-21.55819016749501
 30
0.0
 10
4.889488869597244
 20
-22.01666888724549
 30
0.0
 10
4.548031013796845
 20
-22.41349126708428
 30
0.0
 10
4.187550882593769
 20
-22.83242022455033
 30
0.0
 10
3.774265457020192
 20
-23.19306083269339
 30
0.0
 10
3.342847902439644
 20
-23.48250618676548
 30
0.0
 10
2.853791017585536
 20
-23.81062274506576
 30
0.0
 10
2.331048772186023
 20
-24.05512683108918
 30
0.0
 10
1.814915758132884
 20
-24.21892304467292
 30
0.0
 10
1.206475075462095
 20
-24.4120133475576
 30
0.0
 10
0.5944927534351336
 20
-24.49769551922464
 30
0.0
 10
0.0237317889632322
 20
-24.49995306667688
 30
0.0
 10
0.0158145772061289
 20
-24.49998438185548
 30
0.0
 10
0.0079106047742243
 20
-24.50000000000091
 30
0.0
 10
0.0000000000009095
 20
-24.50000000000091
 30
0.0
  0
SPLINE
  5
7C62C
330
7C85C
100
AcDbEntity
  8
Level 1
  6
Continuous
370
     0
100
AcDbSpline
210
0.0
220
0.0
230
1.0
 70
     8
 71
     3
 72
    11
 73
     7
 74
     0
 42
0.0000000001
 43
0.00000001
 40
0.0
 40
0.0
 40
0.0
 40
0.0
 40
0.6948005484415863
 40
0.6948005484415863
 40
0.6948005484415863
 40
1.0
 40
1.0
 40
1.0
 40
1.0
 10
5.916079783100486
 20
-17.5
 30
0.0
 10
5.993030815778184
 20
-17.95524844871352
 30
0.0
 10
6.017421119965547
 20
-18.42639265553817
 30
0.0
 10
5.98738595498844
 20
-18.88885656226785
 30
0.0
 10
5.974073947236775
 20
-19.09382707318764
 30
0.0
 10
5.950185563582181
 20
-19.2982274816045
 30
0.0
 10
5.916079783100486
 20
-19.5
 30
0.0
  0
SPLINE
  5
7C62F
330
7C85C
100
AcDbEntity
  8
Level 1
  6
Continuous
370
     0
100
AcDbSpline
210
0.0
220
0.0
230
1.0
 70
     8
 71
     3
 72
    11
 73
     7
 74
     0
 42
0.0000000001
 43
0.00000001
 40
0.0
 40
0.0
 40
0.0
 40
0.0
 40
0.9414272520824305
 40
0.9414272520824305
 40
0.9414272520824305
 40
1.0
 40
1.0
 40
1.0
 40
1.0
 10
-5.916079783098667
 20
-19.5
 30
0.0
 10
-6.020229994566307
 20
-18.88383903953036
 30
0.0
 10
-6.026725349087428
 20
-18.23575927989168
 30
0.0
 10
-5.934681496778467
 20
-17.61707557980071
 30
0.0
 10
-5.928864066054302
 20
-17.57797302731569
 30
0.0
 10
-5.922662369822319
 20
-17.53894310823353
 30
0.0
 10
-5.916079783098667
 20
-17.50000000000091
 30
0.0
  0
ARC
  5
7C632
330
7C85C
100
AcDbEntity
  8
Level 1
  6
Continuous
370
     0
100
AcDbCircle
 10
0.0
 20
-18.5
 30
0.0
 40
6.000000000000001
100
AcDbArc
 50
0.0
 51
360.0
  0
ARC
  5
7C633
330
7C85C
100
AcDbEntity
  8
Level 1
  6
Continuous
370
     0
100
AcDbCircle
 10
0.0
 20
18.5
 30
0.0
 40
6.0
210
0.0
220
0.0
230
-1.0
100
AcDbArc
 50
0.0
 51
360.0
  0
LINE
  5
7C634
330
7C85C
100
AcDbEntity
  8
Level 1
  6
Continuous
370
     0
100
AcDbLine
 10
7.0
 20
24.5
 30
0.0
 11
-7.0
 21
24.5
 31
0.0
  0
LINE
  5
7C635
330
7C85C
100
AcDbEntity
  8
Level 1
  6
Continuous
370
     0
100
AcDbLine
 10
12.0
 20
19.5
 30
0.0
 11
-12.0
 21
19.5
 31
0.0
  0
LINE
  5
7C636
330
7C85C
100
AcDbEntity
  8
Level 1
  6
Continuous
370
     0
100
AcDbLine
 10
12.0
 20
17.5
 30
0.0
 11
-12.0
 21
17.5
 31
0.0
  0
LINE
  5
7C637
330
7C85C
100
AcDbEntity
  8
Level 1
  6
Continuous
370
     0
100
AcDbLine
 10
7.0
 20
12.5
 30
0.0
 11
-7.0
 21
12.5
 31
0.0
  0
LINE
  5
7C638
330
7C85C
100
AcDbEntity
  8
Level 1
  6
Continuous
370
     0
100
AcDbLine
 10
6.5
 20
24.5
 30
0.0
 11
-6.5
 21
24.5
 31
0.0
  0
LINE
  5
7C639
330
7C85C
100
AcDbEntity
  8
Level 1
  6
Continuous
370
     0
100
AcDbLine
 10
6.5
 20
12.5
 30
0.0
 11
-6.5
 21
12.5
 31
0.0
  0
LINE
  5
7C63A
330
7C85C
100
AcDbEntity
  8
Level 1
  6
Continuous
370
     0
100
AcDbLine
 10
12.0
 20
-19.5
 30
0.0
 11
12.0
 21
-17.5
 31
0.0
  0
LINE
  5
7C63B
330
7C85C
100
AcDbEntity
  8
Level 1
  6
Continuous
370
     0
100
AcDbLine
 10
0.0
 20
-19.5
 30
0.0
 11
0.0
 21
-17.5
 31
0.0
  0
LINE
  5
7C63C
330
7C85C
100
AcDbEntity
  8
Level 1
  6
Continuous
370
     0
100
AcDbLine
 10
-12.0
 20
-19.5
 30
0.0
 11
-12.0
 21
-17.5
 31
0.0
  0
LINE
  5
7C63D
330
7C85C
100
AcDbEntity
  8
Level 1
  6
Continuous
370
     0
100
AcDbLine
 10
0.0
 20
-24.5
 30
0.0
 11
0.0
 21
-12.5
 31
0.0
  0
LINE
  5
7C63E
330
7C85C
100
AcDbEntity
  8
Level 1
  6
Continuous
370
     0
100
AcDbLine
 10
6.5
 20
-24.5
 30
0.0
 11
6.5
 21
-12.5
 31
0.0
  0
LINE
  5
7C63F
330
7C85C
100
AcDbEntity
  8
Level 1
  6
Continuous
370
     0
100
AcDbLine
 10
0.0
 20
-24.5
 30
0.0
 11
0.0
 21
-12.5
 31
0.0
  0
LINE
  5
7C640
330
7C85C
100
AcDbEntity
  8
Level 1
  6
Continuous
370
     0
100
AcDbLine
 10
-6.5
 20
-24.5
 30
0.0
 11
-6.5
 21
-12.5
 31
0.0
  0
ARC
  5
7C641
330
7C85C
100
AcDbEntity
  8
Level 1
  6
Continuous
370
     0
100
AcDbCircle
 10
-7.0
 20
-19.5
 30
0.0
 40
5.000000000000002
100
AcDbArc
 50
180.0
 51
270.0
  0
LINE
  5
7C642
330
7C85C
100
AcDbEntity
  8
Level 1
  6
Continuous
370
     0
100
AcDbLine
 10
0.0
 20
-24.5
 30
0.0
 11
0.0
 21
-19.5
 31
0.0
  0
ARC
  5
7C643
330
7C85C
100
AcDbEntity
  8
Level 1
  6
Continuous
370
     0
100
AcDbCircle
 10
-7.0
 20
-19.5
 30
0.0
 40
5.000000000000002
210
0.0
220
0.0
230
-1.0
100
AcDbArc
 50
180.0
 51
270.0
  0
ARC
  5
7C644
330
7C85C
100
AcDbEntity
  8
Level 1
  6
Continuous
370
     0
100
AcDbCircle
 10
-7.0
 20
-17.5
 30
0.0
 40
5.000000000000002
100
AcDbArc
 50
90.0
 51
180.0
  0
LINE
  5
7C645
330
7C85C
100
AcDbEntity
  8
Level 1
  6
Continuous
370
     0
100
AcDbLine
 10
0.0
 20
-17.5
 30
0.0
 11
0.0
 21
-12.5
 31
0.0
  0
ARC
  5
7C646
330
7C85C
100
AcDbEntity
  8
Level 1
  6
Continuous
370
     0
100
AcDbCircle
 10
-7.0
 20
-17.5
 30
0.0
 40
5.000000000000002
210
0.0
220
0.0
230
-1.0
100
AcDbArc
 50
90.0
 51
180.0
  0
POINT
  5
7C647
330
7C85C
100
AcDbEntity
  8
Level 1
  6
Continuous
370
     0
100
AcDbPoint
 10
6.0
 20
-18.5
 30
0.0
  0
POINT
  5
7C648
330
7C85C
100
AcDbEntity
  8
Level 1
  6
Continuous
370
     0
100
AcDbPoint
 10
0.0
 20
-24.5
 30
0.0
  0
POINT
  5
7C649
330
7C85C
100
AcDbEntity
  8
Level 1
  6
Continuous
370
     0
100
AcDbPoint
 10
-6.0
 20
-18.5
 30
0.0
  0
POINT
  5
7C64A
330
7C85C
100
AcDbEntity
  8
Level 1
  6
Continuous
370
     0
100
AcDbPoint
 10
0.0
 20
-12.5
 30
0.0
  0
LINE
  5
7C64B
330
7C85C
100
AcDbEntity
  8
Level 1
  6
Continuous
370
     0
100
AcDbLine
 10
-6.0
 20
-18.5
 30
0.0
 11
-6.0
 21
18.5
 31
0.0
  0
LINE
  5
7C64C
330
7C85C
100
AcDbEntity
  8
Level 1
  6
Continuous
370
     0
100
AcDbLine
 10
0.0
 20
-24.5
 30
0.0
 11
0.0
 21
24.5
 31
0.0
  0
LINE
  5
7C64D
330
7C85C
100
AcDbEntity
  8
Level 1
  6
Continuous
370
     0
100
AcDbLine
 10
6.0
 20
-18.5
 30
0.0
 11
6.0
 21
18.5
 31
0.0
  0
LINE
  5
7C64E
330
7C85C
100
AcDbEntity
  8
Level 1
  6
Continuous
370
     0
100
AcDbLine
 10
0.0
 20
-12.5
 30
0.0
 11
0.0
 21
12.5
 31
0.0
  0
LINE
  5
7C64F
330
7C85C
100
AcDbEntity
  8
Level 1
  6
Continuous
370
     0
100
AcDbLine
 10
6.0
 20
0.0
 30
0.0
 11
-6.0
 21
0.0
 31
0.0
  0
ARC
  5
7C650
330
7C85C
100
AcDbEntity
  8
Level 1
  6
Continuous
370
     0
100
AcDbCircle
 10
0.0
 20
18.5
 30
0.0
 40
6.000000000000002
100
AcDbArc
 50
0.0
 51
360.0
  0
POINT
  5
7C651
330
7C85C
100
AcDbEntity
  8
Level 1
  6
Continuous
370
     0
100
AcDbPoint
 10
6.0
 20
18.5
 30
0.0
  0
POINT
  5
7C652
330
7C85C
100
AcDbEntity
  8
Level 1
  6
Continuous
370
     0
100
AcDbPoint
 10
0.0
 20
24.5
 30
0.0
  0
POINT
  5
7C653
330
7C85C
100
AcDbEntity
  8
Level 1
  6
Continuous
370
     0
100
AcDbPoint
 10
-6.0
 20
18.5
 30
0.0
  0
POINT
  5
7C654
330
7C85C
100
AcDbEntity
  8
Level 1
  6
Continuous
370
     0
100
AcDbPoint
 10
0.0
 20
12.5
 30
0.0
  0
LINE
  5
7C655
330
7C85C
100
AcDbEntity
  8
Level 1
  6
Continuous
370
     0
100
AcDbLine
 10
12.0
 20
17.5
 30
0.0
 11
12.0
 21
19.5
 31
0.0
  0
LINE
  5
7C656
330
7C85C
100
AcDbEntity
  8
Level 1
  6
Continuous
370
     0
100
AcDbLine
 10
0.0
 20
17.5
 30
0.0
 11
0.0
 21
19.5
 31
0.0
  0
LINE
  5
7C657
330
7C85C
100
AcDbEntity
  8
Level 1
  6
Continuous
370
     0
100
AcDbLine
 10
-12.0
 20
17.5
 30
0.0
 11
-12.0
 21
19.5
 31
0.0
  0
LINE
  5
7C658
330
7C85C
100
AcDbEntity
  8
Level 1
  6
Continuous
370
     0
100
AcDbLine
 10
0.0
 20
12.5
 30
0.0
 11
0.0
 21
24.5
 31
0.0
  0
LINE
  5
7C659
330
7C85C
100
AcDbEntity
  8
Level 1
  6
Continuous
370
     0
100
AcDbLine
 10
6.5
 20
12.5
 30
0.0
 11
6.5
 21
24.5
 31
0.0
  0
LINE
  5
7C65A
330
7C85C
100
AcDbEntity
  8
Level 1
  6
Continuous
370
     0
100
AcDbLine
 10
0.0
 20
12.5
 30
0.0
 11
0.0
 21
24.5
 31
0.0
  0
LINE
  5
7C65B
330
7C85C
100
AcDbEntity
  8
Level 1
  6
Continuous
370
     0
100
AcDbLine
 10
-6.5
 20
12.5
 30
0.0
 11
-6.5
 21
24.5
 31
0.0
  0
ARC
  5
7C65C
330
7C85C
100
AcDbEntity
  8
Level 1
  6
Continuous
370
     0
100
AcDbCircle
 10
7.0
 20
17.5
 30
0.0
 40
5.000000000000002
100
AcDbArc
 50
270.0
 51
0.0
  0
LINE
  5
7C65D
330
7C85C
100
AcDbEntity
  8
Level 1
  6
Continuous
370
     0
100
AcDbLine
 10
0.0
 20
12.5
 30
0.0
 11
0.0
 21
17.5
 31
0.0
  0
ARC
  5
7C65E
330
7C85C
100
AcDbEntity
  8
Level 1
  6
Continuous
370
     0
100
AcDbCircle
 10
7.0
 20
17.5
 30
0.0
 40
5.000000000000002
210
0.0
220
0.0
230
-1.0
100
AcDbArc
 50
270.0
 51
0.0
  0
ARC
  5
7C65F
330
7C85C
100
AcDbEntity
  8
Level 1
  6
Continuous
370
     0
100
AcDbCircle
 10
7.0
 20
19.5
 30
0.0
 40
5.000000000000002
100
AcDbArc
 50
360.0
 51
90.0
  0
LINE
  5
7C660
330
7C85C
100
AcDbEntity
  8
Level 1
  6
Continuous
370
     0
100
AcDbLine
 10
0.0
 20
19.5
 30
0.0
 11
0.0
 21
24.5
 31
0.0
  0
ARC
  5
7C661
330
7C85C
100
AcDbEntity
  8
Level 1
  6
Continuous
370
     0
100
AcDbCircle
 10
7.0
 20
19.5
 30
0.0
 40
5.000000000000002
210
0.0
220
0.0
230
-1.0
100
AcDbArc
 50
360.0
 51
90.0
  0
ENDBLK
  5
7C85E
330
7C85C
100
AcDbEntity
  8
0
100
AcDbBlockEnd
  0
BLOCK
  5
7C860
330
7C85F
100
AcDbEntity
  8
0
100
AcDbBlockBegin
  2
Smart Solid_18
 70
     0
 71
     0
 10
0.0
 20
0.0
 30
0.0
  3
Smart Solid_18
  1

  0
LINE
  5
7C664
330
7C85F
100
AcDbEntity
  8
Level 1
  6
Continuous
370
     0
100
AcDbLine
 10
17.000215
 20
10.000269
 30
0.0
 11
22.000215
 21
15.000269
 31
0.0
  0
LINE
  5
7C665
330
7C85F
100
AcDbEntity
  8
Level 1
  6
Continuous
370
     0
100
AcDbLine
 10
22.000215
 20
-14.999731
 30
0.0
 11
17.000215
 21
-9.999731
 31
0.0
  0
LINE
  5
7C666
330
7C85F
100
AcDbEntity
  8
Level 1
  6
Continuous
370
     0
100
AcDbLine
 10
22.000215
 20
15.000269
 30
0.0
 11
22.000215
 21
-14.999731
 31
0.0
  0
LINE
  5
7C667
330
7C85F
100
AcDbEntity
  8
Level 1
  6
Continuous
370
     0
100
AcDbLine
 10
17.000215
 20
10.000269
 30
0.0
 11
17.000215
 21
-9.999731
 31
0.0
  0
LINE
  5
7C668
330
7C85F
100
AcDbEntity
  8
Level 1
  6
Continuous
370
     0
100
AcDbLine
 10
-16.999785
 20
10.000269
 30
0.0
 11
-21.999785
 21
15.000269
 31
0.0
  0
LINE
  5
7C669
330
7C85F
100
AcDbEntity
  8
Level 1
  6
Continuous
370
     0
100
AcDbLine
 10
-21.999785
 20
15.000269
 30
0.0
 11
22.000215
 21
15.000269
 31
0.0
  0
LINE
  5
7C66A
330
7C85F
100
AcDbEntity
  8
Level 1
  6
Continuous
370
     0
100
AcDbLine
 10
-16.999785
 20
10.000269
 30
0.0
 11
17.000215
 21
10.000269
 31
0.0
  0
LINE
  5
7C66B
330
7C85F
100
AcDbEntity
  8
Level 1
  6
Continuous
370
     0
100
AcDbLine
 10
-16.999785
 20
-9.999731
 30
0.0
 11
-21.999785
 21
-14.999731
 31
0.0
  0
LINE
  5
7C66C
330
7C85F
100
AcDbEntity
  8
Level 1
  6
Continuous
370
     0
100
AcDbLine
 10
-21.999785
 20
-14.999731
 30
0.0
 11
-21.999785
 21
15.000269
 31
0.0
  0
LINE
  5
7C66D
330
7C85F
100
AcDbEntity
  8
Level 1
  6
Continuous
370
     0
100
AcDbLine
 10
-16.999785
 20
-9.999731
 30
0.0
 11
-16.999785
 21
10.000269
 31
0.0
  0
LINE
  5
7C66E
330
7C85F
100
AcDbEntity
  8
Level 1
  6
Continuous
370
     0
100
AcDbLine
 10
22.000215
 20
-14.999731
 30
0.0
 11
-21.999785
 21
-14.999731
 31
0.0
  0
LINE
  5
7C66F
330
7C85F
100
AcDbEntity
  8
Level 1
  6
Continuous
370
     0
100
AcDbLine
 10
17.000215
 20
-9.999731
 30
0.0
 11
-16.999785
 21
-9.999731
 31
0.0
  0
LINE
  5
7C670
330
7C85F
100
AcDbEntity
  8
Level 1
  6
Continuous
370
     0
100
AcDbLine
 10
25.000215
 20
-59.999731
 30
0.0
 11
-24.999785
 21
-59.999731
 31
0.0
  0
LINE
  5
7C671
330
7C85F
100
AcDbEntity
  8
Level 1
  6
Continuous
370
     0
100
AcDbLine
 10
25.000215
 20
60.000269
 30
0.0
 11
-24.999785
 21
60.000269
 31
0.0
  0
LINE
  5
7C672
330
7C85F
100
AcDbEntity
  8
Level 1
  6
Continuous
370
     0
100
AcDbLine
 10
25.000215
 20
60.000269
 30
0.0
 11
-24.999785
 21
60.000269
 31
0.0
  0
LINE
  5
7C673
330
7C85F
100
AcDbEntity
  8
Level 1
  6
Continuous
370
     0
100
AcDbLine
 10
25.000215
 20
-59.999731
 30
0.0
 11
-24.999785
 21
-59.999731
 31
0.0
  0
LINE
  5
7C674
330
7C85F
100
AcDbEntity
  8
Level 1
  6
Continuous
370
     0
100
AcDbLine
 10
25.000215
 20
60.000269
 30
0.0
 11
25.000215
 21
-59.999731
 31
0.0
  0
POINT
  5
7C675
330
7C85F
100
AcDbEntity
  8
Level 1
  6
Continuous
370
     0
100
AcDbPoint
 10
25.000215
 20
60.000269
 30
0.0
  0
LINE
  5
7C676
330
7C85F
100
AcDbEntity
  8
Level 1
  6
Continuous
370
     0
100
AcDbLine
 10
25.000215
 20
-59.999731
 30
0.0
 11
25.000215
 21
60.000269
 31
0.0
  0
POINT
  5
7C677
330
7C85F
100
AcDbEntity
  8
Level 1
  6
Continuous
370
     0
100
AcDbPoint
 10
25.000215
 20
-59.999731
 30
0.0
  0
LINE
  5
7C678
330
7C85F
100
AcDbEntity
  8
Level 1
  6
Continuous
370
     0
100
AcDbLine
 10
-24.999785
 20
60.000269
 30
0.0
 11
-24.999785
 21
-59.999731
 31
0.0
  0
POINT
  5
7C679
330
7C85F
100
AcDbEntity
  8
Level 1
  6
Continuous
370
     0
100
AcDbPoint
 10
-24.999785
 20
60.000269
 30
0.0
  0
LINE
  5
7C67A
330
7C85F
100
AcDbEntity
  8
Level 1
  6
Continuous
370
     0
100
AcDbLine
 10
-24.999785
 20
-59.999731
 30
0.0
 11
-24.999785
 21
60.000269
 31
0.0
  0
POINT
  5
7C67B
330
7C85F
100
AcDbEntity
  8
Level 1
  6
Continuous
370
     0
100
AcDbPoint
 10
-24.999785
 20
-59.999731
 30
0.0
  0
LINE
  5
7C67C
330
7C85F
100
AcDbEntity
  8
Level 1
  6
Continuous
370
     0
100
AcDbLine
 10
0.000215
 20
-9.999731
 30
0.0
 11
-16.999785
 21
-9.999731
 31
0.0
  0
LINE
  5
7C67D
330
7C85F
100
AcDbEntity
  8
Level 1
  6
Continuous
370
     0
100
AcDbLine
 10
-16.999785
 20
-9.999731
 30
0.0
 11
-16.999785
 21
10.000269
 31
0.0
  0
LINE
  5
7C67E
330
7C85F
100
AcDbEntity
  8
Level 1
  6
Continuous
370
     0
100
AcDbLine
 10
0.000215
 20
10.000269
 30
0.0
 11
-16.999785
 21
10.000269
 31
0.0
  0
LINE
  5
7C67F
330
7C85F
100
AcDbEntity
  8
Level 1
  6
Continuous
370
     0
100
AcDbLine
 10
17.000215
 20
10.000269
 30
0.0
 11
0.000215
 21
10.000269
 31
0.0
  0
LINE
  5
7C680
330
7C85F
100
AcDbEntity
  8
Level 1
  6
Continuous
370
     0
100
AcDbLine
 10
17.000215
 20
10.000269
 30
0.0
 11
17.000215
 21
-9.999731
 31
0.0
  0
LINE
  5
7C681
330
7C85F
100
AcDbEntity
  8
Level 1
  6
Continuous
370
     0
100
AcDbLine
 10
17.000215
 20
-9.999731
 30
0.0
 11
0.000215
 21
-9.999731
 31
0.0
  0
LINE
  5
7C682
330
7C85F
100
AcDbEntity
  8
Level 1
  6
Continuous
370
     0
100
AcDbLine
 10
0.000215
 20
10.000269
 30
0.0
 11
0.000215
 21
-9.999731
 31
0.0
  0
POINT
  5
7C683
330
7C85F
100
AcDbEntity
  8
Level 1
  6
Continuous
370
     0
100
AcDbPoint
 10
-16.999785
 20
-9.999731
 30
0.0
  0
POINT
  5
7C684
330
7C85F
100
AcDbEntity
  8
Level 1
  6
Continuous
370
     0
100
AcDbPoint
 10
-16.999785
 20
10.000269
 30
0.0
  0
POINT
  5
7C685
330
7C85F
100
AcDbEntity
  8
Level 1
  6
Continuous
370
     0
100
AcDbPoint
 10
17.000215
 20
10.000269
 30
0.0
  0
POINT
  5
7C686
330
7C85F
100
AcDbEntity
  8
Level 1
  6
Continuous
370
     0
100
AcDbPoint
 10
17.000215
 20
-9.999731
 30
0.0
  0
LINE
  5
7C687
330
7C85F
100
AcDbEntity
  8
Level 1
  6
Continuous
370
     0
100
AcDbLine
 10
-5.999785
 20
10.000269
 30
0.0
 11
6.000215
 21
10.000269
 31
0.0
  0
LINE
  5
7C688
330
7C85F
100
AcDbEntity
  8
Level 1
  6
Continuous
370
     0
100
AcDbLine
 10
-5.999785
 20
-9.999731
 30
0.0
 11
6.000215
 21
-9.999731
 31
0.0
  0
POINT
  5
7C689
330
7C85F
100
AcDbEntity
  8
Level 1
  6
Continuous
370
     0
100
AcDbPoint
 10
-4.999785
 20
-45.999731
 30
0.0
  0
POINT
  5
7C68A
330
7C85F
100
AcDbEntity
  8
Level 1
  6
Continuous
370
     0
100
AcDbPoint
 10
-4.999785
 20
-35.999731
 30
0.0
  0
POINT
  5
7C68B
330
7C85F
100
AcDbEntity
  8
Level 1
  6
Continuous
370
     0
100
AcDbPoint
 10
5.000215
 20
-35.999731
 30
0.0
  0
POINT
  5
7C68C
330
7C85F
100
AcDbEntity
  8
Level 1
  6
Continuous
370
     0
100
AcDbPoint
 10
5.000215
 20
-45.999731
 30
0.0
  0
LINE
  5
7C68D
330
7C85F
100
AcDbEntity
  8
Level 1
  6
Continuous
370
     0
100
AcDbLine
 10
5.000215
 20
-35.999731
 30
0.0
 11
5.000215
 21
-45.999731
 31
0.0
  0
LINE
  5
7C68E
330
7C85F
100
AcDbEntity
  8
Level 1
  6
Continuous
370
     0
100
AcDbLine
 10
-4.999785
 20
-35.999731
 30
0.0
 11
5.000215
 21
-35.999731
 31
0.0
  0
LINE
  5
7C68F
330
7C85F
100
AcDbEntity
  8
Level 1
  6
Continuous
370
     0
100
AcDbLine
 10
-4.999785
 20
-45.999731
 30
0.0
 11
-4.999785
 21
-35.999731
 31
0.0
  0
LINE
  5
7C690
330
7C85F
100
AcDbEntity
  8
Level 1
  6
Continuous
370
     0
100
AcDbLine
 10
5.000215
 20
-45.999731
 30
0.0
 11
-4.999785
 21
-45.999731
 31
0.0
  0
LINE
  5
7C691
330
7C85F
100
AcDbEntity
  8
Level 1
  6
Continuous
370
     0
100
AcDbLine
 10
5.000215
 20
-35.999731
 30
0.0
 11
5.000215
 21
-45.999731
 31
0.0
  0
LINE
  5
7C692
330
7C85F
100
AcDbEntity
  8
Level 1
  6
Continuous
370
     0
100
AcDbLine
 10
-4.999785
 20
-35.999731
 30
0.0
 11
5.000215
 21
-35.999731
 31
0.0
  0
LINE
  5
7C693
330
7C85F
100
AcDbEntity
  8
Level 1
  6
Continuous
370
     0
100
AcDbLine
 10
-4.999785
 20
-45.999731
 30
0.0
 11
-4.999785
 21
-35.999731
 31
0.0
  0
LINE
  5
7C694
330
7C85F
100
AcDbEntity
  8
Level 1
  6
Continuous
370
     0
100
AcDbLine
 10
5.000215
 20
-45.999731
 30
0.0
 11
-4.999785
 21
-45.999731
 31
0.0
  0
POINT
  5
7C695
330
7C85F
100
AcDbEntity
  8
Level 1
  6
Continuous
370
     0
100
AcDbPoint
 10
-4.999785
 20
46.000269
 30
0.0
  0
POINT
  5
7C696
330
7C85F
100
AcDbEntity
  8
Level 1
  6
Continuous
370
     0
100
AcDbPoint
 10
-4.999785
 20
36.000269
 30
0.0
  0
POINT
  5
7C697
330
7C85F
100
AcDbEntity
  8
Level 1
  6
Continuous
370
     0
100
AcDbPoint
 10
5.000215
 20
36.000269
 30
0.0
  0
POINT
  5
7C698
330
7C85F
100
AcDbEntity
  8
Level 1
  6
Continuous
370
     0
100
AcDbPoint
 10
5.000215
 20
46.000269
 30
0.0
  0
LINE
  5
7C699
330
7C85F
100
AcDbEntity
  8
Level 1
  6
Continuous
370
     0
100
AcDbLine
 10
5.000215
 20
36.000269
 30
0.0
 11
5.000215
 21
46.000269
 31
0.0
  0
LINE
  5
7C69A
330
7C85F
100
AcDbEntity
  8
Level 1
  6
Continuous
370
     0
100
AcDbLine
 10
-4.999785
 20
36.000269
 30
0.0
 11
5.000215
 21
36.000269
 31
0.0
  0
LINE
  5
7C69B
330
7C85F
100
AcDbEntity
  8
Level 1
  6
Continuous
370
     0
100
AcDbLine
 10
-4.999785
 20
46.000269
 30
0.0
 11
-4.999785
 21
36.000269
 31
0.0
  0
LINE
  5
7C69C
330
7C85F
100
AcDbEntity
  8
Level 1
  6
Continuous
370
     0
100
AcDbLine
 10
5.000215
 20
46.000269
 30
0.0
 11
-4.999785
 21
46.000269
 31
0.0
  0
LINE
  5
7C69D
330
7C85F
100
AcDbEntity
  8
Level 1
  6
Continuous
370
     0
100
AcDbLine
 10
5.000215
 20
36.000269
 30
0.0
 11
5.000215
 21
46.000269
 31
0.0
  0
LINE
  5
7C69E
330
7C85F
100
AcDbEntity
  8
Level 1
  6
Continuous
370
     0
100
AcDbLine
 10
-4.999785
 20
36.000269
 30
0.0
 11
5.000215
 21
36.000269
 31
0.0
  0
LINE
  5
7C69F
330
7C85F
100
AcDbEntity
  8
Level 1
  6
Continuous
370
     0
100
AcDbLine
 10
-4.999785
 20
46.000269
 30
0.0
 11
-4.999785
 21
36.000269
 31
0.0
  0
LINE
  5
7C6A0
330
7C85F
100
AcDbEntity
  8
Level 1
  6
Continuous
370
     0
100
AcDbLine
 10
5.000215
 20
46.000269
 30
0.0
 11
-4.999785
 21
46.000269
 31
0.0
  0
LINE
  5
7C6A1
330
7C85F
100
AcDbEntity
  8
Level 1
  6
Continuous
370
     0
100
AcDbLine
 10
0.000215
 20
-9.999731
 30
0.0
 11
0.000215
 21
10.000269
 31
0.0
  0
LINE
  5
7C6A2
330
7C85F
100
AcDbEntity
  8
Level 1
  6
Continuous
370
     0
100
AcDbLine
 10
-5.999785
 20
-9.999731
 30
0.0
 11
-5.999785
 21
10.000269
 31
0.0
  0
LINE
  5
7C6A3
330
7C85F
100
AcDbEntity
  8
Level 1
  6
Continuous
370
     0
100
AcDbLine
 10
0.000215
 20
-9.999731
 30
0.0
 11
0.000215
 21
10.000269
 31
0.0
  0
LINE
  5
7C6A4
330
7C85F
100
AcDbEntity
  8
Level 1
  6
Continuous
370
     0
100
AcDbLine
 10
6.000215
 20
-9.999731
 30
0.0
 11
6.000215
 21
10.000269
 31
0.0
  0
ENDBLK
  5
7C861
330
7C85F
100
AcDbEntity
  8
0
100
AcDbBlockEnd
  0
BLOCK
  5
7C863
330
7C862
100
AcDbEntity
  8
0
100
AcDbBlockBegin
  2
Smart Solid_19
 70
     0
 71
     0
 10
0.0
 20
0.0
 30
0.0
  3
Smart Solid_19
  1

  0
SPLINE
  5
7C6A7
330
7C862
100
AcDbEntity
  8
Level 1
  6
Continuous
370
     0
100
AcDbSpline
210
0.0
220
0.0
230
1.0
 70
     8
 71
     3
 72
    10
 73
     6
 74
     0
 42
0.0000000001
 43
0.00000001
 40
0.0
 40
0.0
 40
0.0
 40
0.0
 40
0.5
 40
0.5
 40
1.0
 40
1.0
 40
1.0
 40
1.0
 10
0.0
 20
12.5
 30
0.0
 10
1.144234616962422
 20
12.5
 30
0.0
 10
2.459741923757065
 20
12.84456631853982
 30
0.0
 10
4.741551363973031
 20
14.55640378338467
 30
0.0
 10
5.653533143084587
 20
15.9467531308851
 30
0.0
 10
5.916079783099576
 20
17.5
 30
0.0
  0
SPLINE
  5
7C6AA
330
7C862
100
AcDbEntity
  8
Level 1
  6
Continuous
370
     0
100
AcDbSpline
210
0.0
220
0.0
230
1.0
 70
     8
 71
     3
 72
    23
 73
    19
 74
     0
 42
0.0000000001
 43
0.00000001
 40
0.0
 40
0.0
 40
0.0
 40
0.0
 40
0.1764098497766841
 40
0.1764098497766841
 40
0.1764098497766841
 40
0.3523170903485055
 40
0.3523170903485055
 40
0.3523170903485055
 40
0.5378859856821643
 40
0.5378859856821643
 40
0.5378859856821643
 40
0.748315805522099
 40
0.748315805522099
 40
0.748315805522099
 40
0.9965525029493831
 40
0.9965525029493831
 40
0.9965525029493831
 40
1.0
 40
1.0
 40
1.0
 40
1.0
 10
-5.916079783099576
 20
17.5
 30
0.0
 10
-5.825213163382159
 20
16.96242582813284
 30
0.0
 10
-5.655916824470296
 20
16.42474691981624
 30
0.0
 10
-5.423117111224656
 20
15.93293926874731
 30
0.0
 10
-5.190638434500215
 20
15.44180983250408
 30
0.0
 10
-4.889488869596335
 20
14.9833311127536
 30
0.0
 10
-4.548031013795935
 20
14.58650873291481
 30
0.0
 10
-4.187550882592859
 20
14.16757977544876
 30
0.0
 10
-3.774265457019283
 20
13.80693916730797
 30
0.0
 10
-3.342847902438734
 20
13.51749381323361
 30
0.0
 10
-2.853791017584626
 20
13.18937725493333
 30
0.0
 10
-2.331048772184204
 20
12.94487316891173
 30
0.0
 10
-1.814915758131974
 20
12.78107695532799
 30
0.0
 10
-1.206475075458911
 20
12.58798665244331
 30
0.0
 10
-0.5944927542946061
 20
12.50230448077446
 30
0.0
 10
-0.023731788925943
 20
12.50004693332312
 30
0.0
 10
-0.0158145771547424
 20
12.50001561814543
 30
0.0
 10
-0.0079106053158284
 20
12.5
 30
0.0
 10
0.0
 20
12.5
 30
0.0
  0
SPLINE
  5
7C6AD
330
7C862
100
AcDbEntity
  8
Level 1
  6
Continuous
370
     0
100
AcDbSpline
210
0.0
220
0.0
230
1.0
 70
     8
 71
     3
 72
    11
 73
     7
 74
     0
 42
0.0000000001
 43
0.00000001
 40
0.0
 40
0.0
 40
0.0
 40
0.0
 40
0.6948005484414143
 40
0.6948005484414143
 40
0.6948005484414143
 40
1.0
 40
1.0
 40
1.0
 40
1.0
 10
5.916079783099576
 20
17.5
 30
0.0
 10
5.993030815777274
 20
17.95524844871261
 30
0.0
 10
6.017421119965547
 20
18.42639265553862
 30
0.0
 10
5.987385954987531
 20
18.88885656226785
 30
0.0
 10
5.974073947235866
 20
19.09382707318673
 30
0.0
 10
5.950185563581272
 20
19.29822748160359
 30
0.0
 10
5.916079783099576
 20
19.5
 30
0.0
  0
SPLINE
  5
7C6B0
330
7C862
100
AcDbEntity
  8
Level 1
  6
Continuous
370
     0
100
AcDbSpline
210
0.0
220
0.0
230
1.0
 70
     8
 71
     3
 72
    11
 73
     7
 74
     0
 42
0.0000000001
 43
0.00000001
 40
0.0
 40
0.0
 40
0.0
 40
0.0
 40
0.9414272520826061
 40
0.9414272520826061
 40
0.9414272520826061
 40
1.0
 40
1.0
 40
1.0
 40
1.0
 10
-5.916079783099576
 20
19.5
 30
0.0
 10
-6.020229994567217
 20
18.88383903953081
 30
0.0
 10
-6.026725349088338
 20
18.23575927989168
 30
0.0
 10
-5.934681496779376
 20
17.6170755797998
 30
0.0
 10
-5.928864066054757
 20
17.57797302731524
 30
0.0
 10
-5.922662369823229
 20
17.53894310823262
 30
0.0
 10
-5.916079783099576
 20
17.5
 30
0.0
  0
SPLINE
  5
7C6B3
330
7C862
100
AcDbEntity
  8
Level 1
  6
Continuous
370
     0
100
AcDbSpline
210
0.0
220
0.0
230
1.0
 70
     8
 71
     3
 72
    10
 73
     6
 74
     0
 42
0.0000000001
 43
0.00000001
 40
0.0
 40
0.0
 40
0.0
 40
0.0
 40
0.5
 40
0.5
 40
1.0
 40
1.0
 40
1.0
 40
1.0
 10
0.0
 20
24.5
 30
0.0
 10
-1.144234616834638
 20
24.5
 30
0.0
 10
-2.45974192375661
 20
24.15543368145836
 30
0.0
 10
-4.741551363956205
 20
22.44359621662852
 30
0.0
 10
-5.653533143084587
 20
21.05324686911717
 30
0.0
 10
-5.916079783099576
 20
19.5
 30
0.0
  0
SPLINE
  5
7C6B6
330
7C862
100
AcDbEntity
  8
Level 1
  6
Continuous
370
     0
100
AcDbSpline
210
0.0
220
0.0
230
1.0
 70
     8
 71
     3
 72
    23
 73
    19
 74
     0
 42
0.0000000001
 43
0.00000001
 40
0.0
 40
0.0
 40
0.0
 40
0.0
 40
0.1764098497766914
 40
0.1764098497766914
 40
0.1764098497766914
 40
0.3523170903485184
 40
0.3523170903485184
 40
0.3523170903485184
 40
0.537885985682182
 40
0.537885985682182
 40
0.537885985682182
 40
0.74831580552212
 40
0.74831580552212
 40
0.74831580552212
 40
0.9965525029493837
 40
0.9965525029493837
 40
0.9965525029493837
 40
1.0
 40
1.0
 40
1.0
 40
1.0
 10
5.916079783099576
 20
19.5
 30
0.0
 10
5.825213163382614
 20
20.03757417186716
 30
0.0
 10
5.655916824470296
 20
20.57525308018376
 30
0.0
 10
5.423117111224656
 20
21.0670607312527
 30
0.0
 10
5.19063843450067
 20
21.5581901674941
 30
0.0
 10
4.889488869596335
 20
22.0166688872464
 30
0.0
 10
4.54803101379639
 20
22.41349126708337
 30
0.0
 10
4.187550882592859
 20
22.83242022454942
 30
0.0
 10
3.774265457018373
 20
23.19306083269248
 30
0.0
 10
3.342847902437825
 20
23.48250618676639
 30
0.0
 10
2.853791017584626
 20
23.8106227450653
 30
0.0
 10
2.331048772184204
 20
24.05512683108827
 30
0.0
 10
1.814915758131065
 20
24.21892304467247
 30
0.0
 10
1.206475075459366
 20
24.41201334755669
 30
0.0
 10
0.5944927543532685
 20
24.49769551922373
 30
0.0
 10
0.023731788922305
 20
24.49995306667688
 30
0.0
 10
0.0158145771511045
 20
24.49998438185457
 30
0.0
 10
0.0079106053153737
 20
24.5
 30
0.0
 10
0.0
 20
24.5
 30
0.0
  0
SPLINE
  5
7C6B9
330
7C862
100
AcDbEntity
  8
Level 1
  6
Continuous
370
     0
100
AcDbSpline
210
0.0
220
0.0
230
1.0
 70
     8
 71
     3
 72
    10
 73
     6
 74
     0
 42
0.0000000001
 43
0.00000001
 40
0.0
 40
0.0
 40
0.0
 40
0.0
 40
0.5
 40
0.5
 40
1.0
 40
1.0
 40
1.0
 40
1.0
 10
0.0
 20
-12.5
 30
0.0
 10
1.144234614891957
 20
-12.5
 30
0.0
 10
2.459741923743877
 20
-12.84456631858075
 30
0.0
 10
4.74155136371246
 20
-14.55640378313865
 30
0.0
 10
5.653533143076402
 20
-15.94675313083644
 30
0.0
 10
5.916079783099576
 20
-17.5
 30
0.0
  0
SPLINE
  5
7C6BC
330
7C862
100
AcDbEntity
  8
Level 1
  6
Continuous
370
     0
100
AcDbSpline
210
0.0
220
0.0
230
1.0
 70
     8
 71
     3
 72
    23
 73
    19
 74
     0
 42
0.0000000001
 43
0.00000001
 40
0.0
 40
0.0
 40
0.0
 40
0.0
 40
0.1764098497709442
 40
0.1764098497709442
 40
0.1764098497709442
 40
0.3523170903370414
 40
0.3523170903370414
 40
0.3523170903370414
 40
0.5378859856646627
 40
0.5378859856646627
 40
0.5378859856646627
 40
0.7483158054977563
 40
0.7483158054977563
 40
0.7483158054977563
 40
0.9965525029169888
 40
0.9965525029169888
 40
0.9965525029169888
 40
1.0
 40
1.0
 40
1.0
 40
1.0
 10
-5.916079783099576
 20
-17.5
 30
0.0
 10
-5.825213163382159
 20
-16.96242582813284
 30
0.0
 10
-5.655916824470296
 20
-16.42474691981624
 30
0.0
 10
-5.423117111224656
 20
-15.93293926874731
 30
0.0
 10
-5.190638434500215
 20
-15.4418098325059
 30
0.0
 10
-4.889488869596335
 20
-14.9833311127536
 30
0.0
 10
-4.548031013795935
 20
-14.58650873291481
 30
0.0
 10
-4.187550882592859
 20
-14.16757977545058
 30
0.0
 10
-3.774265457018373
 20
-13.80693916730752
 30
0.0
 10
-3.34284790243737
 20
-13.51749381323361
 30
0.0
 10
-2.853791017584626
 20
-13.1893772549347
 30
0.0
 10
-2.331048772184204
 20
-12.94487316891173
 30
0.0
 10
-1.814915758131065
 20
-12.78107695532754
 30
0.0
 10
-1.206475075457092
 20
-12.58798665244331
 30
0.0
 10
-0.594492755216379
 20
-12.50230448077627
 30
0.0
 10
-0.023731788884561
 20
-12.50004693332312
 30
0.0
 10
-0.015814577101537
 20
-12.50001561814543
 30
0.0
 10
-0.0079106047469395
 20
-12.5
 30
0.0
 10
0.0
 20
-12.5
 30
0.0
  0
LINE
  5
7C6BF
330
7C862
100
AcDbEntity
  8
Level 1
  6
Continuous
370
     0
100
AcDbLine
 10
-12.0
 20
-17.5
 30
0.0
 11
12.0
 21
-17.5
 31
0.0
  0
LINE
  5
7C6C0
330
7C862
100
AcDbEntity
  8
Level 1
  6
Continuous
370
     0
100
AcDbLine
 10
-7.0
 20
-12.5
 30
0.0
 11
7.0
 21
-12.5
 31
0.0
  0
LINE
  5
7C6C1
330
7C862
100
AcDbEntity
  8
Level 1
  6
Continuous
370
     0
100
AcDbLine
 10
-7.0
 20
-24.5
 30
0.0
 11
7.0
 21
-24.5
 31
0.0
  0
LINE
  5
7C6C2
330
7C862
100
AcDbEntity
  8
Level 1
  6
Continuous
370
     0
100
AcDbLine
 10
-12.0
 20
-19.5
 30
0.0
 11
12.0
 21
-19.5
 31
0.0
  0
LINE
  5
7C6C3
330
7C862
100
AcDbEntity
  8
Level 1
  6
Continuous
370
     0
100
AcDbLine
 10
6.5
 20
-24.5
 30
0.0
 11
-6.5
 21
-24.5
 31
0.0
  0
LINE
  5
7C6C4
330
7C862
100
AcDbEntity
  8
Level 1
  6
Continuous
370
     0
100
AcDbLine
 10
-6.5
 20
-12.5
 30
0.0
 11
6.5
 21
-12.5
 31
0.0
  0
SPLINE
  5
7C6C5
330
7C862
100
AcDbEntity
  8
Level 1
  6
Continuous
370
     0
100
AcDbSpline
210
0.0
220
0.0
230
1.0
 70
     8
 71
     3
 72
    10
 73
     6
 74
     0
 42
0.0000000001
 43
0.00000001
 40
0.0
 40
0.0
 40
0.0
 40
0.0
 40
0.5
 40
0.5
 40
1.0
 40
1.0
 40
1.0
 40
1.0
 10
0.0
 20
-24.5
 30
0.0
 10
-1.1442346189001
 20
-24.5
 30
0.0
 10
-2.459741923769798
 20
-24.15543368149929
 30
0.0
 10
-4.741551364216775
 20
-22.44359621638432
 30
0.0
 10
-5.653533143091863
 20
-21.05324686906852
 30
0.0
 10
-5.916079783099576
 20
-19.5
 30
0.0
  0
SPLINE
  5
7C6C8
330
7C862
100
AcDbEntity
  8
Level 1
  6
Continuous
370
     0
100
AcDbSpline
210
0.0
220
0.0
230
1.0
 70
     8
 71
     3
 72
    23
 73
    19
 74
     0
 42
0.0000000001
 43
0.00000001
 40
0.0
 40
0.0
 40
0.0
 40
0.0
 40
0.1764098497709599
 40
0.1764098497709599
 40
0.1764098497709599
 40
0.3523170903370737
 40
0.3523170903370737
 40
0.3523170903370737
 40
0.5378859856647082
 40
0.5378859856647082
 40
0.5378859856647082
 40
0.7483158054978046
 40
0.7483158054978046
 40
0.7483158054978046
 40
0.9965525029169808
 40
0.9965525029169808
 40
0.9965525029169808
 40
1.0
 40
1.0
 40
1.0
 40
1.0
 10
5.916079783099576
 20
-19.5
 30
0.0
 10
5.825213163382614
 20
-20.03757417186716
 30
0.0
 10
5.655916824470296
 20
-20.57525308018376
 30
0.0
 10
5.423117111224656
 20
-21.0670607312527
 30
0.0
 10
5.19063843450067
 20
-21.5581901674941
 30
0.0
 10
4.889488869596335
 20
-22.0166688872464
 30
0.0
 10
4.54803101379639
 20
-22.41349126708519
 30
0.0
 10
4.187550882592859
 20
-22.83242022455124
 30
0.0
 10
3.774265457019283
 20
-23.19306083269203
 30
0.0
 10
3.342847902438734
 20
-23.48250618676639
 30
0.0
 10
2.853791017584626
 20
-23.81062274506485
 30
0.0
 10
2.331048772184204
 20
-24.05512683108827
 30
0.0
 10
1.814915758131974
 20
-24.21892304467201
 30
0.0
 10
1.206475075461185
 20
-24.41201334755669
 30
0.0
 10
0.5944927534333147
 20
-24.49769551922555
 30
0.0
 10
0.0237317889632322
 20
-24.49995306667688
 30
0.0
 10
0.0158145772052194
 20
-24.49998438185457
 30
0.0
 10
0.0079106047733148
 20
-24.5
 30
0.0
 10
0.0
 20
-24.5
 30
0.0
  0
SPLINE
  5
7C6CB
330
7C862
100
AcDbEntity
  8
Level 1
  6
Continuous
370
     0
100
AcDbSpline
210
0.0
220
0.0
230
1.0
 70
     8
 71
     3
 72
    11
 73
     7
 74
     0
 42
0.0000000001
 43
0.00000001
 40
0.0
 40
0.0
 40
0.0
 40
0.0
 40
0.6948005484415863
 40
0.6948005484415863
 40
0.6948005484415863
 40
1.0
 40
1.0
 40
1.0
 40
1.0
 10
5.916079783099576
 20
-17.5
 30
0.0
 10
5.993030815777274
 20
-17.95524844871261
 30
0.0
 10
6.017421119965547
 20
-18.42639265553817
 30
0.0
 10
5.987385954987531
 20
-18.88885656226785
 30
0.0
 10
5.974073947235866
 20
-19.09382707318673
 30
0.0
 10
5.950185563581272
 20
-19.29822748160541
 30
0.0
 10
5.916079783099576
 20
-19.5
 30
0.0
  0
SPLINE
  5
7C6CE
330
7C862
100
AcDbEntity
  8
Level 1
  6
Continuous
370
     0
100
AcDbSpline
210
0.0
220
0.0
230
1.0
 70
     8
 71
     3
 72
    11
 73
     7
 74
     0
 42
0.0000000001
 43
0.00000001
 40
0.0
 40
0.0
 40
0.0
 40
0.0
 40
0.9414272520824305
 40
0.9414272520824305
 40
0.9414272520824305
 40
1.0
 40
1.0
 40
1.0
 40
1.0
 10
-5.916079783099576
 20
-19.5
 30
0.0
 10
-6.020229994567217
 20
-18.88383903953036
 30
0.0
 10
-6.026725349088338
 20
-18.23575927989168
 30
0.0
 10
-5.934681496779376
 20
-17.6170755797998
 30
0.0
 10
-5.928864066054757
 20
-17.5779730273166
 30
0.0
 10
-5.922662369823229
 20
-17.53894310823443
 30
0.0
 10
-5.916079783099576
 20
-17.5
 30
0.0
  0
ARC
  5
7C6D1
330
7C862
100
AcDbEntity
  8
Level 1
  6
Continuous
370
     0
100
AcDbCircle
 10
0.0
 20
-18.5
 30
0.0
 40
6.000000000000001
100
AcDbArc
 50
0.0
 51
360.0
  0
ARC
  5
7C6D2
330
7C862
100
AcDbEntity
  8
Level 1
  6
Continuous
370
     0
100
AcDbCircle
 10
0.0
 20
18.5
 30
0.0
 40
6.0
210
0.0
220
0.0
230
-1.0
100
AcDbArc
 50
0.0
 51
360.0
  0
LINE
  5
7C6D3
330
7C862
100
AcDbEntity
  8
Level 1
  6
Continuous
370
     0
100
AcDbLine
 10
7.0
 20
24.5
 30
0.0
 11
-7.0
 21
24.5
 31
0.0
  0
LINE
  5
7C6D4
330
7C862
100
AcDbEntity
  8
Level 1
  6
Continuous
370
     0
100
AcDbLine
 10
12.0
 20
19.5
 30
0.0
 11
-12.0
 21
19.5
 31
0.0
  0
LINE
  5
7C6D5
330
7C862
100
AcDbEntity
  8
Level 1
  6
Continuous
370
     0
100
AcDbLine
 10
12.0
 20
17.5
 30
0.0
 11
-12.0
 21
17.5
 31
0.0
  0
LINE
  5
7C6D6
330
7C862
100
AcDbEntity
  8
Level 1
  6
Continuous
370
     0
100
AcDbLine
 10
7.0
 20
12.5
 30
0.0
 11
-7.0
 21
12.5
 31
0.0
  0
LINE
  5
7C6D7
330
7C862
100
AcDbEntity
  8
Level 1
  6
Continuous
370
     0
100
AcDbLine
 10
6.5
 20
24.5
 30
0.0
 11
-6.5
 21
24.5
 31
0.0
  0
LINE
  5
7C6D8
330
7C862
100
AcDbEntity
  8
Level 1
  6
Continuous
370
     0
100
AcDbLine
 10
6.5
 20
12.5
 30
0.0
 11
-6.5
 21
12.5
 31
0.0
  0
LINE
  5
7C6D9
330
7C862
100
AcDbEntity
  8
Level 1
  6
Continuous
370
     0
100
AcDbLine
 10
12.0
 20
-19.5
 30
0.0
 11
12.0
 21
-17.5
 31
0.0
  0
LINE
  5
7C6DA
330
7C862
100
AcDbEntity
  8
Level 1
  6
Continuous
370
     0
100
AcDbLine
 10
0.0
 20
-19.5
 30
0.0
 11
0.0
 21
-17.5
 31
0.0
  0
LINE
  5
7C6DB
330
7C862
100
AcDbEntity
  8
Level 1
  6
Continuous
370
     0
100
AcDbLine
 10
-12.0
 20
-19.5
 30
0.0
 11
-12.0
 21
-17.5
 31
0.0
  0
LINE
  5
7C6DC
330
7C862
100
AcDbEntity
  8
Level 1
  6
Continuous
370
     0
100
AcDbLine
 10
0.0
 20
-24.5
 30
0.0
 11
0.0
 21
-12.5
 31
0.0
  0
LINE
  5
7C6DD
330
7C862
100
AcDbEntity
  8
Level 1
  6
Continuous
370
     0
100
AcDbLine
 10
6.5
 20
-24.5
 30
0.0
 11
6.5
 21
-12.5
 31
0.0
  0
LINE
  5
7C6DE
330
7C862
100
AcDbEntity
  8
Level 1
  6
Continuous
370
     0
100
AcDbLine
 10
0.0
 20
-24.5
 30
0.0
 11
0.0
 21
-12.5
 31
0.0
  0
LINE
  5
7C6DF
330
7C862
100
AcDbEntity
  8
Level 1
  6
Continuous
370
     0
100
AcDbLine
 10
-6.5
 20
-24.5
 30
0.0
 11
-6.5
 21
-12.5
 31
0.0
  0
ARC
  5
7C6E0
330
7C862
100
AcDbEntity
  8
Level 1
  6
Continuous
370
     0
100
AcDbCircle
 10
-7.0
 20
-19.5
 30
0.0
 40
5.000000000000002
100
AcDbArc
 50
180.0
 51
270.0
  0
LINE
  5
7C6E1
330
7C862
100
AcDbEntity
  8
Level 1
  6
Continuous
370
     0
100
AcDbLine
 10
0.0
 20
-24.5
 30
0.0
 11
0.0
 21
-19.5
 31
0.0
  0
ARC
  5
7C6E2
330
7C862
100
AcDbEntity
  8
Level 1
  6
Continuous
370
     0
100
AcDbCircle
 10
-7.0
 20
-19.5
 30
0.0
 40
5.000000000000002
210
0.0
220
0.0
230
-1.0
100
AcDbArc
 50
180.0
 51
270.0
  0
ARC
  5
7C6E3
330
7C862
100
AcDbEntity
  8
Level 1
  6
Continuous
370
     0
100
AcDbCircle
 10
-7.0
 20
-17.5
 30
0.0
 40
5.000000000000002
100
AcDbArc
 50
90.0
 51
180.0
  0
LINE
  5
7C6E4
330
7C862
100
AcDbEntity
  8
Level 1
  6
Continuous
370
     0
100
AcDbLine
 10
0.0
 20
-17.5
 30
0.0
 11
0.0
 21
-12.5
 31
0.0
  0
ARC
  5
7C6E5
330
7C862
100
AcDbEntity
  8
Level 1
  6
Continuous
370
     0
100
AcDbCircle
 10
-7.0
 20
-17.5
 30
0.0
 40
5.000000000000002
210
0.0
220
0.0
230
-1.0
100
AcDbArc
 50
90.0
 51
180.0
  0
POINT
  5
7C6E6
330
7C862
100
AcDbEntity
  8
Level 1
  6
Continuous
370
     0
100
AcDbPoint
 10
6.0
 20
-18.5
 30
0.0
  0
POINT
  5
7C6E7
330
7C862
100
AcDbEntity
  8
Level 1
  6
Continuous
370
     0
100
AcDbPoint
 10
0.0
 20
-24.5
 30
0.0
  0
POINT
  5
7C6E8
330
7C862
100
AcDbEntity
  8
Level 1
  6
Continuous
370
     0
100
AcDbPoint
 10
-6.0
 20
-18.5
 30
0.0
  0
POINT
  5
7C6E9
330
7C862
100
AcDbEntity
  8
Level 1
  6
Continuous
370
     0
100
AcDbPoint
 10
0.0
 20
-12.5
 30
0.0
  0
LINE
  5
7C6EA
330
7C862
100
AcDbEntity
  8
Level 1
  6
Continuous
370
     0
100
AcDbLine
 10
-6.0
 20
-18.5
 30
0.0
 11
-6.0
 21
18.5
 31
0.0
  0
LINE
  5
7C6EB
330
7C862
100
AcDbEntity
  8
Level 1
  6
Continuous
370
     0
100
AcDbLine
 10
0.0
 20
-24.5
 30
0.0
 11
0.0
 21
24.5
 31
0.0
  0
LINE
  5
7C6EC
330
7C862
100
AcDbEntity
  8
Level 1
  6
Continuous
370
     0
100
AcDbLine
 10
6.0
 20
-18.5
 30
0.0
 11
6.0
 21
18.5
 31
0.0
  0
LINE
  5
7C6ED
330
7C862
100
AcDbEntity
  8
Level 1
  6
Continuous
370
     0
100
AcDbLine
 10
0.0
 20
-12.5
 30
0.0
 11
0.0
 21
12.5
 31
0.0
  0
LINE
  5
7C6EE
330
7C862
100
AcDbEntity
  8
Level 1
  6
Continuous
370
     0
100
AcDbLine
 10
6.0
 20
0.0
 30
0.0
 11
-6.0
 21
0.0
 31
0.0
  0
ARC
  5
7C6EF
330
7C862
100
AcDbEntity
  8
Level 1
  6
Continuous
370
     0
100
AcDbCircle
 10
0.0
 20
18.5
 30
0.0
 40
6.000000000000002
100
AcDbArc
 50
0.0
 51
360.0
  0
POINT
  5
7C6F0
330
7C862
100
AcDbEntity
  8
Level 1
  6
Continuous
370
     0
100
AcDbPoint
 10
6.0
 20
18.5
 30
0.0
  0
POINT
  5
7C6F1
330
7C862
100
AcDbEntity
  8
Level 1
  6
Continuous
370
     0
100
AcDbPoint
 10
0.0
 20
24.5
 30
0.0
  0
POINT
  5
7C6F2
330
7C862
100
AcDbEntity
  8
Level 1
  6
Continuous
370
     0
100
AcDbPoint
 10
-6.0
 20
18.5
 30
0.0
  0
POINT
  5
7C6F3
330
7C862
100
AcDbEntity
  8
Level 1
  6
Continuous
370
     0
100
AcDbPoint
 10
0.0
 20
12.5
 30
0.0
  0
LINE
  5
7C6F4
330
7C862
100
AcDbEntity
  8
Level 1
  6
Continuous
370
     0
100
AcDbLine
 10
12.0
 20
17.5
 30
0.0
 11
12.0
 21
19.5
 31
0.0
  0
LINE
  5
7C6F5
330
7C862
100
AcDbEntity
  8
Level 1
  6
Continuous
370
     0
100
AcDbLine
 10
0.0
 20
17.5
 30
0.0
 11
0.0
 21
19.5
 31
0.0
  0
LINE
  5
7C6F6
330
7C862
100
AcDbEntity
  8
Level 1
  6
Continuous
370
     0
100
AcDbLine
 10
-12.0
 20
17.5
 30
0.0
 11
-12.0
 21
19.5
 31
0.0
  0
LINE
  5
7C6F7
330
7C862
100
AcDbEntity
  8
Level 1
  6
Continuous
370
     0
100
AcDbLine
 10
0.0
 20
12.5
 30
0.0
 11
0.0
 21
24.5
 31
0.0
  0
LINE
  5
7C6F8
330
7C862
100
AcDbEntity
  8
Level 1
  6
Continuous
370
     0
100
AcDbLine
 10
6.5
 20
12.5
 30
0.0
 11
6.5
 21
24.5
 31
0.0
  0
LINE
  5
7C6F9
330
7C862
100
AcDbEntity
  8
Level 1
  6
Continuous
370
     0
100
AcDbLine
 10
0.0
 20
12.5
 30
0.0
 11
0.0
 21
24.5
 31
0.0
  0
LINE
  5
7C6FA
330
7C862
100
AcDbEntity
  8
Level 1
  6
Continuous
370
     0
100
AcDbLine
 10
-6.5
 20
12.5
 30
0.0
 11
-6.5
 21
24.5
 31
0.0
  0
ARC
  5
7C6FB
330
7C862
100
AcDbEntity
  8
Level 1
  6
Continuous
370
     0
100
AcDbCircle
 10
7.0
 20
17.5
 30
0.0
 40
5.000000000000002
100
AcDbArc
 50
270.0
 51
0.0
  0
LINE
  5
7C6FC
330
7C862
100
AcDbEntity
  8
Level 1
  6
Continuous
370
     0
100
AcDbLine
 10
0.0
 20
12.5
 30
0.0
 11
0.0
 21
17.5
 31
0.0
  0
ARC
  5
7C6FD
330
7C862
100
AcDbEntity
  8
Level 1
  6
Continuous
370
     0
100
AcDbCircle
 10
7.0
 20
17.5
 30
0.0
 40
5.000000000000002
210
0.0
220
0.0
230
-1.0
100
AcDbArc
 50
270.0
 51
0.0
  0
ARC
  5
7C6FE
330
7C862
100
AcDbEntity
  8
Level 1
  6
Continuous
370
     0
100
AcDbCircle
 10
7.0
 20
19.5
 30
0.0
 40
5.000000000000002
100
AcDbArc
 50
360.0
 51
90.0
  0
LINE
  5
7C6FF
330
7C862
100
AcDbEntity
  8
Level 1
  6
Continuous
370
     0
100
AcDbLine
 10
0.0
 20
19.5
 30
0.0
 11
0.0
 21
24.5
 31
0.0
  0
ARC
  5
7C700
330
7C862
100
AcDbEntity
  8
Level 1
  6
Continuous
370
     0
100
AcDbCircle
 10
7.0
 20
19.5
 30
0.0
 40
5.000000000000002
210
0.0
220
0.0
230
-1.0
100
AcDbArc
 50
360.0
 51
90.0
  0
ENDBLK
  5
7C864
330
7C862
100
AcDbEntity
  8
0
100
AcDbBlockEnd
  0
ENDSEC
  0
SECTION
  2
ENTITIES
  0
INSERT
  5
7C329
330
7C767
100
AcDbEntity
  8
Level 1
  6
Continuous
 62
    20
370
     0
100
AcDbBlockReference
  2
SW26
 10
3484.681929
 20
1809.928038
 30
0.0
  0
LWPOLYLINE
  5
7C704
330
7C767
100
AcDbEntity
  8
Level 14
  6
DGN Style 2
 62
     7
370
     0
100
AcDbPolyline
 90
        4
 70
   129
 43
0.0
 10
7584.681929
 20
-90.071962
 10
7584.681929
 20
3709.928038
 10
-615.318071
 20
3709.928038
 10
-615.318071
 20
-90.071962
  0
ENDSEC
  0
SECTION
  2
OBJECTS
  0
DICTIONARY
  5
7C77A
330
0
100
AcDbDictionary
281
     1
  3
ACAD_GROUP
350
7C778
  3
ACAD_LAYOUT
350
7C77B
  3
ACAD_MLINESTYLE
350
7C779
  3
ACAD_PLOTSETTINGS
350
7C77C
  3
ACAD_PLOTSTYLENAME
350
7C77D
  3
ACAD_TABLESTYLE
350
7C86A
  3
AcadDim
350
7C792
  3
DWGPROPS
350
7C94F
  0
DICTIONARY
  5
7C780
330
7C76F
100
AcDbDictionary
280
     1
281
     1
  3
ACAD_LAYERFILTERS
360
7C781
  0
DICTIONARY
  5
7C778
102
{ACAD_REACTORS
330
7C77A
102
}
330
7C77A
100
AcDbDictionary
281
     1
  0
DICTIONARY
  5
7C77B
102
{ACAD_REACTORS
330
7C77A
102
}
330
7C77A
100
AcDbDictionary
281
     1
  3
Layout1
350
7C76E
  3
Model
350
7C76A
  0
DICTIONARY
  5
7C779
102
{ACAD_REACTORS
330
7C77A
102
}
330
7C77A
100
AcDbDictionary
281
     1
  3
Standard
350
7C765
  0
DICTIONARY
  5
7C77C
102
{ACAD_REACTORS
330
7C77A
102
}
330
7C77A
100
AcDbDictionary
281
     1
  0
ACDBDICTIONARYWDFLT
  5
7C77D
102
{ACAD_REACTORS
330
7C77A
102
}
330
7C77A
100
AcDbDictionary
281
     1
  3
Normal
350
7C760
100
AcDbDictionaryWithDefault
340
7C760
  0
DICTIONARY
  5
7C86A
102
{ACAD_REACTORS
330
7C77A
102
}
330
7C77A
100
AcDbDictionary
281
     1
  0
XRECORD
  5
7C792
102
{ACAD_REACTORS
330
7C77A
102
}
330
7C77A
100
AcDbXrecord
280
     1
 90
   990106
  3
 
 60
     0
 61
     0
 62
     1
 63
     1
 64
     0
 65
     0
 66
     0
 67
     3
 68
     1
 69
     1
 70
     0
 71
     0
 72
     0
 40
0.0
170
     0
  0
XRECORD
  5
7C94F
102
{ACAD_REACTORS
330
7C77A
102
}
330
7C77A
100
AcDbXrecord
280
     1
  1
DWGPROPS COOKIE
  2

  3

  4
WAEngineering1
  6

  7

  8

  9

300
=
301
=
302
=
303
=
304
=
305
=
306
=
307
=
308
=
309
=
 40
0.0
 41
2451789.537469
 42
2451789.537561
  1

 90
        0
  0
DICTIONARY
  5
7C781
102
{ACAD_REACTORS
330
7C780
102
}
330
7C780
100
AcDbDictionary
281
     1
  0
LAYOUT
  5
7C76E
102
{ACAD_REACTORS
330
7C77B
330
7C77B
102
}
330
7C77B
100
AcDbPlotSettings
  1

  2

  4

  6

 40
0.0
 41
0.0
 42
0.0
 43
0.0
 44
0.0
 45
0.0
 46
0.0
 47
0.0
 48
0.0
 49
0.0
140
0.0
141
0.0
142
1.0
143
1.0
 70
   688
 72
     0
 73
     0
 74
     5
  7

 75
    16
147
1.0
148
0.0
149
0.0
100
AcDbLayout
  1
Layout1
 70
     1
 71
     1
 10
0.0
 20
0.0
 11
12.0
 21
9.0
 12
0.0
 22
0.0
 32
0.0
 14
1.000000E+20
 24
1.000000E+20
 34
1.000000E+20
 15
-1.000000E+20
 25
-1.000000E+20
 35
-1.000000E+20
146
0.0
 13
0.0
 23
0.0
 33
0.0
 16
1.0
 26
0.0
 36
0.0
 17
0.0
 27
1.0
 37
0.0
 76
     0
330
7C76B
  0
LAYOUT
  5
7C76A
102
{ACAD_REACTORS
330
7C77B
330
7C77B
102
}
330
7C77B
100
AcDbPlotSettings
  1

  2

  4

  6

 40
0.0
 41
0.0
 42
0.0
 43
0.0
 44
0.0
 45
0.0
 46
0.0
 47
0.0
 48
0.0
 49
0.0
140
0.0
141
0.0
142
1.0
143
1.0
 70
  1712
 72
     0
 73
     0
 74
     0
  7

 75
     0
147
1.0
148
0.0
149
0.0
100
AcDbLayout
  1
Model
 70
     1
 71
     0
 10
0.0
 20
0.0
 11
12.0
 21
9.0
 12
0.0
 22
0.0
 32
0.0
 14
0.0
 24
0.0
 34
0.0
 15
0.0
 25
0.0
 35
0.0
146
0.0
 13
0.0
 23
0.0
 33
0.0
 16
1.0
 26
0.0
 36
0.0
 17
0.0
 27
1.0
 37
0.0
 76
     0
330
7C767
  0
MLINESTYLE
  5
7C765
102
{ACAD_REACTORS
330
7C779
102
}
330
7C779
100
AcDbMlineStyle
  2
STANDARD
 70
     0
  3

 62
   256
 51
90.0
 52
90.0
 71
     2
 49
0.5
 62
   256
  6
BYLAYER
 49
-0.5
 62
   256
  6
BYLAYER
  0
ACDBPLACEHOLDER
  5
7C760
102
{ACAD_REACTORS
330
7C77D
102
}
330
7C77D
  0
ENDSEC
  0
SECTION
  2
THUMBNAILIMAGE
 90
    16004
310
28000000B40000005300000001000800000000005C3A000000040000000400000001000043000000FFFFFF00B8680000F0080000E8203800D018C0003000000078782800D8782800000020006830C0002000980000E0F80000109000080020003068C0009800000020F820007860C0009058C0003018200090689000C00090
310
0040E8200090000000480000008898C000C800000028A0C000A0E020009080700028F89000B80820003868C0003090800038F82000A008000020E89000F8F8F80070E8200030F8200078E0200058706800001000000820000008D89800705828003000900078582800580090008078280060009000300890008080700058F0
310
9000A8E02000B0E02000C0E02000C8E02000D0E02000E0E02000F0E0200060F090008008900038009000780020000800000020000000FFFFFF00FFFFFF00FFFFFF00FFFFFF00FFFFFF00FFFFFF00FFFFFF00FFFFFF00FFFFFF00FFFFFF00FFFFFF00FFFFFF00FFFFFF00FFFFFF00FFFFFF00FFFFFF00FFFFFF00FFFFFF00FF
310
FFFF00FFFFFF00FFFFFF00FFFFFF00FFFFFF00FFFFFF00FFFFFF00FFFFFF00FFFFFF00FFFFFF00FFFFFF00FFFFFF00FFFFFF00FFFFFF00FFFFFF00FFFFFF00FFFFFF00FFFFFF00FFFFFF00FFFFFF00FFFFFF00FFFFFF00FFFFFF00FFFFFF00FFFFFF00FFFFFF00FFFFFF00FFFFFF00FFFFFF00FFFFFF00FFFFFF00FFFFFF00
310
FFFFFF00FFFFFF00FFFFFF00FFFFFF00FFFFFF00FFFFFF00FFFFFF00FFFFFF00FFFFFF00FFFFFF00FFFFFF00FFFFFF00FFFFFF00FFFFFF00FFFFFF00FFFFFF00FFFFFF00FFFFFF00FFFFFF00FFFFFF00FFFFFF00FFFFFF00FFFFFF00FFFFFF00FFFFFF00FFFFFF00FFFFFF00FFFFFF00FFFFFF00FFFFFF00FFFFFF00FFFFFF
310
00FFFFFF00FFFFFF00FFFFFF00FFFFFF00FFFFFF00FFFFFF00FFFFFF00FFFFFF00FFFFFF00FFFFFF00FFFFFF00FFFFFF00FFFFFF00FFFFFF00FFFFFF00FFFFFF00FFFFFF00FFFFFF00FFFFFF00FFFFFF00FFFFFF00FFFFFF00FFFFFF00FFFFFF00FFFFFF00FFFFFF00FFFFFF00FFFFFF00FFFFFF00FFFFFF00FFFFFF00FFFF
310
FF00FFFFFF00FFFFFF00FFFFFF00FFFFFF00FFFFFF00FFFFFF00FFFFFF00FFFFFF00FFFFFF00FFFFFF00FFFFFF00FFFFFF00FFFFFF00FFFFFF00FFFFFF00FFFFFF00FFFFFF00FFFFFF00FFFFFF00FFFFFF00FFFFFF00FFFFFF00FFFFFF00FFFFFF00FFFFFF00FFFFFF00FFFFFF00FFFFFF00FFFFFF00FFFFFF00FFFFFF00FF
310
FFFF00FFFFFF00FFFFFF00FFFFFF00FFFFFF00FFFFFF00FFFFFF00FFFFFF00FFFFFF00FFFFFF00FFFFFF00FFFFFF00FFFFFF00FFFFFF00FFFFFF00FFFFFF00FFFFFF00FFFFFF00FFFFFF00FFFFFF00FFFFFF00FFFFFF00FFFFFF00FFFFFF00FFFFFF00FFFFFF00FFFFFF00FFFFFF00FFFFFF00FFFFFF00FFFFFF00FFFFFF00
310
FFFFFF00FFFFFF00FFFFFF00FFFFFF00FFFFFF00FFFFFF00FFFFFF00FFFFFF00FFFFFF00FFFFFF00FFFFFF00FFFFFF0014141414141414141414141414141414141414141414141414141414141414141414141414141414141414141414141414141414141414141414141414141414141414141414141414141414141414
310
14141414141414141414141414141414141414141414141414141414141414141414141414141414141414141414141414141414141414141414141414141414141414141414141414141414141414141414141414141414141414141414141414141414141414141414141414141414141414141414141414141414141414
310
14141414141414141414141414141414141414141414141414141414141414141414141414141414141414141414141414141414141414141414141414141414141414141414141414141414141414141414141414141414141414141414141414141414141414141414141414141414141414141414141414141414141414
310
14141414141414141414141414141414141414141414141414141414141414141414141414141414141414141414141414141414141414141414141414141414141414141414141414141414141414141414141414141414141414141414141414141414141414141414141414141414141414141414141414141414141414
310
14141414141414141414141414141414141414141414141414141414141414141414141414141414141414141414141414141414141414141414141414141414141414141414141414141414141414141414141414141414141414141414141414141414141414141414141414141414141414141414141414141414141414
310
14141414141414141414141414141414141414141414141414141414141414141414141414141414141414141414141414141414141414141414141414141414141414141414141414141414141414141414141414141414141414141414141414141414141414141414141414141414141414141414141414141414141414
310
14141414141414141414141414141414141414141414141414141414141414141414141414141414141414141414141414141414141414141414141414141414141414141414141414141414141414141414141414141414141414141414141414141414141414141414141414141414141414141414141414141414141414
310
14141414141414141414141414141414141414141414141414141414141414141414141414141414141414141414141414141414141414141414141414141414141414141414141414141414141414141414141414141414141414141414141414141414141414141414141414141414141414141414141414141414141414
310
14141414141414141414141414141414141414141414141414141414141414141414141414141414141414141414141414141414141414141414141414141414141414141414141414141414141414141414141414141414141414141414141414141414141414141414141414141414141414141414141414141414141414
310
14141414141414141414141414141414141414141414141414141414141414141414141414141414141414141414141414141414141414141414141414141414141414141414141414141414141414141414141414141414141414141414141414141414141414141414141414141414141414141414141414141414141414
310
14141414141414141414141414141414141414141414141414141414141414141414141414141414141414141414141414141414141414141414141414141414141414141414141414141414141414141414141414141414141414141414141414141414141414141414141414141414141414141414141414141414141414
310
14141414141414141414141414141414141414141414141414141414141414141414141414141414141414141414141414141414141414141414141414141414141414141414141414141414141414141414141414141414141414141414141414141414141414141414141414141414141414141414141414141414141414
310
14141414141414141414141414141414141414141414141414141414141414141414141414141414141414141414141414141414141414141414141414141414141414141414141414141414141414141414141414141414141414141414141414141414141414141414141414141414141414141414141414141414141414
310
14141414141414141414141414141414141414141414141414141414142525252525251414141425252525252514141414252525252525141414142525252525251414141425252525252514141414252525252525141414142525252525251414141425252525252514141414252525252525141414142525252525251414
310
14142525252525251414141425252525252514141414252525252525141414142525252525251414141425252525252514141414252525141414141414141414141414141414141414141414141414141414141414141414141414141414141414141414141414141414141414141414141414141414141414141414141414
310
14141414141414141414141414141414141414141414141414141414141414141414141414141414141414141414141414141414141414141414141414141414141414141414141414141414141414141414141414141414141414141414141414141414141414141414142514141414141414141414141414141414141414
310
14141414142514141414141414141414141414141414141414141414141414141414141414141414141414141414141414141414141414141414141414141414141414141414141414141414141414141414141414141414141414141414141414141414141414141414141414141414141414141414141414141414141414
310
14141414141414141414141414141414141414141414141414141414141414141425141414141414141414141414141414141414141414141414251414141414141414141414141414141414141414141414141414141414141414141414141414141414141414141414141414141414141414141414141414141414141414
310
14141414141414141414141414141414141414141414141414141414141414141414141414141414141414141414141414141414141414141414141414141414141414141414141414141414141414141414141414142514141414141414141414141414141414141414141414141425141414141414141414141414141414
310
14141414141414141414141414141414141414141414141414141414141414141414141414141414141414141414141414141414141414141414141414141414141414141414141414141414141414141414141414141414141414141414141414141414141414141414141414141414141414141414141414141414141414
310
14141414141414141414141425141414141414141414141414141414141414141414141414251414141414141414141414141414141414141414141414141414141414141414141414141414141414141414141414141414141414141414141414141414141414141414141414141414141414141414141414141414141414
310
14141414141414141414141414141414141414141414141414141414141414141414141414141414141414141414141414141414141414141414141414141414142514141414141414141414141414141414141414141414141425141414141414141414141414141414141414141414141414141414141414141414141414
310
14141414141414141414141414141414141414141414141414141414141414141414141414141414141414141414141414141414141414141414141414141414141414141414141414141414141414141414141414141414141414141414141414141414141414141414141414141414141414141414141414141414141414
310
14141414141414141414141414141414251414141414141414141414141414141414141414141414141414141414141414141414141414141414141414141414141414141414141414141414141414141414141414141414141414141414141414141414141414141414141414141414141414141414141414141414141414
310
14141414141414141414141414141414141414141414141414141414141414141414141414141414141414141414141414141414141414141414141414141414141414141414141414141414141414141414141414141414141414141414141414141414141414141414141414141414141414141414141414141414141414
310
14141414141414141414141414141414141414141414141414141414141414141414141414141414141414141414141414141414141414141414141414141414141414141414141414141414141414141414141414141414141414141414141414141414141414141414141414141414141414141414141414141414141414
310
14141414141414141414141414141414141414141414141414141414141414141414141414141414141414141414141414141414141414141414141414141414141414141414141401010114141414141414141414141414141414141414141414141414141414141414141414141414141414141414141414141414141414
310
14141414141414141414141414141414141414141414141414141414141414141414141414141414141414141414141414141414141414141414141414141414141414141414141414141414141414141414141414141414141414141414141414141414141414141414141414141414141414141414141414141414142525
310
01141414141414141414141414141414141414141414141414141414141414141414141414141414141414141414141414141414141414141414141414141414141414141414141414141414251414141414141414141414141414141414141414141414141414141414141414141414141414141414141414141414141414
310
14141414141414141414141414141414141414141414141414141414141414141414141414141414141414141414141414141425250114141414141414141414141414141414141414141414141414141414141414141414141414141414141414141414141414141414141414141414141414141414141414141414141414
310
14142514141414141414141414141414141414141414141414141425141414141414141414141414141414141414141414141414141414141414141414141414141414141414141414141414141414141414141414141414141414141414141414141414141414002525011414141414141414141414141414141414141414
310
14141414141414141414141414141414141414141414141414141414141414141414141414141414141414141414141414141414141414251414141414141414141414141414141414141414141414142514141414141414141414141414141414141414141414141414141414141414141414141414141414141414141414
310
14141414141414141414141414141414141414141414141414141414140001250114141414141414141414141414141414141414141414141414141414141414141414141414141414141414141414141414141414141414141414141414141414141414141414141414141425141414141414141414141414141414141414
310
14141414141425141414141414141414141414141414141414141414141414141414141414141414141414141414141414141414141414141414141414141414141414141414141414141414141414141414000114011414141414141414141414141414141414141414141414141414141414141414141414141414141414
310
14141414141414141414141414141414141414141414141414141414141414141414251414141414141414141414141414141414141414141414142514141414141414141414141414141414141414141414141414141414141414141414141414141414141414141414141414141414141414141414141414141414141414
310
14141414141414140001140114141414141414141414141414141414141414141414141414141414141414141414141414141414141414141414141414141414141414141414141414141414141414141414141414141425141414141414141414141414141414141414141414141414251414141414141414141414141414
310
14141414141414141414141414141414141414141414141414141414141414141414141414141414141414141414141414141414141414141414141414000114011414141414141414141414141414141414141414141414141414141414141414141414141414141414141414141414141414141414141414141414141414
310
14141414141414141414141414141414141414141414141414141414141414141414141414142514141414141414141414141414141414141414141414141414141414141414141414141414141414141414141414141414141414141414141414141414141414141414141414141414141400010001141414141414141414
310
14141414141414141414141414141414141414141414141414141414141414141414141414141414141414141414141414141414141414141414141414141414141414141414141414141414141414141414141414141414141414141414141414141414141414141414141414141414141414141414141414141414141414
310
14141414141414141414141414141414141414141414141414141414141414141414141414141414000114011414141414141414141414141414141414141414141414141414141414141414141414141414141414141414141414141414141414141414141414141414141414141414141414141414141414141414141414
310
14141414141414141414141414141414141414141414141414141414141414141414141414141414141414141414141414141414141414141414141414141414141414141414141414141414141414141414141414141414141414141400011401141414141414141414141414141414141414141414141414141414141414
310
14141414141414141414141414141414141414141414141414141414141414141414141414141414141414141414141414141414141414141414141414141414141414141414141414141414141414141414141414141414141414141414141414141414141414141414141414141414141414141414141414141414141414
310
14141414141414141414141414141414141414000129011414141414141414141414141414141414141414141414141414141414141414141414141414141414141414141414141414141414141414141414141414141414141414141414141414142514141414141414141414141414141414141414141414141414141414
310
14141414141414141414141414141414141414141414141414141414141414141414141414141414141414141414141414141414141414141414141414141414141414141414141400252501141414141414141414141414141414141414141414141414141414141414141414141414141414141414141414141414141414
310
14141414141414141414141414141414141414141414141425141414141414141414141414141414141414141414141414251414141414141414141414141414141414141414141414141414141414141414141414141414141414141414141414141414141414141414141414141414141414141414141414141414141425
310
25011414141414141414141414141414141414141414141414141414141414141414141414141414141414141414141414141414141414141414141414141414141414141414141414141414142514141414141414141414141414141414141414141414141425141414141414141414141414141414141414141414141414
310
14141414141414141414141414141414141414141414141414141414141414141414141414141414141414141414141414141414252501141414141414141414141414141414141414141414141414141414141414141414141414141414141414141414141414141414141414141414141414141414141414141414141414
310
14141425141414141414141414141414141414141414141414141414251414141414141414141414141414141414141414141414141414141414141414141414141414141414141414141414141414141414141414141414141414141414141414141414141414141425250114141414141414141414141414141414141414
310
14141414141414141414141414141414141414141414141414141414141414141414141414141414141414141414141414141414141414142514141414141414141414141414141414141414141414141425141414141414141414141414141414141414141414141414141414141414141414141414141414141414141414
310
14141414141414141414141414141414141414141414141414141414141414011401141414141414141414141414141414141414141414141414141414141414141414141414141414141414141414141414141414141414141414141414141414141414141414141414141414251414141414141414141414141414141414
310
14141414141414251414141414141414141414141414141414141414141414141414141414141414141414141414141414141414141414141414141414141414141414141414141414141414141414141414141401140114141414141414141414141414141414141414141414141414141414141414141414141414141414
310
14141414141414141414141414141414141414141414141414141414141414141414141414141414141414141414141414141414141414141414141425141414141414141414141414141414141414141414141414141414141414141414141414141414141414141414141414141414141414141414141414141414141414
310
14141414141414141414011401141414141414141414141414141414141414141414141414141414141414141414141414141414141414141414141414141414141414141414141414141414141414141414141414141414141414141414141414141414141414141414141414141414141414141414141414141414141414
310
14141414141414141414141414141414141414141414141414141414141414141414141414141414141414141414141414141414141414141414141414141401140114141414141414141414141414141414141414141414141414141414141414141414141414141414141414141414141414141414141414141414141414
310
14141414141414141414141414141414141414141414141414141414141414141414141414141414141414141414141414141414141414141414141414141414141414141414141414141414141414141414141414141414141414141414141414141414141414141414141414141414141414140114011414141414141414
310
14141414141414141414141414141414141414141414141414141414141414141414141414141414141414141414141414141414141414141414141414141414141414141414141414141414141414141414141414141414141414141414141414141414141414141414141414141414141414141414141414141414141414
310
14141414141414141414141414141414141414141414141414141414141414141414141414141414010101010114141414141414141414141414141414141414141414141414141414141414141414141414141414141414141414141414141414141414141414141414141414141414141414141414141425141414141414
310
14141414141414141414141414141414141414141414141414141414141414141414141414141414141414141414141414141414141414141414141414141414141414141414141414141414141414141414141414141414141414141401010101010114141414141414141414141414141414141414141414141414141414
310
14141414141414141414141414141414141414141414141414141414141414141414141414141414141414141414251414141414141414141414141414141414141414141414142514141414141414141414141414141414141414141414141414141414141414141414141414141414141414141414141414141414141414
310
14141414141414141414141414141414141414010101010101141414141414141414141414141414141414141414141414141414141414141414141414141414141414141414141414141414141414141414141414141414141414141414141414141425141414141414141414141414141414141414141414141414251414
310
14141414141414141414141414141414141414141414141414141414141414141414141414141414141414141414141414141414141414141414141414141414141414141414141401010101011414141414141414141414141414141414141414141414141414141414141414141414141414141414141414141414141414
310
14141414141414141414141414141414141414141414141414251414141414141414141414141414141414141414141414142514141414141414141414141414141414141414141414141414141414141414141414141414141414141414141414141414141414141414141414141414141414141414141414141414140101
310
01010114141414141414141414141414141414141414141414141414141414141414141414141414141414141414141414141414141414141414141414141414141414141414141414141414141425141414141414141414141414141414141414141414141414251414141414141414141414141414141414141414141414
310
14141414141414141414141414141414141414141414141414141414141414141414141414141414141414141414141414141401010101011714141414141414141414141414141414141414141414141414141414141414141414141414141414141414141414141414141414141414141414141414141414141414141414
310
14141414251414141414141414141414141414141414141414141414142514141414141414141414141414141414141414141414141414141414141414141414141414141414141414141414141414141414141414141414141414141414141414141414141414140101010101171414141414141414141414141414141414
310
14141414141414141414141414141414141414141414141414141414141414141414141414141414141414141414141414141414141414141414141414141414141414141414141414141414141414141414251414141414141414141414141414141414141414141414141414141414141414141414141414141414141414
310
14141414141414141414141414141414141414141414141414141414141401010101011414141414141414141414141414141414141414141414141414141414141414141414141414141414141414141414141414141414141414141414141414141414141414141414141414141414141414141414141414141414141414
310
14141414141414141414141414141414141414141414141414141414141414141414141414141414141414141414141414141414141414141414141414141414141414141414141414141414141414141414140101010101141414141414141414141414141414141414141414141414141414141414141414141414141414
310
14141414141414141414141414141414141414141414141414141414141414141414141414141414141414141414141414141414141414141414141414141414141414141414141414141414141414141414141414141414141414141414141414141414141414141414141414141414141414141414141414141414141414
310
14141414141414141401010101011414141414141414141414141414141414141414141414141414141414141414141414141414141414141414141414141414141414141414141414141414141414141414141414141414141414141414141414141414141414141414141414141414141414141414141414141414141414
310
14141414141414141414141414141414141414141414141414141414141414141414141414141414141414141414141414141414141414141414141414140101010101011414141414141414141414141414141414141414141414141414141414141414141414141414141414141414141414141414141414141414141414
310
14141414141414141414141414141425141414141414141414141414141414141414141414141414141414141414141414141414141414141414141414141414141414141414141414141414141414141414141414141414141414141414141414141414141414141414141414141414141414140101010101141414141414
310
14141414141414141414141414141414141414141414141414141414141414141414141414141414141414141414141414141414141414141414141414141414141414142514141414141414141414141414141414141414141414141425141414141414141414141414141414141414141414141414141414141414141414
310
14141414141414141414141414141414141414141414141414141414141414141414141414141414141401011401011414141414141414141414141414141414141414141414141414141414141414141414141414141414141414141414141414141414141414141414141414141414141414141414141414251414141414
310
14141414141414141414141414141414141414251414141414141414141414141414141414141414141414141414141414141414141414141414141414141414141414141414141414141414141414141414141414141414141414141414141401140114141414141414141414141414141414141414141414141414141414
310
14141414141414141414141414141414141414141414141414141414141414141414141414141414141414141414142514141414141414141414141414141414141414141414141425141414141414141414141414141414141414141414141414141414141414141414141414141414141414141414141414141414141414
310
14141414141414141414141414141414141414141414011401141414141414141414141414141414141414141414141414141414141414141414141414141414141414141414141414141414141414141414141414141414141414141414141414141414251414141414141414141414141414141414141414141414142514
310
14141414141414141414141414141414141414141414141414141414141414141414141414141414141414141414141414141414141414141414141414141414141414141414141414141401140114141414141414141414141414141414141414141414141414141414141414141414141414141414141414141414141414
310
14141414141414141414141414141414141414141414141414142514141414141414141414141414141414141414141414141425141414141414141414141414141414141414141414141414141414141414141414141414141414141414141414141414141414141414141414141414141414141414141414141414141414
310
14011401141414141414141414141414141414141414141414141414141414141414141414141414141414141414141414141414141414141414141414141414141414141414141414141414141414141414141414141414141414141414141414141414141414142514141414141414141414141414141414141414141414
310
14141414141414141414141414141414141414141414141414141414141414141414141414141414141414141414141414141414141425250114141414141414141414141414141414141414141414141414141414141414141414141414141414141414141414141414141414141414141414141414141414141414141414
310
14141414141414141414141414141414141414141414141414141414141414141414141414141414141414141414141414141414141414141414141414141414141414141414141414141414141414141414141414141414141414141414141414141414141414141414142525011414141414141414141414141414141414
310
14141414141414141414141414141414141414141414141414141414141414141414141414141414141414141414141414141414141414141414141414141414141414141414141414141414141414141414141414141414141414141414141414141414141414141414141414141414141414141414141414141414141414
310
14141414141414141414141414141414141414141414141414141414141414141425250114141414141414141414141414141414141414141414141414141414141414141414141414141414141414141414141414141414141414141414141414141414141414141414141414141414141414141414141414141414141414
310
14141414141414141414141414141414141414141414141414141414141414141414141414141414141414141414141414141414141414141414141414141414141414141414141414141414141414141414141414002525011414141414141414141414141414141414141414141414141414141414141414141414141414
310
14141414141414141414141414141414141414141414141414141414141414141414141414251414141414141414141414141414141414141414141414141414141414141414141414141414141414141414141414141414141414141414141414141414141414141414141414141414141414141414141414141414141414
310
14141414141414141414140001290114141414141414141414141414141414141414141414141414141414141414141414141414141414141414141414141414141414141414141414141414141414141414141414141414141425141414141414141414141414141414141414141414141414251414141414141414141414
310
14141414141414141414141414141414141414141414141414141414141414141414141414141414141414141414141414141414141414141414141414141414000114011414141414141414141414141414141414141414141414141414141414141414141414141414141414141414141414141414141414141414141414
310
14141414141414141414141414141414251414141414141414141414141414141414141414141414142514141414141414141414141414141414141414141414141414141414141414141414141414141414141414141414141414141414141414141414141414141414141414141414141414141400010001141414141414
310
14141414141414141414141414141414141414141414141414141414141414141414141414141414141414141414141414141414141414141414141414141414141414141425141414141414141414141414141414141414141414141414251414141414141414141414141414141414141414141414141414141414141414
310
14141414141414141414141414141414141414141414141414141414141414141414141414141414141414000114011414141414141414141414141414141414141414141414141414141414141414141414141414141414141414141414141414141414141414141414141414141414141414141414141414142514141414
310
14141414141414141414141414141414141414142514141414141414141414141414141414141414141414141414141414141414141414141414141414141414141414141414141414141414141414141414141414141414141414141414141400011401141414141414141414141414141414141414141414141414141414
310
14141414141414141414141414141414141414141414141414141414141414141414141414141414141414141414141425141414141414141414141414141414141414141414141414251414141414141414141414141414141414141414141414141414141414141414141414141414141414141414141414141414141414
310
14141414141414141414141414141414141414141414000114011414141414141414141414141414141414141414141414141414141414141414141414141414141414141414141414141414141414141414141414141414141414141414141414141414141414141414141414141414141414141414141414141414141425
310
14141414141414141414141414141414141414141414141414141414141414141414141414141414141414141414141414141414141414141414141414141414141414141414141414141400011401141414141414141414141414141414141414141414141414141414141414141414141414141414141414141414141414
310
14141414141414141414141414141414141414141414141414141414141414141414141414141414141414141414141414141414141414141414141414141414141414141414141414141414141414141414141414141414141414141414141414141414141414141414141414141414141414141414141414141414141414
310
14000125011414141414141414141414141414141414141414141414141414141414141414141414141414141414141414141414141414141414141414141414141414141414141414141414141414141414141414141414141414141414141414141414141414141414141414141414141414141414141414141414141414
310
14141414141414141414141414141414141414141414141414141414141414141414141414141414141414141414141414141414141414252501141414141414141414141414141414141414141414141414141414141414141414141414141414141414141414141414141414141414141414141414141414141414141414
310
14141414141414141414141414141414141414141414141414141414141414141414141414141414141414141414141414141414141414141414141414141414141414141414141414141414141414141414141414141414141414141414141414141414141414141414141425250114141414141414141414141414141414
310
14141414141414141414141414141414141414141414141414141414141414141414141414141414141414141414141414141414141414141414142514141414141414141414141414141414141414141414141414141414141414141414141414141414141414141414141414141414141414141414141414141414141414
310
14141414141414141414141414141414141414141414141414141414141414141414252501141414141414141414141414141414141414141414141414141414141414141414141414141414141414141414141414141414141414141414141414141414141414141414141414141414251414141414141414141414141414
310
14141414141414141414251414141414141414141414141414141414141414141414141414141414141414141414141414141414141414141414141414141414141414141414141414141414141414141414141414141401011414141414141414141414141414141414141414141414141414141414141414141414141414
310
14141414141414141414141414141414141414141414141414141414141414141414141414142514141414141414141414141414141414141414141414141425141414141414141414141414141414141414141414141414141414141414141414141414141414141414141414141414141414141414141414141414141414
310
14141414141414141414141414141414141414141414141414141414141414141414141414141414141414141414141414141414141414141414141414141414141414141414141414141414141414141414141414141414141414251414141414141414141414141414141414141414141414142514141414141414141414
310
14141414141414141414141414141414141414141414141414141414141414141414141414141414141414141414141414141414141414141414141414141414141414141414141414141414141414141414141414141414141414141414141414141414141414141414141414141414141414141414141414141414141414
310
14141414141414141414141414141414142514141414141414141414141414141414141414141414141425141414141414141414141414141414141414141414141414141414141414141414141414141414141414141414141414141414141414141414141414141414141414141414141414141414141414141414141414
310
14141414141414141414141414141414141414141414141414141414141414141414141414141414141414141414141414141414141414141414141414141414141414141414251414141414141414141414141414141414141414141414142514141414141414141414141414141414141414141414141414141414141414
310
14141414141414141414141414141414141414141414141414141414141414141414141414141414141414141414141414141414141414141414141414141414141414141414141414141414141414141414141414141414141414141414141414141414141414141414141414141414141414141414141414141414141414
310
14141414141414141414141414141414141414141425141414141414141414141414141414141414141414141414141414141414141414141414141414141414141414141414141414141414141414141414141414141414141414141414141414141414141414141414141414141414141414141414141414141414141414
310
14141414141414141414141414141414141414141414141414141414141414141414141414141414141414141414141414141414141414141414141414141414141414141414141414141414141414141414141414141414141414141414141414141414141414141414141414141414141414141414141414141414141414
310
14141414141414141414141414141414141414141414141414141414141414141414141414141414141414141414141414141414141414141414141414141414141414141414141414141414141414141414141414141414141414141414141414141414141414141414141414141414141414141414141414141414141414
310
14141414141414141414141414141414141414141414141414141414141414141414141414141414141414141414141414141414141414141414141414141414141414141414141414141414141414141414141414141414141414141414141414141414141414141414141414141414141414141414141414141414141414
310
14141414141414141414141414141414141414141414141414141414141414141414141414141414141414141414141414141414141414141414141414141414141414141414141414141414141414141414141414141414141414141414141414141414141414141414141414141414141414141414141414141414141414
310
14141414141414141414141414141414141414141414141414141414141414141414141414141414141414141414141414141414141414141414141414141414141414141414141414141414141414141425141414141414141414141414141414141414141414141414142525252525251414141425252525252514141414
310
25252525252514141414252525252525141414142525252525251414141425252525252514141414252525252525141414142525252525251414141425252525252514141414252525252525141414142525252525251414141425252525252514141414252525252525141414142525252525251414141425252525252514
310
14141425252525251414141414141414141414141414141414141414141414141414141414141414141414141414141414141414141414141414141414141414141414141414141414141414141414141414141414141414141414141414141414141414141414141414141414141414141414141414141414141414141414
310
14141414141414141414141414141414141414141414141414141414141414141414141414141414141414141414141414141414141414141414141414141414141414141414141414141414000000000000000000000000000000000000000000000000000000000000000000000000000000404000000000000000000606
310
0040403131004140400040402F2F00000038063A330F06082D003640363E0D3215421E000F2D40402F2F3F3F40000B0B050B0C00023B402B320A08152A001E42151C353D15421E280F1324151A37211A231B043C204120102A2200393913120925200310221D00000000000000000026191A3400113400000000002C16001F
310
1807
  0
ENDSEC
  0
EOF
