  0
SECTION
  2
HEADER
  9
$ACADVER
  1
AC1027
  9
$ACADMAINTVER
 70
   125
  9
$DWGCODEPAGE
  3
ANSI_1252
  9
$SUBJECT
  1
MicroStation
  9
$AUTHOR
  1
WAEngineering2
  9
$LASTSAVEDBY
  1
WAEngineering2
  9
$CUSTOMPROPERTYTAG
  1
BentleyWorkSetProperties
  9
$CUSTOMPROPERTY
  1
02050000000B000000540200000000000000000200000057006F0072006B005300650074004E0061006D00650000000000000001000109040000000200000000000000000000000100000057006F0072006B005300650074004400650073006300720069007000740069006F006E0000000000000001000109080000000000000000000000000000000200000057006F0072006B00530070006100630065004E0061006D006500000000000000010001090C0000000200000000000000000000000400000043006F006E006E00650063007400500072006F006A006500630074004700550049004400000000000000010001091000000000000000000000000000000008000000500072006F006A00650063007400410073007300650074005400790070006500000000000000010001091400000000000000000000000000000010000000500072006F006A0065006300740049006E00640075007300740072007900000000000000010001091800000000000000000000000000000020000000500072006F006A006500630074004C006F0063006100740069006F006E00000000000000010001091C00000000000000000000000000000040000000500072006F006A006500630074004E0075006D00620065007200000000000000010001092000000000000000000000000000000080000000500072006F006A00650063007400530074006100740075007300000000000000010001092400000000000000000000000000000000010000500072006F006A006500630074004E0061006D00650000000000000001000109280000000000000000000000000000000002000031010000000000050002FCFFFF300000004A0000004A0000005A000000A4000000D2000000F4000000F600000004010000120100002C0100004D006500740072006F00530074006100740069006F006E0000004500780061006D0070006C0065000000350039003800370063003200620065002D0066003000660064002D0034003300660038002D0039006100610031002D00620039003100360035006200350030003400650032003300000050006C006100740066006F0072006D007300200061006E0064002000530074006100740069006F006E00730000005200610069006C00200061006E00640020005400720061006E0073006900740000000000310030003000310030003000000041006300740069007600650000004D006500740072006F00530074006100740069006F006E000000
  9
$REQUIREDVERSIONS
160
                 0
  9
$INSBASE
 10
0.0
 20
0.0
 30
0.0
  9
$EXTMIN
 10
582.5
 20
701.8
 30
0.0
  9
$EXTMAX
 10
6883.6
 20
4553.9
 30
0.0
  9
$LIMMIN
 10
-11037.533688
 20
-12142.733688
  9
$LIMMAX
 10
18503.633688
 20
17398.433688
  9
$ORTHOMODE
 70
     0
  9
$REGENMODE
 70
     1
  9
$FILLMODE
 70
     1
  9
$QTEXTMODE
 70
     0
  9
$MIRRTEXT
 70
     0
  9
$LTSCALE
 40
1.0
  9
$ATTMODE
 70
     1
  9
$TEXTSIZE
 40
3.0
  9
$TRACEWID
 40
0.05
  9
$TEXTSTYLE
  7
Standard
  9
$CLAYER
  8
0
  9
$CELTYPE
  6
Continuous
  9
$CECOLOR
 62
     3
  9
$CELTSCALE
 40
1.0
  9
$DISPSILH
 70
     0
  9
$DIMSCALE
 40
1.0
  9
$DIMASZ
 40
3.0
  9
$DIMEXO
 40
1.5
  9
$DIMDLI
 40
0.0
  9
$DIMRND
 40
0.0
  9
$DIMDLE
 40
0.0
  9
$DIMEXE
 40
1.5
  9
$DIMTP
 40
0.0
  9
$DIMTM
 40
0.0
  9
$DIMTXT
 40
3.0
  9
$DIMCEN
 40
2.0
  9
$DIMTSZ
 40
0.0
  9
$DIMTOL
 70
     0
  9
$DIMLIM
 70
     0
  9
$DIMTIH
 70
     0
  9
$DIMTOH
 70
     0
  9
$DIMSE1
 70
     0
  9
$DIMSE2
 70
     0
  9
$DIMTAD
 70
     1
  9
$DIMZIN
 70
     8
  9
$DIMBLK
  1

  9
$DIMASO
 70
     1
  9
$DIMSHO
 70
     1
  9
$DIMPOST
  1

  9
$DIMAPOST
  1

  9
$DIMALT
 70
     0
  9
$DIMALTD
 70
     4
  9
$DIMALTF
 40
0.000001
  9
$DIMLFAC
 40
1.0
  9
$DIMTOFL
 70
     0
  9
$DIMTVP
 40
0.0
  9
$DIMTIX
 70
     0
  9
$DIMSOXD
 70
     0
  9
$DIMSAH
 70
     0
  9
$DIMBLK1
  1

  9
$DIMBLK2
  1

  9
$DIMSTYLE
  2
Standard
  9
$DIMCLRD
 70
     0
  9
$DIMCLRE
 70
     0
  9
$DIMCLRT
 70
     0
  9
$DIMTFAC
 40
1.0
  9
$DIMGAP
 40
1.5
  9
$DIMJUST
 70
     0
  9
$DIMSD1
 70
     0
  9
$DIMSD2
 70
     0
  9
$DIMTOLJ
 70
     1
  9
$DIMTZIN
 70
     8
  9
$DIMALTZ
 70
    12
  9
$DIMALTTZ
 70
    12
  9
$DIMUPT
 70
     0
  9
$DIMDEC
 70
     1
  9
$DIMTDEC
 70
     0
  9
$DIMALTU
 70
     2
  9
$DIMALTTD
 70
     0
  9
$DIMTXSTY
  7
Style-INTL_ISO
  9
$DIMAUNIT
 70
     0
  9
$DIMADEC
 70
     0
  9
$DIMALTRND
 40
0.0
  9
$DIMAZIN
 70
     3
  9
$DIMDSEP
 70
     0
  9
$DIMATFIT
 70
     1
  9
$DIMFRAC
 70
     2
  9
$DIMLDRBLK
  1

  9
$DIMLUNIT
 70
     2
  9
$DIMLWD
 70
    -2
  9
$DIMLWE
 70
    -2
  9
$DIMTMOVE
 70
     0
  9
$DIMFXL
 40
1.0
  9
$DIMFXLON
 70
     0
  9
$DIMJOGANG
 40
0.785398
  9
$DIMTFILL
 70
     0
  9
$DIMTFILLCLR
 70
     0
  9
$DIMARCSYM
 70
     0
  9
$DIMLTYPE
  6
ByBlock
  9
$DIMLTEX1
  6
ByBlock
  9
$DIMLTEX2
  6
ByBlock
  9
$DIMTXTDIRECTION
 70
     0
  9
$LUNITS
 70
     2
  9
$LUPREC
 70
     1
  9
$SKETCHINC
 40
0.1
  9
$FILLETRAD
 40
0.0
  9
$AUNITS
 70
     0
  9
$AUPREC
 70
     0
  9
$MENU
  1
.
  9
$ELEVATION
 40
0.0
  9
$PELEVATION
 40
0.0
  9
$THICKNESS
 40
0.0
  9
$LIMCHECK
 70
     0
  9
$CHAMFERA
 40
0.0
  9
$CHAMFERB
 40
0.0
  9
$CHAMFERC
 40
0.0
  9
$CHAMFERD
 40
0.0
  9
$SKPOLY
 70
     0
  9
$TDCREATE
 40
2454145.111354167
  9
$TDUCREATE
 40
2454144.778024017
  9
$TDUPDATE
 40
2459716.348159722
  9
$TDUUPDATE
 40
2459716.014826389
  9
$TDINDWG
 40
0.0056191551
  9
$TDUSRTIMER
 40
0.0056189699
  9
$USRTIMER
 70
     1
  9
$ANGBASE
 50
0.0
  9
$ANGDIR
 70
     0
  9
$PDMODE
 70
     0
  9
$PDSIZE
 40
0.0
  9
$PLINEWID
 40
0.0
  9
$SPLFRAME
 70
     0
  9
$SPLINETYPE
 70
     6
  9
$SPLINESEGS
 70
     8
  9
$HANDSEED
  5
1212C
  9
$SURFTAB1
 70
     6
  9
$SURFTAB2
 70
     6
  9
$SURFTYPE
 70
     6
  9
$SURFU
 70
     6
  9
$SURFV
 70
     6
  9
$UCSBASE
  2

  9
$UCSNAME
  2

  9
$UCSORG
 10
0.0
 20
0.0
 30
0.0
  9
$UCSXDIR
 10
1.0
 20
0.0
 30
0.0
  9
$UCSYDIR
 10
0.0
 20
1.0
 30
0.0
  9
$UCSORTHOREF
  2

  9
$UCSORTHOVIEW
 70
     0
  9
$UCSORGTOP
 10
0.0
 20
0.0
 30
0.0
  9
$UCSORGBOTTOM
 10
0.0
 20
0.0
 30
0.0
  9
$UCSORGLEFT
 10
0.0
 20
0.0
 30
0.0
  9
$UCSORGRIGHT
 10
0.0
 20
0.0
 30
0.0
  9
$UCSORGFRONT
 10
0.0
 20
0.0
 30
0.0
  9
$UCSORGBACK
 10
0.0
 20
0.0
 30
0.0
  9
$PUCSBASE
  2

  9
$PUCSNAME
  2

  9
$PUCSORG
 10
0.0
 20
0.0
 30
0.0
  9
$PUCSXDIR
 10
1.0
 20
0.0
 30
0.0
  9
$PUCSYDIR
 10
0.0
 20
1.0
 30
0.0
  9
$PUCSORTHOREF
  2

  9
$PUCSORTHOVIEW
 70
     0
  9
$PUCSORGTOP
 10
0.0
 20
0.0
 30
0.0
  9
$PUCSORGBOTTOM
 10
0.0
 20
0.0
 30
0.0
  9
$PUCSORGLEFT
 10
0.0
 20
0.0
 30
0.0
  9
$PUCSORGRIGHT
 10
0.0
 20
0.0
 30
0.0
  9
$PUCSORGFRONT
 10
0.0
 20
0.0
 30
0.0
  9
$PUCSORGBACK
 10
0.0
 20
0.0
 30
0.0
  9
$USERI1
 70
     0
  9
$USERI2
 70
     0
  9
$USERI3
 70
     0
  9
$USERI4
 70
     0
  9
$USERI5
 70
     0
  9
$USERR1
 40
0.0
  9
$USERR2
 40
0.0
  9
$USERR3
 40
0.0
  9
$USERR4
 40
0.0
  9
$USERR5
 40
0.0
  9
$WORLDVIEW
 70
     1
  9
$SHADEDGE
 70
     3
  9
$SHADEDIF
 70
    70
  9
$TILEMODE
 70
     1
  9
$MAXACTVP
 70
    64
  9
$PINSBASE
 10
0.0
 20
0.0
 30
0.0
  9
$PLIMCHECK
 70
     0
  9
$PEXTMIN
 10
1.05
 20
0.8
 30
0.0
  9
$PEXTMAX
 10
9.45
 20
7.2
 30
0.0
  9
$PLIMMIN
 10
-0.25
 20
-0.25
  9
$PLIMMAX
 10
10.75
 20
8.25
  9
$UNITMODE
 70
     0
  9
$VISRETAIN
 70
     1
  9
$PLINEGEN
 70
     0
  9
$PSLTSCALE
 70
     0
  9
$TREEDEPTH
 70
  3020
  9
$CMLSTYLE
  2
Standard
  9
$CMLJUST
 70
     0
  9
$CMLSCALE
 40
1.0
  9
$PROXYGRAPHICS
 70
     1
  9
$MEASUREMENT
 70
     0
  9
$CELWEIGHT
370
     0
  9
$ENDCAPS
280
     0
  9
$JOINSTYLE
280
     0
  9
$LWDISPLAY
290
     1
  9
$INSUNITS
 70
     4
  9
$HYPERLINKBASE
  1

  9
$STYLESHEET
  1

  9
$XEDIT
290
     1
  9
$CEPSNTYPE
380
     0
  9
$PSTYLEMODE
290
     1
  9
$FINGERPRINTGUID
  2
{59E80CAC-1D76-3040-BB5D-D289675383B0}
  9
$VERSIONGUID
  2
{38E7CD85-556C-4D6E-9C4C-B935CE7E055D}
  9
$EXTNAMES
290
     1
  9
$PSVPSCALE
 40
0.0
  9
$OLESTARTUP
290
     0
  9
$SORTENTS
280
   127
  9
$INDEXCTL
280
     0
  9
$HIDETEXT
280
     1
  9
$XCLIPFRAME
280
     0
  9
$HALOGAP
280
     0
  9
$OBSCOLOR
 70
   257
  9
$OBSLTYPE
280
     0
  9
$INTERSECTIONDISPLAY
280
     0
  9
$INTERSECTIONCOLOR
 70
   257
  9
$DIMASSOC
280
     2
  9
$PROJECTNAME
  1

  9
$CAMERADISPLAY
290
     0
  9
$LENSLENGTH
 40
50.0
  9
$CAMERAHEIGHT
 40
0.0
  9
$STEPSPERSEC
 40
2.0
  9
$STEPSIZE
 40
6.0
  9
$3DDWFPREC
 40
2.0
  9
$PSOLWIDTH
 40
0.25
  9
$PSOLHEIGHT
 40
4.0
  9
$LOFTANG1
 40
1.570796
  9
$LOFTANG2
 40
1.570796
  9
$LOFTMAG1
 40
0.0
  9
$LOFTMAG2
 40
0.0
  9
$LOFTPARAM
 70
     7
  9
$LOFTNORMALS
280
     1
  9
$LATITUDE
 40
37.795
  9
$LONGITUDE
 40
-122.394
  9
$NORTHDIRECTION
 40
0.0
  9
$TIMEZONE
 70
 -8000
  9
$LIGHTGLYPHDISPLAY
280
     1
  9
$TILEMODELIGHTSYNCH
280
     1
  9
$CMATERIAL
347
11A7C
  9
$SOLIDHIST
280
     1
  9
$SHOWHIST
280
     1
  9
$DWFFRAME
280
     2
  9
$DGNFRAME
280
     0
  9
$REALWORLDSCALE
290
     1
  9
$INTERFERECOLOR
 62
     1
  9
$INTERFEREOBJVS
345
11AA4
  9
$INTERFEREVPVS
346
11AA5
  9
$CSHADOW
280
     0
  9
$SHADOWPLANELOCATION
 40
0.0
  0
ENDSEC
  0
SECTION
  2
CLASSES
  0
CLASS
  1
ACDBDICTIONARYWDFLT
  2
AcDbDictionaryWithDefault
  3
ObjectDBX Classes
 90
        0
 91
        1
280
     0
281
     0
  0
CLASS
  1
DICTIONARYVAR
  2
AcDbDictionaryVar
  3
ObjectDBX Classes
 90
        0
 91
        9
280
     0
281
     0
  0
CLASS
  1
TABLESTYLE
  2
AcDbTableStyle
  3
ObjectDBX Classes
 90
     4095
 91
        1
280
     0
281
     0
  0
CLASS
  1
MATERIAL
  2
AcDbMaterial
  3
ObjectDBX Classes
 90
     1153
 91
        4
280
     0
281
     0
  0
CLASS
  1
VISUALSTYLE
  2
AcDbVisualStyle
  3
ObjectDBX Classes
 90
     4095
 91
       24
280
     0
281
     0
  0
CLASS
  1
SCALE
  2
AcDbScale
  3
ObjectDBX Classes
 90
     1153
 91
       33
280
     0
281
     0
  0
CLASS
  1
MLEADERSTYLE
  2
AcDbMLeaderStyle
  3
ACDB_MLEADERSTYLE_CLASS
 90
     4095
 91
        1
280
     0
281
     0
  0
CLASS
  1
EXACXREFPANELOBJECT
  2
ExAcXREFPanelObject
  3
EXAC_ESW
 90
     1025
 91
        0
280
     1
281
     0
  0
CLASS
  1
NPOCOLLECTION
  2
AcDbImpNonPersistentObjectsCollection
  3
ObjectDBX Classes
 90
     1153
 91
        0
280
     0
281
     0
  0
CLASS
  1
CELLSTYLEMAP
  2
AcDbCellStyleMap
  3
ObjectDBX Classes
 90
     1152
 91
        1
280
     0
281
     0
  0
CLASS
  1
ACDBSECTIONVIEWSTYLE
  2
AcDbSectionViewStyle
  3
ObjectDBX Classes
 90
     1025
 91
        1
280
     0
281
     0
  0
CLASS
  1
ACDBDETAILVIEWSTYLE
  2
AcDbDetailViewStyle
  3
ObjectDBX Classes
 90
     1025
 91
        1
280
     0
281
     0
  0
CLASS
  1
SORTENTSTABLE
  2
AcDbSortentsTable
  3
ObjectDBX Classes
 90
        0
 91
        1
280
     0
281
     0
  0
ENDSEC
  0
SECTION
  2
TABLES
  0
TABLE
  2
VPORT
  5
11A70
330
0
100
AcDbSymbolTable
 70
     1
1001
ACAD
1000
DbSaveVer
1071
      224
  0
VPORT
  5
4B
330
11A70
100
AcDbSymbolTableRecord
100
AcDbViewportTableRecord
  2
*ACTIVE
 70
     0
 10
0.0
 20
0.0
 11
1.0
 21
1.0
 12
3733.076064
 22
2627.829326
 13
0.0
 23
0.0
 14
100000.0
 24
100000.0
 15
100000.0
 25
100000.0
 16
0.0
 26
0.0
 36
1.0
 17
0.0
 27
0.0
 37
0.0
 40
4006.08
 41
2.442283
 42
50.0
 43
0.0
 44
0.0
 50
0.0
 51
0.0
 71
     0
 72
 20000
 73
     1
 74
     1
 75
     0
 76
     0
 77
     0
 78
     1
281
     0
 65
     1
110
0.0
120
0.0
130
0.0
111
1.0
121
0.0
131
0.0
112
0.0
122
1.0
132
0.0
 79
     0
146
0.0
348
11A72
 60
     3
 61
     1
292
     0
282
     1
141
0.0
142
0.0
 63
     7
421
 16777215
  0
ENDTAB
  0
TABLE
  2
LTYPE
  5
11A6B
330
0
100
AcDbSymbolTable
 70
     2
  0
LTYPE
  5
11A6C
330
11A6B
100
AcDbSymbolTableRecord
100
AcDbLinetypeTableRecord
  2
ByBlock
 70
     0
  3

 72
    65
 73
     0
 40
0.0
  0
LTYPE
  5
11A6D
330
11A6B
100
AcDbSymbolTableRecord
100
AcDbLinetypeTableRecord
  2
ByLayer
 70
     0
  3

 72
    65
 73
     0
 40
0.0
  0
LTYPE
  5
11A3B
330
11A6B
100
AcDbSymbolTableRecord
100
AcDbLinetypeTableRecord
  2
Continuous
 70
     0
  3
Solid line
 72
    65
 73
     0
 40
0.0
  0
LTYPE
  5
11C0F
330
11A6B
100
AcDbSymbolTableRecord
100
AcDbLinetypeTableRecord
  2
DGN Style 2
 70
     0
  3
Dgn Style 2
 72
    65
 73
     2
 40
97.839801
 49
58.70388
 74
     0
 49
-39.13592
 74
     0
  0
ENDTAB
  0
TABLE
  2
LAYER
  5
11A63
102
{ACAD_XDICTIONARY
360
11A64
102
}
330
0
100
AcDbSymbolTable
 70
   325
  0
LAYER
  5
11A2C
102
{ACAD_XDICTIONARY
360
11A2D
102
}
330
11A63
100
AcDbSymbolTableRecord
100
AcDbLayerTableRecord
  2
0
 70
     0
 62
     3
  6
Continuous
370
    -3
390
11A2F
347
11A32
348
0
1001
AcCmTransparency
1071
 33554687
  0
LAYER
  5
11A9A
330
11A63
100
AcDbSymbolTableRecord
100
AcDbLayerTableRecord
  2
Level 1
 70
     0
 62
     7
  6
Continuous
370
     0
390
11A2F
347
11A32
348
0
1001
AcCmTransparency
1071
 33554687
  0
LAYER
  5
11A3E
330
11A63
100
AcDbSymbolTableRecord
100
AcDbLayerTableRecord
  2
Level 2
 70
     0
 62
     7
  6
Continuous
370
     0
390
11A2F
347
11A32
348
0
1001
AcCmTransparency
1071
 33554687
  0
LAYER
  5
3817
330
11A63
100
AcDbSymbolTableRecord
100
AcDbLayerTableRecord
  2
Level 25
 70
     0
 62
     7
  6
Continuous
370
     0
390
11A2F
347
11A32
348
0
1001
AcAecLayerStandard
1000

1000
Assemblies - Base
1001
AcCmTransparency
1071
 33554687
  0
LAYER
  5
3818
330
11A63
100
AcDbSymbolTableRecord
100
AcDbLayerTableRecord
  2
Level 26
 70
     0
 62
     7
  6
Continuous
370
     0
390
11A2F
347
11A32
348
0
1001
AcAecLayerStandard
1000

1000
Assemblies - Colour Locked
1001
AcCmTransparency
1071
 33554687
  0
LAYER
  5
11A25
330
11A63
100
AcDbSymbolTableRecord
100
AcDbLayerTableRecord
  2
Level 14
 70
     0
 62
     7
  6
Continuous
370
     0
390
11A2F
347
11A32
348
0
1001
AcAecLayerStandard
1000

1000
Fall Zone Individual
1001
AcCmTransparency
1071
 33554687
  0
LAYER
  5
11A26
330
11A63
100
AcDbSymbolTableRecord
100
AcDbLayerTableRecord
  2
Level 27
 70
     0
 62
     7
  6
Continuous
370
     0
390
11A2F
347
11A32
348
0
1001
AcAecLayerStandard
1000

1000
Assemblies - Secondary 27
1001
AcCmTransparency
1071
 33554687
  0
ENDTAB
  0
TABLE
  2
STYLE
  5
11A68
330
0
100
AcDbSymbolTable
 70
     3
  0
STYLE
  5
11A69
330
11A68
100
AcDbSymbolTableRecord
100
AcDbTextStyleTableRecord
  2
Standard
 70
     0
 40
3.0
 41
1.0
 50
0.0
 71
     0
 42
3.0
  3
INTL_ISO.shx
  4

1001
AcadAnnotative
1000
AnnotativeData
1002
{
1070
     1
1070
     0
1002
}
  0
STYLE
  5
11A3F
330
11A68
100
AcDbSymbolTableRecord
100
AcDbTextStyleTableRecord
  2
Style-STANDARD
 70
     0
 40
0.0
 41
1.0
 50
0.0
 71
     0
 42
3.5
  3
STANDARD.shx
  4

1001
AcadAnnotative
1000
AnnotativeData
1002
{
1070
     1
1070
     1
1002
}
  0
STYLE
  5
313
330
11A68
100
AcDbSymbolTableRecord
100
AcDbTextStyleTableRecord
  2
Style-INTL_ISO
 70
     0
 40
0.0
 41
1.0
 50
0.0
 71
     0
 42
3.5
  3
INTL_ISO.shx
  4

  0
ENDTAB
  0
TABLE
  2
VIEW
  5
11A6E
330
0
100
AcDbSymbolTable
 70
     0
  0
ENDTAB
  0
TABLE
  2
UCS
  5
11A6F
330
0
100
AcDbSymbolTable
 70
     0
  0
ENDTAB
  0
TABLE
  2
APPID
  5
11A74
330
0
100
AcDbSymbolTable
 70
     6
  0
APPID
  5
11A75
330
11A74
100
AcDbSymbolTableRecord
100
AcDbRegAppTableRecord
  2
ACAD
 70
     0
  0
APPID
  5
11A62
330
11A74
100
AcDbSymbolTableRecord
100
AcDbRegAppTableRecord
  2
ACAD_PSEXT
 70
     0
  0
APPID
  5
11A3C
330
11A74
100
AcDbSymbolTableRecord
100
AcDbRegAppTableRecord
  2
AcCmTransparency
 70
     0
  0
APPID
  5
11A40
330
11A74
100
AcDbSymbolTableRecord
100
AcDbRegAppTableRecord
  2
AcadAnnotative
 70
     0
  0
APPID
  5
11A48
330
11A74
100
AcDbSymbolTableRecord
100
AcDbRegAppTableRecord
  2
MStation
 70
     0
  0
APPID
  5
11C06
330
11A74
100
AcDbSymbolTableRecord
100
AcDbRegAppTableRecord
  2
AcAecLayerStandard
 70
     0
  0
ENDTAB
  0
TABLE
  2
DIMSTYLE
  5
11A76
330
0
100
AcDbSymbolTable
 70
     1
100
AcDbDimStyleTable
 71
     1
340
11A77
  0
DIMSTYLE
105
11A77
330
11A76
100
AcDbSymbolTableRecord
100
AcDbDimStyleTableRecord
  2
Standard
 70
     0
 42
0.0625
 44
0.18
 78
     3
272
     0
274
     0
278
     0
284
     3
285
     3
286
     3
289
     1
340
11A69
345
11A3B
346
11A3B
347
11A3B
  0
ENDTAB
  0
TABLE
  2
BLOCK_RECORD
  5
11A27
330
0
100
AcDbSymbolTable
 70
     6
  0
BLOCK_RECORD
  5
11A28
102
{ACAD_XDICTIONARY
360
11A29
102
}
330
11A27
100
AcDbSymbolTableRecord
100
AcDbBlockTableRecord
  2
*Model_Space
340
11A5A
 70
     0
280
     1
281
     0
  0
BLOCK_RECORD
  5
11A5D
330
11A27
100
AcDbSymbolTableRecord
100
AcDbBlockTableRecord
  2
*Paper_Space
340
11A60
 70
     0
280
     1
281
     0
  0
ENDTAB
  0
ENDSEC
  0
SECTION
  2
BLOCKS
  0
BLOCK
  5
11A2B
330
11A28
100
AcDbEntity
  8
0
100
AcDbBlockBegin
  2
*Model_Space
 70
     0
 10
0.0
 20
0.0
 30
0.0
  3
*Model_Space
  1

  0
ENDBLK
  5
11A59
330
11A28
100
AcDbEntity
  8
0
100
AcDbBlockEnd
  0
BLOCK
  5
11A5E
330
11A5D
100
AcDbEntity
 67
     1
  8
0
100
AcDbBlockBegin
  2
*Paper_Space
 70
     0
 10
0.0
 20
0.0
 30
0.0
  3
*Paper_Space
  1

  0
ENDBLK
  5
11A5F
330
11A5D
100
AcDbEntity
 67
     1
  8
0
100
AcDbBlockEnd
  0
ENDSEC
  0
SECTION
  2
ENTITIES
  0
MTEXT
  5
11A3D
330
11A28
100
AcDbEntity
  8
Level 2
  6
Continuous
 62
     7
370
    30
100
AcDbMText
 10
454.0
 20
47.166667
 30
0.0
 40
4.999998
 41
0.0
 46
0.0
 71
     5
 72
     1
  1
ENERGEX DRAWING NUMBER,\PDRAWING TITLE\PAND LOGO\P
  7
Style-STANDARD
 73
     2
 44
0.897
  0
TEXT
  5
11A41
330
11A28
100
AcDbEntity
  8
Level 2
  6
Continuous
 62
     7
370
    30
100
AcDbText
 10
681.0
 20
24.5
 30
0.0
 40
4.999998
  1
DRAWING NUMBER
  7
Style-STANDARD
 11
681.0
 21
26.999999
 31
0.0
100
AcDbText
 73
     2
  0
MTEXT
  5
11A42
330
11A28
100
AcDbEntity
  8
Level 2
  6
Continuous
 62
     7
370
    30
100
AcDbMText
 10
710.0
 20
43.166667
 30
0.0
 40
4.999998
 41
0.0
 46
0.0
 71
     5
 72
     1
  1
ElectraNet SA \PDRAWING TITLE\P
  7
Style-STANDARD
 73
     2
 44
0.897
  0
TEXT
  5
11A43
330
11A28
100
AcDbEntity
  8
Level 2
  6
Continuous
 62
     7
370
    30
100
AcDbText
 10
704.0
 20
68.0
 30
0.0
 40
4.999998
  1
ElectraNet SA SUB TITLE
  7
Style-STANDARD
100
AcDbText
  0
ARC
  5
11852
330
11A28
100
AcDbEntity
  8
Level 14
  6
DGN Style 2
 62
     7
370
    13
100
AcDbCircle
 10
2157.576064
 20
2276.829326
 30
0.0
 40
1575.000000000013
100
AcDbArc
 50
223.46858
 51
227.487199
  0
ARC
  5
11853
330
11A28
100
AcDbEntity
  8
Level 14
  6
DGN Style 2
 62
     7
370
    13
100
AcDbCircle
 10
2157.576064
 20
2276.829326
 30
0.0
 40
1575.000000000013
100
AcDbArc
 50
210.384032
 51
223.46901
  0
ARC
  5
11854
330
11A28
100
AcDbEntity
  8
Level 14
  6
DGN Style 2
 62
     7
370
    13
100
AcDbCircle
 10
2157.576064
 20
2276.829326
 30
0.0
 40
1575.000000000013
100
AcDbArc
 50
240.472587
 51
246.646117
  0
ARC
  5
11855
330
11A28
100
AcDbEntity
  8
Level 14
  6
DGN Style 2
 62
     7
370
    13
100
AcDbCircle
 10
2157.576064
 20
2276.829326
 30
0.0
 40
1575.000000000013
100
AcDbArc
 50
246.645777
 51
263.277357
  0
ARC
  5
11856
330
11A28
100
AcDbEntity
  8
Level 14
  6
DGN Style 2
 62
     7
370
    13
100
AcDbCircle
 10
2157.576064
 20
2276.829326
 30
0.0
 40
1575.000000000013
100
AcDbArc
 50
227.486775
 51
240.473221
  0
LWPOLYLINE
  5
11857
330
11A28
100
AcDbEntity
  8
Level 14
  6
DGN Style 2
 62
     7
370
    13
100
AcDbPolyline
 90
        3
 70
   128
 43
0.0
 10
582.576064
 20
2627.833621
 10
582.576064
 20
2276.829326
 42
0.133359
 10
798.90001
 20
1480.196172
  0
LWPOLYLINE
  5
1185A
330
11A28
100
AcDbEntity
  8
Level 14
  6
DGN Style 2
 62
     7
370
    13
100
AcDbPolyline
 90
        3
 70
   128
 43
0.0
 10
1973.192909
 20
712.659306
 42
0.047557
 10
2272.049777
 20
705.994908
 10
3733.080358
 20
812.466726
  0
LINE
  5
1185D
330
11A28
100
AcDbEntity
  8
Level 27
  6
Continuous
 62
     7
370
    13
100
AcDbLine
 10
2263.558125
 20
2246.829326
 30
0.0
 11
2318.576064
 21
2246.829326
 31
0.0
  0
LINE
  5
1185E
330
11A28
100
AcDbEntity
  8
Level 27
  6
Continuous
 62
     7
370
    13
100
AcDbLine
 10
2318.576064
 20
2306.829326
 30
0.0
 11
2262.972318
 21
2306.829326
 31
0.0
  0
LINE
  5
1185F
330
11A28
100
AcDbEntity
  8
Level 27
  6
Continuous
 62
     7
370
    13
100
AcDbLine
 10
2318.576064
 20
2306.829326
 30
0.0
 11
2318.576064
 21
2246.829326
 31
0.0
  0
SPLINE
  5
11860
330
11A28
100
AcDbEntity
  8
Level 26
  6
Continuous
 62
     7
370
    13
100
AcDbSpline
210
0.0
220
0.0
230
1.0
 70
     8
 71
     3
 72
    11
 73
     7
 74
     0
 42
0.000000001
 43
0.0000000001
 40
0.0
 40
0.0
 40
0.0
 40
0.0
 40
0.1768991339144769
 40
0.6075314606508878
 40
0.6075314606508878
 40
1.0
 40
1.0
 40
1.0
 40
1.0
 10
2263.558125351021
 20
2306.830037531071
 30
0.0
 10
2263.557936006418
 20
2306.922456319588
 30
0.0
 10
2263.535737044012
 20
2307.238162183048
 30
0.0
 10
2263.43683703185
 20
2307.547536602271
 30
0.0
 10
2263.239958304294
 20
2307.927481825969
 30
0.0
 10
2263.116622759026
 20
2308.09603761065
 30
0.0
 10
2262.972318026792
 20
2308.240360072253
 30
0.0
  0
LINE
  5
11863
330
11A28
100
AcDbEntity
  8
Level 26
  6
Continuous
 62
     7
370
    13
100
AcDbLine
 10
2263.558125
 20
2306.830037
 30
0.0
 11
2263.558125
 21
2276.329326
 31
0.0
  0
LINE
  5
11864
330
11A28
100
AcDbEntity
  8
Level 26
  6
Continuous
 62
     7
370
    13
100
AcDbLine
 10
2262.972318
 20
2308.24036
 30
0.0
 11
2262.972318
 21
2276.329326
 31
0.0
  0
SPLINE
  5
11865
330
11A28
100
AcDbEntity
  8
Level 26
  6
Continuous
 62
     7
370
    13
100
AcDbSpline
210
0.0
220
0.0
230
1.0
 70
    24
 71
     3
 72
    11
 73
     7
 74
     0
 42
0.000000001
 43
0.0000000001
 40
0.0
 40
0.0
 40
0.0
 40
0.0
 40
0.1768991339144769
 40
0.6075314606508878
 40
0.6075314606508878
 40
1.0
 40
1.0
 40
1.0
 40
1.0
 10
2263.558125351021
 20
2276.329325922078
 30
0.0
 10
2263.557936006418
 20
2276.329325922078
 30
0.0
 10
2263.535737044012
 20
2276.329325922078
 30
0.0
 10
2263.43683703185
 20
2276.329325922078
 30
0.0
 10
2263.239958304294
 20
2276.329325922078
 30
0.0
 10
2263.116622759026
 20
2276.329325922078
 30
0.0
 10
2262.972318026792
 20
2276.329325922078
 30
0.0
  0
LINE
  5
11868
330
11A28
100
AcDbEntity
  8
Level 26
  6
Continuous
 62
     7
370
    13
100
AcDbLine
 10
2263.558125
 20
2276.329326
 30
0.0
 11
2263.558125
 21
2245.828614
 31
0.0
  0
LINE
  5
11869
330
11A28
100
AcDbEntity
  8
Level 26
  6
Continuous
 62
     7
370
    13
100
AcDbLine
 10
2262.972318
 20
2276.329326
 30
0.0
 11
2262.972318
 21
2244.418292
 31
0.0
  0
SPLINE
  5
1186A
330
11A28
100
AcDbEntity
  8
Level 26
  6
Continuous
 62
     7
370
    13
100
AcDbSpline
210
0.0
220
0.0
230
1.0
 70
     8
 71
     3
 72
    11
 73
     7
 74
     0
 42
0.000000001
 43
0.0000000001
 40
0.0
 40
0.0
 40
0.0
 40
0.0
 40
0.3924685393491123
 40
0.8231008660855231
 40
0.8231008660855231
 40
1.0
 40
1.0
 40
1.0
 40
1.0
 10
2262.972318026792
 20
2244.418291771904
 30
0.0
 10
2263.116622759026
 20
2244.562614233506
 30
0.0
 10
2263.372947100497
 20
2244.911257729495
 30
0.0
 10
2263.506939643994
 20
2245.330406973446
 30
0.0
 10
2263.551311212737
 20
2245.643568822547
 30
0.0
 10
2263.557936006418
 20
2245.736195524568
 30
0.0
 10
2263.558125351021
 20
2245.828614313085
 30
0.0
  0
SPLINE
  5
1186D
330
11A28
100
AcDbEntity
  8
Level 26
  6
Continuous
 62
     7
370
    13
100
AcDbSpline
210
0.0
220
0.0
230
1.0
 70
     8
 71
     3
 72
     8
 73
     4
 74
     0
 42
0.000000001
 43
0.0000000001
 40
0.0
 40
0.0
 40
0.0
 40
0.0
 40
1.0
 40
1.0
 40
1.0
 40
1.0
 10
2208.023296210326
 20
2221.330887090008
 30
0.0
 10
2208.018419374198
 20
2220.843340583647
 30
0.0
 10
2208.206460401029
 20
2239.784566322284
 30
0.0
 10
2208.448232921775
 20
2264.385220579836
 30
0.0
  0
SPLINE
  5
11870
330
11A28
100
AcDbEntity
  8
Level 26
  6
Continuous
 62
     7
370
    13
100
AcDbSpline
210
0.0
220
0.0
230
1.0
 70
     8
 71
     3
 72
     8
 73
     4
 74
     0
 42
0.000000001
 43
0.0000000001
 40
0.0
 40
0.0
 40
0.0
 40
0.0
 40
1.0
 40
1.0
 40
1.0
 40
1.0
 10
2209.10410058559
 20
2331.325760631202
 30
0.0
 10
2209.109063172865
 20
2331.834399983677
 30
0.0
 10
2208.915388560885
 20
2312.021597637868
 30
0.0
 10
2208.667519540098
 20
2286.735092707769
 30
0.0
  0
SPLINE
  5
11873
330
11A28
100
AcDbEntity
  8
Level 26
  6
Continuous
 62
     7
370
    13
100
AcDbSpline
210
0.0
220
0.0
230
1.0
 70
     8
 71
     3
 72
    11
 73
     7
 74
     0
 42
0.000000001
 43
0.0000000001
 40
0.0
 40
0.0
 40
0.0
 40
0.0
 40
0.0838488110040077
 40
0.2405671369471025
 40
0.8609572022791574
 40
1.0
 40
1.0
 40
1.0
 40
1.0
 10
2208.242831503295
 20
2286.680692752998
 30
0.0
 10
2208.097707659274
 20
2286.662152406213
 30
0.0
 10
2207.993397877513
 20
2286.173037449231
 30
0.0
 10
2208.078942329515
 20
2284.377646191655
 30
0.0
 10
2208.299912666796
 20
2282.476708900656
 30
0.0
 10
2208.417262328681
 20
2280.890205590365
 30
0.0
 10
2208.436450766422
 20
2280.600401277806
 30
0.0
  0
SPLINE
  5
11876
330
11A28
100
AcDbEntity
  8
Level 26
  6
Continuous
 62
     7
370
    13
100
AcDbSpline
210
0.0
220
0.0
230
1.0
 70
     8
 71
     3
 72
    12
 73
     8
 74
     0
 42
0.000000001
 43
0.0000000001
 40
0.0
 40
0.0
 40
0.0
 40
0.0
 40
0.6291683941156816
 40
0.8006344483845609
 40
0.9401402127874241
 40
0.9876111824000162
 40
1.0
 40
1.0
 40
1.0
 40
1.0
 10
2208.191862482284
 20
2270.581054512835
 30
0.0
 10
2208.045753811241
 20
2269.272594765451
 30
0.0
 10
2207.782352558544
 20
2267.616324654926
 30
0.0
 10
2207.531950176284
 20
2265.669772044267
 30
0.0
 10
2207.485674435286
 20
2264.925782787283
 30
0.0
 10
2207.582196119163
 20
2264.540649016044
 30
0.0
 10
2207.684395932072
 20
2264.516862345564
 30
0.0
 10
2207.701791362831
 20
2264.517453013655
 30
0.0
  0
LINE
  5
11879
330
11A28
100
AcDbEntity
  8
Level 26
  6
Continuous
 62
     7
370
    13
100
AcDbLine
 10
2207.701791
 20
2264.517453
 30
0.0
 11
2208.448233
 21
2264.385221
 31
0.0
  0
LINE
  5
1187A
330
11A28
100
AcDbEntity
  8
Level 26
  6
Continuous
 62
     7
370
    13
100
AcDbLine
 10
2208.66752
 20
2286.735093
 30
0.0
 11
2208.242832
 21
2286.680693
 31
0.0
  0
SPLINE
  5
1187B
330
11A28
100
AcDbEntity
  8
Level 26
  6
Continuous
 62
     7
370
    13
100
AcDbSpline
210
0.0
220
0.0
230
1.0
 70
     8
 71
     3
 72
     8
 73
     4
 74
     0
 42
0.000000001
 43
0.0000000001
 40
0.0
 40
0.0
 40
0.0
 40
0.0
 40
1.0
 40
1.0
 40
1.0
 40
1.0
 10
2209.104100585625
 20
2331.325760634911
 30
0.0
 10
2209.109059676373
 20
2331.834042322321
 30
0.0
 10
2208.915386088617
 20
2312.021345378418
 30
0.0
 10
2208.667519540098
 20
2286.735092707769
 30
0.0
  0
SPLINE
  5
1187E
330
11A28
100
AcDbEntity
  8
Level 26
  6
Continuous
 62
     7
370
    13
100
AcDbSpline
210
0.0
220
0.0
230
1.0
 70
     8
 71
     3
 72
    13
 73
     9
 74
     0
 42
0.000000001
 43
0.0000000001
 40
0.0
 40
0.0
 40
0.0
 40
0.0
 40
0.4062876788065748
 40
0.4062876788065748
 40
0.8305088715153068
 40
0.8305088715153068
 40
0.8305088715153068
 40
1.0
 40
1.0
 40
1.0
 40
1.0
 10
2262.972318026792
 20
2308.240360072252
 30
0.0
 10
2257.336036219645
 20
2314.073370301346
 30
0.0
 10
2250.665901956236
 20
2319.050391253303
 30
0.0
 10
2235.955796519504
 20
2326.700176293098
 30
0.0
 10
2227.663763606103
 20
2329.364217105115
 30
0.0
 10
2219.280158422029
 20
2330.564267134183
 30
0.0
 10
2215.914599949032
 20
2331.046021517253
 30
0.0
 10
2212.508383625833
 20
2331.30095048455
 30
0.0
 10
2209.104279359637
 20
2331.325759332285
 30
0.0
  0
SPLINE
  5
11881
330
11A28
100
AcDbEntity
  8
Level 26
  6
Continuous
 62
     7
370
    13
100
AcDbSpline
210
0.0
220
0.0
230
1.0
 70
     8
 71
     3
 72
    13
 73
     9
 74
     0
 42
0.000000001
 43
0.0000000001
 40
0.0
 40
0.0
 40
0.0
 40
0.0
 40
0.1770073135323675
 40
0.1770073135323675
 40
0.1770073135323675
 40
0.5973892637057052
 40
0.5973892637057052
 40
1.0
 40
1.0
 40
1.0
 40
1.0
 10
2208.554030913534
 20
2221.330887078737
 30
0.0
 10
2212.141188947335
 20
2221.330887078798
 30
0.0
 10
2215.733252413888
 20
2221.586671791158
 30
0.0
 10
2219.280158422029
 20
2222.09438470997
 30
0.0
 10
2227.663763606103
 20
2223.294434739039
 30
0.0
 10
2235.955796519504
 20
2225.958475551056
 30
0.0
 10
2250.665901956236
 20
2233.608260590851
 30
0.0
 10
2257.336036219645
 20
2238.585281542808
 30
0.0
 10
2262.972318026792
 20
2244.418291771902
 30
0.0
  0
LINE
  5
11884
330
11A28
100
AcDbEntity
  8
Level 26
  6
Continuous
 62
     7
370
    13
100
AcDbLine
 10
2208.554031
 20
2221.330887
 30
0.0
 11
2208.554031
 21
2265.101153
 31
0.0
  0
LINE
  5
11885
330
11A28
100
AcDbEntity
  8
Level 26
  6
Continuous
 62
     7
370
    13
100
AcDbLine
 10
2208.951218
 20
2268.336571
 30
0.0
 11
2208.554031
 21
2265.101153
 31
0.0
  0
SPLINE
  5
11886
330
11A28
100
AcDbEntity
  8
Level 26
  6
Continuous
 62
     7
370
    13
100
AcDbSpline
210
0.0
220
0.0
230
1.0
 70
     8
 71
     3
 72
    14
 73
    10
 74
     0
 42
0.000000001
 43
0.0000000001
 40
0.0
 40
0.0
 40
0.0
 40
0.0
 40
0.1998898874164336
 40
0.4345940426261815
 40
0.5009621743071471
 40
0.5681741329641341
 40
0.701583622983594
 40
0.8350145717234999
 40
1.0
 40
1.0
 40
1.0
 40
1.0
 10
2208.951217666518
 20
2284.322081010421
 30
0.0
 10
2209.026580766817
 20
2283.258788354074
 30
0.0
 10
2209.173980018895
 20
2280.946184374874
 30
0.0
 10
2208.912781013463
 20
2278.26157512383
 30
0.0
 10
2208.532669575312
 20
2276.310112086438
 30
0.0
 10
2208.852633728608
 20
2274.891995686861
 30
0.0
 10
2209.01181625523
 20
2273.111628833325
 30
0.0
 10
2209.139938187952
 20
2270.798292373056
 30
0.0
 10
2209.018408030697
 20
2269.213020122115
 30
0.0
 10
2208.951217666536
 20
2268.336570833804
 30
0.0
  0
LINE
  5
11889
330
11A28
100
AcDbEntity
  8
Level 26
  6
Continuous
 62
     7
370
    13
100
AcDbLine
 10
2208.66752
 20
2286.735093
 30
0.0
 11
2208.951218
 21
2284.322081
 31
0.0
  0
LINE
  5
1188A
330
11A28
100
AcDbEntity
  8
Level 26
  6
Continuous
 62
     7
370
    13
100
AcDbLine
 10
2208.702305
 20
2290.284161
 30
0.0
 11
2208.713663
 21
2291.443111
 31
0.0
  0
LINE
  5
1188B
330
11A28
100
AcDbEntity
  8
Level 26
  6
Continuous
 62
     7
370
    13
100
AcDbLine
 10
2208.940782
 20
2314.632956
 30
0.0
 11
2208.956146
 21
2316.202694
 31
0.0
  0
LINE
  5
1188C
330
11A28
100
AcDbEntity
  8
Level 26
  6
Continuous
 62
     7
370
    13
100
AcDbLine
 10
2209.026186
 20
2323.360265
 30
0.0
 11
2209.036978
 21
2324.46336
 31
0.0
  0
SPLINE
  5
1188D
330
11A28
100
AcDbEntity
  8
Level 26
  6
Continuous
 62
     7
370
    13
100
AcDbSpline
210
0.0
220
0.0
230
1.0
 70
     8
 71
     3
 72
     8
 73
     4
 74
     0
 42
0.000000001
 43
0.0000000001
 40
0.0
 40
0.0
 40
0.0
 40
0.0
 40
1.0
 40
1.0
 40
1.0
 40
1.0
 10
2209.066522741751
 20
2327.483632987821
 30
0.0
 10
2209.072264109015
 20
2328.070601249408
 30
0.0
 10
2209.077537147027
 20
2328.609704187357
 30
0.0
 10
2209.081953524485
 20
2329.061252621686
 30
0.0
  0
SPLINE
  5
11890
330
11A28
100
AcDbEntity
  8
Level 26
  6
Continuous
 62
     7
370
    13
100
AcDbSpline
210
0.0
220
0.0
230
1.0
 70
     8
 71
     3
 72
     8
 73
     4
 74
     0
 42
0.000000001
 43
0.0000000001
 40
0.0
 40
0.0
 40
0.0
 40
0.0
 40
1.0
 40
1.0
 40
1.0
 40
1.0
 10
2209.081953524485
 20
2329.061252621686
 30
0.0
 10
2209.086204958098
 20
2329.495933256513
 30
0.0
 10
2209.089990534373
 20
2329.882990143007
 30
0.0
 10
2209.092986154189
 20
2330.189291217294
 30
0.0
  0
SPLINE
  5
11893
330
11A28
100
AcDbEntity
  8
Level 26
  6
Continuous
 62
     7
370
    13
100
AcDbSpline
210
0.0
220
0.0
230
1.0
 70
     8
 71
     3
 72
     8
 73
     4
 74
     0
 42
0.000000001
 43
0.0000000001
 40
0.0
 40
0.0
 40
0.0
 40
0.0
 40
1.0
 40
1.0
 40
1.0
 40
1.0
 10
2209.092986154189
 20
2330.189291217294
 30
0.0
 10
2209.096473184112
 20
2330.545835483739
 30
0.0
 10
2209.098996252349
 20
2330.803822247153
 30
0.0
 10
2209.100890745692
 20
2330.997542170189
 30
0.0
  0
SPLINE
  5
11896
330
11A28
100
AcDbEntity
  8
Level 26
  6
Continuous
 62
     7
370
    13
100
AcDbSpline
210
0.0
220
0.0
230
1.0
 70
     8
 71
     3
 72
     8
 73
     4
 74
     0
 42
0.000000001
 43
0.0000000001
 40
0.0
 40
0.0
 40
0.0
 40
0.0
 40
1.0
 40
1.0
 40
1.0
 40
1.0
 10
2209.100890745692
 20
2330.997542170189
 30
0.0
 10
2209.103288095043
 20
2331.24267897613
 30
0.0
 10
2209.103751263615
 20
2331.290040370829
 30
0.0
 10
2209.104100585625
 20
2331.325760634911
 30
0.0
  0
SPLINE
  5
11899
330
11A28
100
AcDbEntity
  8
Level 26
  6
Continuous
 62
     7
370
    13
100
AcDbSpline
210
0.0
220
0.0
230
1.0
 70
     8
 71
     3
 72
     9
 73
     5
 74
     0
 42
0.000000001
 43
0.0000000001
 40
0.0
 40
0.0
 40
0.0
 40
0.0
 40
0.4306323267364109
 40
0.8231008660855231
 40
0.8231008660855231
 40
0.8231008660855231
 40
0.8231008660855231
 10
2263.538345962457
 20
2307.106588052113
 30
0.0
 10
2263.506939643994
 20
2307.328244870712
 30
0.0
 10
2263.37528704406
 20
2307.742535613815
 30
0.0
 10
2263.116622759026
 20
2308.09603761065
 30
0.0
 10
2262.972318026792
 20
2308.240360072253
 30
0.0
  0
SPLINE
  5
1189F
330
11A28
100
AcDbEntity
  8
Level 26
  6
Continuous
 62
     7
370
    13
100
AcDbSpline
210
0.0
220
0.0
230
1.0
 70
     8
 71
     3
 72
     8
 73
     4
 74
     0
 42
0.000000001
 43
0.0000000001
 40
0.0
 40
0.0
 40
0.0
 40
0.0
 40
0.2115287722938963
 40
0.2115287722938963
 40
0.2115287722938963
 40
0.2115287722938963
 10
2209.104100585589
 20
2331.325760631202
 30
0.0
 10
2209.105150315582
 20
2331.433352488971
 30
0.0
 10
2209.097312139006
 20
2330.631673193738
 30
0.0
 10
2209.081953168239
 20
2329.06125262517
 30
0.0
  0
SPLINE
  5
118A2
330
11A28
100
AcDbEntity
  8
Level 26
  6
Continuous
 62
     7
370
    13
100
AcDbSpline
210
0.0
220
0.0
230
1.0
 70
     8
 71
     3
 72
     8
 73
     4
 74
     0
 42
0.000000001
 43
0.0000000001
 40
0.0
 40
0.0
 40
0.0
 40
0.0
 40
0.0055899207336005
 40
0.0055899207336005
 40
0.0055899207336005
 40
0.0055899207336005
 10
2208.242831503295
 20
2286.680692752998
 30
0.0
 10
2208.233156580361
 20
2286.679456729879
 30
0.0
 10
2208.223965066512
 20
2286.677545422699
 30
0.0
 10
2208.215229349542
 20
2286.67500339865
 30
0.0
  0
SPLINE
  5
118A5
330
11A28
100
AcDbEntity
  8
Level 26
  6
Continuous
 62
     7
370
    13
100
AcDbSpline
210
0.0
220
0.0
230
1.0
 70
     8
 71
     3
 72
     8
 73
     4
 74
     0
 42
0.000000001
 43
0.0000000001
 40
0.0
 40
0.0
 40
0.0
 40
0.0
 40
0.0185390396961137
 40
0.0185390396961137
 40
0.0185390396961137
 40
0.0185390396961137
 10
2208.428653107623
 20
2280.716356033994
 30
0.0
 10
2208.431293016996
 20
2280.677694248106
 30
0.0
 10
2208.433892308057
 20
2280.639041852813
 30
0.0
 10
2208.436450766422
 20
2280.600401277806
 30
0.0
  0
SPLINE
  5
118A8
330
11A28
100
AcDbEntity
  8
Level 26
  6
Continuous
 62
     7
370
    13
100
AcDbSpline
210
0.0
220
0.0
230
1.0
 70
     8
 71
     3
 72
     8
 73
     4
 74
     0
 42
0.000000001
 43
0.0000000001
 40
0.0
 40
0.0
 40
0.0
 40
0.0
 40
0.0838891192154242
 40
0.0838891192154242
 40
0.0838891192154242
 40
0.0838891192154242
 10
2208.191862482284
 20
2270.581054512835
 30
0.0
 10
2208.172381326145
 20
2270.406593213183
 30
0.0
 10
2208.151817825971
 20
2270.232254597179
 30
0.0
 10
2208.130389712084
 20
2270.058020203586
 30
0.0
  0
SPLINE
  5
118AB
330
11A28
100
AcDbEntity
  8
Level 26
  6
Continuous
 62
     7
370
    13
100
AcDbSpline
210
0.0
220
0.0
230
1.0
 70
     8
 71
     3
 72
     8
 73
     4
 74
     0
 42
0.000000001
 43
0.0000000001
 40
0.0
 40
0.0
 40
0.0
 40
0.0
 40
0.2115212383888081
 40
0.2115212383888081
 40
0.2115212383888081
 40
0.2115212383888081
 10
2209.104100585626
 20
2331.325760634911
 30
0.0
 10
2209.105149538642
 20
2331.433273006882
 30
0.0
 10
2209.097311420453
 20
2330.631599712917
 30
0.0
 10
2209.081953168287
 20
2329.061252625169
 30
0.0
  0
SPLINE
  5
118AE
330
11A28
100
AcDbEntity
  8
Level 26
  6
Continuous
 62
     7
370
    13
100
AcDbSpline
210
0.0
220
0.0
230
1.0
 70
     8
 71
     3
 72
    11
 73
     7
 74
     0
 42
0.000000001
 43
0.0000000001
 40
0.0
 40
0.0
 40
0.0
 40
0.0
 40
0.4242211927087288
 40
0.4242211927087288
 40
0.4242211927087288
 40
0.5937123211934284
 40
0.5937123211934284
 40
0.5937123211934284
 40
0.5937123211934284
 10
2243.469576866835
 20
2322.792739684942
 30
0.0
 10
2235.955796519504
 20
2326.700176293098
 30
0.0
 10
2227.663763606103
 20
2329.364217105115
 30
0.0
 10
2219.280158422029
 20
2330.564267134183
 30
0.0
 10
2215.914599949032
 20
2331.046021517253
 30
0.0
 10
2212.508383625833
 20
2331.30095048455
 30
0.0
 10
2209.104279359637
 20
2331.325759332285
 30
0.0
  0
SPLINE
  5
118B1
330
11A28
100
AcDbEntity
  8
Level 26
  6
Continuous
 62
     7
370
    13
100
AcDbSpline
210
0.0
220
0.0
230
1.0
 70
     8
 71
     3
 72
    10
 73
     6
 74
     0
 42
0.000000001
 43
0.0000000001
 40
0.0
 40
0.0
 40
0.0
 40
0.0
 40
0.4203819501733377
 40
0.4203819501733377
 40
0.8229926864676324
 40
0.8229926864676324
 40
0.8229926864676324
 40
0.8229926864676324
 10
2219.280158422029
 20
2222.09438470997
 30
0.0
 10
2227.663763606103
 20
2223.294434739039
 30
0.0
 10
2235.955796519504
 20
2225.958475551056
 30
0.0
 10
2250.665901956236
 20
2233.608260590851
 30
0.0
 10
2257.336036219645
 20
2238.585281542808
 30
0.0
 10
2262.972318026792
 20
2244.418291771902
 30
0.0
  0
SPLINE
  5
118B4
330
11A28
100
AcDbEntity
  8
Level 26
  6
Continuous
 62
     7
370
    13
100
AcDbSpline
210
0.0
220
0.0
230
1.0
 70
     8
 71
     3
 72
     8
 73
     4
 74
     0
 42
0.000000001
 43
0.0000000001
 40
0.0
 40
0.0
 40
0.0
 40
0.0
 40
0.0265472526723862
 40
0.0265472526723862
 40
0.0265472526723862
 40
0.0265472526723862
 10
2208.639838306169
 20
2276.806948809184
 30
0.0
 10
2208.621457797719
 20
2276.666156048839
 30
0.0
 10
2208.608795691579
 20
2276.525393191684
 30
0.0
 10
2208.607037417296
 20
2276.384577134595
 30
0.0
  0
SPLINE
  5
118B7
330
11A28
100
AcDbEntity
  8
Level 26
  6
Continuous
 62
     7
370
    13
100
AcDbSpline
210
0.0
220
0.0
230
1.0
 70
     8
 71
     3
 72
     8
 73
     4
 74
     0
 42
0.000000001
 43
0.0000000001
 40
0.0
 40
0.0
 40
0.0
 40
0.0
 40
0.0190433882861466
 40
0.0190433882861466
 40
0.0190433882861466
 40
0.0190433882861466
 10
2208.60909257284
 20
2276.242845195637
 30
0.0
 10
2208.613276086119
 20
2276.141801715247
 30
0.0
 10
2208.623024463301
 20
2276.040723851405
 30
0.0
 10
2208.636252233291
 20
2275.939612110221
 30
0.0
  0
ARC
  5
118BA
330
11A28
100
AcDbEntity
  8
Level 26
  6
Continuous
 62
     7
370
    13
100
AcDbCircle
 10
-2157.576064
 20
2276.829326
 30
0.0
 40
51.0
210
0.0
220
0.0
230
-1.0
100
AcDbArc
 50
0.0
 51
359.999994
  0
SPLINE
  5
118BB
330
11A28
100
AcDbEntity
  8
Level 26
  6
Continuous
 62
     7
370
    13
100
AcDbSpline
210
0.0
220
0.0
230
1.0
 70
     8
 71
     3
 72
     8
 73
     4
 74
     0
 42
0.000000001
 43
0.0000000001
 40
0.0
 40
0.0
 40
0.0
 40
0.0
 40
1.0
 40
1.0
 40
1.0
 40
1.0
 10
2208.958977318893
 20
2316.491952625755
 30
0.0
 10
2208.96655557508
 20
2317.266266351599
 30
0.0
 10
2208.973882553797
 20
2318.014951956132
 30
0.0
 10
2208.980942899795
 20
2318.736431304884
 30
0.0
  0
SPLINE
  5
118BD
330
11A28
100
AcDbEntity
  8
Level 26
  6
Continuous
 62
     7
370
    13
100
AcDbSpline
210
0.0
220
0.0
230
1.0
 70
     8
 71
     3
 72
     9
 73
     5
 74
     0
 42
0.000000001
 43
0.0000000001
 40
0.0
 40
0.0
 40
0.0
 40
0.0
 40
0.5
 40
1.0
 40
1.0
 40
1.0
 40
1.0
 10
2209.072379833785
 20
2328.082437872351
 30
0.0
 10
2209.093318853
 20
2330.223181791899
 30
0.0
 10
2209.113095086928
 20
2332.245570166794
 30
0.0
 10
2209.096597054728
 20
2330.558423507744
 30
0.0
 10
2209.081953595264
 20
2329.061252620994
 30
0.0
  0
SPLINE
  5
118BF
330
11A28
100
AcDbEntity
  8
Level 26
  6
Continuous
 62
     7
370
    13
100
AcDbSpline
210
0.0
220
0.0
230
1.0
 70
     8
 71
     3
 72
     9
 73
     5
 74
     0
 42
0.000000001
 43
0.0000000001
 40
0.0
 40
0.0
 40
0.0
 40
0.0
 40
0.5
 40
1.0
 40
1.0
 40
1.0
 40
1.0
 10
2209.081953600054
 20
2329.061252620947
 30
0.0
 10
2209.096597215209
 20
2330.55843883962
 30
0.0
 10
2209.111604035717
 20
2332.093090038455
 30
0.0
 10
2209.096597054729
 20
2330.558423507737
 30
0.0
 10
2209.081953595267
 20
2329.061252620994
 30
0.0
  0
LINE
  5
118C1
330
11A28
100
AcDbEntity
  8
Level 27
  6
Continuous
 62
     7
370
    13
100
AcDbLine
 10
2318.576064
 20
2306.829326
 30
0.0
 11
2413.171214
 21
2306.829326
 31
0.0
  0
LINE
  5
118C2
330
11A28
100
AcDbEntity
  8
Level 27
  6
Continuous
 62
     7
370
    13
100
AcDbLine
 10
2413.171214
 20
2246.829326
 30
0.0
 11
2318.576064
 21
2246.829326
 31
0.0
  0
ARC
  5
118C3
330
11A28
100
AcDbEntity
  8
Level 26
  6
Continuous
 62
     7
370
    13
100
AcDbCircle
 10
2157.576064
 20
2276.829326
 30
0.0
 40
75.0
100
AcDbArc
 50
46.593455
 51
58.718633
  0
ARC
  5
118C4
330
11A28
100
AcDbEntity
  8
Level 26
  6
Continuous
 62
     7
370
    13
100
AcDbCircle
 10
2157.576064
 20
2276.829326
 30
0.0
 40
75.0
100
AcDbArc
 50
121.281367
 51
312.283194
  0
ARC
  5
118C5
330
11A28
100
AcDbEntity
  8
Level 26
  6
Continuous
 62
     7
370
    13
100
AcDbCircle
 10
2138.576064
 20
2467.829326
 30
0.0
 40
9.999999999999998
100
AcDbArc
 50
180.0
 51
270.0
  0
ARC
  5
118C6
330
11A28
100
AcDbEntity
  8
Level 26
  6
Continuous
 62
     7
370
    13
100
AcDbCircle
 10
-2223.576064
 20
2502.842582
 30
0.0
 40
10.99999999999999
210
0.0
220
0.0
230
-1.0
100
AcDbArc
 50
0.0
 51
359.999994
  0
LINE
  5
118C7
330
11A28
100
AcDbEntity
  8
Level 26
  6
Continuous
 62
     7
370
    13
100
AcDbLine
 10
2138.576064
 20
2452.829326
 30
0.0
 11
2138.576064
 21
2457.829326
 31
0.0
  0
LINE
  5
118C8
330
11A28
100
AcDbEntity
  8
Level 26
  6
Continuous
 62
     7
370
    13
100
AcDbLine
 10
2123.576064
 20
2467.829326
 30
0.0
 11
2128.576064
 21
2467.829326
 31
0.0
  0
ARC
  5
118C9
330
11A28
100
AcDbEntity
  8
Level 26
  6
Continuous
 62
     7
370
    13
100
AcDbCircle
 10
-2138.576064
 20
2467.829326
 30
0.0
 40
14.99999999999999
210
0.0
220
0.0
230
-1.0
100
AcDbArc
 50
270.0
 51
0.0
  0
LINE
  5
118CA
330
11A28
100
AcDbEntity
  8
Level 26
  6
Continuous
 62
     7
370
    13
100
AcDbLine
 10
2123.576064
 20
2467.829326
 30
0.0
 11
2123.576064
 21
2627.833621
 31
0.0
  0
LINE
  5
118CB
330
11A28
100
AcDbEntity
  8
Level 26
  6
Continuous
 62
     7
370
    13
100
AcDbLine
 10
2413.171214
 20
2452.829326
 30
0.0
 11
2138.576064
 21
2452.829326
 31
0.0
  0
LINE
  5
118CC
330
11A28
100
AcDbEntity
  8
Level 26
  6
Continuous
 62
     7
370
    13
100
AcDbLine
 10
2128.576064
 20
2627.833621
 30
0.0
 11
2128.576064
 21
2467.829326
 31
0.0
  0
LINE
  5
118CD
330
11A28
100
AcDbEntity
  8
Level 26
  6
Continuous
 62
     7
370
    13
100
AcDbLine
 10
2138.576064
 20
2457.829326
 30
0.0
 11
2413.171214
 21
2457.829326
 31
0.0
  0
ARC
  5
118CE
330
11A28
100
AcDbEntity
  8
Level 26
  6
Continuous
 62
     7
370
    13
100
AcDbCircle
 10
2157.576064
 20
2276.829326
 30
0.0
 40
75.0
100
AcDbArc
 50
58.705997
 51
121.294003
  0
ARC
  5
118CF
330
11A28
100
AcDbEntity
  8
Level 27
  6
Continuous
 62
     7
370
    13
100
AcDbCircle
 10
2478.576064
 20
2276.829326
 30
0.0
 40
30.0
100
AcDbArc
 50
270.0
 51
55.481892
  0
SPLINE
  5
118D0
330
11A28
100
AcDbEntity
  8
Level 27
  6
Continuous
 62
     7
370
    13
100
AcDbSpline
210
0.0
220
0.0
230
1.0
 70
     8
 71
     3
 72
     8
 73
     4
 74
     0
 42
0.000000001
 43
0.0000000001
 40
0.0
 40
0.0
 40
0.0
 40
0.0
 40
1.0
 40
1.0
 40
1.0
 40
1.0
 10
2490.892585679299
 20
2304.001781285151
 30
0.0
 10
2489.384759817062
 20
2304.656050345672
 30
0.0
 10
2487.576824224897
 20
2305.314570856676
 30
0.0
 10
2485.55301803375
 20
2305.825643018678
 30
0.0
  0
LINE
  5
118D2
330
11A28
100
AcDbEntity
  8
Level 27
  6
Continuous
 62
     7
370
    13
100
AcDbLine
 10
2413.162624
 20
2306.829326
 30
0.0
 11
2477.672939
 21
2306.829326
 31
0.0
  0
LINE
  5
118D3
330
11A28
100
AcDbEntity
  8
Level 27
  6
Continuous
 62
     7
370
    13
100
AcDbLine
 10
2478.576064
 20
2246.829326
 30
0.0
 11
2413.162624
 21
2246.829326
 31
0.0
  0
LINE
  5
118D4
330
11A28
100
AcDbEntity
  8
Level 27
  6
Continuous
 62
     7
370
    13
100
AcDbLine
 10
2461.576064
 20
2340.926406
 30
0.0
 11
2461.576064
 21
2306.829326
 31
0.0
  0
LINE
  5
118D5
330
11A28
100
AcDbEntity
  8
Level 27
  6
Continuous
 62
     7
370
    13
100
AcDbLine
 10
2495.576064
 20
2301.54774
 30
0.0
 11
2495.576064
 21
2340.926406
 31
0.0
  0
ARC
  5
118D6
330
11A28
100
AcDbEntity
  8
Level 26
  6
Continuous
 62
     7
370
    13
100
AcDbCircle
 10
-2453.576064
 20
2502.842582
 30
0.0
 40
10.99999999999999
210
0.0
220
0.0
230
-1.0
100
AcDbArc
 50
0.0
 51
136.658242
  0
ARC
  5
118D7
330
11A28
100
AcDbEntity
  8
Level 26
  6
Continuous
 62
     7
370
    13
100
AcDbCircle
 10
-2453.576064
 20
2502.842582
 30
0.0
 40
10.99999999999999
210
0.0
220
0.0
230
-1.0
100
AcDbArc
 50
223.341758
 51
0.0
  0
LINE
  5
118D8
330
11A28
100
AcDbEntity
  8
Level 25
  6
Continuous
 62
     7
370
    13
100
AcDbLine
 10
2623.576064
 20
2417.094462
 30
0.0
 11
2623.576064
 21
2385.376065
 31
0.0
  0
LINE
  5
118D9
330
11A28
100
AcDbEntity
  8
Level 25
  6
Continuous
 62
     7
370
    13
100
AcDbLine
 10
2623.576064
 20
2417.094462
 30
0.0
 11
2495.576064
 21
2417.094462
 31
0.0
  0
LINE
  5
118DA
330
11A28
100
AcDbEntity
  8
Level 25
  6
Continuous
 62
     7
370
    13
100
AcDbLine
 10
2623.576064
 20
2385.376065
 30
0.0
 11
2495.576064
 21
2385.376065
 31
0.0
  0
LINE
  5
118DB
330
11A28
100
AcDbEntity
  8
Level 25
  6
Continuous
 62
     7
370
    13
100
AcDbLine
 10
2623.576064
 20
2417.094462
 30
0.0
 11
2623.576064
 21
2433.483816
 31
0.0
  0
LINE
  5
118DC
330
11A28
100
AcDbEntity
  8
Level 25
  6
Continuous
 62
     7
370
    13
100
AcDbLine
 10
2623.576064
 20
2433.483816
 30
0.0
 11
2809.35785
 21
2433.483816
 31
0.0
  0
LINE
  5
118DD
330
11A28
100
AcDbEntity
  8
Level 25
  6
Continuous
 62
     7
370
    13
100
AcDbLine
 10
2623.576064
 20
2433.483816
 30
0.0
 11
2495.576064
 21
2433.483816
 31
0.0
  0
LINE
  5
118DE
330
11A28
100
AcDbEntity
  8
Level 25
  6
Continuous
 62
     7
370
    13
100
AcDbLine
 10
2623.576064
 20
2380.629341
 30
0.0
 11
2623.576064
 21
2385.376065
 31
0.0
  0
LINE
  5
118DF
330
11A28
100
AcDbEntity
  8
Level 25
  6
Continuous
 62
     7
370
    13
100
AcDbLine
 10
2623.576064
 20
2380.629341
 30
0.0
 11
2765.640572
 21
2380.629341
 31
0.0
  0
LINE
  5
118E0
330
11A28
100
AcDbEntity
  8
Level 25
  6
Continuous
 62
     7
370
    13
100
AcDbLine
 10
2623.576064
 20
2380.629341
 30
0.0
 11
2495.576064
 21
2380.629341
 31
0.0
  0
LINE
  5
118E1
330
11A28
100
AcDbEntity
  8
Level 25
  6
Continuous
 62
     7
370
    13
100
AcDbLine
 10
2623.576064
 20
2462.972125
 30
0.0
 11
2495.576064
 21
2462.972125
 31
0.0
  0
LINE
  5
118E2
330
11A28
100
AcDbEntity
  8
Level 25
  6
Continuous
 62
     7
370
    13
100
AcDbLine
 10
2623.576064
 20
2433.483816
 30
0.0
 11
2623.576064
 21
2462.972125
 31
0.0
  0
LINE
  5
118E3
330
11A28
100
AcDbEntity
  8
Level 25
  6
Continuous
 62
     7
370
    13
100
AcDbLine
 10
2623.576064
 20
2462.972125
 30
0.0
 11
2791.126309
 21
2462.972125
 31
0.0
  0
ELLIPSE
  5
118E4
330
11A28
100
AcDbEntity
  8
Level 25
  6
Continuous
 62
     7
370
    13
100
AcDbEllipse
 10
2813.466342
 20
2462.972125
 30
0.0
 11
0.0
 21
30.0
 31
0.0
210
0.0
220
0.0
230
-1.0
 40
0.744667757396779
 41
3.326552569108514
 42
4.712388980384679
  0
LINE
  5
118E5
330
11A28
100
AcDbEntity
  8
Level 25
  6
Continuous
 62
     7
370
    13
100
AcDbLine
 10
2623.576064
 20
2380.629341
 30
0.0
 11
2623.576064
 21
2380.615749
 31
0.0
  0
ELLIPSE
  5
118E6
330
11A28
100
AcDbEntity
  8
Level 25
  6
Continuous
 62
     7
370
    13
100
AcDbEllipse
 10
2765.026769
 20
2405.615749
 30
0.0
 11
0.0
 21
-25.0
 31
0.0
210
0.0
220
0.0
230
1.0
 40
0.7446677573967792
 41
-0.0000000000000036
 42
0.0329765403642796
  0
LINE
  5
118E7
330
11A28
100
AcDbEntity
  8
Level 25
  6
Continuous
 62
     7
370
    13
100
AcDbLine
 10
2765.026769
 20
2380.615749
 30
0.0
 11
2623.576064
 21
2380.615749
 31
0.0
  0
LINE
  5
118E8
330
11A28
100
AcDbEntity
  8
Level 25
  6
Continuous
 62
     7
370
    13
100
AcDbLine
 10
2495.576064
 20
2380.615749
 30
0.0
 11
2623.576064
 21
2380.615749
 31
0.0
  0
LINE
  5
118E9
330
11A28
100
AcDbEntity
  8
Level 26
  6
Continuous
 62
     7
370
    13
100
AcDbLine
 10
2461.576064
 20
2452.829326
 30
0.0
 11
2413.162624
 21
2452.829326
 31
0.0
  0
LINE
  5
118EA
330
11A28
100
AcDbEntity
  8
Level 26
  6
Continuous
 62
     7
370
    13
100
AcDbLine
 10
2413.162624
 20
2457.829326
 30
0.0
 11
2461.576064
 21
2457.829326
 31
0.0
  0
LINE
  5
118EB
330
11A28
100
AcDbEntity
  8
Level 25
  6
Continuous
 62
     7
370
    13
100
AcDbLine
 10
2765.026769
 20
2380.615749
 30
0.0
 11
2853.140929
 21
2380.615749
 31
0.0
  0
LINE
  5
118EC
330
11A28
100
AcDbEntity
  8
Level 25
  6
Continuous
 62
     7
370
    13
100
AcDbLine
 10
2623.576064
 20
2462.972125
 30
0.0
 11
2623.576064
 21
2627.833621
 31
0.0
  0
LINE
  5
118ED
330
11A28
100
AcDbEntity
  8
Level 25
  6
Continuous
 62
     7
370
    13
100
AcDbLine
 10
2791.126309
 20
2462.972125
 30
0.0
 11
2791.126309
 21
2627.833621
 31
0.0
  0
LINE
  5
118EE
330
11A28
100
AcDbEntity
  8
Level 25
  6
Continuous
 62
     7
370
    13
100
AcDbLine
 10
2853.140929
 20
2422.483284
 30
0.0
 11
2809.35785
 21
2433.483816
 31
0.0
  0
LINE
  5
118EF
330
11A28
100
AcDbEntity
  8
Level 25
  6
Continuous
 62
     7
370
    13
100
AcDbLine
 10
2623.576064
 20
2417.094462
 30
0.0
 11
2853.140929
 21
2417.094462
 31
0.0
  0
LINE
  5
118F0
330
11A28
100
AcDbEntity
  8
Level 25
  6
Continuous
 62
     7
370
    13
100
AcDbLine
 10
2623.576064
 20
2385.376065
 30
0.0
 11
2853.140929
 21
2385.376065
 31
0.0
  0
LINE
  5
118F1
330
11A28
100
AcDbEntity
  8
Level 25
  6
Continuous
 62
     7
370
    13
100
AcDbLine
 10
2765.640572
 20
2380.629341
 30
0.0
 11
2853.140929
 21
2384.505574
 31
0.0
  0
LINE
  5
118F2
330
11A28
100
AcDbEntity
  8
Level 25
  6
Continuous
 62
     7
370
    13
100
AcDbLine
 10
2853.140929
 20
2462.972125
 30
0.0
 11
2791.126309
 21
2462.972125
 31
0.0
  0
LINE
  5
118F3
330
11A28
100
AcDbEntity
  8
Level 25
  6
Continuous
 62
     7
370
    13
100
AcDbLine
 10
2853.140929
 20
2433.483816
 30
0.0
 11
2809.35785
 21
2433.483816
 31
0.0
  0
LINE
  5
118F4
330
11A28
100
AcDbEntity
  8
Level 25
  6
Continuous
 62
     7
370
    13
100
AcDbLine
 10
2853.140929
 20
2380.629341
 30
0.0
 11
2765.640572
 21
2380.629341
 31
0.0
  0
LINE
  5
118F5
330
11A28
100
AcDbEntity
  8
Level 27
  6
Continuous
 62
     7
370
    13
100
AcDbLine
 10
2461.576064
 20
2627.833621
 30
0.0
 11
2461.576064
 21
2340.917816
 31
0.0
  0
LINE
  5
118F6
330
11A28
100
AcDbEntity
  8
Level 27
  6
Continuous
 62
     7
370
    13
100
AcDbLine
 10
2495.576064
 20
2340.917816
 30
0.0
 11
2495.576064
 21
2627.833621
 31
0.0
  0
ELLIPSE
  5
118F7
330
11A28
100
AcDbEntity
  8
Level 25
  6
Continuous
 62
     7
370
    13
100
AcDbEllipse
 10
2872.397777
 20
2401.367348
 30
0.0
 11
0.0
 21
-16.0
 31
0.0
210
0.0
220
0.0
230
1.0
 40
0.7446677573967785
 41
0.0330106275348943
 42
2.956638036685114
  0
LINE
  5
118F8
330
11A28
100
AcDbEntity
  8
Level 25
  6
Continuous
 62
     7
370
    13
100
AcDbLine
 10
2874.588911
 20
2417.094462
 30
0.0
 11
2853.132339
 21
2422.485442
 31
0.0
  0
LINE
  5
118F9
330
11A28
100
AcDbEntity
  8
Level 25
  6
Continuous
 62
     7
370
    13
100
AcDbLine
 10
2853.132339
 20
2417.094462
 30
0.0
 11
2874.588911
 21
2417.094462
 31
0.0
  0
LINE
  5
118FA
330
11A28
100
AcDbEntity
  8
Level 25
  6
Continuous
 62
     7
370
    13
100
AcDbLine
 10
2853.132339
 20
2385.376065
 30
0.0
 11
2872.791017
 21
2385.376065
 31
0.0
  0
LINE
  5
118FB
330
11A28
100
AcDbEntity
  8
Level 25
  6
Continuous
 62
     7
370
    13
100
AcDbLine
 10
2853.132339
 20
2384.505193
 30
0.0
 11
2872.791017
 21
2385.376065
 31
0.0
  0
LINE
  5
118FC
330
11A28
100
AcDbEntity
  8
Level 25
  6
Continuous
 62
     7
370
    13
100
AcDbLine
 10
3293.110644
 20
2417.094462
 30
0.0
 11
2874.588911
 21
2417.094462
 31
0.0
  0
LINE
  5
118FD
330
11A28
100
AcDbEntity
  8
Level 25
  6
Continuous
 62
     7
370
    13
100
AcDbLine
 10
3293.110644
 20
2385.376065
 30
0.0
 11
2872.791017
 21
2385.376065
 31
0.0
  0
LINE
  5
118FE
330
11A28
100
AcDbEntity
  8
Level 25
  6
Continuous
 62
     7
370
    13
100
AcDbLine
 10
2853.132339
 20
2380.615749
 30
0.0
 11
3293.110644
 21
2380.615749
 31
0.0
  0
LINE
  5
118FF
330
11A28
100
AcDbEntity
  8
Level 25
  6
Continuous
 62
     7
370
    13
100
AcDbLine
 10
3293.110644
 20
2462.972125
 30
0.0
 11
2853.132339
 21
2462.972125
 31
0.0
  0
LINE
  5
11900
330
11A28
100
AcDbEntity
  8
Level 25
  6
Continuous
 62
     7
370
    13
100
AcDbLine
 10
3293.110644
 20
2433.483816
 30
0.0
 11
2853.132339
 21
2433.483816
 31
0.0
  0
LINE
  5
11901
330
11A28
100
AcDbEntity
  8
Level 25
  6
Continuous
 62
     7
370
    13
100
AcDbLine
 10
3293.110644
 20
2380.629341
 30
0.0
 11
2853.132339
 21
2380.629341
 31
0.0
  0
ELLIPSE
  5
11902
330
11A28
100
AcDbEntity
  8
Level 25
  6
Continuous
 62
     7
370
    13
100
AcDbEllipse
 10
3368.223061
 20
2401.367348
 30
0.0
 11
0.0
 21
-16.0
 31
0.0
210
0.0
220
0.0
230
1.0
 40
0.1880998227769337
 41
0.0330106275348827
 42
2.956638036685091
  0
LINE
  5
11903
330
11A28
100
AcDbEntity
  8
Level 25
  6
Continuous
 62
     7
370
    13
100
AcDbLine
 10
3368.776532
 20
2417.094462
 30
0.0
 11
3352.299451
 21
2433.483816
 31
0.0
  0
LINE
  5
11904
330
11A28
100
AcDbEntity
  8
Level 25
  6
Continuous
 62
     7
370
    13
100
AcDbLine
 10
3341.256658
 20
2380.629341
 30
0.0
 11
3368.322392
 21
2385.376065
 31
0.0
  0
ELLIPSE
  5
11905
330
11A28
100
AcDbEntity
  8
Level 25
  6
Continuous
 62
     7
370
    13
100
AcDbEllipse
 10
3353.337238
 20
2462.972125
 30
0.0
 11
0.0
 21
30.0
 31
0.0
210
0.0
220
0.0
230
-1.0
 40
0.1880998227769338
 41
3.326552569108541
 42
4.712388980384682
  0
ELLIPSE
  5
11906
330
11A28
100
AcDbEntity
  8
Level 25
  6
Continuous
 62
     7
370
    13
100
AcDbEllipse
 10
3341.101614
 20
2405.615749
 30
0.0
 11
0.0
 21
-25.0
 31
0.0
210
0.0
220
0.0
230
1.0
 40
0.1880998227769337
 41
0.0000000000000389
 42
0.0329765403642816
  0
LINE
  5
11907
330
11A28
100
AcDbEntity
  8
Level 25
  6
Continuous
 62
     7
370
    13
100
AcDbLine
 10
3293.102054
 20
2380.615749
 30
0.0
 11
3341.101614
 21
2380.615749
 31
0.0
  0
LINE
  5
11908
330
11A28
100
AcDbEntity
  8
Level 25
  6
Continuous
 62
     7
370
    13
100
AcDbLine
 10
3733.080358
 20
2380.615749
 30
0.0
 11
3341.101614
 21
2380.615749
 31
0.0
  0
LINE
  5
11909
330
11A28
100
AcDbEntity
  8
Level 25
  6
Continuous
 62
     7
370
    13
100
AcDbLine
 10
3347.694244
 20
2462.972125
 30
0.0
 11
3347.694244
 21
2627.833621
 31
0.0
  0
LINE
  5
1190A
330
11A28
100
AcDbEntity
  8
Level 25
  6
Continuous
 62
     7
370
    13
100
AcDbLine
 10
3347.694244
 20
2462.972125
 30
0.0
 11
3293.102054
 21
2462.972125
 31
0.0
  0
LINE
  5
1190B
330
11A28
100
AcDbEntity
  8
Level 25
  6
Continuous
 62
     7
370
    13
100
AcDbLine
 10
3352.299451
 20
2433.483816
 30
0.0
 11
3293.102054
 21
2433.483816
 31
0.0
  0
LINE
  5
1190C
330
11A28
100
AcDbEntity
  8
Level 25
  6
Continuous
 62
     7
370
    13
100
AcDbLine
 10
3368.776532
 20
2417.094462
 30
0.0
 11
3293.102054
 21
2417.094462
 31
0.0
  0
LINE
  5
1190D
330
11A28
100
AcDbEntity
  8
Level 25
  6
Continuous
 62
     7
370
    13
100
AcDbLine
 10
3368.322392
 20
2385.376065
 30
0.0
 11
3293.102054
 21
2385.376065
 31
0.0
  0
LINE
  5
1190E
330
11A28
100
AcDbEntity
  8
Level 25
  6
Continuous
 62
     7
370
    13
100
AcDbLine
 10
3341.256658
 20
2380.629341
 30
0.0
 11
3293.102054
 21
2380.629341
 31
0.0
  0
LINE
  5
1190F
330
11A28
100
AcDbEntity
  8
Level 25
  6
Continuous
 62
     7
370
    13
100
AcDbLine
 10
3347.694244
 20
2462.972125
 30
0.0
 11
3733.080358
 21
2462.972125
 31
0.0
  0
LINE
  5
11910
330
11A28
100
AcDbEntity
  8
Level 25
  6
Continuous
 62
     7
370
    13
100
AcDbLine
 10
3352.299451
 20
2433.483816
 30
0.0
 11
3733.080358
 21
2433.483816
 31
0.0
  0
LINE
  5
11911
330
11A28
100
AcDbEntity
  8
Level 25
  6
Continuous
 62
     7
370
    13
100
AcDbLine
 10
3368.776532
 20
2417.094462
 30
0.0
 11
3733.080358
 21
2417.094462
 31
0.0
  0
LINE
  5
11912
330
11A28
100
AcDbEntity
  8
Level 25
  6
Continuous
 62
     7
370
    13
100
AcDbLine
 10
3368.322392
 20
2385.376065
 30
0.0
 11
3733.080358
 21
2385.376065
 31
0.0
  0
LINE
  5
11913
330
11A28
100
AcDbEntity
  8
Level 25
  6
Continuous
 62
     7
370
    13
100
AcDbLine
 10
3341.256658
 20
2380.629341
 30
0.0
 11
3733.080358
 21
2380.629341
 31
0.0
  0
LINE
  5
11914
330
11A28
100
AcDbEntity
  8
Level 27
  6
Continuous
 62
     7
370
    13
100
AcDbLine
 10
2263.558125
 20
2948.829326
 30
0.0
 11
2318.576064
 21
2948.829326
 31
0.0
  0
LINE
  5
11915
330
11A28
100
AcDbEntity
  8
Level 27
  6
Continuous
 62
     7
370
    13
100
AcDbLine
 10
2318.576064
 20
3008.829326
 30
0.0
 11
2262.972318
 21
3008.829326
 31
0.0
  0
LINE
  5
11916
330
11A28
100
AcDbEntity
  8
Level 27
  6
Continuous
 62
     7
370
    13
100
AcDbLine
 10
2318.576064
 20
3008.829326
 30
0.0
 11
2318.576064
 21
2948.829326
 31
0.0
  0
ARC
  5
11917
330
11A28
100
AcDbEntity
  8
Level 27
  6
Continuous
 62
     7
370
    13
100
AcDbCircle
 10
2478.576064
 20
2978.829326
 30
0.0
 40
30.0
100
AcDbArc
 50
304.518108
 51
90.0
  0
LINE
  5
11918
330
11A28
100
AcDbEntity
  8
Level 27
  6
Continuous
 62
     7
370
    13
100
AcDbLine
 10
2318.576064
 20
3008.829326
 30
0.0
 11
2478.576064
 21
3008.829326
 31
0.0
  0
LINE
  5
11919
330
11A28
100
AcDbEntity
  8
Level 27
  6
Continuous
 62
     7
370
    13
100
AcDbLine
 10
2477.672939
 20
2948.829326
 30
0.0
 11
2318.576064
 21
2948.829326
 31
0.0
  0
ARC
  5
1191A
330
11A28
100
AcDbEntity
  8
Level 26
  6
Continuous
 62
     7
370
    13
100
AcDbCircle
 10
2138.576064
 20
2787.829326
 30
0.0
 40
9.999999999999998
100
AcDbArc
 50
90.0
 51
180.0
  0
LINE
  5
1191B
330
11A28
100
AcDbEntity
  8
Level 26
  6
Continuous
 62
     7
370
    13
100
AcDbLine
 10
2461.576064
 20
2797.829326
 30
0.0
 11
2138.576064
 21
2797.829326
 31
0.0
  0
ARC
  5
1191C
330
11A28
100
AcDbEntity
  8
Level 26
  6
Continuous
 62
     7
370
    13
100
AcDbCircle
 10
-2453.576064
 20
2752.81607
 30
0.0
 40
10.99999999999999
210
0.0
220
0.0
230
-1.0
100
AcDbArc
 50
0.0
 51
136.658242
  0
ARC
  5
1191D
330
11A28
100
AcDbEntity
  8
Level 26
  6
Continuous
 62
     7
370
    13
100
AcDbCircle
 10
-2453.576064
 20
2752.81607
 30
0.0
 40
10.99999999999999
210
0.0
220
0.0
230
-1.0
100
AcDbArc
 50
223.341758
 51
0.0
  0
ARC
  5
1191E
330
11A28
100
AcDbEntity
  8
Level 26
  6
Continuous
 62
     7
370
    13
100
AcDbCircle
 10
-2223.576064
 20
2752.81607
 30
0.0
 40
10.99999999999999
210
0.0
220
0.0
230
-1.0
100
AcDbArc
 50
0.0
 51
359.999994
  0
LINE
  5
1191F
330
11A28
100
AcDbEntity
  8
Level 26
  6
Continuous
 62
     7
370
    13
100
AcDbLine
 10
2123.576064
 20
2787.829326
 30
0.0
 11
2128.576064
 21
2787.829326
 31
0.0
  0
ARC
  5
11920
330
11A28
100
AcDbEntity
  8
Level 26
  6
Continuous
 62
     7
370
    13
100
AcDbCircle
 10
-2138.576064
 20
2787.829326
 30
0.0
 40
14.99999999999999
210
0.0
220
0.0
230
-1.0
100
AcDbArc
 50
0.0
 51
90.0
  0
LINE
  5
11921
330
11A28
100
AcDbEntity
  8
Level 26
  6
Continuous
 62
     7
370
    13
100
AcDbLine
 10
2138.576064
 20
2802.829326
 30
0.0
 11
2138.576064
 21
2797.829326
 31
0.0
  0
LINE
  5
11922
330
11A28
100
AcDbEntity
  8
Level 26
  6
Continuous
 62
     7
370
    13
100
AcDbLine
 10
2138.576064
 20
2802.829326
 30
0.0
 11
2461.576064
 21
2802.829326
 31
0.0
  0
LINE
  5
11923
330
11A28
100
AcDbEntity
  8
Level 25
  6
Continuous
 62
     7
370
    13
100
AcDbLine
 10
2623.576064
 20
2868.836674
 30
0.0
 11
2495.576064
 21
2868.836674
 31
0.0
  0
LINE
  5
11924
330
11A28
100
AcDbEntity
  8
Level 25
  6
Continuous
 62
     7
370
    13
100
AcDbLine
 10
2623.576064
 20
2868.836674
 30
0.0
 11
2623.576064
 21
2837.081506
 31
0.0
  0
LINE
  5
11925
330
11A28
100
AcDbEntity
  8
Level 25
  6
Continuous
 62
     7
370
    13
100
AcDbLine
 10
2623.576064
 20
2837.081506
 30
0.0
 11
2495.576064
 21
2837.081506
 31
0.0
  0
LINE
  5
11926
330
11A28
100
AcDbEntity
  8
Level 25
  6
Continuous
 62
     7
370
    13
100
AcDbLine
 10
2623.576064
 20
2837.081506
 30
0.0
 11
2874.401675
 21
2837.081506
 31
0.0
  0
LINE
  5
11927
330
11A28
100
AcDbEntity
  8
Level 25
  6
Continuous
 62
     7
370
    13
100
AcDbLine
 10
2623.576064
 20
2868.836674
 30
0.0
 11
2872.945469
 21
2868.836674
 31
0.0
  0
ELLIPSE
  5
11928
330
11A28
100
AcDbEntity
  8
Level 25
  6
Continuous
 62
     7
370
    13
100
AcDbEllipse
 10
2872.397778
 20
2852.853587
 30
0.0
 11
0.0
 21
-16.0
 31
0.0
210
0.0
220
0.0
230
1.0
 40
0.7446677573967793
 41
0.1689904329040228
 42
3.095608654046136
  0
LINE
  5
11929
330
11A28
100
AcDbEntity
  8
Level 25
  6
Continuous
 62
     7
370
    13
100
AcDbLine
 10
2623.576064
 20
2822.259179
 30
0.0
 11
2623.576064
 21
2837.081506
 31
0.0
  0
LINE
  5
1192A
330
11A28
100
AcDbEntity
  8
Level 25
  6
Continuous
 62
     7
370
    13
100
AcDbLine
 10
2623.576064
 20
2822.259179
 30
0.0
 11
2495.576064
 21
2822.259179
 31
0.0
  0
LINE
  5
1192B
330
11A28
100
AcDbEntity
  8
Level 25
  6
Continuous
 62
     7
370
    13
100
AcDbLine
 10
2809.709033
 20
2822.259179
 30
0.0
 11
2874.401675
 21
2837.081506
 31
0.0
  0
LINE
  5
1192C
330
11A28
100
AcDbEntity
  8
Level 25
  6
Continuous
 62
     7
370
    13
100
AcDbLine
 10
2623.576064
 20
2822.259179
 30
0.0
 11
2809.709033
 21
2822.259179
 31
0.0
  0
LINE
  5
1192D
330
11A28
100
AcDbEntity
  8
Level 25
  6
Continuous
 62
     7
370
    13
100
AcDbLine
 10
2623.576064
 20
2875.461393
 30
0.0
 11
2495.576064
 21
2875.461393
 31
0.0
  0
LINE
  5
1192E
330
11A28
100
AcDbEntity
  8
Level 25
  6
Continuous
 62
     7
370
    13
100
AcDbLine
 10
2623.576064
 20
2868.836674
 30
0.0
 11
2623.576064
 21
2875.461393
 31
0.0
  0
LINE
  5
1192F
330
11A28
100
AcDbEntity
  8
Level 25
  6
Continuous
 62
     7
370
    13
100
AcDbLine
 10
2623.576064
 20
2875.461393
 30
0.0
 11
2765.829425
 21
2875.461393
 31
0.0
  0
LINE
  5
11930
330
11A28
100
AcDbEntity
  8
Level 25
  6
Continuous
 62
     7
370
    13
100
AcDbLine
 10
2872.945469
 20
2868.836674
 30
0.0
 11
2765.829425
 21
2875.461393
 31
0.0
  0
LINE
  5
11931
330
11A28
100
AcDbEntity
  8
Level 25
  6
Continuous
 62
     7
370
    13
100
AcDbLine
 10
2623.576064
 20
2792.686527
 30
0.0
 11
2623.576064
 21
2822.259179
 31
0.0
  0
ELLIPSE
  5
11932
330
11A28
100
AcDbEntity
  8
Level 25
  6
Continuous
 62
     7
370
    13
100
AcDbEllipse
 10
2813.466342
 20
2792.686527
 30
0.0
 11
0.0
 21
30.0
 31
0.0
210
0.0
220
0.0
230
-1.0
 40
0.744667757396779
 41
4.712388980384679
 42
6.11419487438366
  0
LINE
  5
11933
330
11A28
100
AcDbEntity
  8
Level 25
  6
Continuous
 62
     7
370
    13
100
AcDbLine
 10
2623.576064
 20
2792.686527
 30
0.0
 11
2791.126309
 21
2792.686527
 31
0.0
  0
LINE
  5
11934
330
11A28
100
AcDbEntity
  8
Level 25
  6
Continuous
 62
     7
370
    13
100
AcDbLine
 10
2623.576064
 20
2792.686527
 30
0.0
 11
2495.576064
 21
2792.686527
 31
0.0
  0
ELLIPSE
  5
11935
330
11A28
100
AcDbEntity
  8
Level 25
  6
Continuous
 62
     7
370
    13
100
AcDbEllipse
 10
3368.223062
 20
2852.853587
 30
0.0
 11
0.0
 21
-16.0
 31
0.0
210
0.0
220
0.0
230
1.0
 40
0.1880998227769337
 41
0.1689904329040379
 42
3.095608654046113
  0
LINE
  5
11936
330
11A28
100
AcDbEntity
  8
Level 25
  6
Continuous
 62
     7
370
    13
100
AcDbLine
 10
3368.729237
 20
2837.081506
 30
0.0
 11
2874.401675
 21
2837.081506
 31
0.0
  0
LINE
  5
11937
330
11A28
100
AcDbEntity
  8
Level 25
  6
Continuous
 62
     7
370
    13
100
AcDbLine
 10
3368.361406
 20
2868.836674
 30
0.0
 11
2872.945469
 21
2868.836674
 31
0.0
  0
LINE
  5
11938
330
11A28
100
AcDbEntity
  8
Level 25
  6
Continuous
 62
     7
370
    13
100
AcDbLine
 10
3352.388158
 20
2822.259179
 30
0.0
 11
3368.729237
 21
2837.081506
 31
0.0
  0
LINE
  5
11939
330
11A28
100
AcDbEntity
  8
Level 25
  6
Continuous
 62
     7
370
    13
100
AcDbLine
 10
3352.388158
 20
2822.259179
 30
0.0
 11
2809.709033
 21
2822.259179
 31
0.0
  0
LINE
  5
1193A
330
11A28
100
AcDbEntity
  8
Level 25
  6
Continuous
 62
     7
370
    13
100
AcDbLine
 10
3368.361406
 20
2868.836674
 30
0.0
 11
3341.304361
 21
2875.461393
 31
0.0
  0
LINE
  5
1193B
330
11A28
100
AcDbEntity
  8
Level 25
  6
Continuous
 62
     7
370
    13
100
AcDbLine
 10
3341.304361
 20
2875.461393
 30
0.0
 11
2765.829425
 21
2875.461393
 31
0.0
  0
LINE
  5
1193C
330
11A28
100
AcDbEntity
  8
Level 25
  6
Continuous
 62
     7
370
    13
100
AcDbLine
 10
2623.576064
 20
2875.487864
 30
0.0
 11
2495.576064
 21
2875.487864
 31
0.0
  0
LINE
  5
1193D
330
11A28
100
AcDbEntity
  8
Level 25
  6
Continuous
 62
     7
370
    13
100
AcDbLine
 10
2623.576064
 20
2875.487864
 30
0.0
 11
2623.576064
 21
2875.461393
 31
0.0
  0
LINE
  5
1193E
330
11A28
100
AcDbEntity
  8
Level 25
  6
Continuous
 62
     7
370
    13
100
AcDbLine
 10
2623.576064
 20
2875.487864
 30
0.0
 11
2764.972943
 21
2875.487864
 31
0.0
  0
ELLIPSE
  5
1193F
330
11A28
100
AcDbEntity
  8
Level 25
  6
Continuous
 62
     7
370
    13
100
AcDbEllipse
 10
2764.972943
 20
2850.487864
 30
0.0
 11
0.0
 21
-24.99999999999999
 31
0.0
210
0.0
220
0.0
230
1.0
 40
0.744667757396779
 41
3.095570309899599
 42
3.141592653589796
  0
LINE
  5
11940
330
11A28
100
AcDbEntity
  8
Level 25
  6
Continuous
 62
     7
370
    13
100
AcDbLine
 10
3347.694244
 20
2792.686527
 30
0.0
 11
2791.126309
 21
2792.686527
 31
0.0
  0
ELLIPSE
  5
11941
330
11A28
100
AcDbEntity
  8
Level 25
  6
Continuous
 62
     7
370
    13
100
AcDbEllipse
 10
3353.337238
 20
2792.686527
 30
0.0
 11
0.0
 21
30.0
 31
0.0
210
0.0
220
0.0
230
-1.0
 40
0.1880998227769337
 41
4.712388980384682
 42
6.114194874383644
  0
LINE
  5
11942
330
11A28
100
AcDbEntity
  8
Level 25
  6
Continuous
 62
     7
370
    13
100
AcDbLine
 10
3341.088018
 20
2875.487864
 30
0.0
 11
2764.972943
 21
2875.487864
 31
0.0
  0
ELLIPSE
  5
11943
330
11A28
100
AcDbEntity
  8
Level 25
  6
Continuous
 62
     7
370
    13
100
AcDbEllipse
 10
3341.088018
 20
2850.487864
 30
0.0
 11
0.0
 21
-25.0
 31
0.0
210
0.0
220
0.0
230
1.0
 40
0.1880998227769338
 41
3.095570309899572
 42
3.141592653589793
  0
SPLINE
  5
11944
330
11A28
100
AcDbEntity
  8
Level 26
  6
Continuous
 62
     7
370
    13
100
AcDbSpline
210
0.0
220
0.0
230
1.0
 70
     8
 71
     3
 72
    10
 73
     6
 74
     0
 42
0.000000001
 43
0.0000000001
 40
0.0
 40
0.0
 40
0.0
 40
0.0
 40
0.1768991339144769
 40
0.6075314606508878
 40
1.0
 40
1.0
 40
1.0
 40
1.0
 10
2263.558125351021
 20
3008.83003753107
 30
0.0
 10
2263.557936006418
 20
3008.922456319587
 30
0.0
 10
2263.535737044012
 20
3009.238162183049
 30
0.0
 10
2263.37528704406
 20
3009.742535613816
 30
0.0
 10
2263.116622759026
 20
3010.09603761065
 30
0.0
 10
2262.972318026792
 20
3010.240360072253
 30
0.0
  0
LINE
  5
11947
330
11A28
100
AcDbEntity
  8
Level 26
  6
Continuous
 62
     7
370
    13
100
AcDbLine
 10
2263.558125
 20
3008.830037
 30
0.0
 11
2263.558125
 21
2978.329326
 31
0.0
  0
LINE
  5
11948
330
11A28
100
AcDbEntity
  8
Level 26
  6
Continuous
 62
     7
370
    13
100
AcDbLine
 10
2262.972318
 20
3010.24036
 30
0.0
 11
2262.972318
 21
2978.329326
 31
0.0
  0
SPLINE
  5
11949
330
11A28
100
AcDbEntity
  8
Level 26
  6
Continuous
 62
     7
370
    13
100
AcDbSpline
210
0.0
220
0.0
230
1.0
 70
    24
 71
     3
 72
    10
 73
     6
 74
     0
 42
0.000000001
 43
0.0000000001
 40
0.0
 40
0.0
 40
0.0
 40
0.0
 40
0.1768991339144769
 40
0.6075314606508878
 40
1.0
 40
1.0
 40
1.0
 40
1.0
 10
2263.558125351021
 20
2978.329325922079
 30
0.0
 10
2263.557936006418
 20
2978.329325922079
 30
0.0
 10
2263.535737044012
 20
2978.329325922079
 30
0.0
 10
2263.37528704406
 20
2978.329325922079
 30
0.0
 10
2263.116622759026
 20
2978.329325922079
 30
0.0
 10
2262.972318026792
 20
2978.329325922079
 30
0.0
  0
LINE
  5
1194C
330
11A28
100
AcDbEntity
  8
Level 26
  6
Continuous
 62
     7
370
    13
100
AcDbLine
 10
2263.558125
 20
2978.329326
 30
0.0
 11
2263.558125
 21
2947.828614
 31
0.0
  0
LINE
  5
1194D
330
11A28
100
AcDbEntity
  8
Level 26
  6
Continuous
 62
     7
370
    13
100
AcDbLine
 10
2262.972318
 20
2978.329326
 30
0.0
 11
2262.972318
 21
2946.418292
 31
0.0
  0
SPLINE
  5
1194E
330
11A28
100
AcDbEntity
  8
Level 26
  6
Continuous
 62
     7
370
    13
100
AcDbSpline
210
0.0
220
0.0
230
1.0
 70
     8
 71
     3
 72
    11
 73
     7
 74
     0
 42
0.000000001
 43
0.0000000001
 40
0.0
 40
0.0
 40
0.0
 40
0.0
 40
0.3924685393491123
 40
0.8231008660855231
 40
0.8231008660855231
 40
1.0
 40
1.0
 40
1.0
 40
1.0
 10
2262.972318026792
 20
2946.418291771903
 30
0.0
 10
2263.116622759026
 20
2946.562614233507
 30
0.0
 10
2263.372947100497
 20
2946.911257729495
 30
0.0
 10
2263.506939643994
 20
2947.330406973446
 30
0.0
 10
2263.551311212737
 20
2947.643568822547
 30
0.0
 10
2263.557936006418
 20
2947.736195524568
 30
0.0
 10
2263.558125351021
 20
2947.828614313085
 30
0.0
  0
SPLINE
  5
11951
330
11A28
100
AcDbEntity
  8
Level 26
  6
Continuous
 62
     7
370
    13
100
AcDbSpline
210
0.0
220
0.0
230
1.0
 70
     8
 71
     3
 72
     8
 73
     4
 74
     0
 42
0.000000001
 43
0.0000000001
 40
0.0
 40
0.0
 40
0.0
 40
0.0
 40
1.0
 40
1.0
 40
1.0
 40
1.0
 10
2208.023296210326
 20
2923.330887090008
 30
0.0
 10
2208.018419374202
 20
2922.843340583648
 30
0.0
 10
2208.206460401026
 20
2941.784566322285
 30
0.0
 10
2208.448232921775
 20
2966.385220579836
 30
0.0
  0
SPLINE
  5
11954
330
11A28
100
AcDbEntity
  8
Level 26
  6
Continuous
 62
     7
370
    13
100
AcDbSpline
210
0.0
220
0.0
230
1.0
 70
     8
 71
     3
 72
     8
 73
     4
 74
     0
 42
0.000000001
 43
0.0000000001
 40
0.0
 40
0.0
 40
0.0
 40
0.0
 40
1.0
 40
1.0
 40
1.0
 40
1.0
 10
2209.104100585589
 20
3033.325760631203
 30
0.0
 10
2209.10906317286
 20
3033.834399983675
 30
0.0
 10
2208.915388560893
 20
3014.021597637871
 30
0.0
 10
2208.667519540098
 20
2988.73509270777
 30
0.0
  0
ARC
  5
11957
330
11A28
100
AcDbEntity
  8
Level 26
  6
Continuous
 62
     7
370
    13
100
AcDbCircle
 10
2157.576064
 20
2978.829326
 30
0.0
 40
75.0
100
AcDbArc
 50
46.593455
 51
312.283194
  0
SPLINE
  5
11958
330
11A28
100
AcDbEntity
  8
Level 26
  6
Continuous
 62
     7
370
    13
100
AcDbSpline
210
0.0
220
0.0
230
1.0
 70
     8
 71
     3
 72
    11
 73
     7
 74
     0
 42
0.000000001
 43
0.0000000001
 40
0.0
 40
0.0
 40
0.0
 40
0.0
 40
0.0838488110040074
 40
0.2405671369471017
 40
0.860957202279158
 40
1.0
 40
1.0
 40
1.0
 40
1.0
 10
2208.242831503295
 20
2988.680692752998
 30
0.0
 10
2208.097707659275
 20
2988.662152406213
 30
0.0
 10
2207.993397877511
 20
2988.173037449231
 30
0.0
 10
2208.078942329517
 20
2986.377646191657
 30
0.0
 10
2208.299912666792
 20
2984.476708900656
 30
0.0
 10
2208.417262328681
 20
2982.890205590365
 30
0.0
 10
2208.436450766422
 20
2982.600401277807
 30
0.0
  0
SPLINE
  5
1195B
330
11A28
100
AcDbEntity
  8
Level 26
  6
Continuous
 62
     7
370
    13
100
AcDbSpline
210
0.0
220
0.0
230
1.0
 70
     8
 71
     3
 72
    12
 73
     8
 74
     0
 42
0.000000001
 43
0.0000000001
 40
0.0
 40
0.0
 40
0.0
 40
0.0
 40
0.6291683941156816
 40
0.8006344483845609
 40
0.9401402127874241
 40
0.9876111824000162
 40
1.0
 40
1.0
 40
1.0
 40
1.0
 10
2208.191862482284
 20
2972.581054512835
 30
0.0
 10
2208.045753811241
 20
2971.272594765453
 30
0.0
 10
2207.782352558544
 20
2969.616324654925
 30
0.0
 10
2207.531950176284
 20
2967.669772044267
 30
0.0
 10
2207.485674435286
 20
2966.925782787284
 30
0.0
 10
2207.582196119163
 20
2966.540649016047
 30
0.0
 10
2207.684395932072
 20
2966.516862345564
 30
0.0
 10
2207.701791362831
 20
2966.517453013656
 30
0.0
  0
LINE
  5
1195E
330
11A28
100
AcDbEntity
  8
Level 26
  6
Continuous
 62
     7
370
    13
100
AcDbLine
 10
2207.701791
 20
2966.517453
 30
0.0
 11
2208.448233
 21
2966.385221
 31
0.0
  0
LINE
  5
1195F
330
11A28
100
AcDbEntity
  8
Level 26
  6
Continuous
 62
     7
370
    13
100
AcDbLine
 10
2208.66752
 20
2988.735093
 30
0.0
 11
2208.242832
 21
2988.680693
 31
0.0
  0
SPLINE
  5
11960
330
11A28
100
AcDbEntity
  8
Level 26
  6
Continuous
 62
     7
370
    13
100
AcDbSpline
210
0.0
220
0.0
230
1.0
 70
     8
 71
     3
 72
     8
 73
     4
 74
     0
 42
0.000000001
 43
0.0000000001
 40
0.0
 40
0.0
 40
0.0
 40
0.0
 40
1.0
 40
1.0
 40
1.0
 40
1.0
 10
2209.104100585626
 20
3033.325760634911
 30
0.0
 10
2209.109059676374
 20
3033.834042322321
 30
0.0
 10
2208.915386088618
 20
3014.021345378419
 30
0.0
 10
2208.667519540098
 20
2988.73509270777
 30
0.0
  0
SPLINE
  5
11963
330
11A28
100
AcDbEntity
  8
Level 26
  6
Continuous
 62
     7
370
    13
100
AcDbSpline
210
0.0
220
0.0
230
1.0
 70
     8
 71
     3
 72
    13
 73
     9
 74
     0
 42
0.000000001
 43
0.0000000001
 40
0.0
 40
0.0
 40
0.0
 40
0.0
 40
0.40628767880657
 40
0.40628767880657
 40
0.8305088715152971
 40
0.8305088715152971
 40
0.8305088715152971
 40
1.0
 40
1.0
 40
1.0
 40
1.0
 10
2262.972318026792
 20
3010.240360072252
 30
0.0
 10
2257.336036219645
 20
3016.073370301347
 30
0.0
 10
2250.665901956236
 20
3021.050391253303
 30
0.0
 10
2235.955796519504
 20
3028.700176293098
 30
0.0
 10
2227.663763606103
 20
3031.364217105114
 30
0.0
 10
2219.280158422029
 20
3032.564267134184
 30
0.0
 10
2215.914599949032
 20
3033.046021517254
 30
0.0
 10
2212.508383625833
 20
3033.30095048455
 30
0.0
 10
2209.104279359637
 20
3033.325759332285
 30
0.0
  0
SPLINE
  5
11966
330
11A28
100
AcDbEntity
  8
Level 26
  6
Continuous
 62
     7
370
    13
100
AcDbSpline
210
0.0
220
0.0
230
1.0
 70
     8
 71
     3
 72
    13
 73
     9
 74
     0
 42
0.000000001
 43
0.0000000001
 40
0.0
 40
0.0
 40
0.0
 40
0.0
 40
0.1770073135323675
 40
0.1770073135323675
 40
0.1770073135323675
 40
0.5973892637057052
 40
0.5973892637057052
 40
1.0
 40
1.0
 40
1.0
 40
1.0
 10
2208.554030913534
 20
2923.330887078738
 30
0.0
 10
2212.141188947335
 20
2923.330887078799
 30
0.0
 10
2215.733252413888
 20
2923.586671791158
 30
0.0
 10
2219.280158422029
 20
2924.094384709971
 30
0.0
 10
2227.663763606103
 20
2925.29443473904
 30
0.0
 10
2235.955796519504
 20
2927.958475551056
 30
0.0
 10
2250.665901956236
 20
2935.608260590851
 30
0.0
 10
2257.336036219645
 20
2940.585281542808
 30
0.0
 10
2262.972318026792
 20
2946.418291771903
 30
0.0
  0
LINE
  5
11969
330
11A28
100
AcDbEntity
  8
Level 26
  6
Continuous
 62
     7
370
    13
100
AcDbLine
 10
2208.554031
 20
2923.330887
 30
0.0
 11
2208.554031
 21
2967.101153
 31
0.0
  0
LINE
  5
1196A
330
11A28
100
AcDbEntity
  8
Level 26
  6
Continuous
 62
     7
370
    13
100
AcDbLine
 10
2208.951218
 20
2970.336571
 30
0.0
 11
2208.554031
 21
2967.101153
 31
0.0
  0
SPLINE
  5
1196B
330
11A28
100
AcDbEntity
  8
Level 26
  6
Continuous
 62
     7
370
    13
100
AcDbSpline
210
0.0
220
0.0
230
1.0
 70
     8
 71
     3
 72
    14
 73
    10
 74
     0
 42
0.000000001
 43
0.0000000001
 40
0.0
 40
0.0
 40
0.0
 40
0.0
 40
0.1998898874164336
 40
0.4345940426261815
 40
0.5009621743071471
 40
0.5681741329641341
 40
0.701583622983594
 40
0.8350145717234999
 40
1.0
 40
1.0
 40
1.0
 40
1.0
 10
2208.951217666518
 20
2986.322081010421
 30
0.0
 10
2209.026580766817
 20
2985.258788354075
 30
0.0
 10
2209.173980018895
 20
2982.946184374874
 30
0.0
 10
2208.912781013463
 20
2980.26157512383
 30
0.0
 10
2208.532669575312
 20
2978.31011208644
 30
0.0
 10
2208.852633728608
 20
2976.891995686863
 30
0.0
 10
2209.01181625523
 20
2975.111628833325
 30
0.0
 10
2209.139938187952
 20
2972.798292373056
 30
0.0
 10
2209.018408030697
 20
2971.213020122116
 30
0.0
 10
2208.951217666536
 20
2970.336570833805
 30
0.0
  0
LINE
  5
1196E
330
11A28
100
AcDbEntity
  8
Level 26
  6
Continuous
 62
     7
370
    13
100
AcDbLine
 10
2208.66752
 20
2988.735093
 30
0.0
 11
2208.951218
 21
2986.322081
 31
0.0
  0
LINE
  5
1196F
330
11A28
100
AcDbEntity
  8
Level 26
  6
Continuous
 62
     7
370
    13
100
AcDbLine
 10
2208.779541
 20
3000.166616
 30
0.0
 11
2208.811208
 21
3003.399428
 31
0.0
  0
LINE
  5
11970
330
11A28
100
AcDbEntity
  8
Level 26
  6
Continuous
 62
     7
370
    13
100
AcDbLine
 10
2209.047947
 20
3027.584628
 30
0.0
 11
2209.056997
 21
3028.509849
 31
0.0
  0
LINE
  5
11971
330
11A28
100
AcDbEntity
  8
Level 26
  6
Continuous
 62
     7
370
    13
100
AcDbLine
 10
2209.066523
 20
3029.483631
 30
0.0
 11
2209.074097
 21
3030.258001
 31
0.0
  0
SPLINE
  5
11972
330
11A28
100
AcDbEntity
  8
Level 26
  6
Continuous
 62
     7
370
    13
100
AcDbSpline
210
0.0
220
0.0
230
1.0
 70
     8
 71
     3
 72
     9
 73
     5
 74
     0
 42
0.000000001
 43
0.0000000001
 40
0.0
 40
0.0
 40
0.0
 40
0.0
 40
0.4306323267364109
 40
0.8231008660855231
 40
0.8231008660855231
 40
0.8231008660855231
 40
0.8231008660855231
 10
2263.538345962457
 20
3009.106588052113
 30
0.0
 10
2263.506939643994
 20
3009.328244870712
 30
0.0
 10
2263.37528704406
 20
3009.742535613816
 30
0.0
 10
2263.116622759026
 20
3010.09603761065
 30
0.0
 10
2262.972318026792
 20
3010.240360072253
 30
0.0
  0
SPLINE
  5
11978
330
11A28
100
AcDbEntity
  8
Level 26
  6
Continuous
 62
     7
370
    13
100
AcDbSpline
210
0.0
220
0.0
230
1.0
 70
     8
 71
     3
 72
     8
 73
     4
 74
     0
 42
0.000000001
 43
0.0000000001
 40
0.0
 40
0.0
 40
0.0
 40
0.0
 40
0.2450225305479955
 40
0.2450225305479955
 40
0.2450225305479955
 40
0.2450225305479955
 10
2209.104100585589
 20
3033.325760631203
 30
0.0
 10
2209.105316531282
 20
3033.450388732481
 30
0.0
 10
2209.09460708604
 20
3032.354997937429
 30
0.0
 10
2209.074097029681
 20
3030.258001199038
 30
0.0
  0
SPLINE
  5
1197B
330
11A28
100
AcDbEntity
  8
Level 26
  6
Continuous
 62
     7
370
    13
100
AcDbSpline
210
0.0
220
0.0
230
1.0
 70
     8
 71
     3
 72
     8
 73
     4
 74
     0
 42
0.000000001
 43
0.0000000001
 40
0.0
 40
0.0
 40
0.0
 40
0.0
 40
0.0055899207336005
 40
0.0055899207336005
 40
0.0055899207336005
 40
0.0055899207336005
 10
2208.242831503295
 20
2988.680692752998
 30
0.0
 10
2208.233156580361
 20
2988.67945672988
 30
0.0
 10
2208.223965066512
 20
2988.677545422699
 30
0.0
 10
2208.215229349542
 20
2988.675003398651
 30
0.0
  0
SPLINE
  5
1197E
330
11A28
100
AcDbEntity
  8
Level 26
  6
Continuous
 62
     7
370
    13
100
AcDbSpline
210
0.0
220
0.0
230
1.0
 70
     8
 71
     3
 72
     8
 73
     4
 74
     0
 42
0.000000001
 43
0.0000000001
 40
0.0
 40
0.0
 40
0.0
 40
0.0
 40
0.0185390396961123
 40
0.0185390396961123
 40
0.0185390396961123
 40
0.0185390396961123
 10
2208.428653107624
 20
2982.716356033994
 30
0.0
 10
2208.431293016996
 20
2982.677694248106
 30
0.0
 10
2208.433892308057
 20
2982.639041852815
 30
0.0
 10
2208.436450766422
 20
2982.600401277807
 30
0.0
  0
SPLINE
  5
11981
330
11A28
100
AcDbEntity
  8
Level 26
  6
Continuous
 62
     7
370
    13
100
AcDbSpline
210
0.0
220
0.0
230
1.0
 70
     8
 71
     3
 72
     8
 73
     4
 74
     0
 42
0.000000001
 43
0.0000000001
 40
0.0
 40
0.0
 40
0.0
 40
0.0
 40
0.0838891192153941
 40
0.0838891192153941
 40
0.0838891192153941
 40
0.0838891192153941
 10
2208.191862482284
 20
2972.581054512835
 30
0.0
 10
2208.172381326145
 20
2972.406593213184
 30
0.0
 10
2208.151817825972
 20
2972.232254597179
 30
0.0
 10
2208.130389712085
 20
2972.058020203586
 30
0.0
  0
SPLINE
  5
11984
330
11A28
100
AcDbEntity
  8
Level 26
  6
Continuous
 62
     7
370
    13
100
AcDbSpline
210
0.0
220
0.0
230
1.0
 70
     8
 71
     3
 72
     8
 73
     4
 74
     0
 42
0.000000001
 43
0.0000000001
 40
0.0
 40
0.0
 40
0.0
 40
0.0
 40
0.1999999999999902
 40
0.1999999999999902
 40
0.1999999999999902
 40
0.1999999999999902
 10
2209.104100585626
 20
3033.325760634911
 30
0.0
 10
2209.105092403777
 20
3033.427416972392
 30
0.0
 10
2209.098138914786
 20
3032.716234164622
 30
0.0
 10
2209.084395636397
 20
3031.310991594836
 30
0.0
  0
SPLINE
  5
11987
330
11A28
100
AcDbEntity
  8
Level 26
  6
Continuous
 62
     7
370
    13
100
AcDbSpline
210
0.0
220
0.0
230
1.0
 70
     8
 71
     3
 72
    11
 73
     7
 74
     0
 42
0.000000001
 43
0.0000000001
 40
0.0
 40
0.0
 40
0.0
 40
0.0
 40
0.4242211927087272
 40
0.4242211927087272
 40
0.4242211927087272
 40
0.59371232119343
 40
0.59371232119343
 40
0.59371232119343
 40
0.59371232119343
 10
2243.469576866835
 20
3024.792739684943
 30
0.0
 10
2235.955796519504
 20
3028.700176293099
 30
0.0
 10
2227.663763606103
 20
3031.364217105116
 30
0.0
 10
2219.280158422029
 20
3032.564267134184
 30
0.0
 10
2215.914599949032
 20
3033.046021517254
 30
0.0
 10
2212.508383625833
 20
3033.30095048455
 30
0.0
 10
2209.104279359637
 20
3033.325759332286
 30
0.0
  0
SPLINE
  5
1198A
330
11A28
100
AcDbEntity
  8
Level 26
  6
Continuous
 62
     7
370
    13
100
AcDbSpline
210
0.0
220
0.0
230
1.0
 70
     8
 71
     3
 72
    10
 73
     6
 74
     0
 42
0.000000001
 43
0.0000000001
 40
0.0
 40
0.0
 40
0.0
 40
0.0
 40
0.4203819501733377
 40
0.4203819501733377
 40
0.8229926864676324
 40
0.8229926864676324
 40
0.8229926864676324
 40
0.8229926864676324
 10
2219.280158422029
 20
2924.094384709971
 30
0.0
 10
2227.663763606103
 20
2925.29443473904
 30
0.0
 10
2235.955796519504
 20
2927.958475551056
 30
0.0
 10
2250.665901956236
 20
2935.608260590851
 30
0.0
 10
2257.336036219645
 20
2940.585281542808
 30
0.0
 10
2262.972318026792
 20
2946.418291771903
 30
0.0
  0
SPLINE
  5
1198D
330
11A28
100
AcDbEntity
  8
Level 26
  6
Continuous
 62
     7
370
    13
100
AcDbSpline
210
0.0
220
0.0
230
1.0
 70
     8
 71
     3
 72
     8
 73
     4
 74
     0
 42
0.000000001
 43
0.0000000001
 40
0.0
 40
0.0
 40
0.0
 40
0.0
 40
0.0265472526723897
 40
0.0265472526723897
 40
0.0265472526723897
 40
0.0265472526723897
 10
2208.639838306169
 20
2978.806948809184
 30
0.0
 10
2208.621457797719
 20
2978.66615604884
 30
0.0
 10
2208.608795691579
 20
2978.525393191685
 30
0.0
 10
2208.607037417297
 20
2978.384577134596
 30
0.0
  0
SPLINE
  5
11990
330
11A28
100
AcDbEntity
  8
Level 26
  6
Continuous
 62
     7
370
    13
100
AcDbSpline
210
0.0
220
0.0
230
1.0
 70
     8
 71
     3
 72
     8
 73
     4
 74
     0
 42
0.000000001
 43
0.0000000001
 40
0.0
 40
0.0
 40
0.0
 40
0.0
 40
0.0179231889752013
 40
0.0179231889752013
 40
0.0179231889752013
 40
0.0179231889752013
 10
2208.60909257284
 20
2978.242845195638
 30
0.0
 10
2208.613029997103
 20
2978.147745449388
 30
0.0
 10
2208.621896850983
 20
2978.052615245826
 30
0.0
 10
2208.633954463684
 20
2977.957455006894
 30
0.0
  0
SPLINE
  5
11993
330
11A28
100
AcDbEntity
  8
Level 26
  6
Continuous
 62
     7
370
    13
100
AcDbSpline
210
0.0
220
0.0
230
1.0
 70
     8
 71
     3
 72
     8
 73
     4
 74
     0
 42
0.000000001
 43
0.0000000001
 40
0.0
 40
0.0
 40
0.0
 40
0.0
 40
1.0
 40
1.0
 40
1.0
 40
1.0
 10
2209.081953595879
 20
3031.061259921133
 30
0.0
 10
2209.086205040919
 20
3031.495941724367
 30
0.0
 10
2209.089990599376
 20
3031.882996789657
 30
0.0
 10
2209.092986224206
 20
3032.189298376483
 30
0.0
  0
SPLINE
  5
11996
330
11A28
100
AcDbEntity
  8
Level 26
  6
Continuous
 62
     7
370
    13
100
AcDbSpline
210
0.0
220
0.0
230
1.0
 70
     8
 71
     3
 72
     8
 73
     4
 74
     0
 42
0.000000001
 43
0.0000000001
 40
0.0
 40
0.0
 40
0.0
 40
0.0
 40
1.0
 40
1.0
 40
1.0
 40
1.0
 10
2209.092986224206
 20
3032.189298376483
 30
0.0
 10
2209.096473200086
 20
3032.545837116978
 30
0.0
 10
2209.098996233976
 20
3032.803820368521
 30
0.0
 10
2209.100890713745
 20
3032.997538903524
 30
0.0
  0
SPLINE
  5
11999
330
11A28
100
AcDbEntity
  8
Level 26
  6
Continuous
 62
     7
370
    13
100
AcDbSpline
210
0.0
220
0.0
230
1.0
 70
     8
 71
     3
 72
     8
 73
     4
 74
     0
 42
0.000000001
 43
0.0000000001
 40
0.0
 40
0.0
 40
0.0
 40
0.0
 40
1.0
 40
1.0
 40
1.0
 40
1.0
 10
2209.100890713745
 20
3032.997538903524
 30
0.0
 10
2209.1032880876
 20
3033.242678215112
 30
0.0
 10
2209.103751263514
 20
3033.290040360287
 30
0.0
 10
2209.104100585626
 20
3033.325760634911
 30
0.0
  0
ARC
  5
1199C
330
11A28
100
AcDbEntity
  8
Level 26
  6
Continuous
 62
     7
370
    13
100
AcDbCircle
 10
-2157.576064
 20
2978.829326
 30
0.0
 40
51.0
210
0.0
220
0.0
230
-1.0
100
AcDbArc
 50
0.0
 51
359.999994
  0
SPLINE
  5
1199D
330
11A28
100
AcDbEntity
  8
Level 26
  6
Continuous
 62
     7
370
    13
100
AcDbSpline
210
0.0
220
0.0
230
1.0
 70
     8
 71
     3
 72
     9
 73
     5
 74
     0
 42
0.000000001
 43
0.0000000001
 40
0.0
 40
0.0
 40
0.0
 40
0.0
 40
0.5
 40
1.0
 40
1.0
 40
1.0
 40
1.0
 10
2209.08195367145
 20
3031.061259920394
 30
0.0
 10
2209.096597239597
 20
3032.558441333419
 30
0.0
 10
2209.112895636518
 20
3034.225173761009
 30
0.0
 10
2209.093791460889
 20
3032.271513629547
 30
0.0
 10
2209.073759611857
 20
3030.223502838195
 30
0.0
  0
SPLINE
  5
1199F
330
11A28
100
AcDbEntity
  8
Level 26
  6
Continuous
 62
     7
370
    13
100
AcDbSpline
210
0.0
220
0.0
230
1.0
 70
     8
 71
     3
 72
     9
 73
     5
 74
     0
 42
0.000000001
 43
0.0000000001
 40
0.0
 40
0.0
 40
0.0
 40
0.0
 40
0.5
 40
1.0
 40
1.0
 40
1.0
 40
1.0
 10
2209.073740469178
 20
3030.221545649848
 30
0.0
 10
2209.093785738037
 20
3032.270927125048
 30
0.0
 10
2209.114644725683
 20
3034.404041779363
 30
0.0
 10
2209.093322054926
 20
3032.223510526293
 30
0.0
 10
2209.072392003534
 20
3030.083682076696
 30
0.0
  0
SPLINE
  5
119A1
330
11A28
100
AcDbEntity
  8
Level 27
  6
Continuous
 62
     7
370
    13
100
AcDbSpline
210
0.0
220
0.0
230
1.0
 70
     8
 71
     3
 72
     8
 73
     4
 74
     0
 42
0.000000001
 43
0.0000000001
 40
0.0
 40
0.0
 40
0.0
 40
0.0
 40
1.0
 40
1.0
 40
1.0
 40
1.0
 10
2490.892585679299
 20
2951.656870559918
 30
0.0
 10
2489.384759817062
 20
2951.002601499397
 30
0.0
 10
2487.576824224896
 20
2950.344080988393
 30
0.0
 10
2485.55301803375
 20
2949.83300882639
 30
0.0
  0
LINE
  5
119A3
330
11A28
100
AcDbEntity
  8
Level 26
  6
Continuous
 62
     7
370
    13
100
AcDbLine
 10
2123.576064
 20
2627.825031
 30
0.0
 11
2123.576064
 21
2787.829326
 31
0.0
  0
LINE
  5
119A4
330
11A28
100
AcDbEntity
  8
Level 26
  6
Continuous
 62
     7
370
    13
100
AcDbLine
 10
2128.576064
 20
2787.829326
 30
0.0
 11
2128.576064
 21
2627.825031
 31
0.0
  0
LINE
  5
119A5
330
11A28
100
AcDbEntity
  8
Level 25
  6
Continuous
 62
     7
370
    13
100
AcDbLine
 10
3341.088018
 20
2875.487864
 30
0.0
 11
3733.080358
 21
2875.487864
 31
0.0
  0
LINE
  5
119A6
330
11A28
100
AcDbEntity
  8
Level 25
  6
Continuous
 62
     7
370
    13
100
AcDbLine
 10
2623.576064
 20
2627.825031
 30
0.0
 11
2623.576064
 21
2792.686527
 31
0.0
  0
LINE
  5
119A7
330
11A28
100
AcDbEntity
  8
Level 25
  6
Continuous
 62
     7
370
    13
100
AcDbLine
 10
2791.126309
 20
2627.825031
 30
0.0
 11
2791.126309
 21
2792.686527
 31
0.0
  0
LINE
  5
119A8
330
11A28
100
AcDbEntity
  8
Level 25
  6
Continuous
 62
     7
370
    13
100
AcDbLine
 10
3347.694244
 20
2627.825031
 30
0.0
 11
3347.694244
 21
2792.686527
 31
0.0
  0
LINE
  5
119A9
330
11A28
100
AcDbEntity
  8
Level 25
  6
Continuous
 62
     7
370
    13
100
AcDbLine
 10
3352.388158
 20
2822.259179
 30
0.0
 11
3733.080358
 21
2822.259179
 31
0.0
  0
LINE
  5
119AA
330
11A28
100
AcDbEntity
  8
Level 25
  6
Continuous
 62
     7
370
    13
100
AcDbLine
 10
3347.694244
 20
2792.686527
 30
0.0
 11
3733.080358
 21
2792.686527
 31
0.0
  0
LINE
  5
119AB
330
11A28
100
AcDbEntity
  8
Level 25
  6
Continuous
 62
     7
370
    13
100
AcDbLine
 10
3341.304361
 20
2875.461393
 30
0.0
 11
3733.080358
 21
2875.461393
 31
0.0
  0
LINE
  5
119AC
330
11A28
100
AcDbEntity
  8
Level 25
  6
Continuous
 62
     7
370
    13
100
AcDbLine
 10
3368.361406
 20
2868.836674
 30
0.0
 11
3733.080358
 21
2868.836674
 31
0.0
  0
LINE
  5
119AD
330
11A28
100
AcDbEntity
  8
Level 25
  6
Continuous
 62
     7
370
    13
100
AcDbLine
 10
3368.729237
 20
2837.081506
 30
0.0
 11
3733.080358
 21
2837.081506
 31
0.0
  0
LWPOLYLINE
  5
119AE
330
11A28
100
AcDbEntity
  8
Level 14
  6
DGN Style 2
 62
     7
370
    13
100
AcDbPolyline
 90
        4
 70
   128
 43
0.0
 10
3733.080358
 20
4443.191926
 10
2272.049777
 20
4549.663744
 42
0.435684
 10
582.576064
 20
2978.829326
 10
582.576064
 20
2627.825031
  0
LINE
  5
119B2
330
11A28
100
AcDbEntity
  8
Level 27
  6
Continuous
 62
     7
370
    13
100
AcDbLine
 10
2461.576064
 20
2948.829326
 30
0.0
 11
2461.576064
 21
2627.825031
 31
0.0
  0
LINE
  5
119B3
330
11A28
100
AcDbEntity
  8
Level 27
  6
Continuous
 62
     7
370
    13
100
AcDbLine
 10
2495.576064
 20
2627.825031
 30
0.0
 11
2495.576064
 21
2954.110912
 31
0.0
  0
ELLIPSE
  5
119B4
330
11A28
100
AcDbEntity
  8
Level 25
  6
Continuous
 62
     7
370
    13
100
AcDbEllipse
 10
4000.151356
 20
2401.367348
 30
0.0
 11
0.0
 21
-16.0
 31
0.0
210
0.0
220
0.0
230
1.0
 40
0.757847101131958
 41
0.0330106275348801
 42
2.956638036685114
  0
LINE
  5
119B5
330
11A28
100
AcDbEntity
  8
Level 25
  6
Continuous
 62
     7
370
    13
100
AcDbLine
 10
4002.381269
 20
2417.094462
 30
0.0
 11
3935.99573
 21
2433.483816
 31
0.0
  0
LINE
  5
119B6
330
11A28
100
AcDbEntity
  8
Level 25
  6
Continuous
 62
     7
370
    13
100
AcDbLine
 10
3891.504731
 20
2380.629341
 30
0.0
 11
4000.551556
 21
2385.376065
 31
0.0
  0
ELLIPSE
  5
119B7
330
11A28
100
AcDbEntity
  8
Level 25
  6
Continuous
 62
     7
370
    13
100
AcDbEllipse
 10
3940.176935
 20
2462.972125
 30
0.0
 11
0.0
 21
29.99999999999998
 31
0.0
210
0.0
220
0.0
230
-1.0
 40
0.7578471011319578
 41
3.326552569108516
 42
4.712388980384679
  0
ELLIPSE
  5
119B8
330
11A28
100
AcDbEntity
  8
Level 25
  6
Continuous
 62
     7
370
    13
100
AcDbEllipse
 10
3890.880065
 20
2405.615749
 30
0.0
 11
0.0
 21
-25.0
 31
0.0
210
0.0
220
0.0
230
1.0
 40
0.7578471011319578
 41
0.0000000000000065
 42
0.0329765403642881
  0
ELLIPSE
  5
119B9
330
11A28
100
AcDbEntity
  8
Level 25
  6
Continuous
 62
     7
370
    13
100
AcDbEllipse
 10
4615.34219
 20
2401.367348
 30
0.0
 11
0.0
 21
-16.00000000000001
 31
0.0
210
0.0
220
0.0
230
1.0
 40
0.0672903615011235
 41
0.0330106275349005
 42
2.956638036685103
  0
LINE
  5
119BA
330
11A28
100
AcDbEntity
  8
Level 25
  6
Continuous
 62
     7
370
    13
100
AcDbLine
 10
4615.377724
 20
2385.376065
 30
0.0
 11
4000.551556
 21
2385.376065
 31
0.0
  0
LINE
  5
119BB
330
11A28
100
AcDbEntity
  8
Level 25
  6
Continuous
 62
     7
370
    13
100
AcDbLine
 10
4615.540187
 20
2417.094462
 30
0.0
 11
4002.381269
 21
2417.094462
 31
0.0
  0
LINE
  5
119BC
330
11A28
100
AcDbEntity
  8
Level 25
  6
Continuous
 62
     7
370
    13
100
AcDbLine
 10
4615.540187
 20
2417.094462
 30
0.0
 11
4609.645717
 21
2433.483816
 31
0.0
  0
LINE
  5
119BD
330
11A28
100
AcDbEntity
  8
Level 25
  6
Continuous
 62
     7
370
    13
100
AcDbLine
 10
4609.645717
 20
2433.483816
 30
0.0
 11
3935.99573
 21
2433.483816
 31
0.0
  0
LINE
  5
119BE
330
11A28
100
AcDbEntity
  8
Level 25
  6
Continuous
 62
     7
370
    13
100
AcDbLine
 10
4605.695296
 20
2380.629341
 30
0.0
 11
4615.377724
 21
2385.376065
 31
0.0
  0
LINE
  5
119BF
330
11A28
100
AcDbEntity
  8
Level 25
  6
Continuous
 62
     7
370
    13
100
AcDbLine
 10
4605.695296
 20
2380.629341
 30
0.0
 11
3891.504731
 21
2380.629341
 31
0.0
  0
ELLIPSE
  5
119C0
330
11A28
100
AcDbEntity
  8
Level 25
  6
Continuous
 62
     7
370
    13
100
AcDbEllipse
 10
4610.016972
 20
2462.972125
 30
0.0
 11
0.0
 21
30.0
 31
0.0
210
0.0
220
0.0
230
-1.0
 40
0.0672903615011236
 41
3.326552569108546
 42
4.712388980384681
  0
LINE
  5
119C1
330
11A28
100
AcDbEntity
  8
Level 25
  6
Continuous
 62
     7
370
    13
100
AcDbLine
 10
4607.998262
 20
2462.972125
 30
0.0
 11
3917.441522
 21
2462.972125
 31
0.0
  0
ELLIPSE
  5
119C2
330
11A28
100
AcDbEntity
  8
Level 25
  6
Continuous
 62
     7
370
    13
100
AcDbEllipse
 10
4605.639831
 20
2405.615749
 30
0.0
 11
0.0
 21
-25.00000000000003
 31
0.0
210
0.0
220
0.0
230
1.0
 40
0.0672903615011235
 41
-0.0000000000000382
 42
0.0329765403642519
  0
LINE
  5
119C3
330
11A28
100
AcDbEntity
  8
Level 25
  6
Continuous
 62
     7
370
    13
100
AcDbLine
 10
3890.880065
 20
2380.615749
 30
0.0
 11
4605.639831
 21
2380.615749
 31
0.0
  0
LINE
  5
119C4
330
11A28
100
AcDbEntity
  8
Level 25
  6
Continuous
 62
     7
370
    13
100
AcDbLine
 10
4774.529284
 20
2417.094462
 30
0.0
 11
4615.540187
 21
2417.094462
 31
0.0
  0
ELLIPSE
  5
119C5
330
11A28
100
AcDbEntity
  8
Level 25
  6
Continuous
 62
     7
370
    13
100
AcDbEllipse
 10
4774.331287
 20
2401.367348
 30
0.0
 11
0.0
 21
-16.00000000000001
 31
0.0
210
0.0
220
0.0
230
1.0
 40
0.0672903615011235
 41
0.0330106275349005
 42
2.956638036685103
  0
LINE
  5
119C6
330
11A28
100
AcDbEntity
  8
Level 25
  6
Continuous
 62
     7
370
    13
100
AcDbLine
 10
4774.366821
 20
2385.376065
 30
0.0
 11
4615.377724
 21
2385.376065
 31
0.0
  0
ARC
  5
119C7
330
11A28
100
AcDbEntity
  8
Level 25
  6
Continuous
 62
     7
370
    13
100
AcDbCircle
 10
4992.713954
 20
2401.367348
 30
0.0
 40
16.0
100
AcDbArc
 50
271.89137
 51
79.402881
  0
LINE
  5
119C8
330
11A28
100
AcDbEntity
  8
Level 25
  6
Continuous
 62
     7
370
    13
100
AcDbLine
 10
4774.366821
 20
2385.376065
 30
0.0
 11
4993.242029
 21
2385.376065
 31
0.0
  0
LINE
  5
119C9
330
11A28
100
AcDbEntity
  8
Level 25
  6
Continuous
 62
     7
370
    13
100
AcDbLine
 10
4774.529284
 20
2417.094462
 30
0.0
 11
4995.656385
 21
2417.094462
 31
0.0
  0
LINE
  5
119CA
330
11A28
100
AcDbEntity
  8
Level 25
  6
Continuous
 62
     7
370
    13
100
AcDbLine
 10
4768.634814
 20
2433.483816
 30
0.0
 11
4609.645717
 21
2433.483816
 31
0.0
  0
LINE
  5
119CB
330
11A28
100
AcDbEntity
  8
Level 25
  6
Continuous
 62
     7
370
    13
100
AcDbLine
 10
4774.529284
 20
2417.094462
 30
0.0
 11
4768.634814
 21
2433.483816
 31
0.0
  0
LINE
  5
119CC
330
11A28
100
AcDbEntity
  8
Level 25
  6
Continuous
 62
     7
370
    13
100
AcDbLine
 10
4764.684393
 20
2380.629341
 30
0.0
 11
4774.366821
 21
2385.376065
 31
0.0
  0
LINE
  5
119CD
330
11A28
100
AcDbEntity
  8
Level 25
  6
Continuous
 62
     7
370
    13
100
AcDbLine
 10
4764.684393
 20
2380.629341
 30
0.0
 11
4605.695296
 21
2380.629341
 31
0.0
  0
LINE
  5
119CE
330
11A28
100
AcDbEntity
  8
Level 25
  6
Continuous
 62
     7
370
    13
100
AcDbLine
 10
4995.656385
 20
2417.094462
 30
0.0
 11
4908.05885
 21
2433.483816
 31
0.0
  0
LINE
  5
119CF
330
11A28
100
AcDbEntity
  8
Level 25
  6
Continuous
 62
     7
370
    13
100
AcDbLine
 10
4768.634814
 20
2433.483816
 30
0.0
 11
4908.05885
 21
2433.483816
 31
0.0
  0
LINE
  5
119D0
330
11A28
100
AcDbEntity
  8
Level 25
  6
Continuous
 62
     7
370
    13
100
AcDbLine
 10
4849.351757
 20
2380.629341
 30
0.0
 11
4993.242029
 21
2385.376065
 31
0.0
  0
LINE
  5
119D1
330
11A28
100
AcDbEntity
  8
Level 25
  6
Continuous
 62
     7
370
    13
100
AcDbLine
 10
4764.684393
 20
2380.629341
 30
0.0
 11
4849.351757
 21
2380.629341
 31
0.0
  0
LINE
  5
119D2
330
11A28
100
AcDbEntity
  8
Level 25
  6
Continuous
 62
     7
370
    13
100
AcDbLine
 10
4766.987359
 20
2462.972125
 30
0.0
 11
4607.998262
 21
2462.972125
 31
0.0
  0
ELLIPSE
  5
119D3
330
11A28
100
AcDbEntity
  8
Level 25
  6
Continuous
 62
     7
370
    13
100
AcDbEllipse
 10
4769.00607
 20
2462.972125
 30
0.0
 11
0.0
 21
30.0
 31
0.0
210
0.0
220
0.0
230
-1.0
 40
0.0672903615011236
 41
3.326552569108516
 42
4.712388980384681
  0
ARC
  5
119D4
330
11A28
100
AcDbEntity
  8
Level 25
  6
Continuous
 62
     7
370
    13
100
AcDbCircle
 10
-4913.576064
 20
2462.972125
 30
0.0
 40
30.0
210
0.0
220
0.0
230
-1.0
100
AcDbArc
 50
280.597423
 51
360.0
  0
LINE
  5
119D5
330
11A28
100
AcDbEntity
  8
Level 25
  6
Continuous
 62
     7
370
    13
100
AcDbLine
 10
4766.987359
 20
2462.972125
 30
0.0
 11
4883.576064
 21
2462.972125
 31
0.0
  0
ELLIPSE
  5
119D6
330
11A28
100
AcDbEntity
  8
Level 25
  6
Continuous
 62
     7
370
    13
100
AcDbEllipse
 10
4764.628928
 20
2405.615749
 30
0.0
 11
0.0
 21
-25.00000000000003
 31
0.0
210
0.0
220
0.0
230
1.0
 40
0.0672903615011235
 41
0.0
 42
0.0329765403642519
  0
LINE
  5
119D7
330
11A28
100
AcDbEntity
  8
Level 25
  6
Continuous
 62
     7
370
    13
100
AcDbLine
 10
4605.639831
 20
2380.615749
 30
0.0
 11
4764.628928
 21
2380.615749
 31
0.0
  0
ARC
  5
119D8
330
11A28
100
AcDbEntity
  8
Level 25
  6
Continuous
 62
     7
370
    13
100
AcDbCircle
 10
4848.527493
 20
2405.615749
 30
0.0
 40
25.0
100
AcDbArc
 50
270.0
 51
271.889417
  0
LINE
  5
119D9
330
11A28
100
AcDbEntity
  8
Level 25
  6
Continuous
 62
     7
370
    13
100
AcDbLine
 10
4848.527493
 20
2380.615749
 30
0.0
 11
4764.628928
 21
2380.615749
 31
0.0
  0
LINE
  5
119DA
330
11A28
100
AcDbEntity
  8
Level 25
  6
Continuous
 62
     7
370
    13
100
AcDbLine
 10
3890.880065
 20
2380.615749
 30
0.0
 11
3733.071769
 21
2380.615749
 31
0.0
  0
LINE
  5
119DB
330
11A28
100
AcDbEntity
  8
Level 25
  6
Continuous
 62
     7
370
    13
100
AcDbLine
 10
3917.441522
 20
2462.972125
 30
0.0
 11
3917.441522
 21
2627.833621
 31
0.0
  0
LINE
  5
119DC
330
11A28
100
AcDbEntity
  8
Level 25
  6
Continuous
 62
     7
370
    13
100
AcDbLine
 10
3733.071769
 20
2462.972125
 30
0.0
 11
3917.441522
 21
2462.972125
 31
0.0
  0
LINE
  5
119DD
330
11A28
100
AcDbEntity
  8
Level 25
  6
Continuous
 62
     7
370
    13
100
AcDbLine
 10
3733.071769
 20
2433.483816
 30
0.0
 11
3935.99573
 21
2433.483816
 31
0.0
  0
LINE
  5
119DE
330
11A28
100
AcDbEntity
  8
Level 25
  6
Continuous
 62
     7
370
    13
100
AcDbLine
 10
3733.071769
 20
2417.094462
 30
0.0
 11
4002.381269
 21
2417.094462
 31
0.0
  0
LINE
  5
119DF
330
11A28
100
AcDbEntity
  8
Level 25
  6
Continuous
 62
     7
370
    13
100
AcDbLine
 10
3733.071769
 20
2385.376065
 30
0.0
 11
4000.551556
 21
2385.376065
 31
0.0
  0
LINE
  5
119E0
330
11A28
100
AcDbEntity
  8
Level 25
  6
Continuous
 62
     7
370
    13
100
AcDbLine
 10
3733.071769
 20
2380.629341
 30
0.0
 11
3891.504731
 21
2380.629341
 31
0.0
  0
LINE
  5
119E1
330
11A28
100
AcDbEntity
  8
Level 25
  6
Continuous
 62
     7
370
    13
100
AcDbLine
 10
4607.998262
 20
2462.972125
 30
0.0
 11
4607.998262
 21
2627.833621
 31
0.0
  0
LINE
  5
119E2
330
11A28
100
AcDbEntity
  8
Level 25
  6
Continuous
 62
     7
370
    13
100
AcDbLine
 10
4766.987359
 20
2462.972125
 30
0.0
 11
4766.987359
 21
2627.833621
 31
0.0
  0
LINE
  5
119E3
330
11A28
100
AcDbEntity
  8
Level 25
  6
Continuous
 62
     7
370
    13
100
AcDbLine
 10
4883.576064
 20
2462.972125
 30
0.0
 11
4883.576064
 21
2627.833621
 31
0.0
  0
LWPOLYLINE
  5
119E4
330
11A28
100
AcDbEntity
  8
Level 14
  6
DGN Style 2
 62
     7
370
    13
100
AcDbPolyline
 90
        6
 70
   128
 43
0.0
 10
3733.071769
 20
812.4661
 10
4717.020812
 20
884.170858
 42
0.194478
 10
5726.03225
 20
1380.203639
 10
5883.576064
 20
1380.203639
 42
0.414214
 10
6883.576064
 20
2380.203639
 10
6883.576064
 20
2627.833621
  0
ELLIPSE
  5
119EA
330
11A28
100
AcDbEntity
  8
Level 25
  6
Continuous
 62
     7
370
    13
100
AcDbEllipse
 10
4000.151356
 20
2852.853587
 30
0.0
 11
0.0
 21
-16.0
 31
0.0
210
0.0
220
0.0
230
1.0
 40
0.7578471011319578
 41
0.1689904329039944
 42
3.095608654046155
  0
LINE
  5
119EB
330
11A28
100
AcDbEntity
  8
Level 25
  6
Continuous
 62
     7
370
    13
100
AcDbLine
 10
3936.353128
 20
2822.259179
 30
0.0
 11
4002.19072
 21
2837.081506
 31
0.0
  0
LINE
  5
119EC
330
11A28
100
AcDbEntity
  8
Level 25
  6
Continuous
 62
     7
370
    13
100
AcDbLine
 10
4000.708741
 20
2868.836674
 30
0.0
 11
3891.696926
 21
2875.461393
 31
0.0
  0
ELLIPSE
  5
119ED
330
11A28
100
AcDbEntity
  8
Level 25
  6
Continuous
 62
     7
370
    13
100
AcDbEllipse
 10
3940.176935
 20
2792.686527
 30
0.0
 11
0.0
 21
30.0
 31
0.0
210
0.0
220
0.0
230
-1.0
 40
0.7578471011319581
 41
4.712388980384679
 42
6.114194874383638
  0
ELLIPSE
  5
119EE
330
11A28
100
AcDbEntity
  8
Level 25
  6
Continuous
 62
     7
370
    13
100
AcDbEllipse
 10
3890.825286
 20
2850.487864
 30
0.0
 11
0.0
 21
-25.0
 31
0.0
210
0.0
220
0.0
230
1.0
 40
0.7578471011319579
 41
3.09557030989958
 42
3.141592653589778
  0
ELLIPSE
  5
119EF
330
11A28
100
AcDbEntity
  8
Level 25
  6
Continuous
 62
     7
370
    13
100
AcDbEllipse
 10
4615.34219
 20
2852.853587
 30
0.0
 11
0.0
 21
-16.00000000000001
 31
0.0
210
0.0
220
0.0
230
1.0
 40
0.0672903615011236
 41
0.1689904329040246
 42
3.09560865404615
  0
LINE
  5
119F0
330
11A28
100
AcDbEntity
  8
Level 25
  6
Continuous
 62
     7
370
    13
100
AcDbLine
 10
4615.523268
 20
2837.081506
 30
0.0
 11
4002.19072
 21
2837.081506
 31
0.0
  0
LINE
  5
119F1
330
11A28
100
AcDbEntity
  8
Level 25
  6
Continuous
 62
     7
370
    13
100
AcDbLine
 10
4615.391681
 20
2868.836674
 30
0.0
 11
4000.708741
 21
2868.836674
 31
0.0
  0
LINE
  5
119F2
330
11A28
100
AcDbEntity
  8
Level 25
  6
Continuous
 62
     7
370
    13
100
AcDbLine
 10
4609.677451
 20
2822.259179
 30
0.0
 11
4615.523268
 21
2837.081506
 31
0.0
  0
LINE
  5
119F3
330
11A28
100
AcDbEntity
  8
Level 25
  6
Continuous
 62
     7
370
    13
100
AcDbLine
 10
4609.677451
 20
2822.259179
 30
0.0
 11
3936.353128
 21
2822.259179
 31
0.0
  0
LINE
  5
119F4
330
11A28
100
AcDbEntity
  8
Level 25
  6
Continuous
 62
     7
370
    13
100
AcDbLine
 10
4615.391681
 20
2868.836674
 30
0.0
 11
4605.712361
 21
2875.461393
 31
0.0
  0
LINE
  5
119F5
330
11A28
100
AcDbEntity
  8
Level 25
  6
Continuous
 62
     7
370
    13
100
AcDbLine
 10
4605.712361
 20
2875.461393
 30
0.0
 11
3891.696926
 21
2875.461393
 31
0.0
  0
LINE
  5
119F6
330
11A28
100
AcDbEntity
  8
Level 25
  6
Continuous
 62
     7
370
    13
100
AcDbLine
 10
4607.998262
 20
2792.686527
 30
0.0
 11
3917.441522
 21
2792.686527
 31
0.0
  0
ELLIPSE
  5
119F7
330
11A28
100
AcDbEntity
  8
Level 25
  6
Continuous
 62
     7
370
    13
100
AcDbEllipse
 10
4610.016972
 20
2792.686527
 30
0.0
 11
0.0
 21
30.0
 31
0.0
210
0.0
220
0.0
230
-1.0
 40
0.0672903615011235
 41
4.712388980384681
 42
6.114194874383665
  0
LINE
  5
119F8
330
11A28
100
AcDbEntity
  8
Level 25
  6
Continuous
 62
     7
370
    13
100
AcDbLine
 10
4605.634967
 20
2875.487864
 30
0.0
 11
3890.825286
 21
2875.487864
 31
0.0
  0
ELLIPSE
  5
119F9
330
11A28
100
AcDbEntity
  8
Level 25
  6
Continuous
 62
     7
370
    13
100
AcDbEllipse
 10
4605.634967
 20
2850.487864
 30
0.0
 11
0.0
 21
-25.00000000000003
 31
0.0
210
0.0
220
0.0
230
1.0
 40
0.0672903615011236
 41
3.095570309899591
 42
3.141592653589793
  0
LINE
  5
119FA
330
11A28
100
AcDbEntity
  8
Level 25
  6
Continuous
 62
     7
370
    13
100
AcDbLine
 10
4774.380778
 20
2868.836674
 30
0.0
 11
4615.391681
 21
2868.836674
 31
0.0
  0
ELLIPSE
  5
119FB
330
11A28
100
AcDbEntity
  8
Level 25
  6
Continuous
 62
     7
370
    13
100
AcDbEllipse
 10
4774.331287
 20
2852.853587
 30
0.0
 11
0.0
 21
-16.00000000000001
 31
0.0
210
0.0
220
0.0
230
1.0
 40
0.0672903615011236
 41
0.1689904329040246
 42
3.09560865404609
  0
LINE
  5
119FC
330
11A28
100
AcDbEntity
  8
Level 25
  6
Continuous
 62
     7
370
    13
100
AcDbLine
 10
4774.512365
 20
2837.081506
 30
0.0
 11
4615.523268
 21
2837.081506
 31
0.0
  0
ARC
  5
119FD
330
11A28
100
AcDbEntity
  8
Level 25
  6
Continuous
 62
     7
370
    13
100
AcDbCircle
 10
4992.713955
 20
2852.853587
 30
0.0
 40
16.0
100
AcDbArc
 50
279.682439
 51
87.365311
  0
LINE
  5
119FE
330
11A28
100
AcDbEntity
  8
Level 25
  6
Continuous
 62
     7
370
    13
100
AcDbLine
 10
4774.512365
 20
2837.081506
 30
0.0
 11
4995.404951
 21
2837.081506
 31
0.0
  0
LINE
  5
119FF
330
11A28
100
AcDbEntity
  8
Level 25
  6
Continuous
 62
     7
370
    13
100
AcDbLine
 10
4774.380778
 20
2868.836674
 30
0.0
 11
4993.449439
 21
2868.836674
 31
0.0
  0
LINE
  5
11A00
330
11A28
100
AcDbEntity
  8
Level 25
  6
Continuous
 62
     7
370
    13
100
AcDbLine
 10
4768.666548
 20
2822.259179
 30
0.0
 11
4774.512365
 21
2837.081506
 31
0.0
  0
LINE
  5
11A01
330
11A28
100
AcDbEntity
  8
Level 25
  6
Continuous
 62
     7
370
    13
100
AcDbLine
 10
4768.666548
 20
2822.259179
 30
0.0
 11
4609.677451
 21
2822.259179
 31
0.0
  0
LINE
  5
11A02
330
11A28
100
AcDbEntity
  8
Level 25
  6
Continuous
 62
     7
370
    13
100
AcDbLine
 10
4764.701458
 20
2875.461393
 30
0.0
 11
4605.712361
 21
2875.461393
 31
0.0
  0
LINE
  5
11A03
330
11A28
100
AcDbEntity
  8
Level 25
  6
Continuous
 62
     7
370
    13
100
AcDbLine
 10
4774.380778
 20
2868.836674
 30
0.0
 11
4764.701458
 21
2875.461393
 31
0.0
  0
LINE
  5
11A04
330
11A28
100
AcDbEntity
  8
Level 25
  6
Continuous
 62
     7
370
    13
100
AcDbLine
 10
4908.530446
 20
2822.259179
 30
0.0
 11
4995.404951
 21
2837.081506
 31
0.0
  0
LINE
  5
11A05
330
11A28
100
AcDbEntity
  8
Level 25
  6
Continuous
 62
     7
370
    13
100
AcDbLine
 10
4768.666548
 20
2822.259179
 30
0.0
 11
4908.530446
 21
2822.259179
 31
0.0
  0
LINE
  5
11A06
330
11A28
100
AcDbEntity
  8
Level 25
  6
Continuous
 62
     7
370
    13
100
AcDbLine
 10
4993.449439
 20
2868.836674
 30
0.0
 11
4849.605364
 21
2875.461393
 31
0.0
  0
LINE
  5
11A07
330
11A28
100
AcDbEntity
  8
Level 25
  6
Continuous
 62
     7
370
    13
100
AcDbLine
 10
4764.701458
 20
2875.461393
 30
0.0
 11
4849.605364
 21
2875.461393
 31
0.0
  0
ELLIPSE
  5
11A08
330
11A28
100
AcDbEntity
  8
Level 25
  6
Continuous
 62
     7
370
    13
100
AcDbEllipse
 10
4769.00607
 20
2792.686527
 30
0.0
 11
0.0
 21
30.0
 31
0.0
210
0.0
220
0.0
230
-1.0
 40
0.0672903615011235
 41
4.712388980384681
 42
6.114194874383665
  0
LINE
  5
11A09
330
11A28
100
AcDbEntity
  8
Level 25
  6
Continuous
 62
     7
370
    13
100
AcDbLine
 10
4766.987359
 20
2792.686527
 30
0.0
 11
4607.998262
 21
2792.686527
 31
0.0
  0
LINE
  5
11A0A
330
11A28
100
AcDbEntity
  8
Level 25
  6
Continuous
 62
     7
370
    13
100
AcDbLine
 10
4766.987359
 20
2792.686527
 30
0.0
 11
4883.576064
 21
2792.686527
 31
0.0
  0
ARC
  5
11A0B
330
11A28
100
AcDbEntity
  8
Level 25
  6
Continuous
 62
     7
370
    13
100
AcDbCircle
 10
-4913.576064
 20
2792.686527
 30
0.0
 40
30.0
210
0.0
220
0.0
230
-1.0
100
AcDbArc
 50
360.0
 51
80.317561
  0
LINE
  5
11A0C
330
11A28
100
AcDbEntity
  8
Level 25
  6
Continuous
 62
     7
370
    13
100
AcDbLine
 10
4764.624064
 20
2875.487864
 30
0.0
 11
4605.634967
 21
2875.487864
 31
0.0
  0
ELLIPSE
  5
11A0D
330
11A28
100
AcDbEntity
  8
Level 25
  6
Continuous
 62
     7
370
    13
100
AcDbEllipse
 10
4764.624064
 20
2850.487864
 30
0.0
 11
0.0
 21
-25.00000000000003
 31
0.0
210
0.0
220
0.0
230
1.0
 40
0.0672903615011236
 41
3.095570309899591
 42
3.141592653589793
  0
LINE
  5
11A0E
330
11A28
100
AcDbEntity
  8
Level 25
  6
Continuous
 62
     7
370
    13
100
AcDbLine
 10
4764.624064
 20
2875.487864
 30
0.0
 11
4848.455212
 21
2875.487864
 31
0.0
  0
ARC
  5
11A0F
330
11A28
100
AcDbEntity
  8
Level 25
  6
Continuous
 62
     7
370
    13
100
AcDbCircle
 10
4848.455212
 20
2850.487864
 30
0.0
 40
25.0
100
AcDbArc
 50
87.363114
 51
90.0
  0
LINE
  5
11A10
330
11A28
100
AcDbEntity
  8
Level 25
  6
Continuous
 62
     7
370
    13
100
AcDbLine
 10
3733.071769
 20
2875.487864
 30
0.0
 11
3890.825286
 21
2875.487864
 31
0.0
  0
LINE
  5
11A11
330
11A28
100
AcDbEntity
  8
Level 25
  6
Continuous
 62
     7
370
    13
100
AcDbLine
 10
3733.071769
 20
2822.259179
 30
0.0
 11
3936.353128
 21
2822.259179
 31
0.0
  0
LINE
  5
11A12
330
11A28
100
AcDbEntity
  8
Level 25
  6
Continuous
 62
     7
370
    13
100
AcDbLine
 10
3733.071769
 20
2792.686527
 30
0.0
 11
3917.441522
 21
2792.686527
 31
0.0
  0
LINE
  5
11A13
330
11A28
100
AcDbEntity
  8
Level 25
  6
Continuous
 62
     7
370
    13
100
AcDbLine
 10
3917.441522
 20
2627.825031
 30
0.0
 11
3917.441522
 21
2792.686527
 31
0.0
  0
LINE
  5
11A14
330
11A28
100
AcDbEntity
  8
Level 25
  6
Continuous
 62
     7
370
    13
100
AcDbLine
 10
3733.071769
 20
2875.461393
 30
0.0
 11
3891.696926
 21
2875.461393
 31
0.0
  0
LINE
  5
11A15
330
11A28
100
AcDbEntity
  8
Level 25
  6
Continuous
 62
     7
370
    13
100
AcDbLine
 10
3733.071769
 20
2868.836674
 30
0.0
 11
4000.708741
 21
2868.836674
 31
0.0
  0
LINE
  5
11A16
330
11A28
100
AcDbEntity
  8
Level 25
  6
Continuous
 62
     7
370
    13
100
AcDbLine
 10
3733.071769
 20
2837.081506
 30
0.0
 11
4002.19072
 21
2837.081506
 31
0.0
  0
LINE
  5
11A17
330
11A28
100
AcDbEntity
  8
Level 25
  6
Continuous
 62
     7
370
    13
100
AcDbLine
 10
4607.998262
 20
2627.825031
 30
0.0
 11
4607.998262
 21
2792.686527
 31
0.0
  0
LINE
  5
11A18
330
11A28
100
AcDbEntity
  8
Level 25
  6
Continuous
 62
     7
370
    13
100
AcDbLine
 10
4766.987359
 20
2627.825031
 30
0.0
 11
4766.987359
 21
2792.686527
 31
0.0
  0
LINE
  5
11A19
330
11A28
100
AcDbEntity
  8
Level 25
  6
Continuous
 62
     7
370
    13
100
AcDbLine
 10
4883.576064
 20
2627.825031
 30
0.0
 11
4883.576064
 21
2792.686527
 31
0.0
  0
LWPOLYLINE
  5
11A1A
330
11A28
100
AcDbEntity
  8
Level 14
  6
DGN Style 2
 62
     7
370
    13
100
AcDbPolyline
 90
        3
 70
   128
 43
0.0
 10
5726.03225
 20
3875.455012
 42
0.194478
 10
4717.020812
 20
4371.487794
 10
3733.071769
 20
4443.192552
  0
LWPOLYLINE
  5
11A1D
330
11A28
100
AcDbEntity
  8
Level 14
  6
DGN Style 2
 62
     7
370
    13
100
AcDbPolyline
 90
        4
 70
   128
 43
0.0
 10
6883.576064
 20
2627.825031
 10
6883.576064
 20
2875.455012
 42
0.414214
 10
5883.576064
 20
3875.455012
 10
5726.03225
 20
3875.455012
  0
ENDSEC
  0
SECTION
  2
OBJECTS
  0
DICTIONARY
  5
11A31
330
0
100
AcDbDictionary
281
     1
  3
ACAD_COLOR
350
11A8C
  3
ACAD_DETAILVIEWSTYLE
350
11C32
  3
ACAD_GROUP
350
11A79
  3
ACAD_LAYOUT
350
11A5B
  3
ACAD_MATERIAL
350
11A33
  3
ACAD_MLEADERSTYLE
350
11A8F
  3
ACAD_MLINESTYLE
350
11A7A
  3
ACAD_PLOTSETTINGS
350
11A7B
  3
ACAD_PLOTSTYLENAME
350
11A30
  3
ACAD_SCALELIST
350
11A8D
  3
ACAD_SECTIONVIEWSTYLE
350
11C30
  3
ACAD_TABLESTYLE
350
11A8E
  3
ACAD_VISUALSTYLE
350
11A73
  3
AcadDim
350
11C0D
  3
ACDB_RECOMPOSE_DATA
350
1211F
  3
AcDbVariableDictionary
350
11A90
  3
AcDsDecomposeData
350
12125
  3
MicroStation
350
11C0C
  0
DICTIONARY
  5
11A64
330
11A63
100
AcDbDictionary
280
     1
281
     1
  3
ACAD_LAYERFILTERS
360
11A65
  3
ACAD_LAYERSTATES
360
11A66
  3
ACLYDICTIONARY
360
11A67
  0
DICTIONARY
  5
11A2D
330
11A2C
100
AcDbDictionary
280
     1
281
     1
  3
ADSK_XREC_LAYER_RECONCILED
360
11A2E
  0
DICTIONARY
  5
11A29
330
11A28
100
AcDbDictionary
280
     1
281
     1
  3
ACAD_SORTENTS
360
11C05
  0
DICTIONARY
  5
11A8C
102
{ACAD_REACTORS
330
11A31
102
}
330
11A31
100
AcDbDictionary
281
     1
  0
DICTIONARY
  5
11C32
102
{ACAD_REACTORS
330
11A31
102
}
330
11A31
100
AcDbDictionary
281
     1
  3
Imperial24
350
11C33
  0
DICTIONARY
  5
11A79
102
{ACAD_REACTORS
330
11A31
102
}
330
11A31
100
AcDbDictionary
281
     1
  0
DICTIONARY
  5
11A5B
102
{ACAD_REACTORS
330
11A31
102
}
330
11A31
100
AcDbDictionary
281
     1
  3
Layout1
350
11A60
  3
Model
350
11A5A
  0
DICTIONARY
  5
11A33
102
{ACAD_REACTORS
330
11A31
102
}
330
11A31
100
AcDbDictionary
281
     1
  3
ByBlock
350
11A84
  3
ByLayer
350
11A7C
  3
Chrome
350
8DC
  3
Global
350
11A32
  0
DICTIONARY
  5
11A8F
102
{ACAD_REACTORS
330
11A31
102
}
330
11A31
100
AcDbDictionary
281
     1
  3
Standard
350
11C0E
  0
DICTIONARY
  5
11A7A
102
{ACAD_REACTORS
330
11A31
102
}
330
11A31
100
AcDbDictionary
281
     1
  3
Standard
350
11AA1
  0
DICTIONARY
  5
11A7B
102
{ACAD_REACTORS
330
11A31
102
}
330
11A31
100
AcDbDictionary
281
     1
  0
ACDBDICTIONARYWDFLT
  5
11A30
102
{ACAD_REACTORS
330
11A31
102
}
330
11A31
100
AcDbDictionary
281
     1
  3
Normal
350
11A2F
100
AcDbDictionaryWithDefault
340
11A2F
  0
DICTIONARY
  5
11A8D
102
{ACAD_REACTORS
330
11A31
102
}
330
11A31
100
AcDbDictionary
281
     1
  3
A0
350
11AA6
  3
A1
350
11AA7
  3
A2
350
11AA8
  3
A3
350
11AA9
  3
A4
350
11AAA
  3
A5
350
11AAB
  3
A6
350
11AAC
  3
A7
350
11AAD
  3
A8
350
11AAE
  3
A9
350
11AAF
  3
B0
350
11AB0
  3
B1
350
11AB1
  3
B2
350
11AB2
  3
B3
350
11AB3
  3
B4
350
11AB4
  3
B5
350
11AB5
  3
B6
350
11AB6
  3
B7
350
11AB7
  3
B8
350
11AB8
  3
B9
350
11AB9
  3
C0
350
11ABA
  3
C1
350
11ABB
  3
C2
350
11ABC
  3
C3
350
11ABD
  3
C4
350
11ABE
  3
C5
350
11ABF
  3
C6
350
11AC0
  3
C7
350
11AC1
  3
C8
350
11AC2
  3
C9
350
11AC3
  3
D0
350
11AC4
  3
D1
350
11AC5
  3
D2
350
11AC6
  0
DICTIONARY
  5
11C30
102
{ACAD_REACTORS
330
11A31
102
}
330
11A31
100
AcDbDictionary
281
     1
  3
Imperial24
350
11C31
  0
DICTIONARY
  5
11A8E
102
{ACAD_REACTORS
330
11A31
102
}
330
11A31
100
AcDbDictionary
281
     1
  3
Standard
350
11AA2
  0
DICTIONARY
  5
11A73
102
{ACAD_REACTORS
330
11A31
102
}
330
11A31
100
AcDbDictionary
281
     1
  3
2dWireframe
350
11A72
  3
Basic
350
11C1F
  3
Brighten
350
11C23
  3
ColorChange
350
11C27
  3
Conceptual
350
11C21
  3
Dim
350
11C22
  3
EdgeColorOff
350
11C2F
  3
Facepattern
350
11C26
  3
Flat
350
11C1B
  3
FlatWithEdges
350
11C1C
  3
Gouraud
350
11C1D
  3
GouraudWithEdges
350
11C1E
  3
Hidden
350
11C20
  3
JitterOff
350
11C2D
  3
Linepattern
350
11C25
  3
OverhangOff
350
11C2E
  3
Realistic
350
11AA4
  3
Shaded
350
11C2C
  3
Shaded with edges
350
11C2B
  3
Shades of Gray
350
11C28
  3
Sketchy
350
11C29
  3
Thicken
350
11C24
  3
Wireframe
350
11AA5
  3
X-Ray
350
11C2A
  0
XRECORD
  5
11C0D
102
{ACAD_REACTORS
330
11A31
102
}
330
11A31
100
AcDbXrecord
280
     1
 90
   990106
  3
 
 60
     0
 61
     0
 62
     1
 63
     1
 64
     0
 65
     0
 66
     0
 67
     3
 68
     1
 69
     1
 70
     0
 71
     0
 72
     0
 40
0.0
170
     0
  0
XRECORD
  5
1211F
102
{ACAD_REACTORS
330
11A31
102
}
330
11A31
100
AcDbXrecord
280
     1
 90
        1
330
11AA2
  0
DICTIONARY
  5
11A90
102
{ACAD_REACTORS
330
11A31
102
}
330
11A31
100
AcDbDictionary
281
     1
  3
CANNOSCALE
350
11A91
  3
CMLEADERSTYLE
350
11A92
  3
CTABLESTYLE
350
11A93
  3
CVIEWDETAILSTYLE
350
11A94
  3
CVIEWSECTIONSTYLE
350
11A95
  3
LAYEREVAL
350
11A96
  3
LAYERNOTIFY
350
11A97
  3
MSLTSCALE
350
11A98
  3
PDFFRAME
350
11A99
  0
DICTIONARY
  5
12125
102
{ACAD_REACTORS
330
11A31
102
}
330
11A31
100
AcDbDictionary
281
     1
  3
AcDsRecords
350
12127
  3
AcDsSchemas
350
12126
1001
ACAD
1070
     2
  0
DICTIONARY
  5
11C0C
102
{ACAD_REACTORS
330
11A31
102
}
330
11A31
100
AcDbDictionary
281
     1
  0
DICTIONARY
  5
11A65
102
{ACAD_REACTORS
330
11A64
102
}
330
11A64
100
AcDbDictionary
281
     1
  0
DICTIONARY
  5
11A66
102
{ACAD_REACTORS
330
11A64
102
}
330
11A64
100
AcDbDictionary
281
     1
  0
DICTIONARY
  5
11A67
102
{ACAD_REACTORS
330
11A64
102
}
330
11A64
100
AcDbDictionary
281
     1
  0
XRECORD
  5
11A2E
102
{ACAD_REACTORS
330
11A2D
102
}
330
11A2D
100
AcDbXrecord
280
     1
290
     1
  0
SORTENTSTABLE
  5
11C05
102
{ACAD_REACTORS
330
11A29
102
}
330
11A29
100
AcDbSortentsTable
330
11A28
  0
ACDBDETAILVIEWSTYLE
  5
11C33
102
{ACAD_XDICTIONARY
360
1212A
102
}
102
{ACAD_REACTORS
330
11C32
102
}
330
11C32
100
AcDbModelDocViewStyle
 70
     0
  3
Imperial24
290
     0
100
AcDbDetailViewStyle
 70
     0
 71
     0
 90
        3
 71
     1
340
11A69
 62
   256
 40
0.24
340
0
 62
   256
 40
0.24
300

 40
0.36
280
     3
 71
     2
340
11A3B
 90
       25
 62
   256
 71
     3
340
11A69
 62
   256
 40
0.24
 90
        1
 40
0.75
 90
        1
300
%<\AcVar ViewType \f "%tc1">% %<\AcVar ViewDetailId>%\PSCALE %<\AcVar ViewScale \f "%sn">%
 71
     4
340
11A3B
 90
       25
 62
   256
340
11A3B
 90
       25
 62
   256
280
     0
  0
LAYOUT
  5
11A60
102
{ACAD_XDICTIONARY
360
11A61
102
}
102
{ACAD_REACTORS
330
11A5B
102
}
330
11A5B
100
AcDbPlotSettings
  1

  2
none_device
  4
Letter_(8.50_x_11.00_Inches)
  6

 40
6.35
 41
6.35
 42
6.350006
 43
6.350006
 44
215.899994
 45
279.399994
 46
0.0
 47
0.0
 48
0.0
 49
0.0
140
0.0
141
0.0
142
1.0
143
1.0
 70
   688
 72
     0
 73
     1
 74
     5
  7

 75
    16
147
1.0
 76
     0
 77
     2
 78
   300
148
0.0
149
0.0
100
AcDbLayout
  1
Layout1
 70
     1
 71
     1
 10
-0.25
 20
-0.25
 11
10.75
 21
8.25
 12
0.0
 22
0.0
 32
0.0
 14
1.05
 24
0.8
 34
0.0
 15
9.45
 25
7.2
 35
0.0
146
0.0
 13
0.0
 23
0.0
 33
0.0
 16
1.0
 26
0.0
 36
0.0
 17
0.0
 27
1.0
 37
0.0
 76
     0
330
11A5D
1001
ACAD_PSEXT
1000
None
1000
None
1000
Not applicable
1000
The layout will not be plotted unless a new plotter configuration name is selected.
1070
     0
  0
LAYOUT
  5
11A5A
102
{ACAD_XDICTIONARY
360
11A5C
102
}
102
{ACAD_REACTORS
330
11A5B
102
}
330
11A5B
100
AcDbPlotSettings
  1

  2
none_device
  4
ANSI_A_(8.50_x_11.00_Inches)
  6

 40
6.35
 41
19.049999
 42
6.350006
 43
19.049988
 44
215.899994
 45
279.399994
 46
0.0
 47
0.0
 48
0.0
 49
0.0
140
0.0
141
0.0
142
1.0
143
2.584895
 70
 11952
 72
     0
 73
     1
 74
     0
  7

 75
     0
147
0.386863
 76
     0
 77
     2
 78
   300
148
0.0
149
0.0
100
AcDbLayout
  1
Model
 70
     1
 71
     0
 10
0.0
 20
0.0
 11
12.0
 21
9.0
 12
0.0
 22
0.0
 32
0.0
 14
0.0
 24
0.0
 34
0.0
 15
0.0
 25
0.0
 35
0.0
146
0.0
 13
0.0
 23
0.0
 33
0.0
 16
1.0
 26
0.0
 36
0.0
 17
0.0
 27
1.0
 37
0.0
 76
     0
330
11A28
  0
MATERIAL
  5
11A84
102
{ACAD_XDICTIONARY
360
11A85
102
}
102
{ACAD_REACTORS
330
11A33
102
}
330
11A33
100
AcDbMaterial
  1
ByBlock
 72
     0
 43
0.020833
 43
0.0
 43
0.0
 43
0.0
 43
0.0
 43
0.020833
 43
0.0
 43
0.0
 43
0.0
 43
0.0
 43
1.0
 43
0.0
 43
0.0
 43
0.0
 43
0.0
 43
1.0
 77
     0
 47
0.020833
 47
0.0
 47
0.0
 47
0.0
 47
0.0
 47
0.020833
 47
0.0
 47
0.0
 47
0.0
 47
0.0
 47
1.0
 47
0.0
 47
0.0
 47
0.0
 47
0.0
 47
1.0
171
     0
 49
0.020833
 49
0.0
 49
0.0
 49
0.0
 49
0.0
 49
0.020833
 49
0.0
 49
0.0
 49
0.0
 49
0.0
 49
1.0
 49
0.0
 49
0.0
 49
0.0
 49
0.0
 49
1.0
175
     0
142
0.020833
142
0.0
142
0.0
142
0.0
142
0.0
142
0.020833
142
0.0
142
0.0
142
0.0
142
0.0
142
1.0
142
0.0
142
0.0
142
0.0
142
0.0
142
1.0
179
     0
144
0.020833
144
0.0
144
0.0
144
0.0
144
0.0
144
0.020833
144
0.0
144
0.0
144
0.0
144
0.0
144
1.0
144
0.0
144
0.0
144
0.0
144
0.0
144
1.0
147
0.020833
147
0.0
147
0.0
147
0.0
147
0.0
147
0.020833
147
0.0
147
0.0
147
0.0
147
0.0
147
1.0
147
0.0
147
0.0
147
0.0
147
0.0
147
1.0
  0
MATERIAL
  5
11A7C
102
{ACAD_XDICTIONARY
360
11A7D
102
}
102
{ACAD_REACTORS
330
11A33
102
}
330
11A33
100
AcDbMaterial
  1
ByLayer
 72
     0
 43
0.020833
 43
0.0
 43
0.0
 43
0.0
 43
0.0
 43
0.020833
 43
0.0
 43
0.0
 43
0.0
 43
0.0
 43
1.0
 43
0.0
 43
0.0
 43
0.0
 43
0.0
 43
1.0
 77
     0
 47
0.020833
 47
0.0
 47
0.0
 47
0.0
 47
0.0
 47
0.020833
 47
0.0
 47
0.0
 47
0.0
 47
0.0
 47
1.0
 47
0.0
 47
0.0
 47
0.0
 47
0.0
 47
1.0
171
     0
 49
0.020833
 49
0.0
 49
0.0
 49
0.0
 49
0.0
 49
0.020833
 49
0.0
 49
0.0
 49
0.0
 49
0.0
 49
1.0
 49
0.0
 49
0.0
 49
0.0
 49
0.0
 49
1.0
175
     0
142
0.020833
142
0.0
142
0.0
142
0.0
142
0.0
142
0.020833
142
0.0
142
0.0
142
0.0
142
0.0
142
1.0
142
0.0
142
0.0
142
0.0
142
0.0
142
1.0
179
     0
144
0.020833
144
0.0
144
0.0
144
0.0
144
0.0
144
0.020833
144
0.0
144
0.0
144
0.0
144
0.0
144
1.0
144
0.0
144
0.0
144
0.0
144
0.0
144
1.0
147
0.020833
147
0.0
147
0.0
147
0.0
147
0.0
147
0.020833
147
0.0
147
0.0
147
0.0
147
0.0
147
1.0
147
0.0
147
0.0
147
0.0
147
0.0
147
1.0
  0
MATERIAL
  5
8DC
102
{ACAD_XDICTIONARY
360
11C07
102
}
102
{ACAD_REACTORS
330
11A33
102
}
330
11A33
100
AcDbMaterial
  1
Chrome
 71
     1
 41
0.2
 91
-1026370853
 72
     0
 44
10.0
 76
     1
 45
0.76
 92
-1026299413
 77
     0
175
     0
468
0.5
 93
        1
 94
       39
  0
MATERIAL
  5
11A32
102
{ACAD_XDICTIONARY
360
11A34
102
}
102
{ACAD_REACTORS
330
11A33
102
}
330
11A33
100
AcDbMaterial
  1
Global
 72
     0
 43
0.020833
 43
0.0
 43
0.0
 43
0.0
 43
0.0
 43
0.020833
 43
0.0
 43
0.0
 43
0.0
 43
0.0
 43
1.0
 43
0.0
 43
0.0
 43
0.0
 43
0.0
 43
1.0
 77
     0
 47
0.020833
 47
0.0
 47
0.0
 47
0.0
 47
0.0
 47
0.020833
 47
0.0
 47
0.0
 47
0.0
 47
0.0
 47
1.0
 47
0.0
 47
0.0
 47
0.0
 47
0.0
 47
1.0
171
     0
 49
0.020833
 49
0.0
 49
0.0
 49
0.0
 49
0.0
 49
0.020833
 49
0.0
 49
0.0
 49
0.0
 49
0.0
 49
1.0
 49
0.0
 49
0.0
 49
0.0
 49
0.0
 49
1.0
175
     0
142
0.020833
142
0.0
142
0.0
142
0.0
142
0.0
142
0.020833
142
0.0
142
0.0
142
0.0
142
0.0
142
1.0
142
0.0
142
0.0
142
0.0
142
0.0
142
1.0
179
     0
144
0.020833
144
0.0
144
0.0
144
0.0
144
0.0
144
0.020833
144
0.0
144
0.0
144
0.0
144
0.0
144
1.0
144
0.0
144
0.0
144
0.0
144
0.0
144
1.0
147
0.020833
147
0.0
147
0.0
147
0.0
147
0.0
147
0.020833
147
0.0
147
0.0
147
0.0
147
0.0
147
1.0
147
0.0
147
0.0
147
0.0
147
0.0
147
1.0
  0
MLEADERSTYLE
  5
11C0E
102
{ACAD_REACTORS
330
11A8F
102
}
330
11A8F
100
AcDbMLeaderStyle
179
     2
170
     2
171
     1
172
     0
 90
        2
 40
0.0
 41
0.0
173
     1
 91
-1073741824
 92
       -2
290
     1
 42
1.5
291
     1
 43
3.0
  3

 44
3.0
300

342
313
174
     1
178
     1
175
     1
176
     0
 93
-1073741824
 45
3.0
292
     0
297
     1
 46
5.0
 94
-1073741824
 47
1.0
 49
1.0
140
1.0
293
     1
141
0.0
294
     1
177
     0
142
1.0
295
     0
296
     0
143
0.125
271
     0
272
     9
273
     9
298
     0
  0
MLINESTYLE
  5
11AA1
102
{ACAD_REACTORS
330
11A7A
102
}
330
11A7A
100
AcDbMlineStyle
  2
STANDARD
 70
     0
  3

 62
   256
 51
90.0
 52
90.0
 71
     2
 49
0.5
 62
   256
  6
BYLAYER
 49
-0.5
 62
   256
  6
BYLAYER
  0
ACDBPLACEHOLDER
  5
11A2F
102
{ACAD_REACTORS
330
11A30
102
}
330
11A30
  0
SCALE
  5
11AA6
102
{ACAD_REACTORS
330
11A8D
102
}
330
11A8D
100
AcDbScale
 70
     0
300
1:1
140
1.0
141
1.0
290
     1
  0
SCALE
  5
11AA7
102
{ACAD_REACTORS
330
11A8D
102
}
330
11A8D
100
AcDbScale
 70
     0
300
1:2
140
1.0
141
2.0
290
     0
  0
SCALE
  5
11AA8
102
{ACAD_REACTORS
330
11A8D
102
}
330
11A8D
100
AcDbScale
 70
     0
300
1:4
140
1.0
141
4.0
290
     0
  0
SCALE
  5
11AA9
102
{ACAD_REACTORS
330
11A8D
102
}
330
11A8D
100
AcDbScale
 70
     0
300
1:5
140
1.0
141
5.0
290
     0
  0
SCALE
  5
11AAA
102
{ACAD_REACTORS
330
11A8D
102
}
330
11A8D
100
AcDbScale
 70
     0
300
1:8
140
1.0
141
8.0
290
     0
  0
SCALE
  5
11AAB
102
{ACAD_REACTORS
330
11A8D
102
}
330
11A8D
100
AcDbScale
 70
     0
300
1:10
140
1.0
141
10.0
290
     0
  0
SCALE
  5
11AAC
102
{ACAD_REACTORS
330
11A8D
102
}
330
11A8D
100
AcDbScale
 70
     0
300
1:16
140
1.0
141
16.0
290
     0
  0
SCALE
  5
11AAD
102
{ACAD_REACTORS
330
11A8D
102
}
330
11A8D
100
AcDbScale
 70
     0
300
1:20
140
1.0
141
20.0
290
     0
  0
SCALE
  5
11AAE
102
{ACAD_REACTORS
330
11A8D
102
}
330
11A8D
100
AcDbScale
 70
     0
300
1:30
140
1.0
141
30.0
290
     0
  0
SCALE
  5
11AAF
102
{ACAD_REACTORS
330
11A8D
102
}
330
11A8D
100
AcDbScale
 70
     0
300
1:40
140
1.0
141
40.0
290
     0
  0
SCALE
  5
11AB0
102
{ACAD_REACTORS
330
11A8D
102
}
330
11A8D
100
AcDbScale
 70
     0
300
1:50
140
1.0
141
50.0
290
     0
  0
SCALE
  5
11AB1
102
{ACAD_REACTORS
330
11A8D
102
}
330
11A8D
100
AcDbScale
 70
     0
300
1:100
140
1.0
141
100.0
290
     0
  0
SCALE
  5
11AB2
102
{ACAD_REACTORS
330
11A8D
102
}
330
11A8D
100
AcDbScale
 70
     0
300
2:1
140
2.0
141
1.0
290
     0
  0
SCALE
  5
11AB3
102
{ACAD_REACTORS
330
11A8D
102
}
330
11A8D
100
AcDbScale
 70
     0
300
4:1
140
4.0
141
1.0
290
     0
  0
SCALE
  5
11AB4
102
{ACAD_REACTORS
330
11A8D
102
}
330
11A8D
100
AcDbScale
 70
     0
300
8:1
140
8.0
141
1.0
290
     0
  0
SCALE
  5
11AB5
102
{ACAD_REACTORS
330
11A8D
102
}
330
11A8D
100
AcDbScale
 70
     0
300
10:1
140
10.0
141
1.0
290
     0
  0
SCALE
  5
11AB6
102
{ACAD_REACTORS
330
11A8D
102
}
330
11A8D
100
AcDbScale
 70
     0
300
100:1
140
100.0
141
1.0
290
     0
  0
SCALE
  5
11AB7
102
{ACAD_REACTORS
330
11A8D
102
}
330
11A8D
100
AcDbScale
 70
     0
300
1/128" = 1'-0"
140
0.007813
141
12.0
290
     0
  0
SCALE
  5
11AB8
102
{ACAD_REACTORS
330
11A8D
102
}
330
11A8D
100
AcDbScale
 70
     0
300
1/64" = 1'-0"
140
0.015625
141
12.0
290
     0
  0
SCALE
  5
11AB9
102
{ACAD_REACTORS
330
11A8D
102
}
330
11A8D
100
AcDbScale
 70
     0
300
1/32" = 1'-0"
140
0.03125
141
12.0
290
     0
  0
SCALE
  5
11ABA
102
{ACAD_REACTORS
330
11A8D
102
}
330
11A8D
100
AcDbScale
 70
     0
300
1/16" = 1'-0"
140
0.0625
141
12.0
290
     0
  0
SCALE
  5
11ABB
102
{ACAD_REACTORS
330
11A8D
102
}
330
11A8D
100
AcDbScale
 70
     0
300
3/32" = 1'-0"
140
0.09375
141
12.0
290
     0
  0
SCALE
  5
11ABC
102
{ACAD_REACTORS
330
11A8D
102
}
330
11A8D
100
AcDbScale
 70
     0
300
1/8" = 1'-0"
140
0.125
141
12.0
290
     0
  0
SCALE
  5
11ABD
102
{ACAD_REACTORS
330
11A8D
102
}
330
11A8D
100
AcDbScale
 70
     0
300
3/16" = 1'-0"
140
0.1875
141
12.0
290
     0
  0
SCALE
  5
11ABE
102
{ACAD_REACTORS
330
11A8D
102
}
330
11A8D
100
AcDbScale
 70
     0
300
1/4" = 1'-0"
140
0.25
141
12.0
290
     0
  0
SCALE
  5
11ABF
102
{ACAD_REACTORS
330
11A8D
102
}
330
11A8D
100
AcDbScale
 70
     0
300
3/8" = 1'-0"
140
0.375
141
12.0
290
     0
  0
SCALE
  5
11AC0
102
{ACAD_REACTORS
330
11A8D
102
}
330
11A8D
100
AcDbScale
 70
     0
300
1/2" = 1'-0"
140
0.5
141
12.0
290
     0
  0
SCALE
  5
11AC1
102
{ACAD_REACTORS
330
11A8D
102
}
330
11A8D
100
AcDbScale
 70
     0
300
3/4" = 1'-0"
140
0.75
141
12.0
290
     0
  0
SCALE
  5
11AC2
102
{ACAD_REACTORS
330
11A8D
102
}
330
11A8D
100
AcDbScale
 70
     0
300
1" = 1'-0"
140
1.0
141
12.0
290
     0
  0
SCALE
  5
11AC3
102
{ACAD_REACTORS
330
11A8D
102
}
330
11A8D
100
AcDbScale
 70
     0
300
1-1/2" = 1'-0"
140
1.5
141
12.0
290
     0
  0
SCALE
  5
11AC4
102
{ACAD_REACTORS
330
11A8D
102
}
330
11A8D
100
AcDbScale
 70
     0
300
3" = 1'-0"
140
3.0
141
12.0
290
     0
  0
SCALE
  5
11AC5
102
{ACAD_REACTORS
330
11A8D
102
}
330
11A8D
100
AcDbScale
 70
     0
300
6" = 1'-0"
140
6.0
141
12.0
290
     0
  0
SCALE
  5
11AC6
102
{ACAD_REACTORS
330
11A8D
102
}
330
11A8D
100
AcDbScale
 70
     0
300
1'-0" = 1'-0"
140
12.0
141
12.0
290
     0
  0
ACDBSECTIONVIEWSTYLE
  5
11C31
102
{ACAD_XDICTIONARY
360
12128
102
}
102
{ACAD_REACTORS
330
11C30
102
}
330
11C30
100
AcDbModelDocViewStyle
 70
     0
  3
Imperial24
290
     0
100
AcDbSectionViewStyle
 70
     0
 71
     0
 90
       78
 71
     1
340
11A69
 62
   256
 40
0.24
340
0
340
0
 62
   256
 40
0.24
300
I, O, Q, S, X, Z
 40
0.48
 90
        3
 40
0.18
 90
        1
 71
     2
340
11A3B
 90
       25
 62
   256
340
11A3B
 90
       50
 62
   256
 40
0.24
 40
0.0
 40
0.24
 71
     3
340
11A69
 62
   256
 40
0.24
 90
        1
 40
0.75
 90
        1
300
%<\AcVar ViewType \f "%tc1">% %<\AcVar ViewSectionStartId>%-%<\AcVar ViewSectionEndId>%\PSCALE %<\AcVar ViewScale \f "%sn">%
 71
     4
 62
   256
 62
   257
300
ANSI31
 40
1.0
 90
        0
290
     0
290
     0
 90
        6
 40
0.0
 40
1.570796
 40
0.261799
 40
1.308997
 40
-0.261799
 40
1.832596
  0
TABLESTYLE
  5
11AA2
102
{ACAD_XDICTIONARY
360
11AA3
102
}
102
{ACAD_REACTORS
330
11A8E
102
}
330
11A8E
100
AcDbTableStyle
280
     0
  3
Standard
 70
     0
 71
     0
 40
0.06
 41
0.06
280
     0
281
     0
  7
Standard
140
0.18
170
     2
 62
     0
 63
     7
283
     0
 90
        4
 91
        0
  1

274
    -2
284
     1
 64
     0
275
    -2
285
     1
 65
     0
276
    -2
286
     1
 66
     0
277
    -2
287
     1
 67
     0
278
    -2
288
     1
 68
     0
279
    -2
289
     1
 69
     0
  7
Standard
140
0.25
170
     5
 62
     0
 63
     7
283
     0
 90
        4
 91
        0
  1

274
    -2
284
     1
 64
     0
275
    -2
285
     1
 65
     0
276
    -2
286
     1
 66
     0
277
    -2
287
     1
 67
     0
278
    -2
288
     1
 68
     0
279
    -2
289
     1
 69
     0
  7
Standard
140
0.18
170
     5
 62
     0
 63
     7
283
     0
 90
        4
 91
        0
  1

274
    -2
284
     1
 64
     0
275
    -2
285
     1
 65
     0
276
    -2
286
     1
 66
     0
277
    -2
287
     1
 67
     0
278
    -2
288
     1
 68
     0
279
    -2
289
     1
 69
     0
  0
VISUALSTYLE
  5
11A72
102
{ACAD_REACTORS
330
11A73
102
}
330
11A73
100
AcDbVisualStyle
  2
2dWireframe
 70
     4
177
     3
291
     0
 70
    58
 90
        0
176
     1
 90
        2
176
     1
 90
        0
176
     1
 90
        0
176
     1
 40
0.6
176
     1
 40
30.0
176
     1
 62
     7
420
 16777215
176
     1
 90
        1
176
     1
 90
        4
176
     1
 62
     7
176
     1
 62
   257
176
     1
 90
        1
176
     1
 90
        1
176
     1
 40
1.0
176
     1
 90
        0
176
     1
 62
   257
176
     1
 40
1.0
176
     1
 90
        1
176
     1
 90
        6
176
     1
 90
        2
176
     1
 62
     7
176
     1
 90
        5
176
     1
 90
        0
176
     1
 90
        0
176
     1
290
     0
176
     1
 90
        1
176
     1
 40
0.0
176
     1
 90
        0
176
     1
290
     1
176
     1
290
     1
176
     1
290
     0
176
     1
290
     0
176
     1
290
     0
176
     1
290
     0
176
     1
290
     0
176
     1
290
     0
176
     1
290
     0
176
     1
 90
       50
176
     1
 40
0.0
176
     1
 40
1.0
176
     1
 90
        0
176
     1
 62
    18
420
        0
176
     1
 90
       50
176
     1
 90
        3
176
     1
 62
     5
420
      255
176
     1
290
     0
176
     1
 90
       50
176
     1
 90
       50
176
     1
 90
       50
176
     1
290
     0
176
     1
 90
       50
176
     1
 62
   256
176
     0
 40
1.0
176
     0
 90
        2
176
     1
  1
strokes_ogs.tif
176
     1
290
     0
176
     1
 40
1.0
176
     1
 40
1.0
176
     1
1001
ACAD
1000
AcDbSavedByObjectVersion
1070
     0
  0
VISUALSTYLE
  5
11C1F
102
{ACAD_REACTORS
330
11A73
102
}
330
11A73
100
AcDbVisualStyle
  2
Basic
 70
     7
177
     3
291
     1
 70
    58
 90
        1
176
     1
 90
        0
176
     1
 90
        1
176
     1
 90
        0
176
     1
 40
0.6
176
     1
 40
30.0
176
     1
 62
     7
420
 16777215
176
     1
 90
        0
176
     1
 90
        4
176
     1
 62
     7
176
     1
 62
   257
176
     1
 90
        1
176
     1
 90
        1
176
     1
 40
1.0
176
     1
 90
        8
176
     1
 62
     7
176
     1
 40
1.0
176
     1
 90
        1
176
     1
 90
        6
176
     1
 90
        2
176
     1
 62
     7
176
     1
 90
        5
176
     1
 90
        0
176
     1
 90
        0
176
     1
290
     0
176
     1
 90
        1
176
     1
 40
0.0
176
     1
 90
        0
176
     1
290
     0
176
     1
290
     1
176
     1
290
     1
176
     1
290
     0
176
     1
290
     0
176
     1
290
     0
176
     1
290
     0
176
     1
290
     0
176
     1
290
     0
176
     1
 90
       50
176
     1
 40
0.0
176
     1
 40
1.0
176
     1
 90
        0
176
     1
 62
    18
420
        0
176
     1
 90
       50
176
     1
 90
        3
176
     1
 62
     5
420
      255
176
     1
290
     0
176
     1
 90
       50
176
     1
 90
       50
176
     1
 90
       50
176
     1
290
     0
176
     1
 90
       50
176
     1
 62
   256
176
     0
 40
1.0
176
     0
 90
        2
176
     1
  1
strokes_ogs.tif
176
     1
290
     0
176
     1
 40
1.0
176
     1
 40
1.0
176
     1
1001
ACAD
1000
AcDbSavedByObjectVersion
1070
     0
  0
VISUALSTYLE
  5
11C23
102
{ACAD_REACTORS
330
11A73
102
}
330
11A73
100
AcDbVisualStyle
  2
Brighten
 70
    12
177
     3
291
     1
 70
    58
 90
        2
176
     1
 90
        2
176
     1
 90
        0
176
     1
 90
        0
176
     1
 40
0.6
176
     1
 40
30.0
176
     1
 62
     7
420
 16777215
176
     1
 90
        1
176
     1
 90
        4
176
     1
 62
     7
176
     1
 62
   257
176
     1
 90
        1
176
     1
 90
        1
176
     1
 40
1.0
176
     1
 90
        8
176
     1
 62
     7
176
     1
 40
1.0
176
     1
 90
        1
176
     1
 90
        6
176
     1
 90
        2
176
     1
 62
     7
176
     1
 90
        5
176
     1
 90
        0
176
     1
 90
        0
176
     1
290
     0
176
     1
 90
        1
176
     1
 40
50.0
176
     1
 90
        0
176
     1
290
     0
176
     1
290
     1
176
     1
290
     1
176
     1
290
     0
176
     1
290
     0
176
     1
290
     0
176
     1
290
     0
176
     1
290
     0
176
     1
290
     0
176
     1
 90
       50
176
     1
 40
0.0
176
     1
 40
1.0
176
     1
 90
        0
176
     1
 62
    18
420
        0
176
     1
 90
       50
176
     1
 90
        3
176
     1
 62
     5
420
      255
176
     1
290
     0
176
     1
 90
       50
176
     1
 90
       50
176
     1
 90
       50
176
     1
290
     0
176
     1
 90
       50
176
     1
 62
   256
176
     0
 40
1.0
176
     0
 90
        2
176
     1
  1
strokes_ogs.tif
176
     1
290
     0
176
     1
 40
1.0
176
     1
 40
1.0
176
     1
1001
ACAD
1000
AcDbSavedByObjectVersion
1070
     0
  0
VISUALSTYLE
  5
11C27
102
{ACAD_REACTORS
330
11A73
102
}
330
11A73
100
AcDbVisualStyle
  2
ColorChange
 70
    16
177
     3
291
     1
 70
    58
 90
        2
176
     1
 90
        2
176
     1
 90
        3
176
     1
 90
        0
176
     1
 40
0.6
176
     1
 40
30.0
176
     1
 62
     8
420
  8421504
176
     1
 90
        1
176
     1
 90
        4
176
     1
 62
     7
176
     1
 62
   257
176
     1
 90
        1
176
     1
 90
        1
176
     1
 40
1.0
176
     1
 90
        8
176
     1
 62
     8
420
  8421504
176
     1
 40
1.0
176
     1
 90
        1
176
     1
 90
        6
176
     1
 90
        2
176
     1
 62
     7
176
     1
 90
        5
176
     1
 90
        0
176
     1
 90
        0
176
     1
290
     0
176
     1
 90
        1
176
     1
 40
0.0
176
     1
 90
        0
176
     1
290
     0
176
     1
290
     1
176
     1
290
     1
176
     1
290
     0
176
     1
290
     0
176
     1
290
     0
176
     1
290
     0
176
     1
290
     0
176
     1
290
     0
176
     1
 90
       50
176
     1
 40
0.0
176
     1
 40
1.0
176
     1
 90
        0
176
     1
 62
    18
420
        0
176
     1
 90
       50
176
     1
 90
        3
176
     1
 62
     5
420
      255
176
     1
290
     0
176
     1
 90
       50
176
     1
 90
       50
176
     1
 90
       50
176
     1
290
     0
176
     1
 90
       50
176
     1
 62
   256
176
     0
 40
1.0
176
     0
 90
        2
176
     1
  1
strokes_ogs.tif
176
     1
290
     0
176
     1
 40
1.0
176
     1
 40
1.0
176
     1
1001
ACAD
1000
AcDbSavedByObjectVersion
1070
     0
  0
VISUALSTYLE
  5
11C21
102
{ACAD_REACTORS
330
11A73
102
}
330
11A73
100
AcDbVisualStyle
  2
Conceptual
 70
     9
177
     3
291
     0
 70
    58
 90
        3
176
     1
 90
        2
176
     1
 90
        0
176
     1
 90
        0
176
     1
 40
0.6
176
     1
 40
30.0
176
     1
 62
     7
420
 16777215
176
     1
 90
        2
176
     1
 90
        2
176
     1
 62
     7
176
     1
 62
   257
176
     1
 90
        1
176
     1
 90
        1
176
     1
 40
179.0
176
     1
 90
        8
176
     1
 62
     7
176
     1
 40
1.0
176
     1
 90
        1
176
     1
 90
        6
176
     1
 90
        2
176
     1
 62
     7
176
     1
 90
        3
176
     1
 90
        0
176
     1
 90
        0
176
     1
290
     0
176
     1
 90
        1
176
     1
 40
0.0
176
     1
 90
        0
176
     1
290
     0
176
     1
290
     1
176
     1
290
     1
176
     1
290
     0
176
     1
290
     0
176
     1
290
     0
176
     1
290
     0
176
     1
290
     0
176
     1
290
     0
176
     1
 90
       50
176
     1
 40
0.0
176
     1
 40
1.0
176
     1
 90
        0
176
     1
 62
    18
420
        0
176
     1
 90
       50
176
     1
 90
        3
176
     1
 62
     5
420
      255
176
     1
290
     0
176
     1
 90
       50
176
     1
 90
       50
176
     1
 90
       50
176
     1
290
     0
176
     1
 90
       50
176
     1
 62
   256
176
     0
 40
1.0
176
     0
 90
        2
176
     1
  1
strokes_ogs.tif
176
     1
290
     0
176
     1
 40
1.0
176
     1
 40
1.0
176
     1
1001
ACAD
1000
AcDbSavedByObjectVersion
1070
     0
  0
VISUALSTYLE
  5
11C22
102
{ACAD_REACTORS
330
11A73
102
}
330
11A73
100
AcDbVisualStyle
  2
Dim
 70
    11
177
     3
291
     1
 70
    58
 90
        2
176
     1
 90
        2
176
     1
 90
        0
176
     1
 90
        0
176
     1
 40
0.6
176
     1
 40
30.0
176
     1
 62
     7
420
 16777215
176
     1
 90
        1
176
     1
 90
        4
176
     1
 62
     7
176
     1
 62
   257
176
     1
 90
        1
176
     1
 90
        1
176
     1
 40
1.0
176
     1
 90
        8
176
     1
 62
     7
176
     1
 40
1.0
176
     1
 90
        1
176
     1
 90
        6
176
     1
 90
        2
176
     1
 62
     7
176
     1
 90
        5
176
     1
 90
        0
176
     1
 90
        0
176
     1
290
     0
176
     1
 90
        1
176
     1
 40
-50.0
176
     1
 90
        0
176
     1
290
     0
176
     1
290
     1
176
     1
290
     1
176
     1
290
     0
176
     1
290
     0
176
     1
290
     0
176
     1
290
     0
176
     1
290
     0
176
     1
290
     0
176
     1
 90
       50
176
     1
 40
0.0
176
     1
 40
1.0
176
     1
 90
        0
176
     1
 62
    18
420
        0
176
     1
 90
       50
176
     1
 90
        3
176
     1
 62
     5
420
      255
176
     1
290
     0
176
     1
 90
       50
176
     1
 90
       50
176
     1
 90
       50
176
     1
290
     0
176
     1
 90
       50
176
     1
 62
   256
176
     0
 40
1.0
176
     0
 90
        2
176
     1
  1
strokes_ogs.tif
176
     1
290
     0
176
     1
 40
1.0
176
     1
 40
1.0
176
     1
1001
ACAD
1000
AcDbSavedByObjectVersion
1070
     0
  0
VISUALSTYLE
  5
11C2F
102
{ACAD_REACTORS
330
11A73
102
}
330
11A73
100
AcDbVisualStyle
  2
EdgeColorOff
 70
    22
177
     3
291
     1
 70
    58
 90
        2
176
     0
 90
        2
176
     0
 90
        0
176
     0
 90
        0
176
     0
 40
0.6
176
     0
 40
30.0
176
     0
 62
     7
420
 16777215
176
     0
 90
        1
176
     0
 90
        4
176
     0
 62
     7
176
     0
 62
   257
176
     0
 90
        1
176
     0
 90
        1
176
     0
 40
1.0
176
     0
 90
        8
176
     2
 62
     7
176
     0
 40
1.0
176
     0
 90
        1
176
     0
 90
        6
176
     0
 90
        2
176
     0
 62
     7
176
     0
 90
        5
176
     0
 90
        0
176
     0
 90
        0
176
     0
290
     0
176
     0
 90
        1
176
     0
 40
0.0
176
     0
 90
        0
176
     0
290
     0
176
     0
290
     1
176
     0
290
     1
176
     0
290
     0
176
     0
290
     0
176
     0
290
     0
176
     0
290
     0
176
     0
290
     0
176
     0
290
     0
176
     0
 90
       50
176
     0
 40
0.0
176
     0
 40
1.0
176
     0
 90
        0
176
     0
 62
    18
420
        0
176
     0
 90
       50
176
     0
 90
        3
176
     0
 62
     5
420
      255
176
     0
290
     0
176
     0
 90
       50
176
     0
 90
       50
176
     0
 90
       50
176
     0
290
     0
176
     0
 90
       50
176
     0
 62
   256
176
     0
 40
1.0
176
     0
 90
        2
176
     0
  1
strokes_ogs.tif
176
     0
290
     0
176
     0
 40
1.0
176
     0
 40
1.0
176
     0
1001
ACAD
1000
AcDbSavedByObjectVersion
1070
     0
  0
VISUALSTYLE
  5
11C26
102
{ACAD_REACTORS
330
11A73
102
}
330
11A73
100
AcDbVisualStyle
  2
Facepattern
 70
    15
177
     3
291
     1
 70
    58
 90
        2
176
     1
 90
        2
176
     1
 90
        0
176
     1
 90
        0
176
     1
 40
0.6
176
     1
 40
30.0
176
     1
 62
     7
420
 16777215
176
     1
 90
        1
176
     1
 90
        4
176
     1
 62
     7
176
     1
 62
   257
176
     1
 90
        1
176
     1
 90
        1
176
     1
 40
1.0
176
     1
 90
        8
176
     1
 62
     7
176
     1
 40
1.0
176
     1
 90
        1
176
     1
 90
        6
176
     1
 90
        2
176
     1
 62
     7
176
     1
 90
        5
176
     1
 90
        0
176
     1
 90
        0
176
     1
290
     0
176
     1
 90
        1
176
     1
 40
0.0
176
     1
 90
        0
176
     1
290
     0
176
     1
290
     1
176
     1
290
     1
176
     1
290
     0
176
     1
290
     0
176
     1
290
     0
176
     1
290
     0
176
     1
290
     0
176
     1
290
     0
176
     1
 90
       50
176
     1
 40
0.0
176
     1
 40
1.0
176
     1
 90
        0
176
     1
 62
    18
420
        0
176
     1
 90
       50
176
     1
 90
        3
176
     1
 62
     5
420
      255
176
     1
290
     0
176
     1
 90
       50
176
     1
 90
       50
176
     1
 90
       50
176
     1
290
     0
176
     1
 90
       50
176
     1
 62
   256
176
     0
 40
1.0
176
     0
 90
        2
176
     1
  1
strokes_ogs.tif
176
     1
290
     0
176
     1
 40
1.0
176
     1
 40
1.0
176
     1
1001
ACAD
1000
AcDbSavedByObjectVersion
1070
     0
  0
VISUALSTYLE
  5
11C1B
102
{ACAD_REACTORS
330
11A73
102
}
330
11A73
100
AcDbVisualStyle
  2
Flat
 70
     0
177
     3
291
     1
 70
    58
 90
        2
176
     1
 90
        1
176
     1
 90
        1
176
     1
 90
        2
176
     1
 40
0.6
176
     1
 40
30.0
176
     1
 62
     7
420
 16777215
176
     1
 90
        0
176
     1
 90
        0
176
     1
 62
     7
176
     1
 62
   257
176
     1
 90
        1
176
     1
 90
        1
176
     1
 40
1.0
176
     1
 90
        8
176
     1
 62
     7
176
     1
 40
1.0
176
     1
 90
        1
176
     1
 90
        6
176
     1
 90
        2
176
     1
 62
     7
176
     1
 90
        5
176
     1
 90
        0
176
     1
 90
        0
176
     1
290
     0
176
     1
 90
       13
176
     1
 40
0.0
176
     1
 90
        0
176
     1
290
     0
176
     1
290
     1
176
     1
290
     1
176
     1
290
     0
176
     1
290
     0
176
     1
290
     0
176
     1
290
     0
176
     1
290
     0
176
     1
290
     0
176
     1
 90
       50
176
     1
 40
0.0
176
     1
 40
1.0
176
     1
 90
        0
176
     1
 62
    18
420
        0
176
     1
 90
       50
176
     1
 90
        3
176
     1
 62
     5
420
      255
176
     1
290
     0
176
     1
 90
       50
176
     1
 90
       50
176
     1
 90
       50
176
     1
290
     0
176
     1
 90
       50
176
     1
 62
   256
176
     0
 40
1.0
176
     0
 90
        2
176
     1
  1
strokes_ogs.tif
176
     1
290
     0
176
     1
 40
1.0
176
     1
 40
1.0
176
     1
1001
ACAD
1000
AcDbSavedByObjectVersion
1070
     0
  0
VISUALSTYLE
  5
11C1C
102
{ACAD_REACTORS
330
11A73
102
}
330
11A73
100
AcDbVisualStyle
  2
FlatWithEdges
 70
     1
177
     3
291
     1
 70
    58
 90
        2
176
     1
 90
        1
176
     1
 90
        1
176
     1
 90
        2
176
     1
 40
0.6
176
     1
 40
30.0
176
     1
 62
     7
420
 16777215
176
     1
 90
        1
176
     1
 90
        0
176
     1
 62
     7
176
     1
 62
   257
176
     1
 90
        1
176
     1
 90
        1
176
     1
 40
1.0
176
     1
 90
        0
176
     1
 62
   257
176
     1
 40
1.0
176
     1
 90
        1
176
     1
 90
        6
176
     1
 90
        2
176
     1
 62
     7
176
     1
 90
        5
176
     1
 90
        0
176
     1
 90
        0
176
     1
290
     0
176
     1
 90
       13
176
     1
 40
0.0
176
     1
 90
        0
176
     1
290
     0
176
     1
290
     1
176
     1
290
     1
176
     1
290
     0
176
     1
290
     0
176
     1
290
     0
176
     1
290
     0
176
     1
290
     0
176
     1
290
     0
176
     1
 90
       50
176
     1
 40
0.0
176
     1
 40
1.0
176
     1
 90
        0
176
     1
 62
    18
420
        0
176
     1
 90
       50
176
     1
 90
        3
176
     1
 62
     5
420
      255
176
     1
290
     0
176
     1
 90
       50
176
     1
 90
       50
176
     1
 90
       50
176
     1
290
     0
176
     1
 90
       50
176
     1
 62
   256
176
     0
 40
1.0
176
     0
 90
        2
176
     1
  1
strokes_ogs.tif
176
     1
290
     0
176
     1
 40
1.0
176
     1
 40
1.0
176
     1
1001
ACAD
1000
AcDbSavedByObjectVersion
1070
     0
  0
VISUALSTYLE
  5
11C1D
102
{ACAD_REACTORS
330
11A73
102
}
330
11A73
100
AcDbVisualStyle
  2
Gouraud
 70
     2
177
     3
291
     1
 70
    58
 90
        2
176
     1
 90
        2
176
     1
 90
        1
176
     1
 90
        2
176
     1
 40
0.6
176
     1
 40
30.0
176
     1
 62
     7
420
 16777215
176
     1
 90
        0
176
     1
 90
        0
176
     1
 62
     7
176
     1
 62
   257
176
     1
 90
        1
176
     1
 90
        1
176
     1
 40
1.0
176
     1
 90
        0
176
     1
 62
     7
176
     1
 40
1.0
176
     1
 90
        1
176
     1
 90
        6
176
     1
 90
        2
176
     1
 62
     7
176
     1
 90
        5
176
     1
 90
        0
176
     1
 90
        0
176
     1
290
     0
176
     1
 90
       13
176
     1
 40
0.0
176
     1
 90
        0
176
     1
290
     0
176
     1
290
     1
176
     1
290
     1
176
     1
290
     0
176
     1
290
     0
176
     1
290
     0
176
     1
290
     0
176
     1
290
     0
176
     1
290
     0
176
     1
 90
       50
176
     1
 40
0.0
176
     1
 40
1.0
176
     1
 90
        0
176
     1
 62
    18
420
        0
176
     1
 90
       50
176
     1
 90
        3
176
     1
 62
     5
420
      255
176
     1
290
     0
176
     1
 90
       50
176
     1
 90
       50
176
     1
 90
       50
176
     1
290
     0
176
     1
 90
       50
176
     1
 62
   256
176
     0
 40
1.0
176
     0
 90
        2
176
     1
  1
strokes_ogs.tif
176
     1
290
     0
176
     1
 40
1.0
176
     1
 40
1.0
176
     1
1001
ACAD
1000
AcDbSavedByObjectVersion
1070
     0
  0
VISUALSTYLE
  5
11C1E
102
{ACAD_REACTORS
330
11A73
102
}
330
11A73
100
AcDbVisualStyle
  2
GouraudWithEdges
 70
     3
177
     3
291
     1
 70
    58
 90
        2
176
     1
 90
        2
176
     1
 90
        1
176
     1
 90
        2
176
     1
 40
0.6
176
     1
 40
30.0
176
     1
 62
     7
420
 16777215
176
     1
 90
        1
176
     1
 90
        0
176
     1
 62
     7
176
     1
 62
   257
176
     1
 90
        1
176
     1
 90
        1
176
     1
 40
1.0
176
     1
 90
        0
176
     1
 62
   257
176
     1
 40
1.0
176
     1
 90
        1
176
     1
 90
        6
176
     1
 90
        2
176
     1
 62
     7
176
     1
 90
        5
176
     1
 90
        0
176
     1
 90
        0
176
     1
290
     0
176
     1
 90
       13
176
     1
 40
0.0
176
     1
 90
        0
176
     1
290
     0
176
     1
290
     1
176
     1
290
     1
176
     1
290
     0
176
     1
290
     0
176
     1
290
     0
176
     1
290
     0
176
     1
290
     0
176
     1
290
     0
176
     1
 90
       50
176
     1
 40
0.0
176
     1
 40
1.0
176
     1
 90
        0
176
     1
 62
    18
420
        0
176
     1
 90
       50
176
     1
 90
        3
176
     1
 62
     5
420
      255
176
     1
290
     0
176
     1
 90
       50
176
     1
 90
       50
176
     1
 90
       50
176
     1
290
     0
176
     1
 90
       50
176
     1
 62
   256
176
     0
 40
1.0
176
     0
 90
        2
176
     1
  1
strokes_ogs.tif
176
     1
290
     0
176
     1
 40
1.0
176
     1
 40
1.0
176
     1
1001
ACAD
1000
AcDbSavedByObjectVersion
1070
     0
  0
VISUALSTYLE
  5
11C20
102
{ACAD_REACTORS
330
11A73
102
}
330
11A73
100
AcDbVisualStyle
  2
Hidden
 70
     6
177
     3
291
     0
 70
    58
 90
        1
176
     1
 90
        2
176
     1
 90
        2
176
     1
 90
        0
176
     1
 40
0.6
176
     1
 40
30.0
176
     1
 62
     7
420
 16777215
176
     1
 90
        2
176
     1
 90
        2
176
     1
 62
     7
176
     1
 62
   257
176
     1
 90
        2
176
     1
 90
        1
176
     1
 40
40.0
176
     1
 90
        0
176
     1
 62
   257
176
     1
 40
1.0
176
     1
 90
        1
176
     1
 90
        6
176
     1
 90
        2
176
     1
 62
     7
176
     1
 90
        3
176
     1
 90
        0
176
     1
 90
        0
176
     1
290
     0
176
     1
 90
        1
176
     1
 40
0.0
176
     1
 90
        0
176
     1
290
     0
176
     1
290
     1
176
     1
290
     1
176
     1
290
     0
176
     1
290
     0
176
     1
290
     0
176
     1
290
     0
176
     1
290
     0
176
     1
290
     0
176
     1
 90
       50
176
     1
 40
0.0
176
     1
 40
1.0
176
     1
 90
        0
176
     1
 62
    18
420
        0
176
     1
 90
       50
176
     1
 90
        3
176
     1
 62
     5
420
      255
176
     1
290
     0
176
     1
 90
       50
176
     1
 90
       50
176
     1
 90
       50
176
     1
290
     0
176
     1
 90
       50
176
     1
 62
   256
176
     0
 40
1.0
176
     0
 90
        2
176
     1
  1
strokes_ogs.tif
176
     1
290
     0
176
     1
 40
1.0
176
     1
 40
1.0
176
     1
1001
ACAD
1000
AcDbSavedByObjectVersion
1070
     0
  0
VISUALSTYLE
  5
11C2D
102
{ACAD_REACTORS
330
11A73
102
}
330
11A73
100
AcDbVisualStyle
  2
JitterOff
 70
    20
177
     3
291
     1
 70
    58
 90
        2
176
     0
 90
        2
176
     0
 90
        0
176
     0
 90
        0
176
     0
 40
0.6
176
     0
 40
30.0
176
     0
 62
     7
420
 16777215
176
     0
 90
        1
176
     0
 90
        4
176
     0
 62
     7
176
     0
 62
   257
176
     0
 90
        1
176
     0
 90
        1
176
     0
 40
1.0
176
     0
 90
       10
176
     2
 62
     7
176
     0
 40
1.0
176
     0
 90
        1
176
     0
 90
        6
176
     0
 90
        2
176
     0
 62
     7
176
     0
 90
        5
176
     0
 90
        0
176
     0
 90
        0
176
     0
290
     0
176
     0
 90
        1
176
     0
 40
0.0
176
     0
 90
        0
176
     0
290
     0
176
     0
290
     1
176
     0
290
     1
176
     0
290
     0
176
     0
290
     0
176
     0
290
     0
176
     0
290
     0
176
     0
290
     0
176
     0
290
     0
176
     0
 90
       50
176
     0
 40
0.0
176
     0
 40
1.0
176
     0
 90
        0
176
     0
 62
    18
420
        0
176
     0
 90
       50
176
     0
 90
        3
176
     0
 62
     5
420
      255
176
     0
290
     0
176
     0
 90
       50
176
     0
 90
       50
176
     0
 90
       50
176
     0
290
     0
176
     0
 90
       50
176
     0
 62
   256
176
     0
 40
1.0
176
     0
 90
        2
176
     0
  1
strokes_ogs.tif
176
     0
290
     0
176
     0
 40
1.0
176
     0
 40
1.0
176
     0
1001
ACAD
1000
AcDbSavedByObjectVersion
1070
     0
  0
VISUALSTYLE
  5
11C25
102
{ACAD_REACTORS
330
11A73
102
}
330
11A73
100
AcDbVisualStyle
  2
Linepattern
 70
    14
177
     3
291
     1
 70
    58
 90
        2
176
     1
 90
        2
176
     1
 90
        0
176
     1
 90
        0
176
     1
 40
0.6
176
     1
 40
30.0
176
     1
 62
     7
420
 16777215
176
     1
 90
        1
176
     1
 90
        4
176
     1
 62
     7
176
     1
 62
   257
176
     1
 90
        7
176
     1
 90
        7
176
     1
 40
1.0
176
     1
 90
        8
176
     1
 62
     7
176
     1
 40
1.0
176
     1
 90
        1
176
     1
 90
        6
176
     1
 90
        2
176
     1
 62
     7
176
     1
 90
        5
176
     1
 90
        0
176
     1
 90
        0
176
     1
290
     0
176
     1
 90
        1
176
     1
 40
0.0
176
     1
 90
        0
176
     1
290
     0
176
     1
290
     1
176
     1
290
     1
176
     1
290
     0
176
     1
290
     0
176
     1
290
     0
176
     1
290
     0
176
     1
290
     0
176
     1
290
     0
176
     1
 90
       50
176
     1
 40
0.0
176
     1
 40
1.0
176
     1
 90
        0
176
     1
 62
    18
420
        0
176
     1
 90
       50
176
     1
 90
        3
176
     1
 62
     5
420
      255
176
     1
290
     0
176
     1
 90
       50
176
     1
 90
       50
176
     1
 90
       50
176
     1
290
     0
176
     1
 90
       50
176
     1
 62
   256
176
     0
 40
1.0
176
     0
 90
        2
176
     1
  1
strokes_ogs.tif
176
     1
290
     0
176
     1
 40
1.0
176
     1
 40
1.0
176
     1
1001
ACAD
1000
AcDbSavedByObjectVersion
1070
     0
  0
VISUALSTYLE
  5
11C2E
102
{ACAD_REACTORS
330
11A73
102
}
330
11A73
100
AcDbVisualStyle
  2
OverhangOff
 70
    21
177
     3
291
     1
 70
    58
 90
        2
176
     0
 90
        2
176
     0
 90
        0
176
     0
 90
        0
176
     0
 40
0.6
176
     0
 40
30.0
176
     0
 62
     7
420
 16777215
176
     0
 90
        1
176
     0
 90
        4
176
     0
 62
     7
176
     0
 62
   257
176
     0
 90
        1
176
     0
 90
        1
176
     0
 40
1.0
176
     0
 90
        9
176
     2
 62
     7
176
     0
 40
1.0
176
     0
 90
        1
176
     0
 90
        6
176
     0
 90
        2
176
     0
 62
     7
176
     0
 90
        5
176
     0
 90
        0
176
     0
 90
        0
176
     0
290
     0
176
     0
 90
        1
176
     0
 40
0.0
176
     0
 90
        0
176
     0
290
     0
176
     0
290
     1
176
     0
290
     1
176
     0
290
     0
176
     0
290
     0
176
     0
290
     0
176
     0
290
     0
176
     0
290
     0
176
     0
290
     0
176
     0
 90
       50
176
     0
 40
0.0
176
     0
 40
1.0
176
     0
 90
        0
176
     0
 62
    18
420
        0
176
     0
 90
       50
176
     0
 90
        3
176
     0
 62
     5
420
      255
176
     0
290
     0
176
     0
 90
       50
176
     0
 90
       50
176
     0
 90
       50
176
     0
290
     0
176
     0
 90
       50
176
     0
 62
   256
176
     0
 40
1.0
176
     0
 90
        2
176
     0
  1
strokes_ogs.tif
176
     0
290
     0
176
     0
 40
1.0
176
     0
 40
1.0
176
     0
1001
ACAD
1000
AcDbSavedByObjectVersion
1070
     0
  0
VISUALSTYLE
  5
11AA4
102
{ACAD_REACTORS
330
11A73
102
}
330
11A73
100
AcDbVisualStyle
  2
Realistic
 70
     8
177
     3
291
     0
 70
    58
 90
        2
176
     1
 90
        2
176
     1
 90
        0
176
     1
 90
        0
176
     1
 40
0.6
176
     1
 40
30.0
176
     1
 62
     7
420
 16777215
176
     1
 90
        1
176
     1
 90
        0
176
     1
 62
     7
176
     1
 62
   257
176
     1
 90
        1
176
     1
 90
        1
176
     1
 40
1.0
176
     1
 90
        8
176
     1
 62
     8
420
  7895160
176
     1
 40
1.0
176
     1
 90
        1
176
     1
 90
        6
176
     1
 90
        2
176
     1
 62
     7
176
     1
 90
        5
176
     1
 90
        0
176
     1
 90
        0
176
     1
290
     0
176
     1
 90
       13
176
     1
 40
0.0
176
     1
 90
        0
176
     1
290
     0
176
     1
290
     1
176
     1
290
     1
176
     1
290
     0
176
     1
290
     0
176
     1
290
     0
176
     1
290
     0
176
     1
290
     0
176
     1
290
     0
176
     1
 90
       50
176
     1
 40
0.0
176
     1
 40
1.0
176
     1
 90
        0
176
     1
 62
    18
420
        0
176
     1
 90
       50
176
     1
 90
        3
176
     1
 62
     5
420
      255
176
     1
290
     0
176
     1
 90
       50
176
     1
 90
       50
176
     1
 90
       50
176
     1
290
     0
176
     1
 90
       50
176
     1
 62
   256
176
     0
 40
1.0
176
     0
 90
        2
176
     1
  1
strokes_ogs.tif
176
     1
290
     0
176
     1
 40
1.0
176
     1
 40
1.0
176
     1
1001
ACAD
1000
AcDbSavedByObjectVersion
1070
     0
  0
VISUALSTYLE
  5
11C2C
102
{ACAD_REACTORS
330
11A73
102
}
330
11A73
100
AcDbVisualStyle
  2
Shaded
 70
    27
177
     3
291
     0
 70
    58
 90
        2
176
     1
 90
        2
176
     1
 90
        1
176
     1
 90
        2
176
     1
 40
0.6
176
     1
 40
30.0
176
     1
 62
     7
420
 16777215
176
     1
 90
        0
176
     1
 90
        4
176
     1
 62
     7
176
     1
 62
   257
176
     1
 90
        1
176
     1
 90
        1
176
     1
 40
1.0
176
     1
 90
        8
176
     1
 62
   257
176
     1
 40
1.0
176
     1
 90
        1
176
     1
 90
        6
176
     1
 90
        2
176
     1
 62
     8
420
  7895160
176
     1
 90
        3
176
     1
 90
        0
176
     1
 90
        0
176
     1
290
     0
176
     1
 90
        5
176
     1
 40
0.0
176
     1
 90
        0
176
     1
290
     0
176
     1
290
     1
176
     1
290
     1
176
     1
290
     0
176
     1
290
     0
176
     1
290
     0
176
     1
290
     0
176
     1
290
     0
176
     1
290
     0
176
     1
 90
       50
176
     1
 40
0.0
176
     1
 40
1.0
176
     1
 90
        0
176
     1
 62
    18
420
        0
176
     1
 90
       50
176
     1
 90
        3
176
     1
 62
     5
420
      255
176
     1
290
     0
176
     1
 90
       50
176
     1
 90
       50
176
     1
 90
       50
176
     1
290
     0
176
     1
 90
       50
176
     1
 62
   256
176
     0
 40
1.0
176
     0
 90
        2
176
     1
  1
strokes_ogs.tif
176
     1
290
     0
176
     1
 40
1.0
176
     1
 40
1.0
176
     1
1001
ACAD
1000
AcDbSavedByObjectVersion
1070
     0
  0
VISUALSTYLE
  5
11C2B
102
{ACAD_REACTORS
330
11A73
102
}
330
11A73
100
AcDbVisualStyle
  2
Shaded with edges
 70
    26
177
     3
291
     0
 70
    58
 90
        2
176
     1
 90
        2
176
     1
 90
        1
176
     1
 90
        2
176
     1
 40
0.6
176
     1
 40
30.0
176
     1
 62
     7
420
 16777215
176
     1
 90
        1
176
     1
 90
        2
176
     1
 62
     7
176
     1
 62
   257
176
     1
 90
        2
176
     1
 90
        1
176
     1
 40
1.0
176
     1
 90
        8
176
     1
 62
   257
176
     1
 40
1.0
176
     1
 90
        1
176
     1
 90
        6
176
     1
 90
        2
176
     1
 62
     7
176
     1
 90
        3
176
     1
 90
        0
176
     1
 90
        0
176
     1
290
     0
176
     1
 90
        5
176
     1
 40
0.0
176
     1
 90
        0
176
     1
290
     0
176
     1
290
     1
176
     1
290
     1
176
     1
290
     0
176
     1
290
     0
176
     1
290
     0
176
     1
290
     0
176
     1
290
     0
176
     1
290
     0
176
     1
 90
       50
176
     1
 40
0.0
176
     1
 40
1.0
176
     1
 90
        0
176
     1
 62
    18
420
        0
176
     1
 90
       50
176
     1
 90
        3
176
     1
 62
     5
420
      255
176
     1
290
     0
176
     1
 90
       50
176
     1
 90
       50
176
     1
 90
       50
176
     1
290
     0
176
     1
 90
       50
176
     1
 62
   256
176
     0
 40
1.0
176
     0
 90
        2
176
     1
  1
strokes_ogs.tif
176
     1
290
     0
176
     1
 40
1.0
176
     1
 40
1.0
176
     1
1001
ACAD
1000
AcDbSavedByObjectVersion
1070
     0
  0
VISUALSTYLE
  5
11C28
102
{ACAD_REACTORS
330
11A73
102
}
330
11A73
100
AcDbVisualStyle
  2
Shades of Gray
 70
    23
177
     3
291
     0
 70
    58
 90
        2
176
     1
 90
        2
176
     1
 90
        3
176
     1
 90
        0
176
     1
 40
0.6
176
     1
 40
30.0
176
     1
 62
     7
420
 16777215
176
     1
 90
        2
176
     1
 90
        2
176
     1
 62
     7
176
     1
 62
     7
176
     1
 90
        1
176
     1
 90
        1
176
     1
 40
40.0
176
     1
 90
        8
176
     1
 62
     7
176
     1
 40
1.0
176
     1
 90
        1
176
     1
 90
        6
176
     1
 90
        2
176
     1
 62
     7
176
     1
 90
        3
176
     1
 90
        0
176
     1
 90
        0
176
     1
290
     0
176
     1
 90
        1
176
     1
 40
0.0
176
     1
 90
        0
176
     1
290
     0
176
     1
290
     1
176
     1
290
     1
176
     1
290
     0
176
     1
290
     0
176
     1
290
     0
176
     1
290
     0
176
     1
290
     0
176
     1
290
     0
176
     1
 90
       50
176
     1
 40
0.0
176
     1
 40
1.0
176
     1
 90
        0
176
     1
 62
    18
420
        0
176
     1
 90
       50
176
     1
 90
        3
176
     1
 62
     5
420
      255
176
     1
290
     0
176
     1
 90
       50
176
     1
 90
       50
176
     1
 90
       50
176
     1
290
     0
176
     1
 90
       50
176
     1
 62
   256
176
     0
 40
1.0
176
     0
 90
        2
176
     1
  1
strokes_ogs.tif
176
     1
290
     0
176
     1
 40
1.0
176
     1
 40
1.0
176
     1
1001
ACAD
1000
AcDbSavedByObjectVersion
1070
     0
  0
VISUALSTYLE
  5
11C29
102
{ACAD_REACTORS
330
11A73
102
}
330
11A73
100
AcDbVisualStyle
  2
Sketchy
 70
    24
177
     3
291
     0
 70
    58
 90
        1
176
     1
 90
        2
176
     1
 90
        2
176
     1
 90
        0
176
     1
 40
0.6
176
     1
 40
30.0
176
     1
 62
     7
420
 16777215
176
     1
 90
        2
176
     1
 90
        2
176
     1
 62
     7
176
     1
 62
     7
176
     1
 90
        1
176
     1
 90
        1
176
     1
 40
40.0
176
     1
 90
       11
176
     1
 62
     7
176
     1
 40
1.0
176
     1
 90
        1
176
     1
 90
        6
176
     1
 90
        2
176
     1
 62
     7
176
     1
 90
        6
176
     1
 90
        0
176
     1
 90
        0
176
     1
290
     0
176
     1
 90
        1
176
     1
 40
0.0
176
     1
 90
        0
176
     1
290
     0
176
     1
290
     1
176
     1
290
     1
176
     1
290
     0
176
     1
290
     0
176
     1
290
     0
176
     1
290
     0
176
     1
290
     0
176
     1
290
     0
176
     1
 90
       50
176
     1
 40
0.0
176
     1
 40
1.0
176
     1
 90
        0
176
     1
 62
    18
420
        0
176
     1
 90
       50
176
     1
 90
        3
176
     1
 62
     5
420
      255
176
     1
290
     0
176
     1
 90
       50
176
     1
 90
       50
176
     1
 90
       50
176
     1
290
     0
176
     1
 90
       50
176
     1
 62
   256
176
     0
 40
1.0
176
     0
 90
        2
176
     1
  1
strokes_ogs.tif
176
     1
290
     0
176
     1
 40
1.0
176
     1
 40
1.0
176
     1
1001
ACAD
1000
AcDbSavedByObjectVersion
1070
     0
  0
VISUALSTYLE
  5
11C24
102
{ACAD_REACTORS
330
11A73
102
}
330
11A73
100
AcDbVisualStyle
  2
Thicken
 70
    13
177
     3
291
     1
 70
    58
 90
        2
176
     1
 90
        2
176
     1
 90
        0
176
     1
 90
        0
176
     1
 40
0.6
176
     1
 40
30.0
176
     1
 62
     7
420
 16777215
176
     1
 90
        1
176
     1
 90
        4
176
     1
 62
     7
176
     1
 62
   257
176
     1
 90
        1
176
     1
 90
        1
176
     1
 40
1.0
176
     1
 90
       12
176
     1
 62
     7
176
     1
 40
1.0
176
     1
 90
        1
176
     1
 90
        6
176
     1
 90
        2
176
     1
 62
     7
176
     1
 90
        5
176
     1
 90
        0
176
     1
 90
        0
176
     1
290
     0
176
     1
 90
        1
176
     1
 40
0.0
176
     1
 90
        0
176
     1
290
     0
176
     1
290
     1
176
     1
290
     1
176
     1
290
     0
176
     1
290
     0
176
     1
290
     0
176
     1
290
     0
176
     1
290
     0
176
     1
290
     0
176
     1
 90
       50
176
     1
 40
0.0
176
     1
 40
1.0
176
     1
 90
        0
176
     1
 62
    18
420
        0
176
     1
 90
       50
176
     1
 90
        3
176
     1
 62
     5
420
      255
176
     1
290
     0
176
     1
 90
       50
176
     1
 90
       50
176
     1
 90
       50
176
     1
290
     0
176
     1
 90
       50
176
     1
 62
   256
176
     0
 40
1.0
176
     0
 90
        2
176
     1
  1
strokes_ogs.tif
176
     1
290
     0
176
     1
 40
1.0
176
     1
 40
1.0
176
     1
1001
ACAD
1000
AcDbSavedByObjectVersion
1070
     0
  0
VISUALSTYLE
  5
11AA5
102
{ACAD_REACTORS
330
11A73
102
}
330
11A73
100
AcDbVisualStyle
  2
Wireframe
 70
     5
177
     3
291
     0
 70
    58
 90
        0
176
     1
 90
        2
176
     1
 90
        0
176
     1
 90
        0
176
     1
 40
0.6
176
     1
 40
30.0
176
     1
 62
     7
420
 16777215
176
     1
 90
        1
176
     1
 90
        4
176
     1
 62
     7
176
     1
 62
   257
176
     1
 90
        1
176
     1
 90
        1
176
     1
 40
1.0
176
     1
 90
        0
176
     1
 62
   257
176
     1
 40
1.0
176
     1
 90
        1
176
     1
 90
        6
176
     1
 90
        2
176
     1
 62
     7
176
     1
 90
        3
176
     1
 90
        0
176
     1
 90
        0
176
     1
290
     0
176
     1
 90
        1
176
     1
 40
0.0
176
     1
 90
        0
176
     1
290
     0
176
     1
290
     1
176
     1
290
     1
176
     1
290
     0
176
     1
290
     0
176
     1
290
     0
176
     1
290
     0
176
     1
290
     0
176
     1
290
     0
176
     1
 90
       50
176
     1
 40
0.0
176
     1
 40
1.0
176
     1
 90
        0
176
     1
 62
    18
420
        0
176
     1
 90
       50
176
     1
 90
        3
176
     1
 62
     5
420
      255
176
     1
290
     0
176
     1
 90
       50
176
     1
 90
       50
176
     1
 90
       50
176
     1
290
     0
176
     1
 90
       50
176
     1
 62
   256
176
     0
 40
1.0
176
     0
 90
        2
176
     1
  1
strokes_ogs.tif
176
     1
290
     0
176
     1
 40
1.0
176
     1
 40
1.0
176
     1
1001
ACAD
1000
AcDbSavedByObjectVersion
1070
     0
  0
VISUALSTYLE
  5
11C2A
102
{ACAD_REACTORS
330
11A73
102
}
330
11A73
100
AcDbVisualStyle
  2
X-Ray
 70
    25
177
     3
291
     0
 70
    58
 90
        2
176
     1
 90
        2
176
     1
 90
        1
176
     1
 90
        1
176
     1
 40
0.5
176
     1
 40
30.0
176
     1
 62
     7
420
 16777215
176
     1
 90
        1
176
     1
 90
        0
176
     1
 62
     7
176
     1
 62
   257
176
     1
 90
        1
176
     1
 90
        1
176
     1
 40
1.0
176
     1
 90
        8
176
     1
 62
     7
176
     1
 40
1.0
176
     1
 90
        1
176
     1
 90
        6
176
     1
 90
        2
176
     1
 62
     7
176
     1
 90
        3
176
     1
 90
        0
176
     1
 90
        0
176
     1
290
     0
176
     1
 90
       13
176
     1
 40
0.0
176
     1
 90
        0
176
     1
290
     0
176
     1
290
     1
176
     1
290
     1
176
     1
290
     0
176
     1
290
     0
176
     1
290
     0
176
     1
290
     0
176
     1
290
     0
176
     1
290
     0
176
     1
 90
       50
176
     1
 40
0.0
176
     1
 40
1.0
176
     1
 90
        0
176
     1
 62
    18
420
        0
176
     1
 90
       50
176
     1
 90
        3
176
     1
 62
     5
420
      255
176
     1
290
     0
176
     1
 90
       50
176
     1
 90
       50
176
     1
 90
       50
176
     1
290
     0
176
     1
 90
       50
176
     1
 62
   256
176
     0
 40
1.0
176
     0
 90
        2
176
     1
  1
strokes_ogs.tif
176
     1
290
     0
176
     1
 40
1.0
176
     1
 40
1.0
176
     1
1001
ACAD
1000
AcDbSavedByObjectVersion
1070
     0
  0
DICTIONARYVAR
  5
11A91
102
{ACAD_REACTORS
330
11A90
102
}
330
11A90
100
DictionaryVariables
280
     0
  1
1:1
  0
DICTIONARYVAR
  5
11A92
102
{ACAD_REACTORS
330
11A90
102
}
330
11A90
100
DictionaryVariables
280
     0
  1
STANDARD
  0
DICTIONARYVAR
  5
11A93
102
{ACAD_REACTORS
330
11A90
102
}
330
11A90
100
DictionaryVariables
280
     0
  1
STANDARD
  0
DICTIONARYVAR
  5
11A94
102
{ACAD_REACTORS
330
11A90
102
}
330
11A90
100
DictionaryVariables
280
     0
  1
Imperial24
  0
DICTIONARYVAR
  5
11A95
102
{ACAD_REACTORS
330
11A90
102
}
330
11A90
100
DictionaryVariables
280
     0
  1
Imperial24
  0
DICTIONARYVAR
  5
11A96
102
{ACAD_REACTORS
330
11A90
102
}
330
11A90
100
DictionaryVariables
280
     0
  1
1
  0
DICTIONARYVAR
  5
11A97
102
{ACAD_REACTORS
330
11A90
102
}
330
11A90
100
DictionaryVariables
280
     0
  1
15
  0
DICTIONARYVAR
  5
11A98
102
{ACAD_REACTORS
330
11A90
102
}
330
11A90
100
DictionaryVariables
280
     0
  1
0
  0
DICTIONARYVAR
  5
11A99
102
{ACAD_REACTORS
330
11A90
102
}
330
11A90
100
DictionaryVariables
280
     0
  1
0
  0
DICTIONARY
  5
12127
102
{ACAD_REACTORS
330
12125
102
}
330
12125
100
AcDbDictionary
281
     1
  0
DICTIONARY
  5
12126
102
{ACAD_REACTORS
330
12125
102
}
330
12125
100
AcDbDictionary
281
     1
  3
1398878520704
350
12120
  3
1398878520720
350
12121
  3
1398878520736
350
12122
  3
1398878520752
350
12123
  3
1398878520768
350
12124
  0
DICTIONARY
  5
1212A
330
11C33
100
AcDbDictionary
280
     1
281
     1
  3
ACAD_XREC_ROUNDTRIP
360
1212B
  0
DICTIONARY
  5
11A61
330
11A60
100
AcDbDictionary
280
     1
281
     1
  0
DICTIONARY
  5
11A5C
330
11A5A
100
AcDbDictionary
280
     1
281
     1
  0
DICTIONARY
  5
11A85
330
11A84
100
AcDbDictionary
280
     1
281
     1
  3
BUMPTILE
360
11A86
  3
DIFFUSETILE
360
11A87
  3
OPACITYTILE
360
11A88
  3
REFLECTIONTILE
360
11A89
  3
REFRACTIONTILE
360
11A8A
  3
SPECULARTILE
360
11A8B
  0
DICTIONARY
  5
11A7D
330
11A7C
100
AcDbDictionary
280
     1
281
     1
  3
BUMPTILE
360
11A7E
  3
DIFFUSETILE
360
11A7F
  3
OPACITYTILE
360
11A80
  3
REFLECTIONTILE
360
11A81
  3
REFRACTIONTILE
360
11A82
  3
SPECULARTILE
360
11A83
  0
DICTIONARY
  5
11C07
330
8DC
100
AcDbDictionary
280
     1
281
     1
  3
ADVMATERIAL
360
11C0A
  3
DIFFUSETILE
360
11C08
  3
OPACITYTILE
360
11C0B
  3
SPECULARTILE
360
11C09
  0
DICTIONARY
  5
11A34
330
11A32
100
AcDbDictionary
280
     1
281
     1
  3
BUMPTILE
360
11A35
  3
DIFFUSETILE
360
11A36
  3
OPACITYTILE
360
11A37
  3
REFLECTIONTILE
360
11A38
  3
REFRACTIONTILE
360
11A39
  3
SPECULARTILE
360
11A3A
  0
DICTIONARY
  5
12128
330
11C31
100
AcDbDictionary
280
     1
281
     1
  3
ACAD_XREC_ROUNDTRIP
360
12129
  0
DICTIONARY
  5
11AA3
330
11AA2
100
AcDbDictionary
280
     1
281
     1
  3
ACAD_ROUNDTRIP_2008_TABLESTYLE_CELLSTYLEMAP
360
1211E
  0
XRECORD
  5
12120
102
{ACAD_REACTORS
330
12126
102
}
330
12126
100
AcDbXrecord
280
     1
  1
AcDb_Thumbnail_Schema
102
{ATTRRECORD
341
12121
  2
AcDbDs::TreatedAsObjectData
280
     1
291
     1
102
ATTRRECORD}
102
{ATTRRECORD
341
12122
  2
AcDbDs::Legacy
280
     1
291
     1
102
ATTRRECORD}
  2
AcDbDs::ID
280
    10
 91
        8
102
{ATTRRECORD
341
12123
  2
AcDs:Indexable
280
     1
291
     1
102
ATTRRECORD}
102
{ATTRRECORD
341
12124
  2
AcDbDs::HandleAttribute
280
     7
282
     1
102
ATTRRECORD}
  2
Thumbnail_Data
280
    15
 91
        0
  0
XRECORD
  5
12121
102
{ACAD_REACTORS
330
12126
102
}
330
12126
100
AcDbXrecord
280
     1
  1
AcDbDs::TreatedAsObjectDataSchema
  2
AcDbDs::TreatedAsObjectData
280
     1
 91
        0
  0
XRECORD
  5
12122
102
{ACAD_REACTORS
330
12126
102
}
330
12126
100
AcDbXrecord
280
     1
  1
AcDbDs::LegacySchema
  2
AcDbDs::Legacy
280
     1
 91
        0
  0
XRECORD
  5
12123
102
{ACAD_REACTORS
330
12126
102
}
330
12126
100
AcDbXrecord
280
     1
  1
AcDbDs::IndexedPropertySchema
  2
AcDs:Indexable
280
     1
 91
        0
  0
XRECORD
  5
12124
102
{ACAD_REACTORS
330
12126
102
}
330
12126
100
AcDbXrecord
280
     1
  1
AcDbDs::HandleAttributeSchema
  2
AcDbDs::HandleAttribute
280
     7
 91
        1
284
     1
  0
XRECORD
  5
1212B
102
{ACAD_REACTORS
330
1212A
102
}
330
1212A
100
AcDbXrecord
280
     1
102
DISPLAYNAME
  1
Imperial24
102
FLAGS
 90
        0
  0
XRECORD
  5
11A86
102
{ACAD_REACTORS
330
11A85
102
}
330
11A85
100
AcDbXrecord
280
     1
270
     1
271
     1
  0
XRECORD
  5
11A87
102
{ACAD_REACTORS
330
11A85
102
}
330
11A85
100
AcDbXrecord
280
     1
270
     1
271
     1
  0
XRECORD
  5
11A88
102
{ACAD_REACTORS
330
11A85
102
}
330
11A85
100
AcDbXrecord
280
     1
270
     1
271
     1
  0
XRECORD
  5
11A89
102
{ACAD_REACTORS
330
11A85
102
}
330
11A85
100
AcDbXrecord
280
     1
270
     1
271
     1
  0
XRECORD
  5
11A8A
102
{ACAD_REACTORS
330
11A85
102
}
330
11A85
100
AcDbXrecord
280
     1
270
     1
271
     1
  0
XRECORD
  5
11A8B
102
{ACAD_REACTORS
330
11A85
102
}
330
11A85
100
AcDbXrecord
280
     1
270
     1
271
     1
  0
XRECORD
  5
11A7E
102
{ACAD_REACTORS
330
11A7D
102
}
330
11A7D
100
AcDbXrecord
280
     1
270
     1
271
     1
  0
XRECORD
  5
11A7F
102
{ACAD_REACTORS
330
11A7D
102
}
330
11A7D
100
AcDbXrecord
280
     1
270
     1
271
     1
  0
XRECORD
  5
11A80
102
{ACAD_REACTORS
330
11A7D
102
}
330
11A7D
100
AcDbXrecord
280
     1
270
     1
271
     1
  0
XRECORD
  5
11A81
102
{ACAD_REACTORS
330
11A7D
102
}
330
11A7D
100
AcDbXrecord
280
     1
270
     1
271
     1
  0
XRECORD
  5
11A82
102
{ACAD_REACTORS
330
11A7D
102
}
330
11A7D
100
AcDbXrecord
280
     1
270
     1
271
     1
  0
XRECORD
  5
11A83
102
{ACAD_REACTORS
330
11A7D
102
}
330
11A7D
100
AcDbXrecord
280
     1
270
     1
271
     1
  0
XRECORD
  5
11C0A
102
{ACAD_REACTORS
330
11C07
102
}
330
11C07
100
AcDbXrecord
280
     1
460
100.0
461
100.0
462
100.0
463
100.0
290
     0
270
     0
464
0.0
293
     0
272
     3
273
     3
  0
XRECORD
  5
11C08
102
{ACAD_REACTORS
330
11C07
102
}
330
11C07
100
AcDbXrecord
280
     1
270
     1
271
     1
  0
XRECORD
  5
11C0B
102
{ACAD_REACTORS
330
11C07
102
}
330
11C07
100
AcDbXrecord
280
     1
270
     1
271
     1
  0
XRECORD
  5
11C09
102
{ACAD_REACTORS
330
11C07
102
}
330
11C07
100
AcDbXrecord
280
     1
270
     1
271
     1
  0
XRECORD
  5
11A35
102
{ACAD_REACTORS
330
11A34
102
}
330
11A34
100
AcDbXrecord
280
     1
270
     1
271
     1
  0
XRECORD
  5
11A36
102
{ACAD_REACTORS
330
11A34
102
}
330
11A34
100
AcDbXrecord
280
     1
270
     1
271
     1
  0
XRECORD
  5
11A37
102
{ACAD_REACTORS
330
11A34
102
}
330
11A34
100
AcDbXrecord
280
     1
270
     1
271
     1
  0
XRECORD
  5
11A38
102
{ACAD_REACTORS
330
11A34
102
}
330
11A34
100
AcDbXrecord
280
     1
270
     1
271
     1
  0
XRECORD
  5
11A39
102
{ACAD_REACTORS
330
11A34
102
}
330
11A34
100
AcDbXrecord
280
     1
270
     1
271
     1
  0
XRECORD
  5
11A3A
102
{ACAD_REACTORS
330
11A34
102
}
330
11A34
100
AcDbXrecord
280
     1
270
     1
271
     1
  0
XRECORD
  5
12129
102
{ACAD_REACTORS
330
12128
102
}
330
12128
100
AcDbXrecord
280
     1
102
DISPLAYNAME
  1
Imperial24
102
FLAGS
 90
        0
  0
CELLSTYLEMAP
  5
1211E
102
{ACAD_REACTORS
330
11AA3
102
}
330
11AA3
100
AcDbCellStyleMap
 90
        3
300
CELLSTYLE
  1
TABLEFORMAT_BEGIN
 90
        5
170
     1
 91
        0
 92
    32768
 62
   257
 93
        1
300
CONTENTFORMAT
  1
CONTENTFORMAT_BEGIN
 90
        0
 91
        0
 92
        4
 93
        0
300

 40
0.0
140
1.0
 94
        5
 62
     0
340
11A69
144
0.25
309
CONTENTFORMAT_END
171
     0
 94
        6
 95
        1
302
GRIDFORMAT
  1
GRIDFORMAT_BEGIN
 90
        0
 91
        1
 62
     0
 92
       -2
340
0
 93
        0
 40
0.045
309
GRIDFORMAT_END
 95
        2
302
GRIDFORMAT
  1
GRIDFORMAT_BEGIN
 90
        0
 91
        1
 62
     0
 92
       -2
340
0
 93
        0
 40
0.045
309
GRIDFORMAT_END
 95
        4
302
GRIDFORMAT
  1
GRIDFORMAT_BEGIN
 90
        0
 91
        1
 62
     0
 92
       -2
340
0
 93
        0
 40
0.045
309
GRIDFORMAT_END
 95
        8
302
GRIDFORMAT
  1
GRIDFORMAT_BEGIN
 90
        0
 91
        1
 62
     0
 92
       -2
340
0
 93
        0
 40
0.045
309
GRIDFORMAT_END
 95
       16
302
GRIDFORMAT
  1
GRIDFORMAT_BEGIN
 90
        0
 91
        1
 62
     0
 92
       -2
340
0
 93
        0
 40
0.045
309
GRIDFORMAT_END
 95
       32
302
GRIDFORMAT
  1
GRIDFORMAT_BEGIN
 90
        0
 91
        1
 62
     0
 92
       -2
340
0
 93
        0
 40
0.045
309
GRIDFORMAT_END
309
TABLEFORMAT_END
  1
CELLSTYLE_BEGIN
 90
        1
 91
        1
300
_TITLE
309
CELLSTYLE_END
300
CELLSTYLE
  1
TABLEFORMAT_BEGIN
 90
        5
170
     1
 91
        0
 92
        0
 62
   257
 93
        1
300
CONTENTFORMAT
  1
CONTENTFORMAT_BEGIN
 90
        0
 91
        0
 92
        4
 93
        0
300

 40
0.0
140
1.0
 94
        5
 62
     0
340
11A69
144
0.18
309
CONTENTFORMAT_END
171
     0
 94
        6
 95
        1
302
GRIDFORMAT
  1
GRIDFORMAT_BEGIN
 90
        0
 91
        1
 62
     0
 92
       -2
340
0
 93
        0
 40
0.045
309
GRIDFORMAT_END
 95
        2
302
GRIDFORMAT
  1
GRIDFORMAT_BEGIN
 90
        0
 91
        1
 62
     0
 92
       -2
340
0
 93
        0
 40
0.045
309
GRIDFORMAT_END
 95
        4
302
GRIDFORMAT
  1
GRIDFORMAT_BEGIN
 90
        0
 91
        1
 62
     0
 92
       -2
340
0
 93
        0
 40
0.045
309
GRIDFORMAT_END
 95
        8
302
GRIDFORMAT
  1
GRIDFORMAT_BEGIN
 90
        0
 91
        1
 62
     0
 92
       -2
340
0
 93
        0
 40
0.045
309
GRIDFORMAT_END
 95
       16
302
GRIDFORMAT
  1
GRIDFORMAT_BEGIN
 90
        0
 91
        1
 62
     0
 92
       -2
340
0
 93
        0
 40
0.045
309
GRIDFORMAT_END
 95
       32
302
GRIDFORMAT
  1
GRIDFORMAT_BEGIN
 90
        0
 91
        1
 62
     0
 92
       -2
340
0
 93
        0
 40
0.045
309
GRIDFORMAT_END
309
TABLEFORMAT_END
  1
CELLSTYLE_BEGIN
 90
        2
 91
        1
300
_HEADER
309
CELLSTYLE_END
300
CELLSTYLE
  1
TABLEFORMAT_BEGIN
 90
        5
170
     1
 91
        0
 92
        0
 62
   257
 93
        1
300
CONTENTFORMAT
  1
CONTENTFORMAT_BEGIN
 90
        0
 91
        0
 92
        4
 93
        0
300

 40
0.0
140
1.0
 94
        2
 62
     0
340
11A69
144
0.18
309
CONTENTFORMAT_END
171
     0
 94
        6
 95
        1
302
GRIDFORMAT
  1
GRIDFORMAT_BEGIN
 90
        0
 91
        1
 62
     0
 92
       -2
340
0
 93
        0
 40
0.045
309
GRIDFORMAT_END
 95
        2
302
GRIDFORMAT
  1
GRIDFORMAT_BEGIN
 90
        0
 91
        1
 62
     0
 92
       -2
340
0
 93
        0
 40
0.045
309
GRIDFORMAT_END
 95
        4
302
GRIDFORMAT
  1
GRIDFORMAT_BEGIN
 90
        0
 91
        1
 62
     0
 92
       -2
340
0
 93
        0
 40
0.045
309
GRIDFORMAT_END
 95
        8
302
GRIDFORMAT
  1
GRIDFORMAT_BEGIN
 90
        0
 91
        1
 62
     0
 92
       -2
340
0
 93
        0
 40
0.045
309
GRIDFORMAT_END
 95
       16
302
GRIDFORMAT
  1
GRIDFORMAT_BEGIN
 90
        0
 91
        1
 62
     0
 92
       -2
340
0
 93
        0
 40
0.045
309
GRIDFORMAT_END
 95
       32
302
GRIDFORMAT
  1
GRIDFORMAT_BEGIN
 90
        0
 91
        1
 62
     0
 92
       -2
340
0
 93
        0
 40
0.045
309
GRIDFORMAT_END
309
TABLEFORMAT_END
  1
CELLSTYLE_BEGIN
 90
        3
 91
        2
300
_DATA
309
CELLSTYLE_END
  0
ENDSEC
  0
SECTION
  2
ACDSDATA
 70
     2
 71
     8
  0
ACDSSCHEMA
 90
        0
  1
AcDb_Thumbnail_Schema
  2
AcDbDs::ID
280
    10
 91
        8
  2
Thumbnail_Data
280
    15
 91
        0
101
ACDSRECORD
 95
        0
 90
        1
  2
AcDbDs::TreatedAsObjectData
280
     1
291
     1
101
ACDSRECORD
 95
        0
 90
        2
  2
AcDbDs::Legacy
280
     1
291
     1
101
ACDSRECORD
  1
AcDbDs::ID
 90
        3
  2
AcDs:Indexable
280
     1
291
     1
101
ACDSRECORD
  1
AcDbDs::ID
 90
        4
  2
AcDbDs::HandleAttribute
280
     7
282
     1
  0
ACDSSCHEMA
 90
        1
  1
AcDbDs::TreatedAsObjectDataSchema
  2
AcDbDs::TreatedAsObjectData
280
     1
 91
        0
  0
ACDSSCHEMA
 90
        2
  1
AcDbDs::LegacySchema
  2
AcDbDs::Legacy
280
     1
 91
        0
  0
ACDSSCHEMA
 90
        3
  1
AcDbDs::IndexedPropertySchema
  2
AcDs:Indexable
280
     1
 91
        0
  0
ACDSSCHEMA
 90
        4
  1
AcDbDs::HandleAttributeSchema
  2
AcDbDs::HandleAttribute
280
     7
 91
        1
284
     1
  0
ACDSRECORD
 90
        0
  2
AcDbDs::ID
280
    10
320
11A60
  2
Thumbnail_Data
280
    15
 94
     1183
310
89504E470D0A1A0A0000000D4948445200000100000000C508030000008CFEDCE700000300504C5445FFFFFF000000FFFFFF0000000000000000000000000000000000000000000000000000330000660000990000CC0000FF0033000033330033660033990033CC0033FF0066000066330066660066990066CC0066FF0099
310
000099330099660099990099CC0099FF00CC0000CC3300CC6600CC9900CCCC00CCFF00FF0000FF3300FF6600FF9900FFCC00FFFF3300003300333300663300993300CC3300FF3333003333333333663333993333CC3333FF3366003366333366663366993366CC3366FF3399003399333399663399993399CC3399FF33CC00
310
33CC3333CC6633CC9933CCCC33CCFF33FF0033FF3333FF6633FF9933FFCC33FFFF6600006600336600666600996600CC6600FF6633006633336633666633996633CC6633FF6666006666336666666666996666CC6666FF6699006699336699666699996699CC6699FF66CC0066CC3366CC6666CC9966CCCC66CCFF66FF0066
310
FF3366FF6666FF9966FFCC66FFFF9900009900339900669900999900CC9900FF9933009933339933669933999933CC9933FF9966009966339966669966999966CC9966FF9999009999339999669999999999CC9999FF99CC0099CC3399CC6699CC9999CCCC99CCFF99FF0099FF3399FF6699FF9999FFCC99FFFFCC0000CC00
310
33CC0066CC0099CC00CCCC00FFCC3300CC3333CC3366CC3399CC33CCCC33FFCC6600CC6633CC6666CC6699CC66CCCC66FFCC9900CC9933CC9966CC9999CC99CCCC99FFCCCC00CCCC33CCCC66CCCC99CCCCCCCCCCFFCCFF00CCFF33CCFF66CCFF99CCFFCCCCFFFFFF0000FF0033FF0066FF0099FF00CCFF00FFFF3300FF3333
310
FF3366FF3399FF33CCFF33FFFF6600FF6633FF6666FF6699FF66CCFF66FFFF9900FF9933FF9966FF9999FF99CCFF99FFFFCC00FFCC33FFCC66FFCC99FFCCCCFFCCFFFFFF00FFFF33FFFF66FFFF99FFFFCCFFFFFF0000000D0D0D1A1A1A2828283535354343435050505D5D5D6B6B6B787878868686939393A1A1A1AEAEAEBB
310
BBBBC9C9C9D6D6D6E4E4E4F1F1F1FFFFFF000000000000000000000000000000000000000000000000000000000000790CAC0F0000015A4944415478DAEDD8410A8340100440FFFFCCF9C09EE61E104224896014844D579F64F420A587DE592A3A632CD5C101100F500500C0F36ACDF6D636BFCEEBAEF9E9177D0788FBF600
310
000000000000004D1000000000000000100F50FB4F4C9E8B5578FAFF0300000000000000000000000000000000B00BD069000D0000000000000000A009020000000000000000000000000000000052013A0DA001000000000000000000A8C2000000000000000000000000000000402A40FC420400000000000000002016C0
310
5900000000000000000000000000000000C803885F88000000000000000000C402380B0000000000000000000000000000000000E2003A0DA0010000000000000000344100000000000000000000000000000000C0E7C660F21C04080D0000000000000000C01F54DE73151900000000000000D0AFCDCFB6227CDDAB1C9CD7
310
5DF3D32FAA0902000000C00A109E658C110DF0000E6CC6FBCCF8EC2E0000000049454E44AE426082
  0
ACDSRECORD
 90
        0
  2
AcDbDs::ID
280
    10
320
11A5A
  2
Thumbnail_Data
280
    15
 94
     1017
310
89504E470D0A1A0A0000000D4948445200000100000000890803000000F46416F000000300504C5445FEFCF0000000FFFFFF0000000000000000000000000000000000000000000000000000330000660000990000CC0000FF0033000033330033660033990033CC0033FF0066000066330066660066990066CC0066FF0099
310
000099330099660099990099CC0099FF00CC0000CC3300CC6600CC9900CCCC00CCFF00FF0000FF3300FF6600FF9900FFCC00FFFF3300003300333300663300993300CC3300FF3333003333333333663333993333CC3333FF3366003366333366663366993366CC3366FF3399003399333399663399993399CC3399FF33CC00
310
33CC3333CC6633CC9933CCCC33CCFF33FF0033FF3333FF6633FF9933FFCC33FFFF6600006600336600666600996600CC6600FF6633006633336633666633996633CC6633FF6666006666336666666666996666CC6666FF6699006699336699666699996699CC6699FF66CC0066CC3366CC6666CC9966CCCC66CCFF66FF0066
310
FF3366FF6666FF9966FFCC66FFFF9900009900339900669900999900CC9900FF9933009933339933669933999933CC9933FF9966009966339966669966999966CC9966FF9999009999339999669999999999CC9999FF99CC0099CC3399CC6699CC9999CCCC99CCFF99FF0099FF3399FF6699FF9999FFCC99FFFFCC0000CC00
310
33CC0066CC0099CC00CCCC00FFCC3300CC3333CC3366CC3399CC33CCCC33FFCC6600CC6633CC6666CC6699CC66CCCC66FFCC9900CC9933CC9966CC9999CC99CCCC99FFCCCC00CCCC33CCCC66CCCC99CCCCCCCCCCFFCCFF00CCFF33CCFF66CCFF99CCFFCCCCFFFFFF0000FF0033FF0066FF0099FF00CCFF00FFFF3300FF3333
310
FF3366FF3399FF33CCFF33FFFF6600FF6633FF6666FF6699FF66CCFF66FFFF9900FF9933FF9966FF9999FF99CCFF99FFFFCC00FFCC33FFCC66FFCC99FFCCCCFFCCFFFFFF00FFFF33FFFF66FFFF99FFFFCCFFFFFF0000000D0D0D1A1A1A2828283535354343435050505D5D5D6B6B6B787878868686939393A1A1A1AEAEAEBB
310
BBBBC9C9C9D6D6D6E4E4E4F1F1F1FFFFFF0000000000000000000000000000000000000000000000000000000000007C77BAA7000000B44944415478DAEDD0310100000C0220FBB7B48931760C22903E1701020408102040800001020408102040800001020408102040800001020408102040800001020408102040800001
310
020408102040800001020408102040800001020408102040800001020408102040800001020408102040800001020408102040800001020408102040800001020408102040800001020408102040800001020408102040800001020408102040800001020408102040C099016B33700943E05F3C0000000049454E44AE4260
310
82
  0
ENDSEC
  0
SECTION
  2
THUMBNAILIMAGE
 90
    14496
310
28000000B80000004900000001000800000000007834000001000000010000000001000000000000FFFFFF0088888840303030FFF8F8F8FF808080FF585858FFD8D8D8FF505050FF484848FF404040FF383838FF909090FFB8B8B8FFA0A0A0FF989898FFFFFFFFFFFFFFFFFFFFFFFFFFFFFFFFFFFFFFFFFFFFFFFFFFFFFFFF
310
FFFFFFFFFFFFFFFFFFFFFFFFFFFFFFFFFFFFFFFFFFFFFFFFFFFFFFFFFFFFFFFFFFFFFFFFFFFFFFFFFFFFFFFFFFFFFFFFFFFFFFFFFFFFFFFFFFFFFFFFFFFFFFFFFFFFFFFFFFFFFFFFFFFFFFFFFFFFFFFFFFFFFFFFFFFFFFFFFFFFFFFFFFFFFFFFFFFFFFFFFFFFFFFFFFFFFFFFFFFFFFFFFFFFFFFFFFFFFFFFFFFFFFFFFFFFFF
310
FFFFFFFFFFFFFFFFFFFFFFFFFFFFFFFFFFFFFFFFFFFFFFFFFFFFFFFFFFFFFFFFFFFFFFFFFFFFFFFFFFFFFFFFFFFFFFFFFFFFFFFFFFFFFFFFFFFFFFFFFFFFFFFFFFFFFFFFFFFFFFFFFFFFFFFFFFFFFFFFFFFFFFFFFFFFFFFFFFFFFFFFFFFFFFFFFFFFFFFFFFFFFFFFFFFFFFFFFFFFFFFFFFFFFFFFFFFFFFFFFFFFFFFFFFFFFF
310
FFFFFFFFFFFFFFFFFFFFFFFFFFFFFFFFFFFFFFFFFFFFFFFFFFFFFFFFFFFFFFFFFFFFFFFFFFFFFFFFFFFFFFFFFFFFFFFFFFFFFFFFFFFFFFFFFFFFFFFFFFFFFFFFFFFFFFFFFFFFFFFFFFFFFFFFFFFFFFFFFFFFFFFFFFFFFFFFFFFFFFFFFFFFFFFFFFFFFFFFFFFFFFFFFFFFFFFFFFFFFFFFFFFFFFFFFFFFFFFFFFFFFFFFFFFFFF
310
FFFFFFFFFFFFFFFFFFFFFFFFFFFFFFFFFFFFFFFFFFFFFFFFFFFFFFFFFFFFFFFFFFFFFFFFFFFFFFFFFFFFFFFFFFFFFFFFFFFFFFFFFFFFFFFFFFFFFFFFFFFFFFFFFFFFFFFFFFFFFFFFFFFFFFFFFFFFFFFFFFFFFFFFFFFFFFFFFFFFFFFFFFFFFFFFFFFFFFFFFFFFFFFFFFFFFFFFFFFFFFFFFFFFFFFFFFFFFFFFFFFFFFFFFFFFFF
310
FFFFFFFFFFFFFFFFFFFFFFFFFFFFFFFFFFFFFFFFFFFFFFFFFFFFFFFFFFFFFFFFFFFFFFFFFFFFFFFFFFFFFFFFFFFFFFFFFFFFFFFFFFFFFFFFFFFFFFFFFFFFFFFFFFFFFFFFFFFFFFFFFFFFFFFFFFFFFFFFFFFFFFFFFFFFFFFFFFFFFFFFFFFFFFFFFFFFFFFFFFFFFFFFFFFFFFFFFFFFFFFFFFFFFFFFFFFFFFFFFFFFFFFFFFFFFF
310
FFFFFFFFFFFFFFFFFFFFFFFFFFFFFFFFFFFFFFFFFFFFFFFFFFFFFFFFFFFFFFFFFFFFFFFFFFFFFFFFFFFFFFFFFFFFFFFFFFFFFFFFFFFFFFFFFFFFFFFFFFFFFFFFFFFFFFFFFFFFFFFFFFFFFFFFFFFFFFFFFFFFFFFFFFFFFFFFFFFFFFFFFFFFFFFFFFFFFFFFFFFFFFFFFFFFFFFFFFFFFFFFFFFFFFFFFFFFFFFFFFFFFFFFFFFFFF
310
FFFFFFFFFFFFFFFFFFFFFFFFFFFFFFFFFFFFFFFFFFFFFFFFFFFFFFFFFFFFFFFFFFFFFFFFFFFFFFFFFFFFFFFFFFFFFFFFFFFFFFFFFFFFFFFFFFFFFFFFFFFFFFFFFFFFFFFFFFFFFFFFFFFFFFFFFFFFFFFFFFFFFFFFFFFFFFFFFFFFFFFFFFFFFFFFFFFFFFFFFFFFFFFFFFFFFFFFFFFFFFFFFFFFFFFFFFFFFFFFFFFFFFFFFFFFFF
310
FFFFFFFFFFFFFFFFFFFFFFFFFFFFFFFFFFFFFFFFFFFFFFFFFFFFFFFFFFFFFFFFFFFFFFFFFFFFFFFFFFFFFFFFFFFFFFFF00000000000000000000000000000000000000000000000000000000000000000000000000000000000000000000000000000000000000000000000000000000000000000000000000000000000000
310
00000000000000000000000000000000000000000000000000000000000000000000000000000000000000000000000000000000000000000000000000000000000000000000000000000000000000000000000000000000000000000000000000000000000000000000000000000000000000000000000000000000000000
310
00000000000000000000000000000000000000000000000000000000000A000A0003030300030303030303030303030303000000000000000000000000000000000000000000000000000000000000000000000000000000000000000000000000000000000000000000000000000000000000000000000000000000000000
310
00000000000000000000000000000000000000000000000000000000000000000000000000000000000000000000000000000000000000000000000000000000000000000000000000000000000000000000000000000300030003000000000000000000000000000003030303030303030303030303030100000000000000
310
00000000000000000000000000000000000000000000000000000000000000000000000000000000000000000000000000000000000000000000000000000000000000000000000000000000000000000000000000000000000000000000000000000000000000000000000000000000000000000000000000000000000000
310
0000000000000000000000000507030303000A000000000000000000000000000000000000000000000000000000000001030303030303030303030303030300000000000000000000000000000000000000000000000000000000000000000000000000000000000000000000000000000000000000000000000000000000
310
00000000000000000000000000000000000000000000000000000000000000000000000000000000000000000000000000000000000000000000000000000000000000000003030300090000000000000000000000000000000000000000000000000000000000000000000000000000000000000000000003030303030303
310
03030303030000000000000000000000000000000000000000000000000000000000000000000000000000000000000000000000000000000000000000000000000000000000000000000000000000000000000000000000000000000000000000000000000000000000000000000000000000000000000000000000000303
310
07080000000000000000000000000000000000000000000000000000000000000000000000000000000000000000000000000000000000000000000000030303030301000000000000000000000000000000000000000000000000000000000000000000000000000000000000000000000000000000000000000000000000
310
00000000000000000000000000000000000000000000000000000000000000000000000000000000000000000000000000000000000303000500000000000000000000000000000000000000000000000000000000000000000000000000000000000000000000000000000000000000000000000000000000000103030301
310
00000000000000000000000000000000000000000000000000000000000000000000000000000000000000000000000000000000000000000000000000000000000000000000000000000000000000000000000000000000000000000000000000000000000000000000000000030300000000000000000000000000000000
310
00000000000000000000000000000000000000000000000000000000000000000000000000000000000000000000000000000000000000010303010000000000000000000000000000000000000000000000000000000000000000000000000000000000000000000000000000000000000000000000000000000000000000
310
00000000000000000000000000000000000000000000000000000000000000000000000000030300000000000000000000000000000000000000000000000000000000000000000000000000000000000000000000000000000000000000000000000000000000000000000000000000000001030100000000000000000000
310
00000000000000000000000000000000000000000000000000000000000000000000000000000000000000000000000000000000000000000000000000000000000000000000000000000000000000000000000000000000000000000003030000000000000000000000000000000000000000000000000000000000000000
310
00000000000000000000000000000000000000000000000000000000000000000000000000000000000000000001030301000000000000000000000000000000000000000000000000000000000000000000000000000000000000000000000000000000000000000000000000000000000000000000000000000000000000
310
00000000000000000000000000000000000000000000010300000000000000000000000000000000000000000000000000000000000000000000000000000000000000000000000000000000000000000000000000000000000000000000000000000000000000000103010000000000000000000000000000000000000000
310
00000000000000000000000000000000000000000000000000000000000000000000000000000000000000000000000000000000000000000000000000000000000000000000000000000000000001030100000000000000000000000000000000000000000000000000000000000000000000000000000000000000000000
310
00000000000000000000000000000000000000000000000000000000000000000000000103030000000000000000000000000000000000000000000000000000000000000000000000000000000000000000000000000000000000000000000000000000000000000000000000000000000000000000000000000000000000
310
00000000000000000301000000000000000000000000000000000000000000000000000000000000000000000000000000000000000000000000000000000000000000000000000000000000000000000000000000000000000000000000030301000000000000000000000000000000000000000000000000000000000000
310
00000000000000000000000000000000000000000000000000000000000000000000000000000000000000000000000000000000000000000000000000000000010300000000000000000000000000000000000000000000000000000000000000000000000000000000000000000000000000000000000000000000000000
310
00000000000000000000000000000000000000000000000000010303030303010009000000000000000000000000000000000000000000000000000000000000000000000000000000000000000000000000000000000000000000000000000000000000000000000000000000000000000000000000000001030100000000
310
00000000000000000000000000000000000000000000000000000000000000000000000000000000000000000000000000000000000000000000000000000000000000000000000000000000000000000000000000000001030303030000000000000000000000000000000000000000000000000000000000000000000000
310
00000000000000000000000000000000000000000000000000000000000000000000000000000000000000000000000000000301000000000000000000000000000000000000000000000000000000000000000000000000000000000000000000000000000000000000000000000000000000000000000000000000000000
310
00000000000000000000000000000000000000000900030303010000000000000000000000000000000000000000000000000000000000000000000000000000000000000000000000000000000000000000000000000000000000000000000000000000000000000000000300000000000000000000000000000000000000
310
00000000000000000000000000000000000000000000000000000000000000000000000000000000000000000000000000000000000000000000000000000000000000000000000000000000000000000001030100000000000000000000000000000000000000000000000000000000000000000000000000000000000000
310
00000000000000000000000000000000000000000000000000000000000000000000000003000000000000000000000000000000000000000000000000000000000000000000000000000000000000000000000000000000000000000000000000000000000000000000000000000000000000000000000000000000000000
310
00000000000000000000000001030300000000000000000000000000000000000000000000000000000000000000000000000000000000000000000000000000000000000000000000000000000000000000000000000000000000070303000000000000000000000000000000000000000000000000000000000000000000
310
00000000000000000000000000000000000000000000000000000000000000000000000000000000000000000000000000000000000000000000000000000000000000000000000003010000000000000000000000000000000000000000000000000000000000000000000000000000000000000000000000000000000000
310
00000000000000000000000000000000000000000009030900000000000000000000000000000000000000000000000000000000000000000000000000000000000000000000000000000000000000000000000000000000000000000000000000000000000000000000000000000000000000000000000000000000000000
310
00000103000000000000000000000000000000000000000000000000000000000000000000000000000000000000000000000000000000000000000000000000000000000000000000000000000001030000000000000000000000000000000000000000000000000000000000000000000000000000000000000000000000
310
00000000000000000000000000000000000000000000000000000000000000000000000000000000000000000000000000000000000000000000000003030000000000000000000000000000000000000000000000000000000000000000000000000000000000000000000000000000000000000000000000000000000000
310
00000000000000000301000000000000000000000000000000000000000000000000000000000000000000000000000000000000000000000000000000000000000000000000000000000000000000000000000000000000000000000000000000000000000000000000000000000000000000000000030100000000000000
310
00000000000000000000000000000000000000000000000000000000000000000000000000000000000000000000000000000000000000000000000000000000090309000000000000000000000000000000000000000000000000000000000000000000000000000000000000000000000000000000000000000000000000
310
00000000000000000000000000000000000000000000000000000000000000000000000000000000000000000000000001030100000000000000000000000000000000000000000000000000000000000000000000000000000000000000000000000000000000000000000000000000000000000000000000000300000000
310
00000000000000000000000000000000000000000000000000000000000000000000000000000000000000000000000000000000000000000000000000000000000000000000000000000000000000000000000000000000000000000000000000000000000000000000010300000000000000000000000000000000000000
310
00000000000000000000000000000000000000000000000000000000000000000000000000000000000000000000000000000000030000000000000000000000000000000000000000000000000000000000000000000000000000000000000000000000000000000000000000000000000000000000000000000000000000
310
00000000000000000000000000000000000000000000000000000000000000000000000000030100000000000000000000000000000000000000000000000000000000000000000000000000000000000000000000000000000000000000000000000000000000000000000000000000000000000000000000000000000000
310
00000000000000000000000000000000000000000000000000000000000000000000000000000000000000000000000000000000000000000000000000000000000000000000000000000000000000000000000000000000000000000000010300000000000000000000000000000000000000000000000000000000000000
310
00000000000000000000000000000000000000000000000000000000000000000000000000000300000000000000000000000000000000000000000000000000000000000000000000000000000000000000000000000000000000000000000000000000000000000000000000000000000000000000000000000000000000
310
00000000000000000000000000000000000000000000000000030000000000000000000000000000000000000000000000000000000000000000000000000000000000000000000000000000000000000000000000000000000000000000000300000000000000000000000000000000000000000000000000000000000000
310
00000000000000000000000000000000000000000000000000000000000000000000000000000000000000000000000000000000000000000000000000000000000000000000000000000000000000000009030D00000000000000000000000000000000000000000000000000000000000000000000000000000000000000
310
00000000000000000000000000000000000000000000000000030000000000000000000000000000000000000000000000000000000306040500000000000000000000000000000000000000000000000000000000000000000000000000000000000000000000000000000000000000000000000000000000000000000000
310
000000000000000000000000010300000000000000000000000000000000000000000000000000000000000000000000000000000000000000000000000000000000000000000000000000000000000000000300000000000000000000000000000000000000000000000000000E0303030303030303000000000000000000
310
00000000000000000000000000000000000000000000000000000000000000000000000000000000000000000000000000000000000000000000000000000000000000000000030000000000000000000000000000000000000000000000000000000000000000000000000000000000000000000000000000000000000000
310
0000000000000000000000000300000000000000000000000000000000000000000000000000000D030303030303030300000000000000000000000000000000000000000000000007000000000000000000000000070000070007000000000000000000000000000000000000000000000000000000000000000000000000
310
03000000000000000000000000000000000000000000000000000000000000000000000000000000000000000000000000000000000000000000000000000000000000000003000000000000000000000000000000000000000000000000000009030303030000030303030303030303030303030303030303030303030303
310
0303030303030303030303030303030303030303030C070000000000000000000000000000000000000000000000000000000000000000000003000000000000000000000000000000000000000000000000000000000000000000000000000000000000000000000000000000000000000000000000000000000000000003
310
00000000000000000000000000000000000000000000000000000000000000000003030303030303030303030303030303030303030303030303030303030303030303030303030303030303030303030300000000000000000000000000000000000000000000000000000000000000000003000000000000000000000000
310
00000000000000000000000000000000000000000000000000000000000000000000000000000000000000000000000000000000000000000300000000000000000000000000000000000000000000000000000003030303030303030303030303030303030303030303030303030303030303030303030303030303030303
310
03030303030303030007000000000000000000000000000000000000000000000000000000000000000000000300000000000000000000000000000000000000000000000000000000000000000000000000000000000000000000000000000000000000000000000000000000000000000300000000000000000000000000
310
00000000000000000000000000000300030000000303000300000300000000000000000003000000000000000000000300000000000000000000000300000300030000000000000000000000000000000000000000000000000000000000000000000000000300000000000000000000000000000000000000000000000000
310
000000000000000000000000000000000000000000000000000000000000000000000000000000000000000300000000000000000000000000000000000000000000000000000003000E0000000303000300000300000000000000000003000000000000000000000300000000000000000000000300000300030000000000
310
00000000000000000000000000000000000000000000000000000000000000030000000000000000000000000000000000000000000000000000000000000000000000000000000000000000000000000000000000000000000000000000000000000000030000000000000000000000000000000000000000000000000000
310
00030000000000030300030000030000000000000000000300000000000000000000030000000000000000000000030000030003000000000000000000000000000000000000000000000000000000000000000000000000030000000000000000000000000000000000000000000000000000000000000000000000000000
310
0000000000000000000000000000000000000000000000000000000000000300000000000000000000000000000000000000000000000000000003000E000000030300030000030000000000000000000300000000000000000000030000000000000000000000030000030003000000000000000000000000000000000000
310
00000000000000000000000000000000000003000000000000000000000000000000000000000000000000000000000000000000000000000000000000000000000000000000000000000000000000000000000000000003000000000000000000000000000000000000000000000000000000030003000000030300030000
310
03000000000000000000030000000000000000000003000000000000000000000003000003000300000000000000000000000000000000000000000000000000000000000000000000000003000000000000000000000000000000000000000000000000000000000000000000000000000000000000000000000000000000
310
00000000000000000000000000000000000300000000000000000000000000000000000000000000000000000003030303030303030303030303030303030303030303030303030303030303030303030303030303030303030303030303030300070000000000000000000000000000000000000000000000000000000000
310
00000000000300000000000000000000000000000000000000000000000000000000000000000000000000000000000000000000000000000000000000000000000000000000000000000300000000000000000000000000000000000000000000000000000000000505000003030303030303030303030303030303030303
310
03030303030303030303030303030303030303030303030303030303030000000000000000000000000000000000000000000000000000000000000000000300000000000000000000000000000000000000000000000000000000000000000000000000000000000000000000000000000000000000000000000000000000
310
00000000030000000000000000000000000000000000000000000000000000000303030300000303030303030303030303030303030303030303030303030303030303030303030303030303030303030303030C07000000000000000000000000000000000000000000000000000000000000000000000300000000000000
310
000000000000000000000000000000000000000000000000000000000000000000000000000000000000000000000000000000000000000000000000000300000000000000000000000000000000000000000000000000000D0303030303030303000000000700000000000000000000000000000000000000070000000000
310
000000000000000A00000A0007000000000000000000000000000000000000000000000000000000000000000000000000030000000000000000000000000000000000000000000000000000000000000000000000000000000000000000000000000000000000000000000000000000000000000000030000000000000000
310
0000000000000000000000000000000000000B030303030303030300000000000000000000000000000000000000000000000000000000000000000000000000000000000000000000000000000000000000000000000000000000000000000000000000000000000000030000000000000000000000000000000000000000
310
00000000000000000000000000000000000000000000000000000000000000000000000000000000000000000000000003000000000000000000000000000000000000000000000000000000030609000000000000000000000000000000000000000000000000000000000000000000000000000000000000000000000000
310
00000000000000000000000000000000000000000000000000000000000000000000000103000000000000000000000000000000000000000000000000000000000000000000000000000000000000000000000000000000000000000000000000000000000000000003000000000000000000000000000000000000000000
310
0000000000000000000000000000000000000000000000000000000000000000000000000000000000000000000000000000000000000000000000000000000000000000000000000000000000000000000000000000000000000009030D000000000000000000000000000000000000000000000000000000000000000000
310
00000000000000000000000000000000000000000000000000000000000000000000000300000000000000000000000000000000000000000000000000000000000000000000000000000000000000000000000000000000000000000000000000000000000000000000000000000000000000000000000000000000000000
310
00000000000000000000000000000000000000000000030000000000000000000000000000000000000000000000000000000000000000000000000000000000000000000000000000000000000000000000000000000000000000000300000000000000000000000000000000000000000000000000000000000000000000
310
00000000000000000000000000000000000000000000000000000000000000000000000000000000000000000000000000000000000000000000000000000000000000000000000000000000000001030000000000000000000000000000000000000000000000000000000000000000000000000000000000000000000000
310
00000000000000000000000000000000000000000000000300000000000000000000000000000000000000000000000000000000000000000000000000000000000000000000000000000000000000000000000000000000000000000000000000000000000000000000000000000000000000000000000000000000000000
310
00000000000000000301000000000000000000000000000000000000000000000000000000000000000000000000000000000000000000000000000000000000000000000000000000000000000000000300000000000000000000000000000000000000000000000000000000000000000000000000000000000000000000
310
00000000000000000000000000000000000000000000000000000000000000000000000000000000000000000000000000000000000000000000000000000000010300000000000000000000000000000000000000000000000000000000000000000000000000000000000000000000000000000000000000000000000000
310
00000000000000000009030900000000000000000000000000000000000000000000000000000000000000000000000000000000000000000000000000000000000000000000000000000000000000000000000000000000000000000000000000000000000000000000000000000000000000000000000001030100000000
310
00000000000000000000000000000000000000000000000000000000000000000000000000000000000000000000000000000000000000000000000000000000000000030100000000000000000000000000000000000000000000000000000000000000000000000000000000000000000000000000000000000000000000
310
00000000000000000000000000000000000000000000000000000000000000000000000000000000000000000000000000000301000000000000000000000000000000000000000000000000000000000000000000000000000000000000000000000000000000000000000000000000000000000000000000000000010300
310
00000000000000000000000000000000000000000000000000000000000000000000000000000000000000000000000000000000000000000000000000000000000000000000000000000000000000000000000000000000000000000000000000000000000000000000000300000000000000000000000000000000000000
310
00000000000000000000000000000000000000000000000000000000000000000000000000000000000000000000000000000000000000030000000000000000000000000000000000000000000000000000000000000000000000000000000000000000000000000000000000000000000000000000000000000000000000
310
00000000000000000000000000000000000000000000000000000000000000000000000103000000000000000000000000000000000000000000000000000000000000000000000000000000000000000000000000000000000000000000000000000000000000000000000000000000030300000000000000000000000000
310
00000000000000000000000000000000000000000000000000000000000000000000000000000000000000000000000000000000000000000000000000000000000000000000000000000000000000000000000000000000000000000301000000000000000000000000000000000000000000000000000000000000000000
310
00000000000000000000000000000000000000000000000000000000000000000000000000000000000000030000000000000000000000000000000000000000000000000000000000000000000000000000000000000000000000000000000000000000000000000000000000000000000000000000000000000000000000
310
00000000000000000000000000000000000000010303000000000000000000000000000000000000000000000000000000000000000000000000000000000000000000000000000000000000000000000000000000000000000000000000000000000000000300000000000000000000000000000000000000000000000000
310
00000000000000000000000000000000000000000000000000000000000000000000000000000000000000000000000000000000000000000000000000000000000000000000000000000001030100000000000000000000000000000000000000000000000000000000000000000000000000000000000000000000000000
310
00000000000000000000000000000000000000000000000000000000000000030100000000000000000000000000000000000000000000000000000000000000000000000000000000000000000000000000000000000000000000000000000000000000000000000000000000000000000000000000000000000000000000
310
00090003030301000000000000000000000000000000000000000000000000000000000000000000000000000000000000000000000000000000000000000000000000000000000000000000000000000000000000000000010300000000000000000000000000000000000000000000000000000000000000000000000000
310
00000000000000000000000000000000000000000000000000000000000000000000000000000000000000000000000000000000000000010303030300000000000000000000000000000000000000000000000000000000000000000000000000000000000000000000000000000000000000000000000000000000000000
310
00000000000000000000000000000000000000030100000000000000000000000000000000000000000000000000000000000000000000000000000000000000000000000000000000000000000000000000000000000000000000000000000000000000000000000000000103030303030100090000000000000000000000
310
00000000000000000000000000000000000000000000000000000000000000000000000000000000000000000000000000000000000000000000000000000000000000000000000000000000010300000000000000000000000000000000000000000000000000000000000000000000000000000000000000000000000000
310
00000000000000000000000000000000000000000000000000000000000000000000000003030100000000000000000000000000000000000000000000000000000000000000000000000000000000000000000000000000000000000000000000000000000000000000000000000000000000000000000000000000000000
310
00000000000000000300000000000000000000000000000000000000000000000000000000000000000000000000000000000000000000000000000000000000000000000000000000000000000000000000000000000000000000010303000000000000000000000000000000000000000000000000000000000000000000
310
00000000000000000000000000000000000000000000000000000000000000000000000000000000000000000000000000000000000000000000000000000000000003000000000000000000000000000000000000000000000000000000000000000000000000000000000000000000000000000000000000000000000000
310
00000000000000000000000000000000000000000103010000000000000000000000000000000000000000000000000000000000000000000000000000000000000000000000000000000000000000000000000000000000000000000000000000000000000000000000000000000000000000000000000000000003030000
310
00000000000000000000000000000000000000000000000000000000000000000000000000000000000000000000000000000000000000000000000000000000000000000000000000000001030301000000000000000000000000000000000000000000000000000000000000000000000000000000000000000000000000
310
00000000000000000000000000000000000000000000000000000000000000000000000000000000000000000000000000000000000000030100000000000000000000000000000000000000000000000000000000000000000000000000000000000000000000000000000000000000000000000000000000000000000000
310
00000000010301000000000000000000000000000000000000000000000000000000000000000000000000000000000000000000000000000000000000000000000000000000000000000000000000000000000000000000000000000000000000000000000000000000000000000000010300000000000000000000000000
310
00000000000000000000000000000000000000000000000000000000000000000000000000000000000000000000000000000000000000000000000103030100000000000000000000000000000000000000000000000000000000000000000000000000000000000000000000000000000000000000000000000000000000
310
00000000000000000000000000000000000000000000000000000000000000000000000000000000000000000303010000000000000000000000000000000000000000000000000000000000000000000000000000000000000000000000000000000000000000000000000000000000000103030301000000000000000000
310
00000000000000000000000000000000000000000000000000000000000000000000000000000000000000000000000000000000000000000000000000000000000000000000000000000000000000000000000000000000000000000000000000000000000001030301000000000000000000000000000000000000000000
310
00000000000000000000000000000000000000000000000000000000000000000000000000000003030303030100000000000000000000000000000000000000000000000000000000000000000000000000000000000000000000000000000000000000000000000000000000000000000000000000000000000000000000
310
00000000000000000000000000000000000000000000000000000000000000000000010301000000000000000000000000000000000000000000000000000000000000000000000000000000000000000000000000030303030303030303030303000000000000000000000000000000000000000000000000000000000000
310
00000000000000000000000000000000000000000000000000000000000000000000000000000000000000000000000000000000000000000000000000000000000000000000000000000000000000000000000000000000000000000103030300000000000000000000000000000000000000000000000000000000000000
310
01030303030303030303030303030300000000000000000000000000000000000000000000000000000000000000000000000000000000000000000000000000000000000000000000000000000000000000000000000000000000000000000000000000000000000000000000000000000000000000000000000000000000
310
00000000000000000000000000000000000000000000000000030303030000000000000000000000000000000303030303030303030303030303010000000000000000000000000000000000000000000000000000000000000000000000000000000000000000000000000000000000000000000000000000000000000000
310
00000000000000000000000000000000000000000000000000000000000000000000000000000000000000000000000000000000000000000000000000000000000000000000000000000000000000000000000000000303030303030300030303030303030300000000000000000000000000000000000000000000000000
310
00000000000000000000000000000000000000000000000000000000000000000000000000000000000000000000000000000000000000000000000000000000000000000000000000000000000000000000000000000000000000000000000000000000000000000000000000000000000000000000000000000000000000
310
00000000000000000000000000000000000000000000000000000000000000000000000000000000000000000000000000000000000000000000000000000000000000000000000000000000000000000000000000000000000000000000000000000000000000000000000000000000000000000000000000000000000000
310
000000000000000000000000000000000000
  0
ENDSEC
  0
EOF
