  0
SECTION
  2
HEADER
  9
$ACADVER
  1
AC1027
  9
$ACADMAINTVER
 70
   125
  9
$DWGCODEPAGE
  3
ANSI_1252
  9
$SUBJECT
  1
MicroStation
  9
$AUTHOR
  1
WAEngineering2
  9
$LASTSAVEDBY
  1
WAEngineering2
  9
$REQUIREDVERSIONS
160
                 0
  9
$INSBASE
 10
0.0
 20
0.0
 30
0.0
  9
$EXTMIN
 10
579.9
 20
675.5
 30
0.0
  9
$EXTMAX
 10
7496.0
 20
4527.6
 30
0.0
  9
$LIMMIN
 10
-11795.067858
 20
-13231.467858
  9
$LIMMAX
 10
19870.967858
 20
18434.567858
  9
$ORTHOMODE
 70
     0
  9
$REGENMODE
 70
     1
  9
$FILLMODE
 70
     1
  9
$QTEXTMODE
 70
     0
  9
$MIRRTEXT
 70
     0
  9
$LTSCALE
 40
1.0
  9
$ATTMODE
 70
     1
  9
$TEXTSIZE
 40
3.0
  9
$TRACEWID
 40
0.05
  9
$TEXTSTYLE
  7
Standard
  9
$CLAYER
  8
0
  9
$CELTYPE
  6
Continuous
  9
$CECOLOR
 62
     3
  9
$CELTSCALE
 40
1.0
  9
$DISPSILH
 70
     0
  9
$DIMSCALE
 40
1.0
  9
$DIMASZ
 40
3.0
  9
$DIMEXO
 40
1.5
  9
$DIMDLI
 40
0.0
  9
$DIMRND
 40
0.0
  9
$DIMDLE
 40
0.0
  9
$DIMEXE
 40
1.5
  9
$DIMTP
 40
0.0
  9
$DIMTM
 40
0.0
  9
$DIMTXT
 40
3.0
  9
$DIMCEN
 40
2.0
  9
$DIMTSZ
 40
0.0
  9
$DIMTOL
 70
     0
  9
$DIMLIM
 70
     0
  9
$DIMTIH
 70
     0
  9
$DIMTOH
 70
     0
  9
$DIMSE1
 70
     0
  9
$DIMSE2
 70
     0
  9
$DIMTAD
 70
     1
  9
$DIMZIN
 70
    11
  9
$DIMBLK
  1

  9
$DIMASO
 70
     1
  9
$DIMSHO
 70
     1
  9
$DIMPOST
  1

  9
$DIMAPOST
  1

  9
$DIMALT
 70
     0
  9
$DIMALTD
 70
     4
  9
$DIMALTF
 40
0.000001
  9
$DIMLFAC
 40
1.0
  9
$DIMTOFL
 70
     0
  9
$DIMTVP
 40
0.0
  9
$DIMTIX
 70
     0
  9
$DIMSOXD
 70
     0
  9
$DIMSAH
 70
     0
  9
$DIMBLK1
  1

  9
$DIMBLK2
  1

  9
$DIMSTYLE
  2
Standard
  9
$DIMCLRD
 70
     0
  9
$DIMCLRE
 70
     0
  9
$DIMCLRT
 70
     0
  9
$DIMTFAC
 40
1.0
  9
$DIMGAP
 40
1.5
  9
$DIMJUST
 70
     0
  9
$DIMSD1
 70
     0
  9
$DIMSD2
 70
     0
  9
$DIMTOLJ
 70
     1
  9
$DIMTZIN
 70
    11
  9
$DIMALTZ
 70
    15
  9
$DIMALTTZ
 70
    15
  9
$DIMUPT
 70
     0
  9
$DIMDEC
 70
     1
  9
$DIMTDEC
 70
     0
  9
$DIMALTU
 70
     2
  9
$DIMALTTD
 70
     0
  9
$DIMTXSTY
  7
Style-INTL_ISO
  9
$DIMAUNIT
 70
     0
  9
$DIMADEC
 70
     0
  9
$DIMALTRND
 40
0.0
  9
$DIMAZIN
 70
     3
  9
$DIMDSEP
 70
     0
  9
$DIMATFIT
 70
     1
  9
$DIMFRAC
 70
     2
  9
$DIMLDRBLK
  1

  9
$DIMLUNIT
 70
     2
  9
$DIMLWD
 70
    -2
  9
$DIMLWE
 70
    -2
  9
$DIMTMOVE
 70
     0
  9
$DIMFXL
 40
1.0
  9
$DIMFXLON
 70
     0
  9
$DIMJOGANG
 40
0.785398
  9
$DIMTFILL
 70
     0
  9
$DIMTFILLCLR
 70
     0
  9
$DIMARCSYM
 70
     0
  9
$DIMLTYPE
  6
ByBlock
  9
$DIMLTEX1
  6
ByBlock
  9
$DIMLTEX2
  6
ByBlock
  9
$DIMTXTDIRECTION
 70
     0
  9
$LUNITS
 70
     2
  9
$LUPREC
 70
     1
  9
$SKETCHINC
 40
0.1
  9
$FILLETRAD
 40
0.0
  9
$AUNITS
 70
     0
  9
$AUPREC
 70
     0
  9
$MENU
  1
.
  9
$ELEVATION
 40
0.0
  9
$PELEVATION
 40
0.0
  9
$THICKNESS
 40
0.0
  9
$LIMCHECK
 70
     0
  9
$CHAMFERA
 40
0.0
  9
$CHAMFERB
 40
0.0
  9
$CHAMFERC
 40
0.0
  9
$CHAMFERD
 40
0.0
  9
$SKPOLY
 70
     0
  9
$TDCREATE
 40
2454145.111354167
  9
$TDUCREATE
 40
2454144.778024017
  9
$TDUPDATE
 40
2458045.399039352
  9
$TDUUPDATE
 40
2458045.065706019
  9
$TDINDWG
 40
0.0055034144
  9
$TDUSRTIMER
 40
0.0055032292
  9
$USRTIMER
 70
     1
  9
$ANGBASE
 50
0.0
  9
$ANGDIR
 70
     0
  9
$PDMODE
 70
     0
  9
$PDSIZE
 40
0.0
  9
$PLINEWID
 40
0.0
  9
$SPLFRAME
 70
     0
  9
$SPLINETYPE
 70
     6
  9
$SPLINESEGS
 70
     8
  9
$HANDSEED
  5
13F25
  9
$SURFTAB1
 70
     6
  9
$SURFTAB2
 70
     6
  9
$SURFTYPE
 70
     6
  9
$SURFU
 70
     6
  9
$SURFV
 70
     6
  9
$UCSBASE
  2

  9
$UCSNAME
  2

  9
$UCSORG
 10
0.0
 20
0.0
 30
0.0
  9
$UCSXDIR
 10
1.0
 20
0.0
 30
0.0
  9
$UCSYDIR
 10
0.0
 20
1.0
 30
0.0
  9
$UCSORTHOREF
  2

  9
$UCSORTHOVIEW
 70
     0
  9
$UCSORGTOP
 10
0.0
 20
0.0
 30
0.0
  9
$UCSORGBOTTOM
 10
0.0
 20
0.0
 30
0.0
  9
$UCSORGLEFT
 10
0.0
 20
0.0
 30
0.0
  9
$UCSORGRIGHT
 10
0.0
 20
0.0
 30
0.0
  9
$UCSORGFRONT
 10
0.0
 20
0.0
 30
0.0
  9
$UCSORGBACK
 10
0.0
 20
0.0
 30
0.0
  9
$PUCSBASE
  2

  9
$PUCSNAME
  2

  9
$PUCSORG
 10
0.0
 20
0.0
 30
0.0
  9
$PUCSXDIR
 10
1.0
 20
0.0
 30
0.0
  9
$PUCSYDIR
 10
0.0
 20
1.0
 30
0.0
  9
$PUCSORTHOREF
  2

  9
$PUCSORTHOVIEW
 70
     0
  9
$PUCSORGTOP
 10
0.0
 20
0.0
 30
0.0
  9
$PUCSORGBOTTOM
 10
0.0
 20
0.0
 30
0.0
  9
$PUCSORGLEFT
 10
0.0
 20
0.0
 30
0.0
  9
$PUCSORGRIGHT
 10
0.0
 20
0.0
 30
0.0
  9
$PUCSORGFRONT
 10
0.0
 20
0.0
 30
0.0
  9
$PUCSORGBACK
 10
0.0
 20
0.0
 30
0.0
  9
$USERI1
 70
     0
  9
$USERI2
 70
     0
  9
$USERI3
 70
     0
  9
$USERI4
 70
     0
  9
$USERI5
 70
     0
  9
$USERR1
 40
0.0
  9
$USERR2
 40
0.0
  9
$USERR3
 40
0.0
  9
$USERR4
 40
0.0
  9
$USERR5
 40
0.0
  9
$WORLDVIEW
 70
     1
  9
$SHADEDGE
 70
     3
  9
$SHADEDIF
 70
    70
  9
$TILEMODE
 70
     1
  9
$MAXACTVP
 70
    64
  9
$PINSBASE
 10
0.0
 20
0.0
 30
0.0
  9
$PLIMCHECK
 70
     0
  9
$PEXTMIN
 10
1.05
 20
0.8
 30
0.0
  9
$PEXTMAX
 10
9.45
 20
7.2
 30
0.0
  9
$PLIMMIN
 10
-0.25
 20
-0.25
  9
$PLIMMAX
 10
10.75
 20
8.25
  9
$UNITMODE
 70
     0
  9
$VISRETAIN
 70
     1
  9
$PLINEGEN
 70
     0
  9
$PSLTSCALE
 70
     0
  9
$TREEDEPTH
 70
  3020
  9
$CMLSTYLE
  2
Standard
  9
$CMLJUST
 70
     0
  9
$CMLSCALE
 40
1.0
  9
$PROXYGRAPHICS
 70
     1
  9
$MEASUREMENT
 70
     0
  9
$CELWEIGHT
370
     0
  9
$ENDCAPS
280
     0
  9
$JOINSTYLE
280
     0
  9
$LWDISPLAY
290
     1
  9
$INSUNITS
 70
     4
  9
$HYPERLINKBASE
  1

  9
$STYLESHEET
  1

  9
$XEDIT
290
     1
  9
$CEPSNTYPE
380
     0
  9
$PSTYLEMODE
290
     1
  9
$FINGERPRINTGUID
  2
{E23D04B0-65F6-4E44-98AF-1232F2E62EDD}
  9
$VERSIONGUID
  2
{38E7CD85-556C-4D6E-9C4C-B935CE7E055D}
  9
$EXTNAMES
290
     1
  9
$PSVPSCALE
 40
0.0
  9
$OLESTARTUP
290
     0
  9
$SORTENTS
280
   127
  9
$INDEXCTL
280
     0
  9
$HIDETEXT
280
     1
  9
$XCLIPFRAME
280
     0
  9
$HALOGAP
280
     0
  9
$OBSCOLOR
 70
   257
  9
$OBSLTYPE
280
     0
  9
$INTERSECTIONDISPLAY
280
     0
  9
$INTERSECTIONCOLOR
 70
   257
  9
$DIMASSOC
280
     2
  9
$PROJECTNAME
  1

  9
$CAMERADISPLAY
290
     0
  9
$LENSLENGTH
 40
50.0
  9
$CAMERAHEIGHT
 40
0.0
  9
$STEPSPERSEC
 40
2.0
  9
$STEPSIZE
 40
6.0
  9
$3DDWFPREC
 40
2.0
  9
$PSOLWIDTH
 40
0.25
  9
$PSOLHEIGHT
 40
4.0
  9
$LOFTANG1
 40
1.570796
  9
$LOFTANG2
 40
1.570796
  9
$LOFTMAG1
 40
0.0
  9
$LOFTMAG2
 40
0.0
  9
$LOFTPARAM
 70
     7
  9
$LOFTNORMALS
280
     1
  9
$LATITUDE
 40
37.795
  9
$LONGITUDE
 40
-122.394
  9
$NORTHDIRECTION
 40
0.0
  9
$TIMEZONE
 70
 -8000
  9
$LIGHTGLYPHDISPLAY
280
     1
  9
$TILEMODELIGHTSYNCH
280
     1
  9
$CMATERIAL
347
13D86
  9
$SOLIDHIST
280
     1
  9
$SHOWHIST
280
     1
  9
$DWFFRAME
280
     2
  9
$DGNFRAME
280
     0
  9
$REALWORLDSCALE
290
     1
  9
$INTERFERECOLOR
 62
     1
  9
$INTERFEREOBJVS
345
13DAE
  9
$INTERFEREVPVS
346
13DAF
  9
$CSHADOW
280
     0
  9
$SHADOWPLANELOCATION
 40
0.0
  0
ENDSEC
  0
SECTION
  2
CLASSES
  0
CLASS
  1
ACDBDICTIONARYWDFLT
  2
AcDbDictionaryWithDefault
  3
ObjectDBX Classes
 90
        0
 91
        1
280
     0
281
     0
  0
CLASS
  1
DICTIONARYVAR
  2
AcDbDictionaryVar
  3
ObjectDBX Classes
 90
        0
 91
        9
280
     0
281
     0
  0
CLASS
  1
TABLESTYLE
  2
AcDbTableStyle
  3
ObjectDBX Classes
 90
     4095
 91
        1
280
     0
281
     0
  0
CLASS
  1
MATERIAL
  2
AcDbMaterial
  3
ObjectDBX Classes
 90
     1153
 91
        4
280
     0
281
     0
  0
CLASS
  1
VISUALSTYLE
  2
AcDbVisualStyle
  3
ObjectDBX Classes
 90
     4095
 91
        3
280
     0
281
     0
  0
CLASS
  1
SCALE
  2
AcDbScale
  3
ObjectDBX Classes
 90
     1153
 91
       33
280
     0
281
     0
  0
CLASS
  1
MLEADERSTYLE
  2
AcDbMLeaderStyle
  3
ACDB_MLEADERSTYLE_CLASS
 90
     4095
 91
        1
280
     0
281
     0
  0
CLASS
  1
EXACXREFPANELOBJECT
  2
ExAcXREFPanelObject
  3
EXAC_ESW
 90
     1025
 91
        0
280
     1
281
     0
  0
CLASS
  1
NPOCOLLECTION
  2
AcDbImpNonPersistentObjectsCollection
  3
ObjectDBX Classes
 90
     1153
 91
        0
280
     0
281
     0
  0
CLASS
  1
CELLSTYLEMAP
  2
AcDbCellStyleMap
  3
ObjectDBX Classes
 90
     1152
 91
        1
280
     0
281
     0
  0
CLASS
  1
ACDBSECTIONVIEWSTYLE
  2
AcDbSectionViewStyle
  3
ObjectDBX Classes
 90
     1025
 91
        0
280
     0
281
     0
  0
CLASS
  1
ACDBDETAILVIEWSTYLE
  2
AcDbDetailViewStyle
  3
ObjectDBX Classes
 90
     1025
 91
        0
280
     0
281
     0
  0
CLASS
  1
SORTENTSTABLE
  2
AcDbSortentsTable
  3
ObjectDBX Classes
 90
        0
 91
        2
280
     0
281
     0
  0
ENDSEC
  0
SECTION
  2
TABLES
  0
TABLE
  2
VPORT
  5
13D7A
330
0
100
AcDbSymbolTable
 70
     2
1001
ACAD
1000
DbSaveVer
1071
      253
  0
VPORT
  5
4B
330
13D7A
100
AcDbSymbolTableRecord
100
AcDbViewportTableRecord
  2
*ACTIVE
 70
     0
 10
0.0
 20
0.0
 11
1.0
 21
1.0
 12
5620.92159
 22
1653.349809
 13
0.0
 23
0.0
 14
100000.0
 24
100000.0
 15
100000.0
 25
100000.0
 16
0.0
 26
0.0
 36
1.0
 17
0.0
 27
0.0
 37
0.0
 40
7010.64
 41
2.442283
 42
50.0
 43
0.0
 44
0.0
 50
0.0
 51
0.0
 71
     0
 72
 20000
 73
     1
 74
     1
 75
     0
 76
     0
 77
     0
 78
     1
281
     0
 65
     1
110
0.0
120
0.0
130
0.0
111
1.0
121
0.0
131
0.0
112
0.0
122
1.0
132
0.0
 79
     0
146
0.0
 60
     3
 61
     1
292
     0
282
     1
141
0.0
142
0.0
 63
     7
421
 16777215
  0
ENDTAB
  0
TABLE
  2
LTYPE
  5
13D75
330
0
100
AcDbSymbolTable
 70
     2
  0
LTYPE
  5
13D76
330
13D75
100
AcDbSymbolTableRecord
100
AcDbLinetypeTableRecord
  2
ByBlock
 70
     0
  3

 72
    65
 73
     0
 40
0.0
  0
LTYPE
  5
13D77
330
13D75
100
AcDbSymbolTableRecord
100
AcDbLinetypeTableRecord
  2
ByLayer
 70
     0
  3

 72
    65
 73
     0
 40
0.0
  0
LTYPE
  5
13D45
330
13D75
100
AcDbSymbolTableRecord
100
AcDbLinetypeTableRecord
  2
Continuous
 70
     0
  3
Solid line
 72
    65
 73
     0
 40
0.0
  0
LTYPE
  5
13F18
330
13D75
100
AcDbSymbolTableRecord
100
AcDbLinetypeTableRecord
  2
DGN Style 2
 70
     0
  3
Dgn Style 2
 72
    65
 73
     2
 40
171.219651
 49
102.731791
 74
     0
 49
-68.487861
 74
     0
  0
ENDTAB
  0
TABLE
  2
LAYER
  5
13D6D
102
{ACAD_XDICTIONARY
360
13D6E
102
}
330
0
100
AcDbSymbolTable
 70
   325
  0
LAYER
  5
13D36
102
{ACAD_XDICTIONARY
360
13D37
102
}
330
13D6D
100
AcDbSymbolTableRecord
100
AcDbLayerTableRecord
  2
0
 70
     0
 62
     3
  6
Continuous
370
    -3
390
13D39
347
13D3C
348
0
1001
AcCmTransparency
1071
 33554687
  0
LAYER
  5
13DA4
330
13D6D
100
AcDbSymbolTableRecord
100
AcDbLayerTableRecord
  2
Level 1
 70
     0
 62
     7
  6
Continuous
370
     0
390
13D39
347
13D3C
348
0
1001
AcCmTransparency
1071
 33554687
  0
LAYER
  5
13D48
330
13D6D
100
AcDbSymbolTableRecord
100
AcDbLayerTableRecord
  2
Level 2
 70
     0
 62
     7
  6
Continuous
370
     0
390
13D39
347
13D3C
348
0
1001
AcCmTransparency
1071
 33554687
  0
LAYER
  5
13DD1
330
13D6D
100
AcDbSymbolTableRecord
100
AcDbLayerTableRecord
  2
A!|Level 1
 70
    16
 62
     7
  6
Continuous
370
     0
390
13D39
347
13D3C
348
0
1001
AcCmTransparency
1071
 33554687
  0
LAYER
  5
13DD2
330
13D6D
100
AcDbSymbolTableRecord
100
AcDbLayerTableRecord
  2
A!|Level 2
 70
    16
 62
     7
  6
Continuous
370
     0
390
13D39
347
13D3C
348
0
1001
AcCmTransparency
1071
 33554687
  0
LAYER
  5
13DD3
330
13D6D
100
AcDbSymbolTableRecord
100
AcDbLayerTableRecord
  2
A!|Level 3
 70
    16
 62
     7
  6
Continuous
370
     0
390
13D39
347
13D3C
348
0
1001
AcCmTransparency
1071
 33554687
  0
LAYER
  5
13DD4
330
13D6D
100
AcDbSymbolTableRecord
100
AcDbLayerTableRecord
  2
A!|Level 4
 70
    16
 62
     7
  6
Continuous
370
     0
390
13D39
347
13D3C
348
0
1001
AcCmTransparency
1071
 33554687
  0
LAYER
  5
13DD5
330
13D6D
100
AcDbSymbolTableRecord
100
AcDbLayerTableRecord
  2
A!|Level 5
 70
    16
 62
     7
  6
Continuous
370
     0
390
13D39
347
13D3C
348
0
1001
AcCmTransparency
1071
 33554687
  0
LAYER
  5
13DD6
330
13D6D
100
AcDbSymbolTableRecord
100
AcDbLayerTableRecord
  2
A!|Level 6
 70
    16
 62
     7
  6
Continuous
370
     0
390
13D39
347
13D3C
348
0
1001
AcCmTransparency
1071
 33554687
  0
LAYER
  5
13DD7
330
13D6D
100
AcDbSymbolTableRecord
100
AcDbLayerTableRecord
  2
A!|Level 7
 70
    16
 62
     7
  6
Continuous
370
     0
390
13D39
347
13D3C
348
0
1001
AcCmTransparency
1071
 33554687
  0
LAYER
  5
13DD8
330
13D6D
100
AcDbSymbolTableRecord
100
AcDbLayerTableRecord
  2
A!|Level 8
 70
    16
 62
     7
  6
Continuous
370
     0
390
13D39
347
13D3C
348
0
1001
AcCmTransparency
1071
 33554687
  0
LAYER
  5
13DD9
330
13D6D
100
AcDbSymbolTableRecord
100
AcDbLayerTableRecord
  2
A!|Level 9
 70
    16
 62
     7
  6
Continuous
370
     0
390
13D39
347
13D3C
348
0
1001
AcCmTransparency
1071
 33554687
  0
LAYER
  5
13DDA
330
13D6D
100
AcDbSymbolTableRecord
100
AcDbLayerTableRecord
  2
A!|Level 10
 70
    16
 62
     7
  6
Continuous
370
     0
390
13D39
347
13D3C
348
0
1001
AcCmTransparency
1071
 33554687
  0
LAYER
  5
13DDB
330
13D6D
100
AcDbSymbolTableRecord
100
AcDbLayerTableRecord
  2
A!|Level 11
 70
    16
 62
     7
  6
Continuous
370
     0
390
13D39
347
13D3C
348
0
1001
AcCmTransparency
1071
 33554687
  0
LAYER
  5
13DDC
330
13D6D
100
AcDbSymbolTableRecord
100
AcDbLayerTableRecord
  2
A!|Level 12
 70
    16
 62
     7
  6
Continuous
370
     0
390
13D39
347
13D3C
348
0
1001
AcCmTransparency
1071
 33554687
  0
LAYER
  5
13DDD
330
13D6D
100
AcDbSymbolTableRecord
100
AcDbLayerTableRecord
  2
A!|Level 13
 70
    16
 62
     7
  6
Continuous
370
     0
390
13D39
347
13D3C
348
0
1001
AcCmTransparency
1071
 33554687
  0
LAYER
  5
13DDE
330
13D6D
100
AcDbSymbolTableRecord
100
AcDbLayerTableRecord
  2
A!|Level 14
 70
    16
 62
     7
  6
Continuous
370
     0
390
13D39
347
13D3C
348
0
1001
AcCmTransparency
1071
 33554687
  0
LAYER
  5
13DDF
330
13D6D
100
AcDbSymbolTableRecord
100
AcDbLayerTableRecord
  2
A!|Level 15
 70
    16
 62
     7
  6
Continuous
370
     0
390
13D39
347
13D3C
348
0
1001
AcCmTransparency
1071
 33554687
  0
LAYER
  5
13DE0
330
13D6D
100
AcDbSymbolTableRecord
100
AcDbLayerTableRecord
  2
A!|Level 16
 70
    16
 62
     7
  6
Continuous
370
     0
390
13D39
347
13D3C
348
0
1001
AcCmTransparency
1071
 33554687
  0
LAYER
  5
13DE1
330
13D6D
100
AcDbSymbolTableRecord
100
AcDbLayerTableRecord
  2
A!|Level 17
 70
    16
 62
     7
  6
Continuous
370
     0
390
13D39
347
13D3C
348
0
1001
AcCmTransparency
1071
 33554687
  0
LAYER
  5
13DE2
330
13D6D
100
AcDbSymbolTableRecord
100
AcDbLayerTableRecord
  2
A!|Level 18
 70
    16
 62
     7
  6
Continuous
370
     0
390
13D39
347
13D3C
348
0
1001
AcCmTransparency
1071
 33554687
  0
LAYER
  5
13DE3
330
13D6D
100
AcDbSymbolTableRecord
100
AcDbLayerTableRecord
  2
A!|Level 19
 70
    16
 62
     7
  6
Continuous
370
     0
390
13D39
347
13D3C
348
0
1001
AcCmTransparency
1071
 33554687
  0
LAYER
  5
13DE4
330
13D6D
100
AcDbSymbolTableRecord
100
AcDbLayerTableRecord
  2
A!|Level 20
 70
    16
 62
     7
  6
Continuous
370
     0
390
13D39
347
13D3C
348
0
1001
AcCmTransparency
1071
 33554687
  0
LAYER
  5
13DE5
330
13D6D
100
AcDbSymbolTableRecord
100
AcDbLayerTableRecord
  2
A!|Level 21
 70
    16
 62
     7
  6
Continuous
370
     0
390
13D39
347
13D3C
348
0
1001
AcCmTransparency
1071
 33554687
  0
LAYER
  5
13DE6
330
13D6D
100
AcDbSymbolTableRecord
100
AcDbLayerTableRecord
  2
A!|Level 22
 70
    16
 62
     7
  6
Continuous
370
     0
390
13D39
347
13D3C
348
0
1001
AcCmTransparency
1071
 33554687
  0
LAYER
  5
13DE7
330
13D6D
100
AcDbSymbolTableRecord
100
AcDbLayerTableRecord
  2
A!|Level 23
 70
    16
 62
     7
  6
Continuous
370
     0
390
13D39
347
13D3C
348
0
1001
AcCmTransparency
1071
 33554687
  0
LAYER
  5
13DE8
330
13D6D
100
AcDbSymbolTableRecord
100
AcDbLayerTableRecord
  2
A!|Level 24
 70
    16
 62
     7
  6
Continuous
370
     0
390
13D39
347
13D3C
348
0
1001
AcCmTransparency
1071
 33554687
  0
LAYER
  5
13DE9
330
13D6D
100
AcDbSymbolTableRecord
100
AcDbLayerTableRecord
  2
A!|Level 25
 70
    16
 62
     7
  6
Continuous
370
     0
390
13D39
347
13D3C
348
0
1001
AcCmTransparency
1071
 33554687
  0
LAYER
  5
13DEA
330
13D6D
100
AcDbSymbolTableRecord
100
AcDbLayerTableRecord
  2
A!|Level 26
 70
    16
 62
     7
  6
Continuous
370
     0
390
13D39
347
13D3C
348
0
1001
AcCmTransparency
1071
 33554687
  0
LAYER
  5
13DEB
330
13D6D
100
AcDbSymbolTableRecord
100
AcDbLayerTableRecord
  2
A!|Level 27
 70
    16
 62
     7
  6
Continuous
370
     0
390
13D39
347
13D3C
348
0
1001
AcCmTransparency
1071
 33554687
  0
LAYER
  5
13DEC
330
13D6D
100
AcDbSymbolTableRecord
100
AcDbLayerTableRecord
  2
A!|Level 28
 70
    16
 62
     7
  6
Continuous
370
     0
390
13D39
347
13D3C
348
0
1001
AcCmTransparency
1071
 33554687
  0
LAYER
  5
13DED
330
13D6D
100
AcDbSymbolTableRecord
100
AcDbLayerTableRecord
  2
A!|Level 29
 70
    16
 62
     7
  6
Continuous
370
     0
390
13D39
347
13D3C
348
0
1001
AcCmTransparency
1071
 33554687
  0
LAYER
  5
13DEE
330
13D6D
100
AcDbSymbolTableRecord
100
AcDbLayerTableRecord
  2
A!|Level 30
 70
    16
 62
     7
  6
Continuous
370
     0
390
13D39
347
13D3C
348
0
1001
AcCmTransparency
1071
 33554687
  0
LAYER
  5
13DEF
330
13D6D
100
AcDbSymbolTableRecord
100
AcDbLayerTableRecord
  2
A!|Level 31
 70
    16
 62
     7
  6
Continuous
370
     0
390
13D39
347
13D3C
348
0
1001
AcCmTransparency
1071
 33554687
  0
LAYER
  5
13DF0
330
13D6D
100
AcDbSymbolTableRecord
100
AcDbLayerTableRecord
  2
A!|Level 32
 70
    16
 62
     7
  6
Continuous
370
     0
390
13D39
347
13D3C
348
0
1001
AcCmTransparency
1071
 33554687
  0
LAYER
  5
13DF1
330
13D6D
100
AcDbSymbolTableRecord
100
AcDbLayerTableRecord
  2
A!|Level 33
 70
    16
 62
     7
  6
Continuous
370
     0
390
13D39
347
13D3C
348
0
1001
AcCmTransparency
1071
 33554687
  0
LAYER
  5
13DF2
330
13D6D
100
AcDbSymbolTableRecord
100
AcDbLayerTableRecord
  2
A!|Level 34
 70
    16
 62
     7
  6
Continuous
370
     0
390
13D39
347
13D3C
348
0
1001
AcCmTransparency
1071
 33554687
  0
LAYER
  5
13DF3
330
13D6D
100
AcDbSymbolTableRecord
100
AcDbLayerTableRecord
  2
A!|Level 35
 70
    16
 62
     7
  6
Continuous
370
     0
390
13D39
347
13D3C
348
0
1001
AcCmTransparency
1071
 33554687
  0
LAYER
  5
13DF4
330
13D6D
100
AcDbSymbolTableRecord
100
AcDbLayerTableRecord
  2
A!|Level 36
 70
    16
 62
     7
  6
Continuous
370
     0
390
13D39
347
13D3C
348
0
1001
AcCmTransparency
1071
 33554687
  0
LAYER
  5
13DF5
330
13D6D
100
AcDbSymbolTableRecord
100
AcDbLayerTableRecord
  2
A!|Level 37
 70
    16
 62
     7
  6
Continuous
370
     0
390
13D39
347
13D3C
348
0
1001
AcCmTransparency
1071
 33554687
  0
LAYER
  5
13DF6
330
13D6D
100
AcDbSymbolTableRecord
100
AcDbLayerTableRecord
  2
A!|Level 38
 70
    16
 62
     7
  6
Continuous
370
     0
390
13D39
347
13D3C
348
0
1001
AcCmTransparency
1071
 33554687
  0
LAYER
  5
13DF7
330
13D6D
100
AcDbSymbolTableRecord
100
AcDbLayerTableRecord
  2
A!|Level 39
 70
    16
 62
     7
  6
Continuous
370
     0
390
13D39
347
13D3C
348
0
1001
AcCmTransparency
1071
 33554687
  0
LAYER
  5
13DF8
330
13D6D
100
AcDbSymbolTableRecord
100
AcDbLayerTableRecord
  2
A!|Level 40
 70
    16
 62
     7
  6
Continuous
370
     0
390
13D39
347
13D3C
348
0
1001
AcCmTransparency
1071
 33554687
  0
LAYER
  5
13DF9
330
13D6D
100
AcDbSymbolTableRecord
100
AcDbLayerTableRecord
  2
A!|Level 41
 70
    16
 62
     7
  6
Continuous
370
     0
390
13D39
347
13D3C
348
0
1001
AcCmTransparency
1071
 33554687
  0
LAYER
  5
13DFA
330
13D6D
100
AcDbSymbolTableRecord
100
AcDbLayerTableRecord
  2
A!|Level 42
 70
    16
 62
     7
  6
Continuous
370
     0
390
13D39
347
13D3C
348
0
1001
AcCmTransparency
1071
 33554687
  0
LAYER
  5
13DFB
330
13D6D
100
AcDbSymbolTableRecord
100
AcDbLayerTableRecord
  2
A!|Level 43
 70
    16
 62
     7
  6
Continuous
370
     0
390
13D39
347
13D3C
348
0
1001
AcCmTransparency
1071
 33554687
  0
LAYER
  5
13DFC
330
13D6D
100
AcDbSymbolTableRecord
100
AcDbLayerTableRecord
  2
A!|Level 44
 70
    16
 62
     7
  6
Continuous
370
     0
390
13D39
347
13D3C
348
0
1001
AcCmTransparency
1071
 33554687
  0
LAYER
  5
13DFD
330
13D6D
100
AcDbSymbolTableRecord
100
AcDbLayerTableRecord
  2
A!|Level 45
 70
    16
 62
     7
  6
Continuous
370
     0
390
13D39
347
13D3C
348
0
1001
AcCmTransparency
1071
 33554687
  0
LAYER
  5
13DFE
330
13D6D
100
AcDbSymbolTableRecord
100
AcDbLayerTableRecord
  2
A!|Level 46
 70
    16
 62
     7
  6
Continuous
370
     0
390
13D39
347
13D3C
348
0
1001
AcCmTransparency
1071
 33554687
  0
LAYER
  5
13DFF
330
13D6D
100
AcDbSymbolTableRecord
100
AcDbLayerTableRecord
  2
A!|Level 47
 70
    16
 62
     7
  6
Continuous
370
     0
390
13D39
347
13D3C
348
0
1001
AcCmTransparency
1071
 33554687
  0
LAYER
  5
13E00
330
13D6D
100
AcDbSymbolTableRecord
100
AcDbLayerTableRecord
  2
A!|Level 48
 70
    16
 62
     7
  6
Continuous
370
     0
390
13D39
347
13D3C
348
0
1001
AcCmTransparency
1071
 33554687
  0
LAYER
  5
13E01
330
13D6D
100
AcDbSymbolTableRecord
100
AcDbLayerTableRecord
  2
A!|Level 49
 70
    16
 62
     7
  6
Continuous
370
     0
390
13D39
347
13D3C
348
0
1001
AcCmTransparency
1071
 33554687
  0
LAYER
  5
13E02
330
13D6D
100
AcDbSymbolTableRecord
100
AcDbLayerTableRecord
  2
A!|Level 50
 70
    16
 62
     7
  6
Continuous
370
     0
390
13D39
347
13D3C
348
0
1001
AcCmTransparency
1071
 33554687
  0
LAYER
  5
13E03
330
13D6D
100
AcDbSymbolTableRecord
100
AcDbLayerTableRecord
  2
A!|Level 51
 70
    16
 62
     7
  6
Continuous
370
     0
390
13D39
347
13D3C
348
0
1001
AcCmTransparency
1071
 33554687
  0
LAYER
  5
13E04
330
13D6D
100
AcDbSymbolTableRecord
100
AcDbLayerTableRecord
  2
A!|Level 52
 70
    16
 62
     7
  6
Continuous
370
     0
390
13D39
347
13D3C
348
0
1001
AcCmTransparency
1071
 33554687
  0
LAYER
  5
13E05
330
13D6D
100
AcDbSymbolTableRecord
100
AcDbLayerTableRecord
  2
A!|Level 53
 70
    16
 62
     7
  6
Continuous
370
     0
390
13D39
347
13D3C
348
0
1001
AcCmTransparency
1071
 33554687
  0
LAYER
  5
13E06
330
13D6D
100
AcDbSymbolTableRecord
100
AcDbLayerTableRecord
  2
A!|Level 54
 70
    16
 62
     7
  6
Continuous
370
     0
390
13D39
347
13D3C
348
0
1001
AcCmTransparency
1071
 33554687
  0
LAYER
  5
13E07
330
13D6D
100
AcDbSymbolTableRecord
100
AcDbLayerTableRecord
  2
A!|Level 55
 70
    16
 62
     7
  6
Continuous
370
     0
390
13D39
347
13D3C
348
0
1001
AcCmTransparency
1071
 33554687
  0
LAYER
  5
13E08
330
13D6D
100
AcDbSymbolTableRecord
100
AcDbLayerTableRecord
  2
A!|Level 56
 70
    16
 62
     7
  6
Continuous
370
     0
390
13D39
347
13D3C
348
0
1001
AcCmTransparency
1071
 33554687
  0
LAYER
  5
13E09
330
13D6D
100
AcDbSymbolTableRecord
100
AcDbLayerTableRecord
  2
A!|Level 57
 70
    16
 62
     7
  6
Continuous
370
     0
390
13D39
347
13D3C
348
0
1001
AcCmTransparency
1071
 33554687
  0
LAYER
  5
13E0A
330
13D6D
100
AcDbSymbolTableRecord
100
AcDbLayerTableRecord
  2
A!|Level 58
 70
    16
 62
     7
  6
Continuous
370
     0
390
13D39
347
13D3C
348
0
1001
AcCmTransparency
1071
 33554687
  0
LAYER
  5
13E0B
330
13D6D
100
AcDbSymbolTableRecord
100
AcDbLayerTableRecord
  2
A!|Level 59
 70
    16
 62
     7
  6
Continuous
370
     0
390
13D39
347
13D3C
348
0
1001
AcCmTransparency
1071
 33554687
  0
LAYER
  5
13E0C
330
13D6D
100
AcDbSymbolTableRecord
100
AcDbLayerTableRecord
  2
A!|Level 60
 70
    16
 62
     7
  6
Continuous
370
     0
390
13D39
347
13D3C
348
0
1001
AcCmTransparency
1071
 33554687
  0
LAYER
  5
13E0D
330
13D6D
100
AcDbSymbolTableRecord
100
AcDbLayerTableRecord
  2
A!|Level 61
 70
    16
 62
     7
  6
Continuous
370
     0
390
13D39
347
13D3C
348
0
1001
AcCmTransparency
1071
 33554687
  0
LAYER
  5
13E0E
330
13D6D
100
AcDbSymbolTableRecord
100
AcDbLayerTableRecord
  2
A!|Level 62
 70
    16
 62
     7
  6
Continuous
370
     0
390
13D39
347
13D3C
348
0
1001
AcCmTransparency
1071
 33554687
  0
LAYER
  5
13E0F
330
13D6D
100
AcDbSymbolTableRecord
100
AcDbLayerTableRecord
  2
A!|Level 63
 70
    16
 62
     7
  6
Continuous
370
     0
390
13D39
347
13D3C
348
0
1001
AcCmTransparency
1071
 33554687
  0
LAYER
  5
13E10
330
13D6D
100
AcDbSymbolTableRecord
100
AcDbLayerTableRecord
  2
A!|5
 70
    16
 62
     1
  6
Continuous
370
     0
390
13D39
347
13D3C
348
0
1001
AcCmTransparency
1071
 33554687
  0
LAYER
  5
13E11
330
13D6D
100
AcDbSymbolTableRecord
100
AcDbLayerTableRecord
  2
A!|4
 70
    16
 62
     7
  6
Continuous
370
     0
390
13D39
347
13D3C
348
0
1001
AcCmTransparency
1071
 33554687
  0
LAYER
  5
13E12
330
13D6D
100
AcDbSymbolTableRecord
100
AcDbLayerTableRecord
  2
A!|3
 70
    16
 62
     7
  6
Continuous
370
     0
390
13D39
347
13D3C
348
0
1001
AcCmTransparency
1071
 33554687
  0
LAYER
  5
13E13
330
13D6D
100
AcDbSymbolTableRecord
100
AcDbLayerTableRecord
  2
a2|Level 1
 70
    16
 62
     7
  6
Continuous
370
     0
390
13D39
347
13D3C
348
0
1001
AcCmTransparency
1071
 33554687
  0
LAYER
  5
13E14
330
13D6D
100
AcDbSymbolTableRecord
100
AcDbLayerTableRecord
  2
a2|Level 2
 70
    16
 62
     7
  6
Continuous
370
     0
390
13D39
347
13D3C
348
0
1001
AcCmTransparency
1071
 33554687
  0
LAYER
  5
13E15
330
13D6D
100
AcDbSymbolTableRecord
100
AcDbLayerTableRecord
  2
a2|Level 3
 70
    16
 62
     7
  6
Continuous
370
     0
390
13D39
347
13D3C
348
0
1001
AcCmTransparency
1071
 33554687
  0
LAYER
  5
13E16
330
13D6D
100
AcDbSymbolTableRecord
100
AcDbLayerTableRecord
  2
a2|Level 4
 70
    16
 62
     7
  6
Continuous
370
     0
390
13D39
347
13D3C
348
0
1001
AcCmTransparency
1071
 33554687
  0
LAYER
  5
13E17
330
13D6D
100
AcDbSymbolTableRecord
100
AcDbLayerTableRecord
  2
a2|Level 5
 70
    16
 62
     7
  6
Continuous
370
     0
390
13D39
347
13D3C
348
0
1001
AcCmTransparency
1071
 33554687
  0
LAYER
  5
13E18
330
13D6D
100
AcDbSymbolTableRecord
100
AcDbLayerTableRecord
  2
a2|Level 6
 70
    16
 62
     7
  6
Continuous
370
     0
390
13D39
347
13D3C
348
0
1001
AcCmTransparency
1071
 33554687
  0
LAYER
  5
13E19
330
13D6D
100
AcDbSymbolTableRecord
100
AcDbLayerTableRecord
  2
a2|Level 7
 70
    16
 62
     7
  6
Continuous
370
     0
390
13D39
347
13D3C
348
0
1001
AcCmTransparency
1071
 33554687
  0
LAYER
  5
13E1A
330
13D6D
100
AcDbSymbolTableRecord
100
AcDbLayerTableRecord
  2
a2|Level 8
 70
    16
 62
     7
  6
Continuous
370
     0
390
13D39
347
13D3C
348
0
1001
AcCmTransparency
1071
 33554687
  0
LAYER
  5
13E1B
330
13D6D
100
AcDbSymbolTableRecord
100
AcDbLayerTableRecord
  2
a2|Level 9
 70
    16
 62
     7
  6
Continuous
370
     0
390
13D39
347
13D3C
348
0
1001
AcCmTransparency
1071
 33554687
  0
LAYER
  5
13E1C
330
13D6D
100
AcDbSymbolTableRecord
100
AcDbLayerTableRecord
  2
a2|Level 10
 70
    16
 62
     7
  6
Continuous
370
     0
390
13D39
347
13D3C
348
0
1001
AcCmTransparency
1071
 33554687
  0
LAYER
  5
13E1D
330
13D6D
100
AcDbSymbolTableRecord
100
AcDbLayerTableRecord
  2
a2|Level 11
 70
    16
 62
     7
  6
Continuous
370
     0
390
13D39
347
13D3C
348
0
1001
AcCmTransparency
1071
 33554687
  0
LAYER
  5
13E1E
330
13D6D
100
AcDbSymbolTableRecord
100
AcDbLayerTableRecord
  2
a2|Level 12
 70
    16
 62
     7
  6
Continuous
370
     0
390
13D39
347
13D3C
348
0
1001
AcCmTransparency
1071
 33554687
  0
LAYER
  5
13E1F
330
13D6D
100
AcDbSymbolTableRecord
100
AcDbLayerTableRecord
  2
a2|Level 13
 70
    16
 62
     7
  6
Continuous
370
     0
390
13D39
347
13D3C
348
0
1001
AcCmTransparency
1071
 33554687
  0
LAYER
  5
13E20
330
13D6D
100
AcDbSymbolTableRecord
100
AcDbLayerTableRecord
  2
a2|Level 14
 70
    16
 62
     7
  6
Continuous
370
     0
390
13D39
347
13D3C
348
0
1001
AcCmTransparency
1071
 33554687
  0
LAYER
  5
13E21
330
13D6D
100
AcDbSymbolTableRecord
100
AcDbLayerTableRecord
  2
a2|Level 15
 70
    16
 62
     7
  6
Continuous
370
     0
390
13D39
347
13D3C
348
0
1001
AcCmTransparency
1071
 33554687
  0
LAYER
  5
13E22
330
13D6D
100
AcDbSymbolTableRecord
100
AcDbLayerTableRecord
  2
a2|Level 16
 70
    16
 62
     7
  6
Continuous
370
     0
390
13D39
347
13D3C
348
0
1001
AcCmTransparency
1071
 33554687
  0
LAYER
  5
13E23
330
13D6D
100
AcDbSymbolTableRecord
100
AcDbLayerTableRecord
  2
a2|Level 17
 70
    16
 62
     7
  6
Continuous
370
     0
390
13D39
347
13D3C
348
0
1001
AcCmTransparency
1071
 33554687
  0
LAYER
  5
13E24
330
13D6D
100
AcDbSymbolTableRecord
100
AcDbLayerTableRecord
  2
a2|Level 18
 70
    16
 62
     7
  6
Continuous
370
     0
390
13D39
347
13D3C
348
0
1001
AcCmTransparency
1071
 33554687
  0
LAYER
  5
13E25
330
13D6D
100
AcDbSymbolTableRecord
100
AcDbLayerTableRecord
  2
a2|Level 19
 70
    16
 62
     7
  6
Continuous
370
     0
390
13D39
347
13D3C
348
0
1001
AcCmTransparency
1071
 33554687
  0
LAYER
  5
13E26
330
13D6D
100
AcDbSymbolTableRecord
100
AcDbLayerTableRecord
  2
a2|Level 20
 70
    16
 62
     7
  6
Continuous
370
     0
390
13D39
347
13D3C
348
0
1001
AcCmTransparency
1071
 33554687
  0
LAYER
  5
13E27
330
13D6D
100
AcDbSymbolTableRecord
100
AcDbLayerTableRecord
  2
a2|Level 21
 70
    16
 62
     7
  6
Continuous
370
     0
390
13D39
347
13D3C
348
0
1001
AcCmTransparency
1071
 33554687
  0
LAYER
  5
13E28
330
13D6D
100
AcDbSymbolTableRecord
100
AcDbLayerTableRecord
  2
a2|Level 22
 70
    16
 62
     7
  6
Continuous
370
     0
390
13D39
347
13D3C
348
0
1001
AcCmTransparency
1071
 33554687
  0
LAYER
  5
13E29
330
13D6D
100
AcDbSymbolTableRecord
100
AcDbLayerTableRecord
  2
a2|Level 23
 70
    16
 62
     7
  6
Continuous
370
     0
390
13D39
347
13D3C
348
0
1001
AcCmTransparency
1071
 33554687
  0
LAYER
  5
13E2A
330
13D6D
100
AcDbSymbolTableRecord
100
AcDbLayerTableRecord
  2
a2|Level 24
 70
    16
 62
     7
  6
Continuous
370
     0
390
13D39
347
13D3C
348
0
1001
AcCmTransparency
1071
 33554687
  0
LAYER
  5
13E2B
330
13D6D
100
AcDbSymbolTableRecord
100
AcDbLayerTableRecord
  2
a2|Level 25
 70
    16
 62
     7
  6
Continuous
370
     0
390
13D39
347
13D3C
348
0
1001
AcCmTransparency
1071
 33554687
  0
LAYER
  5
13E2C
330
13D6D
100
AcDbSymbolTableRecord
100
AcDbLayerTableRecord
  2
a2|Level 26
 70
    16
 62
     7
  6
Continuous
370
     0
390
13D39
347
13D3C
348
0
1001
AcCmTransparency
1071
 33554687
  0
LAYER
  5
13E2D
330
13D6D
100
AcDbSymbolTableRecord
100
AcDbLayerTableRecord
  2
a2|Level 27
 70
    16
 62
     7
  6
Continuous
370
     0
390
13D39
347
13D3C
348
0
1001
AcCmTransparency
1071
 33554687
  0
LAYER
  5
13E2E
330
13D6D
100
AcDbSymbolTableRecord
100
AcDbLayerTableRecord
  2
a2|Level 28
 70
    16
 62
     7
  6
Continuous
370
     0
390
13D39
347
13D3C
348
0
1001
AcCmTransparency
1071
 33554687
  0
LAYER
  5
13E2F
330
13D6D
100
AcDbSymbolTableRecord
100
AcDbLayerTableRecord
  2
a2|Level 29
 70
    16
 62
     7
  6
Continuous
370
     0
390
13D39
347
13D3C
348
0
1001
AcCmTransparency
1071
 33554687
  0
LAYER
  5
13E30
330
13D6D
100
AcDbSymbolTableRecord
100
AcDbLayerTableRecord
  2
a2|Level 30
 70
    16
 62
     7
  6
Continuous
370
     0
390
13D39
347
13D3C
348
0
1001
AcCmTransparency
1071
 33554687
  0
LAYER
  5
13E31
330
13D6D
100
AcDbSymbolTableRecord
100
AcDbLayerTableRecord
  2
a2|Level 31
 70
    16
 62
     7
  6
Continuous
370
     0
390
13D39
347
13D3C
348
0
1001
AcCmTransparency
1071
 33554687
  0
LAYER
  5
13E32
330
13D6D
100
AcDbSymbolTableRecord
100
AcDbLayerTableRecord
  2
a2|Level 32
 70
    16
 62
     7
  6
Continuous
370
     0
390
13D39
347
13D3C
348
0
1001
AcCmTransparency
1071
 33554687
  0
LAYER
  5
13E33
330
13D6D
100
AcDbSymbolTableRecord
100
AcDbLayerTableRecord
  2
a2|Level 33
 70
    16
 62
     7
  6
Continuous
370
     0
390
13D39
347
13D3C
348
0
1001
AcCmTransparency
1071
 33554687
  0
LAYER
  5
13E34
330
13D6D
100
AcDbSymbolTableRecord
100
AcDbLayerTableRecord
  2
a2|Level 34
 70
    16
 62
     7
  6
Continuous
370
     0
390
13D39
347
13D3C
348
0
1001
AcCmTransparency
1071
 33554687
  0
LAYER
  5
13E35
330
13D6D
100
AcDbSymbolTableRecord
100
AcDbLayerTableRecord
  2
a2|Level 35
 70
    16
 62
     7
  6
Continuous
370
     0
390
13D39
347
13D3C
348
0
1001
AcCmTransparency
1071
 33554687
  0
LAYER
  5
13E36
330
13D6D
100
AcDbSymbolTableRecord
100
AcDbLayerTableRecord
  2
a2|Level 36
 70
    16
 62
     7
  6
Continuous
370
     0
390
13D39
347
13D3C
348
0
1001
AcCmTransparency
1071
 33554687
  0
LAYER
  5
13E37
330
13D6D
100
AcDbSymbolTableRecord
100
AcDbLayerTableRecord
  2
a2|Level 37
 70
    16
 62
     7
  6
Continuous
370
     0
390
13D39
347
13D3C
348
0
1001
AcCmTransparency
1071
 33554687
  0
LAYER
  5
13E38
330
13D6D
100
AcDbSymbolTableRecord
100
AcDbLayerTableRecord
  2
a2|Level 38
 70
    16
 62
     7
  6
Continuous
370
     0
390
13D39
347
13D3C
348
0
1001
AcCmTransparency
1071
 33554687
  0
LAYER
  5
13E39
330
13D6D
100
AcDbSymbolTableRecord
100
AcDbLayerTableRecord
  2
a2|Level 39
 70
    16
 62
     7
  6
Continuous
370
     0
390
13D39
347
13D3C
348
0
1001
AcCmTransparency
1071
 33554687
  0
LAYER
  5
13E3A
330
13D6D
100
AcDbSymbolTableRecord
100
AcDbLayerTableRecord
  2
a2|Level 40
 70
    16
 62
     7
  6
Continuous
370
     0
390
13D39
347
13D3C
348
0
1001
AcCmTransparency
1071
 33554687
  0
LAYER
  5
13E3B
330
13D6D
100
AcDbSymbolTableRecord
100
AcDbLayerTableRecord
  2
a2|Level 41
 70
    16
 62
     7
  6
Continuous
370
     0
390
13D39
347
13D3C
348
0
1001
AcCmTransparency
1071
 33554687
  0
LAYER
  5
13E3C
330
13D6D
100
AcDbSymbolTableRecord
100
AcDbLayerTableRecord
  2
a2|Level 42
 70
    16
 62
     7
  6
Continuous
370
     0
390
13D39
347
13D3C
348
0
1001
AcCmTransparency
1071
 33554687
  0
LAYER
  5
13E3D
330
13D6D
100
AcDbSymbolTableRecord
100
AcDbLayerTableRecord
  2
a2|Level 43
 70
    16
 62
     7
  6
Continuous
370
     0
390
13D39
347
13D3C
348
0
1001
AcCmTransparency
1071
 33554687
  0
LAYER
  5
13E3E
330
13D6D
100
AcDbSymbolTableRecord
100
AcDbLayerTableRecord
  2
a2|Level 44
 70
    16
 62
     7
  6
Continuous
370
     0
390
13D39
347
13D3C
348
0
1001
AcCmTransparency
1071
 33554687
  0
LAYER
  5
13E3F
330
13D6D
100
AcDbSymbolTableRecord
100
AcDbLayerTableRecord
  2
a2|Level 45
 70
    16
 62
     7
  6
Continuous
370
     0
390
13D39
347
13D3C
348
0
1001
AcCmTransparency
1071
 33554687
  0
LAYER
  5
13E40
330
13D6D
100
AcDbSymbolTableRecord
100
AcDbLayerTableRecord
  2
a2|Level 46
 70
    16
 62
     7
  6
Continuous
370
     0
390
13D39
347
13D3C
348
0
1001
AcCmTransparency
1071
 33554687
  0
LAYER
  5
13E41
330
13D6D
100
AcDbSymbolTableRecord
100
AcDbLayerTableRecord
  2
a2|Level 47
 70
    16
 62
     7
  6
Continuous
370
     0
390
13D39
347
13D3C
348
0
1001
AcCmTransparency
1071
 33554687
  0
LAYER
  5
13E42
330
13D6D
100
AcDbSymbolTableRecord
100
AcDbLayerTableRecord
  2
a2|Level 48
 70
    16
 62
     7
  6
Continuous
370
     0
390
13D39
347
13D3C
348
0
1001
AcCmTransparency
1071
 33554687
  0
LAYER
  5
13E43
330
13D6D
100
AcDbSymbolTableRecord
100
AcDbLayerTableRecord
  2
a2|Level 49
 70
    16
 62
     7
  6
Continuous
370
     0
390
13D39
347
13D3C
348
0
1001
AcCmTransparency
1071
 33554687
  0
LAYER
  5
13E44
330
13D6D
100
AcDbSymbolTableRecord
100
AcDbLayerTableRecord
  2
a2|Level 50
 70
    16
 62
     7
  6
Continuous
370
     0
390
13D39
347
13D3C
348
0
1001
AcCmTransparency
1071
 33554687
  0
LAYER
  5
13E45
330
13D6D
100
AcDbSymbolTableRecord
100
AcDbLayerTableRecord
  2
a2|Level 51
 70
    16
 62
     7
  6
Continuous
370
     0
390
13D39
347
13D3C
348
0
1001
AcCmTransparency
1071
 33554687
  0
LAYER
  5
13E46
330
13D6D
100
AcDbSymbolTableRecord
100
AcDbLayerTableRecord
  2
a2|Level 52
 70
    16
 62
     7
  6
Continuous
370
     0
390
13D39
347
13D3C
348
0
1001
AcCmTransparency
1071
 33554687
  0
LAYER
  5
13E47
330
13D6D
100
AcDbSymbolTableRecord
100
AcDbLayerTableRecord
  2
a2|Level 53
 70
    16
 62
     7
  6
Continuous
370
     0
390
13D39
347
13D3C
348
0
1001
AcCmTransparency
1071
 33554687
  0
LAYER
  5
13E48
330
13D6D
100
AcDbSymbolTableRecord
100
AcDbLayerTableRecord
  2
a2|Level 54
 70
    16
 62
     7
  6
Continuous
370
     0
390
13D39
347
13D3C
348
0
1001
AcCmTransparency
1071
 33554687
  0
LAYER
  5
13E49
330
13D6D
100
AcDbSymbolTableRecord
100
AcDbLayerTableRecord
  2
a2|Level 55
 70
    16
 62
     7
  6
Continuous
370
     0
390
13D39
347
13D3C
348
0
1001
AcCmTransparency
1071
 33554687
  0
LAYER
  5
13E4A
330
13D6D
100
AcDbSymbolTableRecord
100
AcDbLayerTableRecord
  2
a2|Level 56
 70
    16
 62
     7
  6
Continuous
370
     0
390
13D39
347
13D3C
348
0
1001
AcCmTransparency
1071
 33554687
  0
LAYER
  5
13E4B
330
13D6D
100
AcDbSymbolTableRecord
100
AcDbLayerTableRecord
  2
a2|Level 57
 70
    16
 62
     7
  6
Continuous
370
     0
390
13D39
347
13D3C
348
0
1001
AcCmTransparency
1071
 33554687
  0
LAYER
  5
13E4C
330
13D6D
100
AcDbSymbolTableRecord
100
AcDbLayerTableRecord
  2
a2|Level 58
 70
    16
 62
     7
  6
Continuous
370
     0
390
13D39
347
13D3C
348
0
1001
AcCmTransparency
1071
 33554687
  0
LAYER
  5
13E4D
330
13D6D
100
AcDbSymbolTableRecord
100
AcDbLayerTableRecord
  2
a2|Level 59
 70
    16
 62
     7
  6
Continuous
370
     0
390
13D39
347
13D3C
348
0
1001
AcCmTransparency
1071
 33554687
  0
LAYER
  5
13E4E
330
13D6D
100
AcDbSymbolTableRecord
100
AcDbLayerTableRecord
  2
a2|Level 60
 70
    16
 62
     7
  6
Continuous
370
     0
390
13D39
347
13D3C
348
0
1001
AcCmTransparency
1071
 33554687
  0
LAYER
  5
13E4F
330
13D6D
100
AcDbSymbolTableRecord
100
AcDbLayerTableRecord
  2
a2|Level 61
 70
    16
 62
     7
  6
Continuous
370
     0
390
13D39
347
13D3C
348
0
1001
AcCmTransparency
1071
 33554687
  0
LAYER
  5
13E50
330
13D6D
100
AcDbSymbolTableRecord
100
AcDbLayerTableRecord
  2
a2|Level 62
 70
    16
 62
     7
  6
Continuous
370
     0
390
13D39
347
13D3C
348
0
1001
AcCmTransparency
1071
 33554687
  0
LAYER
  5
13E51
330
13D6D
100
AcDbSymbolTableRecord
100
AcDbLayerTableRecord
  2
a2|Level 63
 70
    16
 62
     7
  6
Continuous
370
     0
390
13D39
347
13D3C
348
0
1001
AcCmTransparency
1071
 33554687
  0
LAYER
  5
13E52
330
13D6D
100
AcDbSymbolTableRecord
100
AcDbLayerTableRecord
  2
a3|Level 1
 70
    16
 62
     7
  6
Continuous
370
     0
390
13D39
347
13D3C
348
0
1001
AcCmTransparency
1071
 33554687
  0
LAYER
  5
13E53
330
13D6D
100
AcDbSymbolTableRecord
100
AcDbLayerTableRecord
  2
a3|Level 2
 70
    16
 62
     7
  6
Continuous
370
     0
390
13D39
347
13D3C
348
0
1001
AcCmTransparency
1071
 33554687
  0
LAYER
  5
13E54
330
13D6D
100
AcDbSymbolTableRecord
100
AcDbLayerTableRecord
  2
a3|Level 3
 70
    16
 62
     7
  6
Continuous
370
     0
390
13D39
347
13D3C
348
0
1001
AcCmTransparency
1071
 33554687
  0
LAYER
  5
13E55
330
13D6D
100
AcDbSymbolTableRecord
100
AcDbLayerTableRecord
  2
a3|Level 4
 70
    16
 62
     7
  6
Continuous
370
     0
390
13D39
347
13D3C
348
0
1001
AcCmTransparency
1071
 33554687
  0
LAYER
  5
13E56
330
13D6D
100
AcDbSymbolTableRecord
100
AcDbLayerTableRecord
  2
a3|Level 5
 70
    16
 62
     7
  6
Continuous
370
     0
390
13D39
347
13D3C
348
0
1001
AcCmTransparency
1071
 33554687
  0
LAYER
  5
13E57
330
13D6D
100
AcDbSymbolTableRecord
100
AcDbLayerTableRecord
  2
a3|Level 6
 70
    16
 62
     7
  6
Continuous
370
     0
390
13D39
347
13D3C
348
0
1001
AcCmTransparency
1071
 33554687
  0
LAYER
  5
13E58
330
13D6D
100
AcDbSymbolTableRecord
100
AcDbLayerTableRecord
  2
a3|Level 7
 70
    16
 62
     7
  6
Continuous
370
     0
390
13D39
347
13D3C
348
0
1001
AcCmTransparency
1071
 33554687
  0
LAYER
  5
13E59
330
13D6D
100
AcDbSymbolTableRecord
100
AcDbLayerTableRecord
  2
a3|Level 8
 70
    16
 62
     7
  6
Continuous
370
     0
390
13D39
347
13D3C
348
0
1001
AcCmTransparency
1071
 33554687
  0
LAYER
  5
13E5A
330
13D6D
100
AcDbSymbolTableRecord
100
AcDbLayerTableRecord
  2
a3|Level 9
 70
    16
 62
     7
  6
Continuous
370
     0
390
13D39
347
13D3C
348
0
1001
AcCmTransparency
1071
 33554687
  0
LAYER
  5
13E5B
330
13D6D
100
AcDbSymbolTableRecord
100
AcDbLayerTableRecord
  2
a3|Level 10
 70
    16
 62
     7
  6
Continuous
370
     0
390
13D39
347
13D3C
348
0
1001
AcCmTransparency
1071
 33554687
  0
LAYER
  5
13E5C
330
13D6D
100
AcDbSymbolTableRecord
100
AcDbLayerTableRecord
  2
a3|Level 11
 70
    16
 62
     7
  6
Continuous
370
     0
390
13D39
347
13D3C
348
0
1001
AcCmTransparency
1071
 33554687
  0
LAYER
  5
13E5D
330
13D6D
100
AcDbSymbolTableRecord
100
AcDbLayerTableRecord
  2
a3|Level 12
 70
    16
 62
     7
  6
Continuous
370
     0
390
13D39
347
13D3C
348
0
1001
AcCmTransparency
1071
 33554687
  0
LAYER
  5
13E5E
330
13D6D
100
AcDbSymbolTableRecord
100
AcDbLayerTableRecord
  2
a3|Level 13
 70
    16
 62
     7
  6
Continuous
370
     0
390
13D39
347
13D3C
348
0
1001
AcCmTransparency
1071
 33554687
  0
LAYER
  5
13E5F
330
13D6D
100
AcDbSymbolTableRecord
100
AcDbLayerTableRecord
  2
a3|Level 14
 70
    16
 62
     7
  6
Continuous
370
     0
390
13D39
347
13D3C
348
0
1001
AcCmTransparency
1071
 33554687
  0
LAYER
  5
13E60
330
13D6D
100
AcDbSymbolTableRecord
100
AcDbLayerTableRecord
  2
a3|Level 15
 70
    16
 62
     7
  6
Continuous
370
     0
390
13D39
347
13D3C
348
0
1001
AcCmTransparency
1071
 33554687
  0
LAYER
  5
13E61
330
13D6D
100
AcDbSymbolTableRecord
100
AcDbLayerTableRecord
  2
a3|Level 16
 70
    16
 62
     7
  6
Continuous
370
     0
390
13D39
347
13D3C
348
0
1001
AcCmTransparency
1071
 33554687
  0
LAYER
  5
13E62
330
13D6D
100
AcDbSymbolTableRecord
100
AcDbLayerTableRecord
  2
a3|Level 17
 70
    16
 62
     7
  6
Continuous
370
     0
390
13D39
347
13D3C
348
0
1001
AcCmTransparency
1071
 33554687
  0
LAYER
  5
13E63
330
13D6D
100
AcDbSymbolTableRecord
100
AcDbLayerTableRecord
  2
a3|Level 18
 70
    16
 62
     7
  6
Continuous
370
     0
390
13D39
347
13D3C
348
0
1001
AcCmTransparency
1071
 33554687
  0
LAYER
  5
13E64
330
13D6D
100
AcDbSymbolTableRecord
100
AcDbLayerTableRecord
  2
a3|Level 19
 70
    16
 62
     7
  6
Continuous
370
     0
390
13D39
347
13D3C
348
0
1001
AcCmTransparency
1071
 33554687
  0
LAYER
  5
13E65
330
13D6D
100
AcDbSymbolTableRecord
100
AcDbLayerTableRecord
  2
a3|Level 20
 70
    16
 62
     7
  6
Continuous
370
     0
390
13D39
347
13D3C
348
0
1001
AcCmTransparency
1071
 33554687
  0
LAYER
  5
13E66
330
13D6D
100
AcDbSymbolTableRecord
100
AcDbLayerTableRecord
  2
a3|Level 21
 70
    16
 62
     7
  6
Continuous
370
     0
390
13D39
347
13D3C
348
0
1001
AcCmTransparency
1071
 33554687
  0
LAYER
  5
13E67
330
13D6D
100
AcDbSymbolTableRecord
100
AcDbLayerTableRecord
  2
a3|Level 22
 70
    16
 62
     7
  6
Continuous
370
     0
390
13D39
347
13D3C
348
0
1001
AcCmTransparency
1071
 33554687
  0
LAYER
  5
13E68
330
13D6D
100
AcDbSymbolTableRecord
100
AcDbLayerTableRecord
  2
a3|Level 23
 70
    16
 62
     7
  6
Continuous
370
     0
390
13D39
347
13D3C
348
0
1001
AcCmTransparency
1071
 33554687
  0
LAYER
  5
13E69
330
13D6D
100
AcDbSymbolTableRecord
100
AcDbLayerTableRecord
  2
a3|Level 24
 70
    16
 62
     7
  6
Continuous
370
     0
390
13D39
347
13D3C
348
0
1001
AcCmTransparency
1071
 33554687
  0
LAYER
  5
13E6A
330
13D6D
100
AcDbSymbolTableRecord
100
AcDbLayerTableRecord
  2
a3|Level 25
 70
    16
 62
     7
  6
Continuous
370
     0
390
13D39
347
13D3C
348
0
1001
AcCmTransparency
1071
 33554687
  0
LAYER
  5
13E6B
330
13D6D
100
AcDbSymbolTableRecord
100
AcDbLayerTableRecord
  2
a3|Level 26
 70
    16
 62
     7
  6
Continuous
370
     0
390
13D39
347
13D3C
348
0
1001
AcCmTransparency
1071
 33554687
  0
LAYER
  5
13E6C
330
13D6D
100
AcDbSymbolTableRecord
100
AcDbLayerTableRecord
  2
a3|Level 27
 70
    16
 62
     7
  6
Continuous
370
     0
390
13D39
347
13D3C
348
0
1001
AcCmTransparency
1071
 33554687
  0
LAYER
  5
13E6D
330
13D6D
100
AcDbSymbolTableRecord
100
AcDbLayerTableRecord
  2
a3|Level 28
 70
    16
 62
     7
  6
Continuous
370
     0
390
13D39
347
13D3C
348
0
1001
AcCmTransparency
1071
 33554687
  0
LAYER
  5
13E6E
330
13D6D
100
AcDbSymbolTableRecord
100
AcDbLayerTableRecord
  2
a3|Level 29
 70
    16
 62
     7
  6
Continuous
370
     0
390
13D39
347
13D3C
348
0
1001
AcCmTransparency
1071
 33554687
  0
LAYER
  5
13E6F
330
13D6D
100
AcDbSymbolTableRecord
100
AcDbLayerTableRecord
  2
a3|Level 30
 70
    16
 62
     7
  6
Continuous
370
     0
390
13D39
347
13D3C
348
0
1001
AcCmTransparency
1071
 33554687
  0
LAYER
  5
13E70
330
13D6D
100
AcDbSymbolTableRecord
100
AcDbLayerTableRecord
  2
a3|Level 31
 70
    16
 62
     7
  6
Continuous
370
     0
390
13D39
347
13D3C
348
0
1001
AcCmTransparency
1071
 33554687
  0
LAYER
  5
13E71
330
13D6D
100
AcDbSymbolTableRecord
100
AcDbLayerTableRecord
  2
a3|Level 32
 70
    16
 62
     7
  6
Continuous
370
     0
390
13D39
347
13D3C
348
0
1001
AcCmTransparency
1071
 33554687
  0
LAYER
  5
13E72
330
13D6D
100
AcDbSymbolTableRecord
100
AcDbLayerTableRecord
  2
a3|Level 33
 70
    16
 62
     7
  6
Continuous
370
     0
390
13D39
347
13D3C
348
0
1001
AcCmTransparency
1071
 33554687
  0
LAYER
  5
13E73
330
13D6D
100
AcDbSymbolTableRecord
100
AcDbLayerTableRecord
  2
a3|Level 34
 70
    16
 62
     7
  6
Continuous
370
     0
390
13D39
347
13D3C
348
0
1001
AcCmTransparency
1071
 33554687
  0
LAYER
  5
13E74
330
13D6D
100
AcDbSymbolTableRecord
100
AcDbLayerTableRecord
  2
a3|Level 35
 70
    16
 62
     7
  6
Continuous
370
     0
390
13D39
347
13D3C
348
0
1001
AcCmTransparency
1071
 33554687
  0
LAYER
  5
13E75
330
13D6D
100
AcDbSymbolTableRecord
100
AcDbLayerTableRecord
  2
a3|Level 36
 70
    16
 62
     7
  6
Continuous
370
     0
390
13D39
347
13D3C
348
0
1001
AcCmTransparency
1071
 33554687
  0
LAYER
  5
13E76
330
13D6D
100
AcDbSymbolTableRecord
100
AcDbLayerTableRecord
  2
a3|Level 37
 70
    16
 62
     7
  6
Continuous
370
     0
390
13D39
347
13D3C
348
0
1001
AcCmTransparency
1071
 33554687
  0
LAYER
  5
13E77
330
13D6D
100
AcDbSymbolTableRecord
100
AcDbLayerTableRecord
  2
a3|Level 38
 70
    16
 62
     7
  6
Continuous
370
     0
390
13D39
347
13D3C
348
0
1001
AcCmTransparency
1071
 33554687
  0
LAYER
  5
13E78
330
13D6D
100
AcDbSymbolTableRecord
100
AcDbLayerTableRecord
  2
a3|Level 39
 70
    16
 62
     7
  6
Continuous
370
     0
390
13D39
347
13D3C
348
0
1001
AcCmTransparency
1071
 33554687
  0
LAYER
  5
13E79
330
13D6D
100
AcDbSymbolTableRecord
100
AcDbLayerTableRecord
  2
a3|Level 40
 70
    16
 62
     7
  6
Continuous
370
     0
390
13D39
347
13D3C
348
0
1001
AcCmTransparency
1071
 33554687
  0
LAYER
  5
13E7A
330
13D6D
100
AcDbSymbolTableRecord
100
AcDbLayerTableRecord
  2
a3|Level 41
 70
    16
 62
     7
  6
Continuous
370
     0
390
13D39
347
13D3C
348
0
1001
AcCmTransparency
1071
 33554687
  0
LAYER
  5
13E7B
330
13D6D
100
AcDbSymbolTableRecord
100
AcDbLayerTableRecord
  2
a3|Level 42
 70
    16
 62
     7
  6
Continuous
370
     0
390
13D39
347
13D3C
348
0
1001
AcCmTransparency
1071
 33554687
  0
LAYER
  5
13E7C
330
13D6D
100
AcDbSymbolTableRecord
100
AcDbLayerTableRecord
  2
a3|Level 43
 70
    16
 62
     7
  6
Continuous
370
     0
390
13D39
347
13D3C
348
0
1001
AcCmTransparency
1071
 33554687
  0
LAYER
  5
13E7D
330
13D6D
100
AcDbSymbolTableRecord
100
AcDbLayerTableRecord
  2
a3|Level 44
 70
    16
 62
     7
  6
Continuous
370
     0
390
13D39
347
13D3C
348
0
1001
AcCmTransparency
1071
 33554687
  0
LAYER
  5
13E7E
330
13D6D
100
AcDbSymbolTableRecord
100
AcDbLayerTableRecord
  2
a3|Level 45
 70
    16
 62
     7
  6
Continuous
370
     0
390
13D39
347
13D3C
348
0
1001
AcCmTransparency
1071
 33554687
  0
LAYER
  5
13E7F
330
13D6D
100
AcDbSymbolTableRecord
100
AcDbLayerTableRecord
  2
a3|Level 46
 70
    16
 62
     7
  6
Continuous
370
     0
390
13D39
347
13D3C
348
0
1001
AcCmTransparency
1071
 33554687
  0
LAYER
  5
13E80
330
13D6D
100
AcDbSymbolTableRecord
100
AcDbLayerTableRecord
  2
a3|Level 47
 70
    16
 62
     7
  6
Continuous
370
     0
390
13D39
347
13D3C
348
0
1001
AcCmTransparency
1071
 33554687
  0
LAYER
  5
13E81
330
13D6D
100
AcDbSymbolTableRecord
100
AcDbLayerTableRecord
  2
a3|Level 48
 70
    16
 62
     7
  6
Continuous
370
     0
390
13D39
347
13D3C
348
0
1001
AcCmTransparency
1071
 33554687
  0
LAYER
  5
13E82
330
13D6D
100
AcDbSymbolTableRecord
100
AcDbLayerTableRecord
  2
a3|Level 49
 70
    16
 62
     7
  6
Continuous
370
     0
390
13D39
347
13D3C
348
0
1001
AcCmTransparency
1071
 33554687
  0
LAYER
  5
13E83
330
13D6D
100
AcDbSymbolTableRecord
100
AcDbLayerTableRecord
  2
a3|Level 50
 70
    16
 62
     7
  6
Continuous
370
     0
390
13D39
347
13D3C
348
0
1001
AcCmTransparency
1071
 33554687
  0
LAYER
  5
13E84
330
13D6D
100
AcDbSymbolTableRecord
100
AcDbLayerTableRecord
  2
a3|Level 51
 70
    16
 62
     7
  6
Continuous
370
     0
390
13D39
347
13D3C
348
0
1001
AcCmTransparency
1071
 33554687
  0
LAYER
  5
13E85
330
13D6D
100
AcDbSymbolTableRecord
100
AcDbLayerTableRecord
  2
a3|Level 52
 70
    16
 62
     7
  6
Continuous
370
     0
390
13D39
347
13D3C
348
0
1001
AcCmTransparency
1071
 33554687
  0
LAYER
  5
13E86
330
13D6D
100
AcDbSymbolTableRecord
100
AcDbLayerTableRecord
  2
a3|Level 53
 70
    16
 62
     7
  6
Continuous
370
     0
390
13D39
347
13D3C
348
0
1001
AcCmTransparency
1071
 33554687
  0
LAYER
  5
13E87
330
13D6D
100
AcDbSymbolTableRecord
100
AcDbLayerTableRecord
  2
a3|Level 54
 70
    16
 62
     7
  6
Continuous
370
     0
390
13D39
347
13D3C
348
0
1001
AcCmTransparency
1071
 33554687
  0
LAYER
  5
13E88
330
13D6D
100
AcDbSymbolTableRecord
100
AcDbLayerTableRecord
  2
a3|Level 55
 70
    16
 62
     7
  6
Continuous
370
     0
390
13D39
347
13D3C
348
0
1001
AcCmTransparency
1071
 33554687
  0
LAYER
  5
13E89
330
13D6D
100
AcDbSymbolTableRecord
100
AcDbLayerTableRecord
  2
a3|Level 56
 70
    16
 62
     7
  6
Continuous
370
     0
390
13D39
347
13D3C
348
0
1001
AcCmTransparency
1071
 33554687
  0
LAYER
  5
13E8A
330
13D6D
100
AcDbSymbolTableRecord
100
AcDbLayerTableRecord
  2
a3|Level 57
 70
    16
 62
     7
  6
Continuous
370
     0
390
13D39
347
13D3C
348
0
1001
AcCmTransparency
1071
 33554687
  0
LAYER
  5
13E8B
330
13D6D
100
AcDbSymbolTableRecord
100
AcDbLayerTableRecord
  2
a3|Level 58
 70
    16
 62
     7
  6
Continuous
370
     0
390
13D39
347
13D3C
348
0
1001
AcCmTransparency
1071
 33554687
  0
LAYER
  5
13E8C
330
13D6D
100
AcDbSymbolTableRecord
100
AcDbLayerTableRecord
  2
a3|Level 59
 70
    16
 62
     7
  6
Continuous
370
     0
390
13D39
347
13D3C
348
0
1001
AcCmTransparency
1071
 33554687
  0
LAYER
  5
13E8D
330
13D6D
100
AcDbSymbolTableRecord
100
AcDbLayerTableRecord
  2
a3|Level 60
 70
    16
 62
     7
  6
Continuous
370
     0
390
13D39
347
13D3C
348
0
1001
AcCmTransparency
1071
 33554687
  0
LAYER
  5
13E8E
330
13D6D
100
AcDbSymbolTableRecord
100
AcDbLayerTableRecord
  2
a3|Level 61
 70
    16
 62
     7
  6
Continuous
370
     0
390
13D39
347
13D3C
348
0
1001
AcCmTransparency
1071
 33554687
  0
LAYER
  5
13E8F
330
13D6D
100
AcDbSymbolTableRecord
100
AcDbLayerTableRecord
  2
a3|Level 62
 70
    16
 62
     7
  6
Continuous
370
     0
390
13D39
347
13D3C
348
0
1001
AcCmTransparency
1071
 33554687
  0
LAYER
  5
13E90
330
13D6D
100
AcDbSymbolTableRecord
100
AcDbLayerTableRecord
  2
a3|Level 63
 70
    16
 62
     7
  6
Continuous
370
     0
390
13D39
347
13D3C
348
0
1001
AcCmTransparency
1071
 33554687
  0
LAYER
  5
13E91
330
13D6D
100
AcDbSymbolTableRecord
100
AcDbLayerTableRecord
  2
a4|Level 1
 70
    16
 62
     7
  6
Continuous
370
     0
390
13D39
347
13D3C
348
0
1001
AcCmTransparency
1071
 33554687
  0
LAYER
  5
13E92
330
13D6D
100
AcDbSymbolTableRecord
100
AcDbLayerTableRecord
  2
a4|Level 2
 70
    16
 62
     7
  6
Continuous
370
     0
390
13D39
347
13D3C
348
0
1001
AcCmTransparency
1071
 33554687
  0
LAYER
  5
13E93
330
13D6D
100
AcDbSymbolTableRecord
100
AcDbLayerTableRecord
  2
a4|Level 3
 70
    16
 62
     7
  6
Continuous
370
     0
390
13D39
347
13D3C
348
0
1001
AcCmTransparency
1071
 33554687
  0
LAYER
  5
13E94
330
13D6D
100
AcDbSymbolTableRecord
100
AcDbLayerTableRecord
  2
a4|Level 4
 70
    16
 62
     7
  6
Continuous
370
     0
390
13D39
347
13D3C
348
0
1001
AcCmTransparency
1071
 33554687
  0
LAYER
  5
13E95
330
13D6D
100
AcDbSymbolTableRecord
100
AcDbLayerTableRecord
  2
a4|Level 5
 70
    16
 62
     7
  6
Continuous
370
     0
390
13D39
347
13D3C
348
0
1001
AcCmTransparency
1071
 33554687
  0
LAYER
  5
13E96
330
13D6D
100
AcDbSymbolTableRecord
100
AcDbLayerTableRecord
  2
a4|Level 6
 70
    16
 62
     7
  6
Continuous
370
     0
390
13D39
347
13D3C
348
0
1001
AcCmTransparency
1071
 33554687
  0
LAYER
  5
13E97
330
13D6D
100
AcDbSymbolTableRecord
100
AcDbLayerTableRecord
  2
a4|Level 7
 70
    16
 62
     7
  6
Continuous
370
     0
390
13D39
347
13D3C
348
0
1001
AcCmTransparency
1071
 33554687
  0
LAYER
  5
13E98
330
13D6D
100
AcDbSymbolTableRecord
100
AcDbLayerTableRecord
  2
a4|Level 8
 70
    16
 62
     7
  6
Continuous
370
     0
390
13D39
347
13D3C
348
0
1001
AcCmTransparency
1071
 33554687
  0
LAYER
  5
13E99
330
13D6D
100
AcDbSymbolTableRecord
100
AcDbLayerTableRecord
  2
a4|Level 9
 70
    16
 62
     7
  6
Continuous
370
     0
390
13D39
347
13D3C
348
0
1001
AcCmTransparency
1071
 33554687
  0
LAYER
  5
13E9A
330
13D6D
100
AcDbSymbolTableRecord
100
AcDbLayerTableRecord
  2
a4|Level 10
 70
    16
 62
     7
  6
Continuous
370
     0
390
13D39
347
13D3C
348
0
1001
AcCmTransparency
1071
 33554687
  0
LAYER
  5
13E9B
330
13D6D
100
AcDbSymbolTableRecord
100
AcDbLayerTableRecord
  2
a4|Level 11
 70
    16
 62
     7
  6
Continuous
370
     0
390
13D39
347
13D3C
348
0
1001
AcCmTransparency
1071
 33554687
  0
LAYER
  5
13E9C
330
13D6D
100
AcDbSymbolTableRecord
100
AcDbLayerTableRecord
  2
a4|Level 12
 70
    16
 62
     7
  6
Continuous
370
     0
390
13D39
347
13D3C
348
0
1001
AcCmTransparency
1071
 33554687
  0
LAYER
  5
13E9D
330
13D6D
100
AcDbSymbolTableRecord
100
AcDbLayerTableRecord
  2
a4|Level 13
 70
    16
 62
     7
  6
Continuous
370
     0
390
13D39
347
13D3C
348
0
1001
AcCmTransparency
1071
 33554687
  0
LAYER
  5
13E9E
330
13D6D
100
AcDbSymbolTableRecord
100
AcDbLayerTableRecord
  2
a4|Level 14
 70
    16
 62
     7
  6
Continuous
370
     0
390
13D39
347
13D3C
348
0
1001
AcCmTransparency
1071
 33554687
  0
LAYER
  5
13E9F
330
13D6D
100
AcDbSymbolTableRecord
100
AcDbLayerTableRecord
  2
a4|Level 15
 70
    16
 62
     7
  6
Continuous
370
     0
390
13D39
347
13D3C
348
0
1001
AcCmTransparency
1071
 33554687
  0
LAYER
  5
13EA0
330
13D6D
100
AcDbSymbolTableRecord
100
AcDbLayerTableRecord
  2
a4|Level 16
 70
    16
 62
     7
  6
Continuous
370
     0
390
13D39
347
13D3C
348
0
1001
AcCmTransparency
1071
 33554687
  0
LAYER
  5
13EA1
330
13D6D
100
AcDbSymbolTableRecord
100
AcDbLayerTableRecord
  2
a4|Level 17
 70
    16
 62
     7
  6
Continuous
370
     0
390
13D39
347
13D3C
348
0
1001
AcCmTransparency
1071
 33554687
  0
LAYER
  5
13EA2
330
13D6D
100
AcDbSymbolTableRecord
100
AcDbLayerTableRecord
  2
a4|Level 18
 70
    16
 62
     7
  6
Continuous
370
     0
390
13D39
347
13D3C
348
0
1001
AcCmTransparency
1071
 33554687
  0
LAYER
  5
13EA3
330
13D6D
100
AcDbSymbolTableRecord
100
AcDbLayerTableRecord
  2
a4|Level 19
 70
    16
 62
     7
  6
Continuous
370
     0
390
13D39
347
13D3C
348
0
1001
AcCmTransparency
1071
 33554687
  0
LAYER
  5
13EA4
330
13D6D
100
AcDbSymbolTableRecord
100
AcDbLayerTableRecord
  2
a4|Level 20
 70
    16
 62
     7
  6
Continuous
370
     0
390
13D39
347
13D3C
348
0
1001
AcCmTransparency
1071
 33554687
  0
LAYER
  5
13EA5
330
13D6D
100
AcDbSymbolTableRecord
100
AcDbLayerTableRecord
  2
a4|Level 21
 70
    16
 62
     7
  6
Continuous
370
     0
390
13D39
347
13D3C
348
0
1001
AcCmTransparency
1071
 33554687
  0
LAYER
  5
13EA6
330
13D6D
100
AcDbSymbolTableRecord
100
AcDbLayerTableRecord
  2
a4|Level 22
 70
    16
 62
     7
  6
Continuous
370
     0
390
13D39
347
13D3C
348
0
1001
AcCmTransparency
1071
 33554687
  0
LAYER
  5
13EA7
330
13D6D
100
AcDbSymbolTableRecord
100
AcDbLayerTableRecord
  2
a4|Level 23
 70
    16
 62
     7
  6
Continuous
370
     0
390
13D39
347
13D3C
348
0
1001
AcCmTransparency
1071
 33554687
  0
LAYER
  5
13EA8
330
13D6D
100
AcDbSymbolTableRecord
100
AcDbLayerTableRecord
  2
a4|Level 24
 70
    16
 62
     7
  6
Continuous
370
     0
390
13D39
347
13D3C
348
0
1001
AcCmTransparency
1071
 33554687
  0
LAYER
  5
13EA9
330
13D6D
100
AcDbSymbolTableRecord
100
AcDbLayerTableRecord
  2
a4|Level 25
 70
    16
 62
     7
  6
Continuous
370
     0
390
13D39
347
13D3C
348
0
1001
AcCmTransparency
1071
 33554687
  0
LAYER
  5
13EAA
330
13D6D
100
AcDbSymbolTableRecord
100
AcDbLayerTableRecord
  2
a4|Level 26
 70
    16
 62
     7
  6
Continuous
370
     0
390
13D39
347
13D3C
348
0
1001
AcCmTransparency
1071
 33554687
  0
LAYER
  5
13EAB
330
13D6D
100
AcDbSymbolTableRecord
100
AcDbLayerTableRecord
  2
a4|Level 27
 70
    16
 62
     7
  6
Continuous
370
     0
390
13D39
347
13D3C
348
0
1001
AcCmTransparency
1071
 33554687
  0
LAYER
  5
13EAC
330
13D6D
100
AcDbSymbolTableRecord
100
AcDbLayerTableRecord
  2
a4|Level 28
 70
    16
 62
     7
  6
Continuous
370
     0
390
13D39
347
13D3C
348
0
1001
AcCmTransparency
1071
 33554687
  0
LAYER
  5
13EAD
330
13D6D
100
AcDbSymbolTableRecord
100
AcDbLayerTableRecord
  2
a4|Level 29
 70
    16
 62
     7
  6
Continuous
370
     0
390
13D39
347
13D3C
348
0
1001
AcCmTransparency
1071
 33554687
  0
LAYER
  5
13EAE
330
13D6D
100
AcDbSymbolTableRecord
100
AcDbLayerTableRecord
  2
a4|Level 30
 70
    16
 62
     7
  6
Continuous
370
     0
390
13D39
347
13D3C
348
0
1001
AcCmTransparency
1071
 33554687
  0
LAYER
  5
13EAF
330
13D6D
100
AcDbSymbolTableRecord
100
AcDbLayerTableRecord
  2
a4|Level 31
 70
    16
 62
     7
  6
Continuous
370
     0
390
13D39
347
13D3C
348
0
1001
AcCmTransparency
1071
 33554687
  0
LAYER
  5
13EB0
330
13D6D
100
AcDbSymbolTableRecord
100
AcDbLayerTableRecord
  2
a4|Level 32
 70
    16
 62
     7
  6
Continuous
370
     0
390
13D39
347
13D3C
348
0
1001
AcCmTransparency
1071
 33554687
  0
LAYER
  5
13EB1
330
13D6D
100
AcDbSymbolTableRecord
100
AcDbLayerTableRecord
  2
a4|Level 33
 70
    16
 62
     7
  6
Continuous
370
     0
390
13D39
347
13D3C
348
0
1001
AcCmTransparency
1071
 33554687
  0
LAYER
  5
13EB2
330
13D6D
100
AcDbSymbolTableRecord
100
AcDbLayerTableRecord
  2
a4|Level 34
 70
    16
 62
     7
  6
Continuous
370
     0
390
13D39
347
13D3C
348
0
1001
AcCmTransparency
1071
 33554687
  0
LAYER
  5
13EB3
330
13D6D
100
AcDbSymbolTableRecord
100
AcDbLayerTableRecord
  2
a4|Level 35
 70
    16
 62
     7
  6
Continuous
370
     0
390
13D39
347
13D3C
348
0
1001
AcCmTransparency
1071
 33554687
  0
LAYER
  5
13EB4
330
13D6D
100
AcDbSymbolTableRecord
100
AcDbLayerTableRecord
  2
a4|Level 36
 70
    16
 62
     7
  6
Continuous
370
     0
390
13D39
347
13D3C
348
0
1001
AcCmTransparency
1071
 33554687
  0
LAYER
  5
13EB5
330
13D6D
100
AcDbSymbolTableRecord
100
AcDbLayerTableRecord
  2
a4|Level 37
 70
    16
 62
     7
  6
Continuous
370
     0
390
13D39
347
13D3C
348
0
1001
AcCmTransparency
1071
 33554687
  0
LAYER
  5
13EB6
330
13D6D
100
AcDbSymbolTableRecord
100
AcDbLayerTableRecord
  2
a4|Level 38
 70
    16
 62
     7
  6
Continuous
370
     0
390
13D39
347
13D3C
348
0
1001
AcCmTransparency
1071
 33554687
  0
LAYER
  5
13EB7
330
13D6D
100
AcDbSymbolTableRecord
100
AcDbLayerTableRecord
  2
a4|Level 39
 70
    16
 62
     7
  6
Continuous
370
     0
390
13D39
347
13D3C
348
0
1001
AcCmTransparency
1071
 33554687
  0
LAYER
  5
13EB8
330
13D6D
100
AcDbSymbolTableRecord
100
AcDbLayerTableRecord
  2
a4|Level 40
 70
    16
 62
     7
  6
Continuous
370
     0
390
13D39
347
13D3C
348
0
1001
AcCmTransparency
1071
 33554687
  0
LAYER
  5
13EB9
330
13D6D
100
AcDbSymbolTableRecord
100
AcDbLayerTableRecord
  2
a4|Level 41
 70
    16
 62
     7
  6
Continuous
370
     0
390
13D39
347
13D3C
348
0
1001
AcCmTransparency
1071
 33554687
  0
LAYER
  5
13EBA
330
13D6D
100
AcDbSymbolTableRecord
100
AcDbLayerTableRecord
  2
a4|Level 42
 70
    16
 62
     7
  6
Continuous
370
     0
390
13D39
347
13D3C
348
0
1001
AcCmTransparency
1071
 33554687
  0
LAYER
  5
13EBB
330
13D6D
100
AcDbSymbolTableRecord
100
AcDbLayerTableRecord
  2
a4|Level 43
 70
    16
 62
     7
  6
Continuous
370
     0
390
13D39
347
13D3C
348
0
1001
AcCmTransparency
1071
 33554687
  0
LAYER
  5
13EBC
330
13D6D
100
AcDbSymbolTableRecord
100
AcDbLayerTableRecord
  2
a4|Level 44
 70
    16
 62
     7
  6
Continuous
370
     0
390
13D39
347
13D3C
348
0
1001
AcCmTransparency
1071
 33554687
  0
LAYER
  5
13EBD
330
13D6D
100
AcDbSymbolTableRecord
100
AcDbLayerTableRecord
  2
a4|Level 45
 70
    16
 62
     7
  6
Continuous
370
     0
390
13D39
347
13D3C
348
0
1001
AcCmTransparency
1071
 33554687
  0
LAYER
  5
13EBE
330
13D6D
100
AcDbSymbolTableRecord
100
AcDbLayerTableRecord
  2
a4|Level 46
 70
    16
 62
     7
  6
Continuous
370
     0
390
13D39
347
13D3C
348
0
1001
AcCmTransparency
1071
 33554687
  0
LAYER
  5
13EBF
330
13D6D
100
AcDbSymbolTableRecord
100
AcDbLayerTableRecord
  2
a4|Level 47
 70
    16
 62
     7
  6
Continuous
370
     0
390
13D39
347
13D3C
348
0
1001
AcCmTransparency
1071
 33554687
  0
LAYER
  5
13EC0
330
13D6D
100
AcDbSymbolTableRecord
100
AcDbLayerTableRecord
  2
a4|Level 48
 70
    16
 62
     7
  6
Continuous
370
     0
390
13D39
347
13D3C
348
0
1001
AcCmTransparency
1071
 33554687
  0
LAYER
  5
13EC1
330
13D6D
100
AcDbSymbolTableRecord
100
AcDbLayerTableRecord
  2
a4|Level 49
 70
    16
 62
     7
  6
Continuous
370
     0
390
13D39
347
13D3C
348
0
1001
AcCmTransparency
1071
 33554687
  0
LAYER
  5
13EC2
330
13D6D
100
AcDbSymbolTableRecord
100
AcDbLayerTableRecord
  2
a4|Level 50
 70
    16
 62
     7
  6
Continuous
370
     0
390
13D39
347
13D3C
348
0
1001
AcCmTransparency
1071
 33554687
  0
LAYER
  5
13EC3
330
13D6D
100
AcDbSymbolTableRecord
100
AcDbLayerTableRecord
  2
a4|Level 51
 70
    16
 62
     7
  6
Continuous
370
     0
390
13D39
347
13D3C
348
0
1001
AcCmTransparency
1071
 33554687
  0
LAYER
  5
13EC4
330
13D6D
100
AcDbSymbolTableRecord
100
AcDbLayerTableRecord
  2
a4|Level 52
 70
    16
 62
     7
  6
Continuous
370
     0
390
13D39
347
13D3C
348
0
1001
AcCmTransparency
1071
 33554687
  0
LAYER
  5
13EC5
330
13D6D
100
AcDbSymbolTableRecord
100
AcDbLayerTableRecord
  2
a4|Level 53
 70
    16
 62
     7
  6
Continuous
370
     0
390
13D39
347
13D3C
348
0
1001
AcCmTransparency
1071
 33554687
  0
LAYER
  5
13EC6
330
13D6D
100
AcDbSymbolTableRecord
100
AcDbLayerTableRecord
  2
a4|Level 54
 70
    16
 62
     7
  6
Continuous
370
     0
390
13D39
347
13D3C
348
0
1001
AcCmTransparency
1071
 33554687
  0
LAYER
  5
13EC7
330
13D6D
100
AcDbSymbolTableRecord
100
AcDbLayerTableRecord
  2
a4|Level 55
 70
    16
 62
     7
  6
Continuous
370
     0
390
13D39
347
13D3C
348
0
1001
AcCmTransparency
1071
 33554687
  0
LAYER
  5
13EC8
330
13D6D
100
AcDbSymbolTableRecord
100
AcDbLayerTableRecord
  2
a4|Level 56
 70
    16
 62
     7
  6
Continuous
370
     0
390
13D39
347
13D3C
348
0
1001
AcCmTransparency
1071
 33554687
  0
LAYER
  5
13EC9
330
13D6D
100
AcDbSymbolTableRecord
100
AcDbLayerTableRecord
  2
a4|Level 57
 70
    16
 62
     7
  6
Continuous
370
     0
390
13D39
347
13D3C
348
0
1001
AcCmTransparency
1071
 33554687
  0
LAYER
  5
13ECA
330
13D6D
100
AcDbSymbolTableRecord
100
AcDbLayerTableRecord
  2
a4|Level 58
 70
    16
 62
     7
  6
Continuous
370
     0
390
13D39
347
13D3C
348
0
1001
AcCmTransparency
1071
 33554687
  0
LAYER
  5
13ECB
330
13D6D
100
AcDbSymbolTableRecord
100
AcDbLayerTableRecord
  2
a4|Level 59
 70
    16
 62
     7
  6
Continuous
370
     0
390
13D39
347
13D3C
348
0
1001
AcCmTransparency
1071
 33554687
  0
LAYER
  5
13ECC
330
13D6D
100
AcDbSymbolTableRecord
100
AcDbLayerTableRecord
  2
a4|Level 60
 70
    16
 62
     7
  6
Continuous
370
     0
390
13D39
347
13D3C
348
0
1001
AcCmTransparency
1071
 33554687
  0
LAYER
  5
13ECD
330
13D6D
100
AcDbSymbolTableRecord
100
AcDbLayerTableRecord
  2
a4|Level 61
 70
    16
 62
     7
  6
Continuous
370
     0
390
13D39
347
13D3C
348
0
1001
AcCmTransparency
1071
 33554687
  0
LAYER
  5
13ECE
330
13D6D
100
AcDbSymbolTableRecord
100
AcDbLayerTableRecord
  2
a4|Level 62
 70
    16
 62
     7
  6
Continuous
370
     0
390
13D39
347
13D3C
348
0
1001
AcCmTransparency
1071
 33554687
  0
LAYER
  5
13ECF
330
13D6D
100
AcDbSymbolTableRecord
100
AcDbLayerTableRecord
  2
a4|Level 63
 70
    16
 62
     7
  6
Continuous
370
     0
390
13D39
347
13D3C
348
0
1001
AcCmTransparency
1071
 33554687
  0
LAYER
  5
13ED0
330
13D6D
100
AcDbSymbolTableRecord
100
AcDbLayerTableRecord
  2
b1|Level 1
 70
    16
 62
     7
  6
Continuous
370
     0
390
13D39
347
13D3C
348
0
1001
AcCmTransparency
1071
 33554687
  0
LAYER
  5
13ED1
330
13D6D
100
AcDbSymbolTableRecord
100
AcDbLayerTableRecord
  2
b1|Level 2
 70
    16
 62
     7
  6
Continuous
370
     0
390
13D39
347
13D3C
348
0
1001
AcCmTransparency
1071
 33554687
  0
LAYER
  5
13ED2
330
13D6D
100
AcDbSymbolTableRecord
100
AcDbLayerTableRecord
  2
b1|Level 3
 70
    16
 62
     7
  6
Continuous
370
     0
390
13D39
347
13D3C
348
0
1001
AcCmTransparency
1071
 33554687
  0
LAYER
  5
13ED3
330
13D6D
100
AcDbSymbolTableRecord
100
AcDbLayerTableRecord
  2
b1|Level 4
 70
    16
 62
     7
  6
Continuous
370
     0
390
13D39
347
13D3C
348
0
1001
AcCmTransparency
1071
 33554687
  0
LAYER
  5
13ED4
330
13D6D
100
AcDbSymbolTableRecord
100
AcDbLayerTableRecord
  2
b1|Level 5
 70
    16
 62
     7
  6
Continuous
370
     0
390
13D39
347
13D3C
348
0
1001
AcCmTransparency
1071
 33554687
  0
LAYER
  5
13ED5
330
13D6D
100
AcDbSymbolTableRecord
100
AcDbLayerTableRecord
  2
b1|Level 6
 70
    16
 62
     7
  6
Continuous
370
     0
390
13D39
347
13D3C
348
0
1001
AcCmTransparency
1071
 33554687
  0
LAYER
  5
13ED6
330
13D6D
100
AcDbSymbolTableRecord
100
AcDbLayerTableRecord
  2
b1|Level 7
 70
    16
 62
     7
  6
Continuous
370
     0
390
13D39
347
13D3C
348
0
1001
AcCmTransparency
1071
 33554687
  0
LAYER
  5
13ED7
330
13D6D
100
AcDbSymbolTableRecord
100
AcDbLayerTableRecord
  2
b1|Level 8
 70
    16
 62
     7
  6
Continuous
370
     0
390
13D39
347
13D3C
348
0
1001
AcCmTransparency
1071
 33554687
  0
LAYER
  5
13ED8
330
13D6D
100
AcDbSymbolTableRecord
100
AcDbLayerTableRecord
  2
b1|Level 9
 70
    16
 62
     7
  6
Continuous
370
     0
390
13D39
347
13D3C
348
0
1001
AcCmTransparency
1071
 33554687
  0
LAYER
  5
13ED9
330
13D6D
100
AcDbSymbolTableRecord
100
AcDbLayerTableRecord
  2
b1|Level 10
 70
    16
 62
     7
  6
Continuous
370
     0
390
13D39
347
13D3C
348
0
1001
AcCmTransparency
1071
 33554687
  0
LAYER
  5
13EDA
330
13D6D
100
AcDbSymbolTableRecord
100
AcDbLayerTableRecord
  2
b1|Level 11
 70
    16
 62
     7
  6
Continuous
370
     0
390
13D39
347
13D3C
348
0
1001
AcCmTransparency
1071
 33554687
  0
LAYER
  5
13EDB
330
13D6D
100
AcDbSymbolTableRecord
100
AcDbLayerTableRecord
  2
b1|Level 12
 70
    16
 62
     7
  6
Continuous
370
     0
390
13D39
347
13D3C
348
0
1001
AcCmTransparency
1071
 33554687
  0
LAYER
  5
13EDC
330
13D6D
100
AcDbSymbolTableRecord
100
AcDbLayerTableRecord
  2
b1|Level 13
 70
    16
 62
     7
  6
Continuous
370
     0
390
13D39
347
13D3C
348
0
1001
AcCmTransparency
1071
 33554687
  0
LAYER
  5
13EDD
330
13D6D
100
AcDbSymbolTableRecord
100
AcDbLayerTableRecord
  2
b1|Level 14
 70
    16
 62
     7
  6
Continuous
370
     0
390
13D39
347
13D3C
348
0
1001
AcCmTransparency
1071
 33554687
  0
LAYER
  5
13EDE
330
13D6D
100
AcDbSymbolTableRecord
100
AcDbLayerTableRecord
  2
b1|Level 15
 70
    16
 62
     7
  6
Continuous
370
     0
390
13D39
347
13D3C
348
0
1001
AcCmTransparency
1071
 33554687
  0
LAYER
  5
13EDF
330
13D6D
100
AcDbSymbolTableRecord
100
AcDbLayerTableRecord
  2
b1|Level 16
 70
    16
 62
     7
  6
Continuous
370
     0
390
13D39
347
13D3C
348
0
1001
AcCmTransparency
1071
 33554687
  0
LAYER
  5
13EE0
330
13D6D
100
AcDbSymbolTableRecord
100
AcDbLayerTableRecord
  2
b1|Level 17
 70
    16
 62
     7
  6
Continuous
370
     0
390
13D39
347
13D3C
348
0
1001
AcCmTransparency
1071
 33554687
  0
LAYER
  5
13EE1
330
13D6D
100
AcDbSymbolTableRecord
100
AcDbLayerTableRecord
  2
b1|Level 18
 70
    16
 62
     7
  6
Continuous
370
     0
390
13D39
347
13D3C
348
0
1001
AcCmTransparency
1071
 33554687
  0
LAYER
  5
13EE2
330
13D6D
100
AcDbSymbolTableRecord
100
AcDbLayerTableRecord
  2
b1|Level 19
 70
    16
 62
     7
  6
Continuous
370
     0
390
13D39
347
13D3C
348
0
1001
AcCmTransparency
1071
 33554687
  0
LAYER
  5
13EE3
330
13D6D
100
AcDbSymbolTableRecord
100
AcDbLayerTableRecord
  2
b1|Level 20
 70
    16
 62
     7
  6
Continuous
370
     0
390
13D39
347
13D3C
348
0
1001
AcCmTransparency
1071
 33554687
  0
LAYER
  5
13EE4
330
13D6D
100
AcDbSymbolTableRecord
100
AcDbLayerTableRecord
  2
b1|Level 21
 70
    16
 62
     7
  6
Continuous
370
     0
390
13D39
347
13D3C
348
0
1001
AcCmTransparency
1071
 33554687
  0
LAYER
  5
13EE5
330
13D6D
100
AcDbSymbolTableRecord
100
AcDbLayerTableRecord
  2
b1|Level 22
 70
    16
 62
     7
  6
Continuous
370
     0
390
13D39
347
13D3C
348
0
1001
AcCmTransparency
1071
 33554687
  0
LAYER
  5
13EE6
330
13D6D
100
AcDbSymbolTableRecord
100
AcDbLayerTableRecord
  2
b1|Level 23
 70
    16
 62
     7
  6
Continuous
370
     0
390
13D39
347
13D3C
348
0
1001
AcCmTransparency
1071
 33554687
  0
LAYER
  5
13EE7
330
13D6D
100
AcDbSymbolTableRecord
100
AcDbLayerTableRecord
  2
b1|Level 24
 70
    16
 62
     7
  6
Continuous
370
     0
390
13D39
347
13D3C
348
0
1001
AcCmTransparency
1071
 33554687
  0
LAYER
  5
13EE8
330
13D6D
100
AcDbSymbolTableRecord
100
AcDbLayerTableRecord
  2
b1|Level 25
 70
    16
 62
     7
  6
Continuous
370
     0
390
13D39
347
13D3C
348
0
1001
AcCmTransparency
1071
 33554687
  0
LAYER
  5
13EE9
330
13D6D
100
AcDbSymbolTableRecord
100
AcDbLayerTableRecord
  2
b1|Level 26
 70
    16
 62
     7
  6
Continuous
370
     0
390
13D39
347
13D3C
348
0
1001
AcCmTransparency
1071
 33554687
  0
LAYER
  5
13EEA
330
13D6D
100
AcDbSymbolTableRecord
100
AcDbLayerTableRecord
  2
b1|Level 27
 70
    16
 62
     7
  6
Continuous
370
     0
390
13D39
347
13D3C
348
0
1001
AcCmTransparency
1071
 33554687
  0
LAYER
  5
13EEB
330
13D6D
100
AcDbSymbolTableRecord
100
AcDbLayerTableRecord
  2
b1|Level 28
 70
    16
 62
     7
  6
Continuous
370
     0
390
13D39
347
13D3C
348
0
1001
AcCmTransparency
1071
 33554687
  0
LAYER
  5
13EEC
330
13D6D
100
AcDbSymbolTableRecord
100
AcDbLayerTableRecord
  2
b1|Level 29
 70
    16
 62
     7
  6
Continuous
370
     0
390
13D39
347
13D3C
348
0
1001
AcCmTransparency
1071
 33554687
  0
LAYER
  5
13EED
330
13D6D
100
AcDbSymbolTableRecord
100
AcDbLayerTableRecord
  2
b1|Level 30
 70
    16
 62
     7
  6
Continuous
370
     0
390
13D39
347
13D3C
348
0
1001
AcCmTransparency
1071
 33554687
  0
LAYER
  5
13EEE
330
13D6D
100
AcDbSymbolTableRecord
100
AcDbLayerTableRecord
  2
b1|Level 31
 70
    16
 62
     7
  6
Continuous
370
     0
390
13D39
347
13D3C
348
0
1001
AcCmTransparency
1071
 33554687
  0
LAYER
  5
13EEF
330
13D6D
100
AcDbSymbolTableRecord
100
AcDbLayerTableRecord
  2
b1|Level 32
 70
    16
 62
     7
  6
Continuous
370
     0
390
13D39
347
13D3C
348
0
1001
AcCmTransparency
1071
 33554687
  0
LAYER
  5
13EF0
330
13D6D
100
AcDbSymbolTableRecord
100
AcDbLayerTableRecord
  2
b1|Level 33
 70
    16
 62
     7
  6
Continuous
370
     0
390
13D39
347
13D3C
348
0
1001
AcCmTransparency
1071
 33554687
  0
LAYER
  5
13EF1
330
13D6D
100
AcDbSymbolTableRecord
100
AcDbLayerTableRecord
  2
b1|Level 34
 70
    16
 62
     7
  6
Continuous
370
     0
390
13D39
347
13D3C
348
0
1001
AcCmTransparency
1071
 33554687
  0
LAYER
  5
13EF2
330
13D6D
100
AcDbSymbolTableRecord
100
AcDbLayerTableRecord
  2
b1|Level 35
 70
    16
 62
     7
  6
Continuous
370
     0
390
13D39
347
13D3C
348
0
1001
AcCmTransparency
1071
 33554687
  0
LAYER
  5
13EF3
330
13D6D
100
AcDbSymbolTableRecord
100
AcDbLayerTableRecord
  2
b1|Level 36
 70
    16
 62
     7
  6
Continuous
370
     0
390
13D39
347
13D3C
348
0
1001
AcCmTransparency
1071
 33554687
  0
LAYER
  5
13EF4
330
13D6D
100
AcDbSymbolTableRecord
100
AcDbLayerTableRecord
  2
b1|Level 37
 70
    16
 62
     7
  6
Continuous
370
     0
390
13D39
347
13D3C
348
0
1001
AcCmTransparency
1071
 33554687
  0
LAYER
  5
13EF5
330
13D6D
100
AcDbSymbolTableRecord
100
AcDbLayerTableRecord
  2
b1|Level 38
 70
    16
 62
     7
  6
Continuous
370
     0
390
13D39
347
13D3C
348
0
1001
AcCmTransparency
1071
 33554687
  0
LAYER
  5
13EF6
330
13D6D
100
AcDbSymbolTableRecord
100
AcDbLayerTableRecord
  2
b1|Level 39
 70
    16
 62
     7
  6
Continuous
370
     0
390
13D39
347
13D3C
348
0
1001
AcCmTransparency
1071
 33554687
  0
LAYER
  5
13EF7
330
13D6D
100
AcDbSymbolTableRecord
100
AcDbLayerTableRecord
  2
b1|Level 40
 70
    16
 62
     7
  6
Continuous
370
     0
390
13D39
347
13D3C
348
0
1001
AcCmTransparency
1071
 33554687
  0
LAYER
  5
13EF8
330
13D6D
100
AcDbSymbolTableRecord
100
AcDbLayerTableRecord
  2
b1|Level 41
 70
    16
 62
     7
  6
Continuous
370
     0
390
13D39
347
13D3C
348
0
1001
AcCmTransparency
1071
 33554687
  0
LAYER
  5
13EF9
330
13D6D
100
AcDbSymbolTableRecord
100
AcDbLayerTableRecord
  2
b1|Level 42
 70
    16
 62
     7
  6
Continuous
370
     0
390
13D39
347
13D3C
348
0
1001
AcCmTransparency
1071
 33554687
  0
LAYER
  5
13EFA
330
13D6D
100
AcDbSymbolTableRecord
100
AcDbLayerTableRecord
  2
b1|Level 43
 70
    16
 62
     7
  6
Continuous
370
     0
390
13D39
347
13D3C
348
0
1001
AcCmTransparency
1071
 33554687
  0
LAYER
  5
13EFB
330
13D6D
100
AcDbSymbolTableRecord
100
AcDbLayerTableRecord
  2
b1|Level 44
 70
    16
 62
     7
  6
Continuous
370
     0
390
13D39
347
13D3C
348
0
1001
AcCmTransparency
1071
 33554687
  0
LAYER
  5
13EFC
330
13D6D
100
AcDbSymbolTableRecord
100
AcDbLayerTableRecord
  2
b1|Level 45
 70
    16
 62
     7
  6
Continuous
370
     0
390
13D39
347
13D3C
348
0
1001
AcCmTransparency
1071
 33554687
  0
LAYER
  5
13EFD
330
13D6D
100
AcDbSymbolTableRecord
100
AcDbLayerTableRecord
  2
b1|Level 46
 70
    16
 62
     7
  6
Continuous
370
     0
390
13D39
347
13D3C
348
0
1001
AcCmTransparency
1071
 33554687
  0
LAYER
  5
13EFE
330
13D6D
100
AcDbSymbolTableRecord
100
AcDbLayerTableRecord
  2
b1|Level 47
 70
    16
 62
     7
  6
Continuous
370
     0
390
13D39
347
13D3C
348
0
1001
AcCmTransparency
1071
 33554687
  0
LAYER
  5
13EFF
330
13D6D
100
AcDbSymbolTableRecord
100
AcDbLayerTableRecord
  2
b1|Level 48
 70
    16
 62
     7
  6
Continuous
370
     0
390
13D39
347
13D3C
348
0
1001
AcCmTransparency
1071
 33554687
  0
LAYER
  5
13F00
330
13D6D
100
AcDbSymbolTableRecord
100
AcDbLayerTableRecord
  2
b1|Level 49
 70
    16
 62
     7
  6
Continuous
370
     0
390
13D39
347
13D3C
348
0
1001
AcCmTransparency
1071
 33554687
  0
LAYER
  5
13F01
330
13D6D
100
AcDbSymbolTableRecord
100
AcDbLayerTableRecord
  2
b1|Level 50
 70
    16
 62
     7
  6
Continuous
370
     0
390
13D39
347
13D3C
348
0
1001
AcCmTransparency
1071
 33554687
  0
LAYER
  5
13F02
330
13D6D
100
AcDbSymbolTableRecord
100
AcDbLayerTableRecord
  2
b1|Level 51
 70
    16
 62
     7
  6
Continuous
370
     0
390
13D39
347
13D3C
348
0
1001
AcCmTransparency
1071
 33554687
  0
LAYER
  5
13F03
330
13D6D
100
AcDbSymbolTableRecord
100
AcDbLayerTableRecord
  2
b1|Level 52
 70
    16
 62
     7
  6
Continuous
370
     0
390
13D39
347
13D3C
348
0
1001
AcCmTransparency
1071
 33554687
  0
LAYER
  5
13F04
330
13D6D
100
AcDbSymbolTableRecord
100
AcDbLayerTableRecord
  2
b1|Level 53
 70
    16
 62
     7
  6
Continuous
370
     0
390
13D39
347
13D3C
348
0
1001
AcCmTransparency
1071
 33554687
  0
LAYER
  5
13F05
330
13D6D
100
AcDbSymbolTableRecord
100
AcDbLayerTableRecord
  2
b1|Level 54
 70
    16
 62
     7
  6
Continuous
370
     0
390
13D39
347
13D3C
348
0
1001
AcCmTransparency
1071
 33554687
  0
LAYER
  5
13F06
330
13D6D
100
AcDbSymbolTableRecord
100
AcDbLayerTableRecord
  2
b1|Level 55
 70
    16
 62
     7
  6
Continuous
370
     0
390
13D39
347
13D3C
348
0
1001
AcCmTransparency
1071
 33554687
  0
LAYER
  5
13F07
330
13D6D
100
AcDbSymbolTableRecord
100
AcDbLayerTableRecord
  2
b1|Level 56
 70
    16
 62
     7
  6
Continuous
370
     0
390
13D39
347
13D3C
348
0
1001
AcCmTransparency
1071
 33554687
  0
LAYER
  5
13F08
330
13D6D
100
AcDbSymbolTableRecord
100
AcDbLayerTableRecord
  2
b1|Level 57
 70
    16
 62
     7
  6
Continuous
370
     0
390
13D39
347
13D3C
348
0
1001
AcCmTransparency
1071
 33554687
  0
LAYER
  5
13F09
330
13D6D
100
AcDbSymbolTableRecord
100
AcDbLayerTableRecord
  2
b1|Level 58
 70
    16
 62
     7
  6
Continuous
370
     0
390
13D39
347
13D3C
348
0
1001
AcCmTransparency
1071
 33554687
  0
LAYER
  5
13F0A
330
13D6D
100
AcDbSymbolTableRecord
100
AcDbLayerTableRecord
  2
b1|Level 59
 70
    16
 62
     7
  6
Continuous
370
     0
390
13D39
347
13D3C
348
0
1001
AcCmTransparency
1071
 33554687
  0
LAYER
  5
13F0B
330
13D6D
100
AcDbSymbolTableRecord
100
AcDbLayerTableRecord
  2
b1|Level 60
 70
    16
 62
     7
  6
Continuous
370
     0
390
13D39
347
13D3C
348
0
1001
AcCmTransparency
1071
 33554687
  0
LAYER
  5
13F0C
330
13D6D
100
AcDbSymbolTableRecord
100
AcDbLayerTableRecord
  2
b1|Level 61
 70
    16
 62
     7
  6
Continuous
370
     0
390
13D39
347
13D3C
348
0
1001
AcCmTransparency
1071
 33554687
  0
LAYER
  5
13F0D
330
13D6D
100
AcDbSymbolTableRecord
100
AcDbLayerTableRecord
  2
b1|Level 62
 70
    16
 62
     7
  6
Continuous
370
     0
390
13D39
347
13D3C
348
0
1001
AcCmTransparency
1071
 33554687
  0
LAYER
  5
13F0E
330
13D6D
100
AcDbSymbolTableRecord
100
AcDbLayerTableRecord
  2
b1|Level 63
 70
    16
 62
     7
  6
Continuous
370
     0
390
13D39
347
13D3C
348
0
1001
AcCmTransparency
1071
 33554687
  0
LAYER
  5
13D2D
330
13D6D
100
AcDbSymbolTableRecord
100
AcDbLayerTableRecord
  2
Level 17
 70
     0
 62
     7
  6
Continuous
370
     0
390
13D39
347
13D3C
348
0
1001
AcCmTransparency
1071
 33554687
  0
LAYER
  5
13D2E
330
13D6D
100
AcDbSymbolTableRecord
100
AcDbLayerTableRecord
  2
slidesx - Level 26
 70
     0
 62
     7
  6
Continuous
370
     0
390
13D39
347
13D3C
348
0
1001
AcCmTransparency
1071
 33554687
  0
LAYER
  5
13D2F
330
13D6D
100
AcDbSymbolTableRecord
100
AcDbLayerTableRecord
  2
slidesx - Level 27
 70
     0
 62
     7
  6
Continuous
370
     0
390
13D39
347
13D3C
348
0
1001
AcCmTransparency
1071
 33554687
  0
LAYER
  5
13D30
330
13D6D
100
AcDbSymbolTableRecord
100
AcDbLayerTableRecord
  2
slidesx - Level 25
 70
     0
 62
     7
  6
Continuous
370
     0
390
13D39
347
13D3C
348
0
1001
AcCmTransparency
1071
 33554687
  0
ENDTAB
  0
TABLE
  2
STYLE
  5
13D72
330
0
100
AcDbSymbolTable
 70
     3
  0
STYLE
  5
13D73
330
13D72
100
AcDbSymbolTableRecord
100
AcDbTextStyleTableRecord
  2
Standard
 70
     0
 40
3.0
 41
1.0
 50
0.0
 71
     0
 42
3.0
  3
INTL_ISO.shx
  4

1001
AcadAnnotative
1000
AnnotativeData
1002
{
1070
     1
1070
     0
1002
}
  0
STYLE
  5
13D49
330
13D72
100
AcDbSymbolTableRecord
100
AcDbTextStyleTableRecord
  2
Style-STANDARD
 70
     0
 40
0.0
 41
1.0
 50
0.0
 71
     0
 42
3.5
  3
STANDARD.shx
  4

1001
AcadAnnotative
1000
AnnotativeData
1002
{
1070
     1
1070
     1
1002
}
  0
STYLE
  5
313
330
13D72
100
AcDbSymbolTableRecord
100
AcDbTextStyleTableRecord
  2
Style-INTL_ISO
 70
     0
 40
0.0
 41
1.0
 50
0.0
 71
     0
 42
3.5
  3
INTL_ISO.shx
  4

  0
ENDTAB
  0
TABLE
  2
VIEW
  5
13D78
330
0
100
AcDbSymbolTable
 70
     0
  0
ENDTAB
  0
TABLE
  2
UCS
  5
13D79
330
0
100
AcDbSymbolTable
 70
     0
  0
ENDTAB
  0
TABLE
  2
APPID
  5
13D7E
330
0
100
AcDbSymbolTable
 70
     5
  0
APPID
  5
13D7F
330
13D7E
100
AcDbSymbolTableRecord
100
AcDbRegAppTableRecord
  2
ACAD
 70
     0
  0
APPID
  5
13D6C
330
13D7E
100
AcDbSymbolTableRecord
100
AcDbRegAppTableRecord
  2
ACAD_PSEXT
 70
     0
  0
APPID
  5
13D46
330
13D7E
100
AcDbSymbolTableRecord
100
AcDbRegAppTableRecord
  2
AcCmTransparency
 70
     0
  0
APPID
  5
13D4A
330
13D7E
100
AcDbSymbolTableRecord
100
AcDbRegAppTableRecord
  2
AcadAnnotative
 70
     0
  0
APPID
  5
13D52
330
13D7E
100
AcDbSymbolTableRecord
100
AcDbRegAppTableRecord
  2
MStation
 70
     0
  0
ENDTAB
  0
TABLE
  2
DIMSTYLE
  5
13D80
330
0
100
AcDbSymbolTable
 70
     1
100
AcDbDimStyleTable
 71
     1
340
13D81
  0
DIMSTYLE
105
13D81
330
13D80
100
AcDbSymbolTableRecord
100
AcDbDimStyleTableRecord
  2
Standard
 70
     0
 42
0.0625
 44
0.18
 78
     3
272
     0
274
     0
278
     0
284
     3
285
     3
286
     3
289
     1
340
13D73
345
13D45
346
13D45
347
13D45
  0
ENDTAB
  0
TABLE
  2
BLOCK_RECORD
  5
13D31
330
0
100
AcDbSymbolTable
 70
     6
  0
BLOCK_RECORD
  5
13D32
102
{ACAD_XDICTIONARY
360
13D33
102
}
330
13D31
100
AcDbSymbolTableRecord
100
AcDbBlockTableRecord
  2
*Model_Space
340
13D64
 70
     0
280
     1
281
     0
  0
BLOCK_RECORD
  5
13D67
330
13D31
100
AcDbSymbolTableRecord
100
AcDbBlockTableRecord
  2
*Paper_Space
340
13D6A
 70
     0
280
     1
281
     0
  0
BLOCK_RECORD
  5
13D4F
330
13D31
100
AcDbSymbolTableRecord
100
AcDbBlockTableRecord
  2
A!
340
0
102
{BLKREFS
331
13D4E
102
}
 70
     0
280
     1
281
     0
  0
BLOCK_RECORD
  5
13D54
330
13D31
100
AcDbSymbolTableRecord
100
AcDbBlockTableRecord
  2
a2
340
0
102
{BLKREFS
331
13D53
102
}
 70
     0
280
     1
281
     0
  0
BLOCK_RECORD
  5
13D58
330
13D31
100
AcDbSymbolTableRecord
100
AcDbBlockTableRecord
  2
a3
340
0
102
{BLKREFS
331
13D57
102
}
 70
     0
280
     1
281
     0
  0
BLOCK_RECORD
  5
13D5C
330
13D31
100
AcDbSymbolTableRecord
100
AcDbBlockTableRecord
  2
a4
340
0
102
{BLKREFS
331
13D5B
102
}
 70
     0
280
     1
281
     0
  0
BLOCK_RECORD
  5
13D60
330
13D31
100
AcDbSymbolTableRecord
100
AcDbBlockTableRecord
  2
b1
340
0
102
{BLKREFS
331
13D5F
102
}
 70
     0
280
     1
281
     0
  0
BLOCK_RECORD
  5
13DA5
330
13D31
100
AcDbSymbolTableRecord
100
AcDbBlockTableRecord
  2
TerminatorOpen_0.5
340
0
 70
     0
280
     1
281
     0
  0
ENDTAB
  0
ENDSEC
  0
SECTION
  2
BLOCKS
  0
BLOCK
  5
13D35
330
13D32
100
AcDbEntity
  8
0
100
AcDbBlockBegin
  2
*Model_Space
 70
     0
 10
0.0
 20
0.0
 30
0.0
  3
*Model_Space
  1

  0
ENDBLK
  5
13D63
330
13D32
100
AcDbEntity
  8
0
100
AcDbBlockEnd
  0
BLOCK
  5
13D68
330
13D67
100
AcDbEntity
 67
     1
  8
0
100
AcDbBlockBegin
  2
*Paper_Space
 70
     0
 10
0.0
 20
0.0
 30
0.0
  3
*Paper_Space
  1

  0
ENDBLK
  5
13D69
330
13D67
100
AcDbEntity
 67
     1
  8
0
100
AcDbBlockEnd
  0
BLOCK
  5
13D50
330
13D4F
100
AcDbEntity
  8
0
100
AcDbBlockBegin
  2
A!
 70
     4
 10
0.0
 20
0.0
 30
0.0
  3
A!
  1
C:\ProgramData\Bentley\MicroStation CONNECT Edition\Configuration\WorkSpaces\Electranet\Standards\ref\a1draw.dwg
  0
ENDBLK
  5
13D51
330
13D4F
100
AcDbEntity
  8
0
100
AcDbBlockEnd
  0
BLOCK
  5
13D55
330
13D54
100
AcDbEntity
  8
0
100
AcDbBlockBegin
  2
a2
 70
     4
 71
     1
 10
0.0
 20
0.0
 30
0.0
  3
a2
  1
C:\ProgramData\Bentley\MicroStation CONNECT Edition\Configuration\WorkSpaces\Electranet\Standards\ref\a2draw.dwg
  0
ENDBLK
  5
13D56
330
13D54
100
AcDbEntity
  8
0
100
AcDbBlockEnd
  0
BLOCK
  5
13D59
330
13D58
100
AcDbEntity
  8
0
100
AcDbBlockBegin
  2
a3
 70
     4
 71
     1
 10
0.0
 20
0.0
 30
0.0
  3
a3
  1
C:\ProgramData\Bentley\MicroStation CONNECT Edition\Configuration\WorkSpaces\Electranet\Standards\ref\a3draw.dwg
  0
ENDBLK
  5
13D5A
330
13D58
100
AcDbEntity
  8
0
100
AcDbBlockEnd
  0
BLOCK
  5
13D5D
330
13D5C
100
AcDbEntity
  8
0
100
AcDbBlockBegin
  2
a4
 70
     4
 71
     1
 10
0.0
 20
0.0
 30
0.0
  3
a4
  1
C:\ProgramData\Bentley\MicroStation CONNECT Edition\Configuration\WorkSpaces\Electranet\Standards\ref\a4draw.dwg
  0
ENDBLK
  5
13D5E
330
13D5C
100
AcDbEntity
  8
0
100
AcDbBlockEnd
  0
BLOCK
  5
13D61
330
13D60
100
AcDbEntity
  8
0
100
AcDbBlockBegin
  2
b1
 70
     4
 71
     1
 10
0.0
 20
0.0
 30
0.0
  3
b1
  1
C:\ProgramData\Bentley\MicroStation CONNECT Edition\Configuration\WorkSpaces\Electranet\Standards\ref\b1draw.dwg
  0
ENDBLK
  5
13D62
330
13D60
100
AcDbEntity
  8
0
100
AcDbBlockEnd
  0
BLOCK
  5
13DA6
330
13DA5
100
AcDbEntity
  8
0
 62
     7
370
    30
100
AcDbBlockBegin
  2
TerminatorOpen_0.5
 70
     0
 10
0.0
 20
0.0
 30
0.0
  3
TerminatorOpen_0.5
  1

  0
LINE
  5
13DA7
330
13DA5
100
AcDbEntity
  8
0
  6
ByBlock
 62
     0
370
    -2
100
AcDbLine
 10
0.0
 20
0.0
 30
0.0
 11
-1.0
 21
0.0
 31
0.0
  0
LINE
  5
13DA8
330
13DA5
100
AcDbEntity
  8
0
  6
ByBlock
 62
     0
370
    -2
100
AcDbLine
 10
0.0
 20
0.0
 30
0.0
 11
-1.0
 21
0.25
 31
0.0
  0
LINE
  5
13DA9
330
13DA5
100
AcDbEntity
  8
0
  6
ByBlock
 62
     0
370
    -2
100
AcDbLine
 10
0.0
 20
0.0
 30
0.0
 11
-1.0
 21
-0.25
 31
0.0
  0
ENDBLK
  5
13DAA
330
13DA5
100
AcDbEntity
  8
0
 62
     7
370
    30
100
AcDbBlockEnd
  0
ENDSEC
  0
SECTION
  2
ENTITIES
  0
MTEXT
  5
13D47
330
13D32
100
AcDbEntity
  8
Level 2
  6
Continuous
 62
     7
370
    30
100
AcDbMText
 10
454.0
 20
47.166667
 30
0.0
 40
4.999998
 41
0.0
 46
0.0
 71
     5
 72
     1
  1
ENERGEX DRAWING NUMBER,\PDRAWING TITLE\PAND LOGO\P
  7
Style-STANDARD
 73
     2
 44
0.897
  0
TEXT
  5
13D4B
330
13D32
100
AcDbEntity
  8
Level 2
  6
Continuous
 62
     7
370
    30
100
AcDbText
 10
681.0
 20
24.5
 30
0.0
 40
4.999998
  1
DRAWING NUMBER
  7
Style-STANDARD
 11
681.0
 21
26.999999
 31
0.0
100
AcDbText
 73
     2
  0
MTEXT
  5
13D4C
330
13D32
100
AcDbEntity
  8
Level 2
  6
Continuous
 62
     7
370
    30
100
AcDbMText
 10
710.0
 20
43.166667
 30
0.0
 40
4.999998
 41
0.0
 46
0.0
 71
     5
 72
     1
  1
ElectraNet SA \PDRAWING TITLE\P
  7
Style-STANDARD
 73
     2
 44
0.897
  0
TEXT
  5
13D4D
330
13D32
100
AcDbEntity
  8
Level 2
  6
Continuous
 62
     7
370
    30
100
AcDbText
 10
704.0
 20
68.0
 30
0.0
 40
4.999998
  1
ElectraNet SA SUB TITLE
  7
Style-STANDARD
100
AcDbText
  0
INSERT
  5
13D4E
330
13D32
100
AcDbEntity
  8
0
  6
Continuous
 62
     7
370
    30
100
AcDbBlockReference
  2
A!
 10
0.0
 20
0.0
 30
0.0
1001
MStation
1000
RefAttachMethod
1002
{
1070
     0
1002
}
1000
RefTreatedAsElement
1002
{
1070
     0
1002
}
  0
INSERT
  5
13D53
330
13D32
100
AcDbEntity
  8
0
  6
Continuous
 62
     7
370
    30
100
AcDbBlockReference
  2
a2
 10
0.0
 20
0.0
 30
0.0
1001
MStation
1000
RefAttachMethod
1002
{
1070
     0
1002
}
1000
RefTreatedAsElement
1002
{
1070
     0
1002
}
  0
INSERT
  5
13D57
330
13D32
100
AcDbEntity
  8
0
  6
Continuous
 62
     7
370
    30
100
AcDbBlockReference
  2
a3
 10
0.0
 20
0.0
 30
0.0
1001
MStation
1000
RefAttachMethod
1002
{
1070
     0
1002
}
1000
RefTreatedAsElement
1002
{
1070
     0
1002
}
  0
INSERT
  5
13D5B
330
13D32
100
AcDbEntity
  8
0
  6
Continuous
 62
     7
370
    30
100
AcDbBlockReference
  2
a4
 10
0.0
 20
0.0
 30
0.0
1001
MStation
1000
RefAttachMethod
1002
{
1070
     0
1002
}
1000
RefTreatedAsElement
1002
{
1070
     0
1002
}
  0
INSERT
  5
13D5F
330
13D32
100
AcDbEntity
  8
0
  6
Continuous
 62
     7
370
    30
100
AcDbBlockReference
  2
b1
 10
0.0
 20
0.0
 30
0.0
1001
MStation
1000
RefAttachMethod
1002
{
1070
     0
1002
}
1000
RefTreatedAsElement
1002
{
1070
     0
1002
}
  0
ARC
  5
13B36
330
13D32
100
AcDbEntity
  8
Level 17
  6
DGN Style 2
 62
     7
370
    13
100
AcDbCircle
 10
2154.913108
 20
2250.54212
 30
0.0
 40
1575.000000000013
100
AcDbArc
 50
224.306689
 51
230.238333
  0
ARC
  5
13B37
330
13D32
100
AcDbEntity
  8
Level 17
  6
DGN Style 2
 62
     7
370
    13
100
AcDbCircle
 10
2154.913108
 20
2250.54212
 30
0.0
 40
1575.000000000013
100
AcDbArc
 50
210.945834
 51
224.30679
  0
ARC
  5
13B38
330
13D32
100
AcDbEntity
  8
Level 17
  6
DGN Style 2
 62
     7
370
    13
100
AcDbCircle
 10
2154.913108
 20
2250.54212
 30
0.0
 40
1575.000000000013
100
AcDbArc
 50
241.978352
 51
250.504251
  0
ARC
  5
13B39
330
13D32
100
AcDbEntity
  8
Level 17
  6
DGN Style 2
 62
     7
370
    13
100
AcDbCircle
 10
2154.913108
 20
2250.54212
 30
0.0
 40
1575.000000000013
100
AcDbArc
 50
250.504174
 51
268.402484
  0
ARC
  5
13B3A
330
13D32
100
AcDbEntity
  8
Level 17
  6
DGN Style 2
 62
     7
370
    13
100
AcDbCircle
 10
2154.913108
 20
2250.54212
 30
0.0
 40
1575.000000000013
100
AcDbArc
 50
230.238239
 51
241.978507
  0
ARC
  5
13B3B
330
13D32
100
AcDbEntity
  8
Level 17
  6
DGN Style 2
 62
     7
370
    13
100
AcDbCircle
 10
2154.913108
 20
2250.54212
 30
0.0
 40
1575.000000000013
100
AcDbArc
 50
188.37694
 51
199.011332
  0
ARC
  5
13B3C
330
13D32
100
AcDbEntity
  8
Level 17
  6
DGN Style 2
 62
     7
370
    13
100
AcDbCircle
 10
2154.913108
 20
2250.54212
 30
0.0
 40
1575.000000000013
100
AcDbArc
 50
199.266116
 51
210.945919
  0
ARC
  5
13B3D
330
13D32
100
AcDbEntity
  8
Level 17
  6
DGN Style 2
 62
     7
370
    13
100
AcDbCircle
 10
2154.913108
 20
2250.54212
 30
0.0
 40
1575.000000000013
100
AcDbArc
 50
199.011108
 51
199.266193
  0
LWPOLYLINE
  5
13B3E
330
13D32
100
AcDbEntity
  8
Level 17
  6
DGN Style 2
 62
     7
370
    13
100
AcDbPolyline
 90
        3
 70
   128
 43
0.0
 10
579.913108
 20
2311.31579
 10
579.913108
 20
2250.54212
 42
0.036568
 10
596.717004
 20
2021.086459
  0
LINE
  5
13B41
330
13D32
100
AcDbEntity
  8
Level 17
  6
DGN Style 2
 62
     7
370
    13
100
AcDbLine
 10
579.913108
 20
2601.54312
 30
0.0
 11
579.913108
 21
2311.31379
 31
0.0
  0
ARC
  5
13B42
330
13D32
100
AcDbEntity
  8
slidesx - Level 26
  6
Continuous
 62
     7
370
    13
100
AcDbCircle
 10
2154.913108
 20
2250.54212
 30
0.0
 40
75.00000000000001
100
AcDbArc
 50
125.873223
 51
234.165623
  0
ARC
  5
13B43
330
13D32
100
AcDbEntity
  8
slidesx - Level 26
  6
Continuous
 62
     7
370
    13
100
AcDbCircle
 10
-2154.913108
 20
2250.54212
 30
0.0
 40
51.0
210
0.0
220
0.0
230
-1.0
100
AcDbArc
 50
0.0
 51
30.57688
  0
ARC
  5
13B44
330
13D32
100
AcDbEntity
  8
slidesx - Level 26
  6
Continuous
 62
     7
370
    13
100
AcDbCircle
 10
-2154.913108
 20
2250.54212
 30
0.0
 40
51.0
210
0.0
220
0.0
230
-1.0
100
AcDbArc
 50
329.42312
 51
0.0
  0
LWPOLYLINE
  5
13B45
330
13D32
100
AcDbEntity
  8
Level 17
  6
DGN Style 2
 62
     7
370
    13
100
AcDbPolyline
 90
        3
 70
   128
 43
0.0
 10
2111.002792
 20
676.15434
 42
0.025163
 10
2269.386822
 20
679.707702
 10
2592.732125
 20
703.271318
  0
LINE
  5
13B48
330
13D32
100
AcDbEntity
  8
Level 17
  6
DGN Style 2
 62
     7
370
    13
100
AcDbLine
 10
2592.730125
 20
703.271172
 30
0.0
 11
3074.459458
 21
738.376938
 31
0.0
  0
LINE
  5
13B49
330
13D32
100
AcDbEntity
  8
Level 17
  6
DGN Style 2
 62
     7
370
    13
100
AcDbLine
 10
3074.457458
 20
738.376792
 30
0.0
 11
3556.186791
 21
773.482558
 31
0.0
  0
LINE
  5
13B4A
330
13D32
100
AcDbEntity
  8
Level 17
  6
DGN Style 2
 62
     7
370
    13
100
AcDbLine
 10
3556.184791
 20
773.482413
 30
0.0
 11
4037.914124
 21
808.588179
 31
0.0
  0
SPLINE
  5
13B4B
330
13D32
100
AcDbEntity
  8
slidesx - Level 26
  6
Continuous
 62
     7
370
    13
100
AcDbSpline
210
0.0
220
0.0
230
1.0
 70
     8
 71
     3
 72
     8
 73
     4
 74
     0
 42
0.000000001
 43
0.0000000001
 40
0.0
 40
0.0
 40
0.0
 40
0.0
 40
0.2137462793909744
 40
0.2137462793909744
 40
0.2137462793909744
 40
0.2137462793909744
 10
2206.44114478053
 20
2305.038541410907
 30
0.0
 10
2206.442012574381
 20
2305.127796672064
 30
0.0
 10
2206.433971809348
 20
2304.305426867653
 30
0.0
 10
2206.418325930859
 20
2302.705611075394
 30
0.0
  0
SPLINE
  5
13B4E
330
13D32
100
AcDbEntity
  8
slidesx - Level 26
  6
Continuous
 62
     7
370
    13
100
AcDbSpline
210
0.0
220
0.0
230
1.0
 70
     8
 71
     3
 72
    13
 73
     9
 74
     0
 42
0.000000001
 43
0.0000000001
 40
0.0
 40
0.0
 40
0.0
 40
0.0
 40
0.4026107362942949
 40
0.4026107362942949
 40
0.8229926864676324
 40
0.8229926864676324
 40
0.8229926864676324
 40
0.9909528443706674
 40
0.9909528443706674
 40
0.9909528443706674
 40
0.9909528443706674
 10
2260.309362355698
 20
2281.953154550905
 30
0.0
 10
2254.673080548551
 20
2287.786164779999
 30
0.0
 10
2248.002946285142
 20
2292.763185731956
 30
0.0
 10
2233.29284084841
 20
2300.412970771751
 30
0.0
 10
2225.000807935009
 20
2303.077011583767
 30
0.0
 10
2216.617202750935
 20
2304.277061612836
 30
0.0
 10
2213.251585357473
 20
2304.758824429929
 30
0.0
 10
2209.84530869021
 20
2305.013753889161
 30
0.0
 10
2206.441144902697
 20
2305.038555113704
 30
0.0
  0
SPLINE
  5
13B51
330
13D32
100
AcDbEntity
  8
slidesx - Level 26
  6
Continuous
 62
     7
370
    13
100
AcDbSpline
210
0.0
220
0.0
230
1.0
 70
     8
 71
     3
 72
    10
 73
     6
 74
     0
 42
0.000000001
 43
0.0000000001
 40
0.0
 40
0.0
 40
0.0
 40
0.0
 40
0.4203819501733377
 40
0.4203819501733377
 40
0.8229926864676324
 40
0.8229926864676324
 40
0.8229926864676324
 40
0.8229926864676324
 10
2216.617202750936
 20
2195.807179188625
 30
0.0
 10
2225.000807935009
 20
2197.007229217693
 30
0.0
 10
2233.29284084841
 20
2199.67127002971
 30
0.0
 10
2248.002946285143
 20
2207.321055069503
 30
0.0
 10
2254.673080548552
 20
2212.298076021461
 30
0.0
 10
2260.309362355699
 20
2218.131086250556
 30
0.0
  0
SPLINE
  5
13B54
330
13D32
100
AcDbEntity
  8
slidesx - Level 26
  6
Continuous
 62
     7
370
    13
100
AcDbSpline
210
0.0
220
0.0
230
1.0
 70
     8
 71
     3
 72
     8
 73
     4
 74
     0
 42
0.000000001
 43
0.0000000001
 40
0.0
 40
0.0
 40
0.0
 40
0.0
 40
0.1865638949220119
 40
0.1865638949220119
 40
0.1865638949220119
 40
0.1865638949220119
 10
2206.288261995424
 20
2258.034875489074
 30
0.0
 10
2206.358600889037
 20
2257.042469009817
 30
0.0
 10
2206.422347761357
 20
2256.049730808216
 30
0.0
 10
2206.421328745177
 20
2255.054159231703
 30
0.0
  0
SPLINE
  5
13B57
330
13D32
100
AcDbEntity
  8
slidesx - Level 26
  6
Continuous
 62
     7
370
    13
100
AcDbSpline
210
0.0
220
0.0
230
1.0
 70
     8
 71
     3
 72
     8
 73
     4
 74
     0
 42
0.000000001
 43
0.0000000001
 40
0.0
 40
0.0
 40
0.0
 40
0.0
 40
0.0530945053447743
 40
0.0530945053447743
 40
0.0530945053447743
 40
0.0530945053447743
 10
2206.043993937809
 20
2250.942294381566
 30
0.0
 10
2205.994730170763
 20
2250.660423041868
 30
0.0
 10
2205.947598294768
 20
2250.379003727426
 30
0.0
 10
2205.944081746203
 20
2250.097371613248
 30
0.0
  0
SPLINE
  5
13B5A
330
13D32
100
AcDbEntity
  8
slidesx - Level 26
  6
Continuous
 62
     7
370
    13
100
AcDbSpline
210
0.0
220
0.0
230
1.0
 70
     8
 71
     3
 72
     8
 73
     4
 74
     0
 42
0.000000001
 43
0.0000000001
 40
0.0
 40
0.0
 40
0.0
 40
0.0
 40
0.1649854282765026
 40
0.1649854282765026
 40
0.1649854282765026
 40
0.1649854282765026
 10
2206.425622096981
 20
2244.682801625254
 30
0.0
 10
2206.422642723765
 20
2243.802263889078
 30
0.0
 10
2206.355452359604
 20
2242.925814600767
 30
0.0
 10
2206.288261995443
 20
2242.049365312457
 30
0.0
  0
SPLINE
  5
13B5D
330
13D32
100
AcDbEntity
  8
slidesx - Level 26
  6
Continuous
 62
     7
370
    13
100
AcDbSpline
210
0.0
220
0.0
230
1.0
 70
     8
 71
     3
 72
     9
 73
     5
 74
     0
 42
0.000000001
 43
0.0000000001
 40
0.0
 40
0.0
 40
0.0
 40
0.0
 40
0.1784143409096704
 40
0.228322785450326
 40
0.228322785450326
 40
0.228322785450326
 40
0.228322785450326
 10
2205.360340796189
 20
2195.043707494054
 30
0.0
 10
2205.363110005052
 20
2195.323005288943
 30
0.0
 10
2205.367896950893
 20
2195.806062949506
 30
0.0
 10
2205.382324409185
 20
2197.262245579229
 30
0.0
 10
2205.385916603355
 20
2197.624851621281
 30
0.0
  0
SPLINE
  5
13B60
330
13D32
100
AcDbEntity
  8
slidesx - Level 26
  6
Continuous
 62
     7
370
    13
100
AcDbSpline
210
0.0
220
0.0
230
1.0
 70
     8
 71
     3
 72
     8
 73
     4
 74
     0
 42
0.000000001
 43
0.0000000001
 40
0.0
 40
0.0
 40
0.0
 40
0.0
 40
0.1996337781626182
 40
0.1996337781626182
 40
0.1996337781626182
 40
0.1996337781626182
 10
2205.397986702828
 20
2198.84338594654
 30
0.0
 10
2205.41577540309
 20
2200.639462435307
 30
0.0
 10
2205.440227220602
 20
2203.109298302903
 30
0.0
 10
2205.469928316001
 20
2206.112531451007
 30
0.0
  0
SPLINE
  5
13B63
330
13D32
100
AcDbEntity
  8
slidesx - Level 26
  6
Continuous
 62
     7
370
    13
100
AcDbSpline
210
0.0
220
0.0
230
1.0
 70
     8
 71
     3
 72
     9
 73
     5
 74
     0
 42
0.000000001
 43
0.0000000001
 40
0.0
 40
0.0
 40
0.0
 40
0.0
 40
0.399267556325235
 40
0.4685785977567216
 40
0.4685785977567216
 40
0.4685785977567216
 40
0.4685785977567216
 10
2205.493166285914
 20
2208.462775144393
 30
0.0
 10
2205.55764102468
 20
2214.985093458817
 30
0.0
 10
2205.656291126046
 20
2224.978898942037
 30
0.0
 10
2205.766335238488
 20
2236.171433186175
 30
0.0
 10
2205.782693688981
 20
2237.835242503678
 30
0.0
  0
SPLINE
  5
13B66
330
13D32
100
AcDbEntity
  8
slidesx - Level 26
  6
Continuous
 62
     7
370
    13
100
AcDbSpline
210
0.0
220
0.0
230
1.0
 70
     8
 71
     3
 72
     8
 73
     4
 74
     0
 42
0.000000001
 43
0.0000000001
 40
0.0
 40
0.0
 40
0.0
 40
0.0
 40
0.1905166039761771
 40
0.1905166039761771
 40
0.1905166039761771
 40
0.1905166039761771
 10
2206.441144868116
 20
2305.038550367346
 30
0.0
 10
2206.441933417446
 20
2305.119646574083
 30
0.0
 10
2206.435640743374
 20
2304.476111145169
 30
0.0
 10
2206.423190354873
 20
2303.203011728319
 30
0.0
  0
SPLINE
  5
13B69
330
13D32
100
AcDbEntity
  8
slidesx - Level 26
  6
Continuous
 62
     7
370
    13
100
AcDbSpline
210
0.0
220
0.0
230
1.0
 70
     8
 71
     3
 72
     8
 73
     4
 74
     0
 42
0.000000001
 43
0.0000000001
 40
0.0
 40
0.0
 40
0.0
 40
0.0
 40
0.1865995430408008
 40
0.1865995430408008
 40
0.1865995430408008
 40
0.1865995430408008
 10
2205.52890681119
 20
2244.293848991487
 30
0.0
 10
2205.485573720231
 20
2243.905784375984
 30
0.0
 10
2205.43688543525
 20
2243.518326771481
 30
0.0
 10
2205.385238215123
 20
2243.131273000475
 30
0.0
  0
LINE
  5
13B6C
330
13D32
100
AcDbEntity
  8
slidesx - Level 27
  6
Continuous
 62
     7
370
    13
100
AcDbLine
 10
2260.89517
 20
2220.54212
 30
0.0
 11
2315.913108
 21
2220.54212
 31
0.0
  0
LINE
  5
13B6D
330
13D32
100
AcDbEntity
  8
slidesx - Level 27
  6
Continuous
 62
     7
370
    13
100
AcDbLine
 10
2315.913108
 20
2280.54212
 30
0.0
 11
2260.309362
 21
2280.54212
 31
0.0
  0
LINE
  5
13B6E
330
13D32
100
AcDbEntity
  8
slidesx - Level 27
  6
Continuous
 62
     7
370
    13
100
AcDbLine
 10
2315.913108
 20
2280.54212
 30
0.0
 11
2315.913108
 21
2220.54212
 31
0.0
  0
ARC
  5
13B6F
330
13D32
100
AcDbEntity
  8
slidesx - Level 27
  6
Continuous
 62
     7
370
    13
100
AcDbCircle
 10
2475.913108
 20
2250.54212
 30
0.0
 40
30.00000000000002
100
AcDbArc
 50
270.0
 51
55.481892
  0
LINE
  5
13B70
330
13D32
100
AcDbEntity
  8
slidesx - Level 27
  6
Continuous
 62
     7
370
    13
100
AcDbLine
 10
2315.913108
 20
2280.54212
 30
0.0
 11
2475.009983
 21
2280.54212
 31
0.0
  0
LINE
  5
13B71
330
13D32
100
AcDbEntity
  8
slidesx - Level 27
  6
Continuous
 62
     7
370
    13
100
AcDbLine
 10
2475.913108
 20
2220.54212
 30
0.0
 11
2315.913108
 21
2220.54212
 31
0.0
  0
SPLINE
  5
13B72
330
13D32
100
AcDbEntity
  8
slidesx - Level 26
  6
Continuous
 62
     7
370
    13
100
AcDbSpline
210
0.0
220
0.0
230
1.0
 70
     8
 71
     3
 72
     9
 73
     5
 74
     0
 42
0.000000001
 43
0.0000000001
 40
0.0
 40
0.0
 40
0.0
 40
0.0
 40
0.8015485477162009
 40
1.0
 40
1.0
 40
1.0
 40
1.0
 10
2206.441144780529
 20
2305.038541410907
 30
0.0
 10
2206.444399007473
 20
2305.373248640247
 30
0.0
 10
2206.292165705171
 20
2289.797123786944
 30
0.0
 10
2206.051929316829
 20
2265.280834230757
 30
0.0
 10
2206.004563869004
 20
2260.447887186421
 30
0.0
  0
SPLINE
  5
13B78
330
13D32
100
AcDbEntity
  8
slidesx - Level 26
  6
Continuous
 62
     7
370
    13
100
AcDbSpline
210
0.0
220
0.0
230
1.0
 70
     8
 71
     3
 72
    13
 73
     9
 74
     0
 42
0.000000001
 43
0.0000000001
 40
0.0
 40
0.0
 40
0.0
 40
0.0
 40
0.1770073135323675
 40
0.1770073135323675
 40
0.1770073135323675
 40
0.5973892637057052
 40
0.5973892637057052
 40
1.0
 40
1.0
 40
1.0
 40
1.0
 10
2205.89107524244
 20
2195.043681557391
 30
0.0
 10
2209.47823327624
 20
2195.043681557452
 30
0.0
 10
2213.070296742794
 20
2195.299466269812
 30
0.0
 10
2216.617202750936
 20
2195.807179188624
 30
0.0
 10
2225.000807935009
 20
2197.007229217692
 30
0.0
 10
2233.29284084841
 20
2199.67127002971
 30
0.0
 10
2248.002946285143
 20
2207.321055069503
 30
0.0
 10
2254.673080548552
 20
2212.298076021461
 30
0.0
 10
2260.309362355699
 20
2218.131086250555
 30
0.0
  0
LINE
  5
13B7B
330
13D32
100
AcDbEntity
  8
slidesx - Level 26
  6
Continuous
 62
     7
370
    13
100
AcDbLine
 10
2260.309362
 20
2218.131224
 30
0.0
 11
2260.309362
 21
2218.131086
 31
0.0
  0
LINE
  5
13B7C
330
13D32
100
AcDbEntity
  8
slidesx - Level 26
  6
Continuous
 62
     7
370
    13
100
AcDbLine
 10
2205.891075
 20
2195.043683
 30
0.0
 11
2205.891075
 21
2238.813947
 31
0.0
  0
LINE
  5
13B7D
330
13D32
100
AcDbEntity
  8
slidesx - Level 26
  6
Continuous
 62
     7
370
    13
100
AcDbLine
 10
2206.288262
 20
2242.049365
 30
0.0
 11
2205.891075
 21
2238.813947
 31
0.0
  0
SPLINE
  5
13B7E
330
13D32
100
AcDbEntity
  8
slidesx - Level 26
  6
Continuous
 62
     7
370
    13
100
AcDbSpline
210
0.0
220
0.0
230
1.0
 70
     8
 71
     3
 72
    14
 73
    10
 74
     0
 42
0.000000001
 43
0.0000000001
 40
0.0
 40
0.0
 40
0.0
 40
0.0
 40
0.1998898874164377
 40
0.4345940426261825
 40
0.5009621743071477
 40
0.5681741329641353
 40
0.7015836229835944
 40
0.8350145717234973
 40
1.0
 40
1.0
 40
1.0
 40
1.0
 10
2206.288261995424
 20
2258.034875489074
 30
0.0
 10
2206.363625095724
 20
2256.971582832727
 30
0.0
 10
2206.511024347802
 20
2254.658978853527
 30
0.0
 10
2206.249825342368
 20
2251.974369602483
 30
0.0
 10
2205.86971390422
 20
2250.022906565091
 30
0.0
 10
2206.189678057515
 20
2248.604790165514
 30
0.0
 10
2206.348860584137
 20
2246.824423311977
 30
0.0
 10
2206.476982516859
 20
2244.511086851708
 30
0.0
 10
2206.355452359604
 20
2242.925814600767
 30
0.0
 10
2206.288261995443
 20
2242.049365312457
 30
0.0
  0
LINE
  5
13B81
330
13D32
100
AcDbEntity
  8
slidesx - Level 26
  6
Continuous
 62
     7
370
    13
100
AcDbLine
 10
2206.004564
 20
2260.447887
 30
0.0
 11
2206.288262
 21
2258.034875
 31
0.0
  0
SPLINE
  5
13B82
330
13D32
100
AcDbEntity
  8
slidesx - Level 26
  6
Continuous
 62
     7
370
    13
100
AcDbSpline
210
0.0
220
0.0
230
1.0
 70
     8
 71
     3
 72
    10
 73
     6
 74
     0
 42
0.000000001
 43
0.0000000001
 40
0.0
 40
0.0
 40
0.0
 40
0.0
 40
0.1784143409096859
 40
0.9270410090194872
 40
1.0
 40
1.0
 40
1.0
 40
1.0
 10
2205.360340796189
 20
2195.043707494054
 30
0.0
 10
2205.363110005053
 20
2195.323005288943
 30
0.0
 10
2205.382546063934
 20
2197.284326232797
 30
0.0
 10
2205.57494717968
 20
2216.704903381631
 30
0.0
 10
2205.768049346499
 20
2236.34577671048
 30
0.0
 10
2205.785277250681
 20
2238.098015058489
 30
0.0
  0
SPLINE
  5
13B85
330
13D32
100
AcDbEntity
  8
slidesx - Level 26
  6
Continuous
 62
     7
370
    13
100
AcDbSpline
210
0.0
220
0.0
230
1.0
 70
     8
 71
     3
 72
     9
 73
     5
 74
     0
 42
0.000000001
 43
0.0000000001
 40
0.0
 40
0.0
 40
0.0
 40
0.0
 40
0.8015904421624789
 40
1.0
 40
1.0
 40
1.0
 40
1.0
 10
2206.441144868117
 20
2305.038550367346
 30
0.0
 10
2206.444462655607
 20
2305.379759179906
 30
0.0
 10
2206.29221663668
 20
2289.802322530277
 30
0.0
 10
2206.051929283662
 20
2265.280830640898
 30
0.0
 10
2206.004563869004
 20
2260.447887186421
 30
0.0
  0
SPLINE
  5
13B88
330
13D32
100
AcDbEntity
  8
slidesx - Level 26
  6
Continuous
 62
     7
370
    13
100
AcDbSpline
210
0.0
220
0.0
230
1.0
 70
     8
 71
     3
 72
    11
 73
     7
 74
     0
 42
0.000000001
 43
0.0000000001
 40
0.0
 40
0.0
 40
0.0
 40
0.0
 40
0.0838634918527893
 40
0.2406092571599222
 40
0.8609328576728717
 40
1.0
 40
1.0
 40
1.0
 40
1.0
 10
2205.579875832201
 20
2260.39348723165
 30
0.0
 10
2205.435006426674
 20
2260.374860065398
 30
0.0
 10
2205.329350320965
 20
2259.886218858219
 30
0.0
 10
2205.419017066783
 20
2258.088979519959
 30
0.0
 10
2205.641330034339
 20
2256.187874770104
 30
0.0
 10
2205.753038023661
 20
2254.603366567481
 30
0.0
 10
2205.773495095328
 20
2254.313195756459
 30
0.0
  0
SPLINE
  5
13B8B
330
13D32
100
AcDbEntity
  8
slidesx - Level 26
  6
Continuous
 62
     7
370
    13
100
AcDbSpline
210
0.0
220
0.0
230
1.0
 70
     8
 71
     3
 72
    12
 73
     8
 74
     0
 42
0.000000001
 43
0.0000000001
 40
0.0
 40
0.0
 40
0.0
 40
0.0
 40
0.6291683941156377
 40
0.800634448384512
 40
0.9401402127873572
 40
0.9876111823999361
 40
1.0
 40
1.0
 40
1.0
 40
1.0
 10
2205.52890681119
 20
2244.293848991487
 30
0.0
 10
2205.382798140148
 20
2242.985389244104
 30
0.0
 10
2205.119396887446
 20
2241.329119133578
 30
0.0
 10
2204.868994505192
 20
2239.38256652292
 30
0.0
 10
2204.822718764193
 20
2238.638577265936
 30
0.0
 10
2204.91924044807
 20
2238.253443494698
 30
0.0
 10
2205.021440260979
 20
2238.229656824216
 30
0.0
 10
2205.038835691739
 20
2238.230247492308
 30
0.0
  0
LINE
  5
13B8E
330
13D32
100
AcDbEntity
  8
slidesx - Level 26
  6
Continuous
 62
     7
370
    13
100
AcDbLine
 10
2205.038836
 20
2238.230247
 30
0.0
 11
2205.785277
 21
2238.098015
 31
0.0
  0
LINE
  5
13B8F
330
13D32
100
AcDbEntity
  8
slidesx - Level 26
  6
Continuous
 62
     7
370
    13
100
AcDbLine
 10
2206.004564
 20
2260.447887
 30
0.0
 11
2205.579876
 21
2260.393487
 31
0.0
  0
SPLINE
  5
13B90
330
13D32
100
AcDbEntity
  8
slidesx - Level 26
  6
Continuous
 62
     7
370
    13
100
AcDbSpline
210
0.0
220
0.0
230
1.0
 70
     8
 71
     3
 72
    11
 73
     7
 74
     0
 42
0.000000001
 43
0.0000000001
 40
0.0
 40
0.0
 40
0.0
 40
0.0
 40
0.1768991339144769
 40
0.6075314606508878
 40
0.6075314606508878
 40
1.0
 40
1.0
 40
1.0
 40
1.0
 10
2260.895169679924
 20
2280.542832009724
 30
0.0
 10
2260.894980335325
 20
2280.635250798241
 30
0.0
 10
2260.872781372917
 20
2280.9509566617
 30
0.0
 10
2260.773881360754
 20
2281.260331080924
 30
0.0
 10
2260.577002633199
 20
2281.640276304623
 30
0.0
 10
2260.453667087935
 20
2281.808832089304
 30
0.0
 10
2260.309362355701
 20
2281.953154550906
 30
0.0
  0
SPLINE
  5
13B93
330
13D32
100
AcDbEntity
  8
slidesx - Level 26
  6
Continuous
 62
     7
370
    13
100
AcDbSpline
210
0.0
220
0.0
230
1.0
 70
    24
 71
     3
 72
    11
 73
     7
 74
     0
 42
0.000000001
 43
0.0000000001
 40
0.0
 40
0.0
 40
0.0
 40
0.0
 40
0.1768991339144769
 40
0.6075314606508878
 40
0.6075314606508878
 40
1.0
 40
1.0
 40
1.0
 40
1.0
 10
2260.895169679924
 20
2250.042120400731
 30
0.0
 10
2260.894980335325
 20
2250.042120400731
 30
0.0
 10
2260.872781372917
 20
2250.042120400731
 30
0.0
 10
2260.773881360754
 20
2250.042120400731
 30
0.0
 10
2260.577002633199
 20
2250.042120400731
 30
0.0
 10
2260.453667087935
 20
2250.042120400731
 30
0.0
 10
2260.309362355701
 20
2250.042120400731
 30
0.0
  0
LINE
  5
13B96
330
13D32
100
AcDbEntity
  8
slidesx - Level 26
  6
Continuous
 62
     7
370
    13
100
AcDbLine
 10
2260.309362
 20
2281.953153
 30
0.0
 11
2260.309362
 21
2250.04212
 31
0.0
  0
LINE
  5
13B97
330
13D32
100
AcDbEntity
  8
slidesx - Level 26
  6
Continuous
 62
     7
370
    13
100
AcDbLine
 10
2260.89517
 20
2280.542832
 30
0.0
 11
2260.89517
 21
2250.04212
 31
0.0
  0
LINE
  5
13B98
330
13D32
100
AcDbEntity
  8
slidesx - Level 26
  6
Continuous
 62
     7
370
    13
100
AcDbLine
 10
2260.309362
 20
2250.04212
 30
0.0
 11
2260.309362
 21
2218.131086
 31
0.0
  0
LINE
  5
13B99
330
13D32
100
AcDbEntity
  8
slidesx - Level 26
  6
Continuous
 62
     7
370
    13
100
AcDbLine
 10
2260.89517
 20
2250.04212
 30
0.0
 11
2260.89517
 21
2219.541473
 31
0.0
  0
SPLINE
  5
13B9A
330
13D32
100
AcDbEntity
  8
slidesx - Level 26
  6
Continuous
 62
     7
370
    13
100
AcDbSpline
210
0.0
220
0.0
230
1.0
 70
     8
 71
     3
 72
    12
 73
     8
 74
     0
 42
0.000000001
 43
0.0000000001
 40
0.0
 40
0.0
 40
0.0
 40
0.0
 40
0.3924685393491123
 40
0.3924685393491123
 40
0.8231008660855231
 40
0.8231008660855231
 40
1.0
 40
1.0
 40
1.0
 40
1.0
 10
2260.309362355701
 20
2218.131086250556
 30
0.0
 10
2260.453667087935
 20
2218.275408712159
 30
0.0
 10
2260.577002633199
 20
2218.44396449684
 30
0.0
 10
2260.773881360754
 20
2218.823909720538
 30
0.0
 10
2260.843983972899
 20
2219.043201452098
 30
0.0
 10
2260.888355541646
 20
2219.3563633012
 30
0.0
 10
2260.894980335324
 20
2219.448990003221
 30
0.0
 10
2260.895169679924
 20
2219.541408791737
 30
0.0
  0
SPLINE
  5
13B9D
330
13D32
100
AcDbEntity
  8
slidesx - Level 26
  6
Continuous
 62
     7
370
    13
100
AcDbSpline
210
0.0
220
0.0
230
1.0
 70
     8
 71
     3
 72
    10
 73
     6
 74
     0
 42
0.000000001
 43
0.0000000001
 40
0.0
 40
0.0
 40
0.0
 40
0.0
 40
0.4306323267364109
 40
0.4306323267364109
 40
0.8231008660855231
 40
0.8231008660855231
 40
0.8231008660855231
 40
0.8231008660855231
 10
2260.875390291363
 20
2280.819382530766
 30
0.0
 10
2260.843983972899
 20
2281.041039349364
 30
0.0
 10
2260.773881360754
 20
2281.260331080924
 30
0.0
 10
2260.577002633199
 20
2281.640276304623
 30
0.0
 10
2260.453667087935
 20
2281.808832089303
 30
0.0
 10
2260.309362355701
 20
2281.953154550906
 30
0.0
  0
SPLINE
  5
13BA0
330
13D32
100
AcDbEntity
  8
slidesx - Level 26
  6
Continuous
 62
     7
370
    13
100
AcDbSpline
210
0.0
220
0.0
230
1.0
 70
     8
 71
     3
 72
    10
 73
     6
 74
     0
 42
0.000000001
 43
0.0000000001
 40
0.0
 40
0.0
 40
0.0
 40
0.0
 40
0.4306323267364109
 40
0.4306323267364109
 40
0.6075314606508878
 40
0.6075314606508878
 40
0.6075314606508878
 40
0.6075314606508878
 10
2260.670883387513
 20
2218.625139703739
 30
0.0
 10
2260.773881360754
 20
2218.823909720539
 30
0.0
 10
2260.843983972899
 20
2219.043201452098
 30
0.0
 10
2260.888355541647
 20
2219.356363301201
 30
0.0
 10
2260.894980335325
 20
2219.448990003222
 30
0.0
 10
2260.895169679924
 20
2219.541408791739
 30
0.0
  0
ARC
  5
13BA3
330
13D32
100
AcDbEntity
  8
slidesx - Level 26
  6
Continuous
 62
     7
370
    13
100
AcDbCircle
 10
2154.913108
 20
2250.54212
 30
0.0
 40
75.00000000000001
100
AcDbArc
 50
46.337888
 51
54.126777
  0
ARC
  5
13BA4
330
13D32
100
AcDbEntity
  8
slidesx - Level 26
  6
Continuous
 62
     7
370
    13
100
AcDbCircle
 10
2154.913108
 20
2250.54212
 30
0.0
 40
75.00000000000001
100
AcDbArc
 50
234.163738
 51
312.605036
  0
ARC
  5
13BA5
330
13D32
100
AcDbEntity
  8
slidesx - Level 26
  6
Continuous
 62
     7
370
    13
100
AcDbCircle
 10
-2154.913108
 20
2250.54212
 30
0.0
 40
51.0
210
0.0
220
0.0
230
-1.0
100
AcDbArc
 50
30.572463
 51
329.427537
  0
LINE
  5
13BA6
330
13D32
100
AcDbEntity
  8
slidesx - Level 27
  6
Continuous
 62
     7
370
    13
100
AcDbLine
 10
2458.913108
 20
2311.31579
 30
0.0
 11
2458.913108
 21
2280.54212
 31
0.0
  0
LINE
  5
13BA7
330
13D32
100
AcDbEntity
  8
slidesx - Level 27
  6
Continuous
 62
     7
370
    13
100
AcDbLine
 10
2492.913108
 20
2275.260535
 30
0.0
 11
2492.913108
 21
2311.31579
 31
0.0
  0
LINE
  5
13BA8
330
13D32
100
AcDbEntity
  8
slidesx - Level 26
  6
Continuous
 62
     7
370
    13
100
AcDbLine
 10
2135.913108
 20
2431.54212
 30
0.0
 11
2458.913108
 21
2431.54212
 31
0.0
  0
ARC
  5
13BA9
330
13D32
100
AcDbEntity
  8
slidesx - Level 26
  6
Continuous
 62
     7
370
    13
100
AcDbCircle
 10
2135.913108
 20
2441.54212
 30
0.0
 40
9.999999999999998
100
AcDbArc
 50
180.0
 51
270.0
  0
ARC
  5
13BAA
330
13D32
100
AcDbEntity
  8
slidesx - Level 26
  6
Continuous
 62
     7
370
    13
100
AcDbCircle
 10
-2220.913108
 20
2476.555376
 30
0.0
 40
10.99999999999999
210
0.0
220
0.0
230
-1.0
100
AcDbArc
 50
0.0
 51
359.999994
  0
ARC
  5
13BAB
330
13D32
100
AcDbEntity
  8
slidesx - Level 26
  6
Continuous
 62
     7
370
    13
100
AcDbCircle
 10
-2450.913108
 20
2476.555376
 30
0.0
 40
10.99999999999999
210
0.0
220
0.0
230
-1.0
100
AcDbArc
 50
0.0
 51
136.658242
  0
ARC
  5
13BAC
330
13D32
100
AcDbEntity
  8
slidesx - Level 26
  6
Continuous
 62
     7
370
    13
100
AcDbCircle
 10
-2450.913108
 20
2476.555376
 30
0.0
 40
10.99999999999999
210
0.0
220
0.0
230
-1.0
100
AcDbArc
 50
223.341758
 51
0.0
  0
LINE
  5
13BAD
330
13D32
100
AcDbEntity
  8
slidesx - Level 26
  6
Continuous
 62
     7
370
    13
100
AcDbLine
 10
2458.913108
 20
2426.54212
 30
0.0
 11
2135.913108
 21
2426.54212
 31
0.0
  0
LINE
  5
13BAE
330
13D32
100
AcDbEntity
  8
slidesx - Level 26
  6
Continuous
 62
     7
370
    13
100
AcDbLine
 10
2135.913108
 20
2426.54212
 30
0.0
 11
2135.913108
 21
2431.54212
 31
0.0
  0
LINE
  5
13BAF
330
13D32
100
AcDbEntity
  8
slidesx - Level 26
  6
Continuous
 62
     7
370
    13
100
AcDbLine
 10
2120.913108
 20
2441.54212
 30
0.0
 11
2125.913108
 21
2441.54212
 31
0.0
  0
ARC
  5
13BB0
330
13D32
100
AcDbEntity
  8
slidesx - Level 26
  6
Continuous
 62
     7
370
    13
100
AcDbCircle
 10
-2135.913108
 20
2441.54212
 30
0.0
 40
14.99999999999999
210
0.0
220
0.0
230
-1.0
100
AcDbArc
 50
270.0
 51
0.0
  0
LINE
  5
13BB1
330
13D32
100
AcDbEntity
  8
slidesx - Level 25
  6
Continuous
 62
     7
370
    13
100
AcDbLine
 10
2492.913108
 20
2354.328544
 30
0.0
 11
2592.732125
 21
2354.328544
 31
0.0
  0
LINE
  5
13BB2
330
13D32
100
AcDbEntity
  8
slidesx - Level 25
  6
Continuous
 62
     7
370
    13
100
AcDbLine
 10
2592.732125
 20
2354.342168
 30
0.0
 11
2492.913108
 21
2354.342168
 31
0.0
  0
LINE
  5
13BB3
330
13D32
100
AcDbEntity
  8
slidesx - Level 25
  6
Continuous
 62
     7
370
    13
100
AcDbLine
 10
2592.732125
 20
2359.08886
 30
0.0
 11
2492.913108
 21
2359.08886
 31
0.0
  0
LINE
  5
13BB4
330
13D32
100
AcDbEntity
  8
slidesx - Level 25
  6
Continuous
 62
     7
370
    13
100
AcDbLine
 10
2592.732125
 20
2390.807256
 30
0.0
 11
2492.913108
 21
2390.807256
 31
0.0
  0
LINE
  5
13BB5
330
13D32
100
AcDbEntity
  8
slidesx - Level 25
  6
Continuous
 62
     7
370
    13
100
AcDbLine
 10
2592.732125
 20
2407.196611
 30
0.0
 11
2492.913108
 21
2407.196611
 31
0.0
  0
LINE
  5
13BB6
330
13D32
100
AcDbEntity
  8
slidesx - Level 25
  6
Continuous
 62
     7
370
    13
100
AcDbLine
 10
2592.732125
 20
2436.68492
 30
0.0
 11
2492.913108
 21
2436.68492
 31
0.0
  0
ARC
  5
13BB7
330
13D32
100
AcDbEntity
  8
slidesx - Level 26
  6
Continuous
 62
     7
370
    13
100
AcDbCircle
 10
2154.913108
 20
2250.54212
 30
0.0
 40
75.00000000000001
100
AcDbArc
 50
54.12417
 51
125.836262
  0
LINE
  5
13BB8
330
13D32
100
AcDbEntity
  8
slidesx - Level 27
  6
Continuous
 62
     7
370
    13
100
AcDbLine
 10
2458.913108
 20
2601.54312
 30
0.0
 11
2458.913108
 21
2311.31379
 31
0.0
  0
LINE
  5
13BB9
330
13D32
100
AcDbEntity
  8
slidesx - Level 27
  6
Continuous
 62
     7
370
    13
100
AcDbLine
 10
2492.913108
 20
2311.31379
 30
0.0
 11
2492.913108
 21
2601.54312
 31
0.0
  0
LINE
  5
13BBA
330
13D32
100
AcDbEntity
  8
slidesx - Level 26
  6
Continuous
 62
     7
370
    13
100
AcDbLine
 10
2120.913108
 20
2441.54212
 30
0.0
 11
2120.913108
 21
2601.54312
 31
0.0
  0
LINE
  5
13BBB
330
13D32
100
AcDbEntity
  8
slidesx - Level 26
  6
Continuous
 62
     7
370
    13
100
AcDbLine
 10
2125.913108
 20
2601.54312
 30
0.0
 11
2125.913108
 21
2441.54212
 31
0.0
  0
ELLIPSE
  5
13BBC
330
13D32
100
AcDbEntity
  8
slidesx - Level 25
  6
Continuous
 62
     7
370
    13
100
AcDbEllipse
 10
2880.982665
 20
2375.080143
 30
0.0
 11
0.0
 21
15.99999999999999
 31
0.0
210
0.0
220
0.0
230
-1.0
 40
0.7783300374115392
 41
0.1849546169047142
 42
3.108582026054865
  0
LINE
  5
13BBD
330
13D32
100
AcDbEntity
  8
slidesx - Level 25
  6
Continuous
 62
     7
370
    13
100
AcDbLine
 10
2620.913108
 20
2359.08886
 30
0.0
 11
2881.393681
 21
2359.08886
 31
0.0
  0
LINE
  5
13BBE
330
13D32
100
AcDbEntity
  8
slidesx - Level 25
  6
Continuous
 62
     7
370
    13
100
AcDbLine
 10
2620.913108
 20
2359.08886
 30
0.0
 11
2620.913108
 21
2390.807256
 31
0.0
  0
LINE
  5
13BBF
330
13D32
100
AcDbEntity
  8
slidesx - Level 25
  6
Continuous
 62
     7
370
    13
100
AcDbLine
 10
2620.913108
 20
2390.807256
 30
0.0
 11
2883.272847
 21
2390.807256
 31
0.0
  0
LINE
  5
13BC0
330
13D32
100
AcDbEntity
  8
slidesx - Level 25
  6
Continuous
 62
     7
370
    13
100
AcDbLine
 10
2815.093054
 20
2407.196611
 30
0.0
 11
2883.272847
 21
2390.807256
 31
0.0
  0
LINE
  5
13BC1
330
13D32
100
AcDbEntity
  8
slidesx - Level 25
  6
Continuous
 62
     7
370
    13
100
AcDbLine
 10
2620.913108
 20
2407.196611
 30
0.0
 11
2620.913108
 21
2390.807256
 31
0.0
  0
LINE
  5
13BC2
330
13D32
100
AcDbEntity
  8
slidesx - Level 25
  6
Continuous
 62
     7
370
    13
100
AcDbLine
 10
2620.913108
 20
2407.196611
 30
0.0
 11
2815.093054
 21
2407.196611
 31
0.0
  0
LINE
  5
13BC3
330
13D32
100
AcDbEntity
  8
slidesx - Level 25
  6
Continuous
 62
     7
370
    13
100
AcDbLine
 10
2620.913108
 20
2359.08886
 30
0.0
 11
2620.913108
 21
2354.342168
 31
0.0
  0
LINE
  5
13BC4
330
13D32
100
AcDbEntity
  8
slidesx - Level 25
  6
Continuous
 62
     7
370
    13
100
AcDbLine
 10
2881.393681
 20
2359.08886
 30
0.0
 11
2769.40034
 21
2354.342168
 31
0.0
  0
LINE
  5
13BC5
330
13D32
100
AcDbEntity
  8
slidesx - Level 25
  6
Continuous
 62
     7
370
    13
100
AcDbLine
 10
2620.913108
 20
2354.342168
 30
0.0
 11
2769.40034
 21
2354.342168
 31
0.0
  0
ELLIPSE
  5
13BC6
330
13D32
100
AcDbEntity
  8
slidesx - Level 25
  6
Continuous
 62
     7
370
    13
100
AcDbEllipse
 10
2819.387267
 20
2436.68492
 30
0.0
 11
0.0
 21
-29.99999999999998
 31
0.0
210
0.0
220
0.0
230
0.9999999999999998
 40
0.778330037411539
 41
4.71238898038469
 42
6.098225391433746
  0
LINE
  5
13BC7
330
13D32
100
AcDbEntity
  8
slidesx - Level 25
  6
Continuous
 62
     7
370
    13
100
AcDbLine
 10
2620.913108
 20
2436.68492
 30
0.0
 11
2620.913108
 21
2407.196611
 31
0.0
  0
LINE
  5
13BC8
330
13D32
100
AcDbEntity
  8
slidesx - Level 25
  6
Continuous
 62
     7
370
    13
100
AcDbLine
 10
2620.913108
 20
2436.68492
 30
0.0
 11
2796.037366
 21
2436.68492
 31
0.0
  0
LINE
  5
13BC9
330
13D32
100
AcDbEntity
  8
slidesx - Level 25
  6
Continuous
 62
     7
370
    13
100
AcDbLine
 10
2620.913108
 20
2354.328544
 30
0.0
 11
2620.913108
 21
2354.342168
 31
0.0
  0
LINE
  5
13BCA
330
13D32
100
AcDbEntity
  8
slidesx - Level 25
  6
Continuous
 62
     7
370
    13
100
AcDbLine
 10
2592.730125
 20
2354.328544
 30
0.0
 11
2620.913108
 21
2354.328544
 31
0.0
  0
LINE
  5
13BCB
330
13D32
100
AcDbEntity
  8
slidesx - Level 25
  6
Continuous
 62
     7
370
    13
100
AcDbLine
 10
2620.913108
 20
2354.342168
 30
0.0
 11
2592.730125
 21
2354.342168
 31
0.0
  0
LINE
  5
13BCC
330
13D32
100
AcDbEntity
  8
slidesx - Level 25
  6
Continuous
 62
     7
370
    13
100
AcDbLine
 10
2620.913108
 20
2359.08886
 30
0.0
 11
2592.730125
 21
2359.08886
 31
0.0
  0
LINE
  5
13BCD
330
13D32
100
AcDbEntity
  8
slidesx - Level 25
  6
Continuous
 62
     7
370
    13
100
AcDbLine
 10
2620.913108
 20
2390.807256
 30
0.0
 11
2592.730125
 21
2390.807256
 31
0.0
  0
LINE
  5
13BCE
330
13D32
100
AcDbEntity
  8
slidesx - Level 25
  6
Continuous
 62
     7
370
    13
100
AcDbLine
 10
2620.913108
 20
2407.196611
 30
0.0
 11
2592.730125
 21
2407.196611
 31
0.0
  0
LINE
  5
13BCF
330
13D32
100
AcDbEntity
  8
slidesx - Level 25
  6
Continuous
 62
     7
370
    13
100
AcDbLine
 10
2620.913108
 20
2436.68492
 30
0.0
 11
2592.730125
 21
2436.68492
 31
0.0
  0
LINE
  5
13BD0
330
13D32
100
AcDbEntity
  8
slidesx - Level 25
  6
Continuous
 62
     7
370
    13
100
AcDbLine
 10
2620.913108
 20
2601.54312
 30
0.0
 11
2620.913108
 21
2436.68492
 31
0.0
  0
LINE
  5
13BD1
330
13D32
100
AcDbEntity
  8
slidesx - Level 25
  6
Continuous
 62
     7
370
    13
100
AcDbLine
 10
3074.459458
 20
2354.342168
 30
0.0
 11
2769.40034
 21
2354.342168
 31
0.0
  0
LINE
  5
13BD2
330
13D32
100
AcDbEntity
  8
slidesx - Level 25
  6
Continuous
 62
     7
370
    13
100
AcDbLine
 10
3074.459458
 20
2359.08886
 30
0.0
 11
2881.393681
 21
2359.08886
 31
0.0
  0
LINE
  5
13BD3
330
13D32
100
AcDbEntity
  8
slidesx - Level 25
  6
Continuous
 62
     7
370
    13
100
AcDbLine
 10
3074.459458
 20
2390.807256
 30
0.0
 11
2883.272847
 21
2390.807256
 31
0.0
  0
LINE
  5
13BD4
330
13D32
100
AcDbEntity
  8
slidesx - Level 25
  6
Continuous
 62
     7
370
    13
100
AcDbLine
 10
3074.459458
 20
2407.196611
 30
0.0
 11
2815.093054
 21
2407.196611
 31
0.0
  0
LINE
  5
13BD5
330
13D32
100
AcDbEntity
  8
slidesx - Level 25
  6
Continuous
 62
     7
370
    13
100
AcDbLine
 10
3074.459458
 20
2436.68492
 30
0.0
 11
2796.037366
 21
2436.68492
 31
0.0
  0
LINE
  5
13BD6
330
13D32
100
AcDbEntity
  8
slidesx - Level 25
  6
Continuous
 62
     7
370
    13
100
AcDbLine
 10
2796.037366
 20
2601.54312
 30
0.0
 11
2796.037366
 21
2436.68492
 31
0.0
  0
LINE
  5
13BD7
330
13D32
100
AcDbEntity
  8
slidesx - Level 25
  6
Continuous
 62
     7
370
    13
100
AcDbLine
 10
3556.186791
 20
2354.342168
 30
0.0
 11
3074.457458
 21
2354.342168
 31
0.0
  0
LINE
  5
13BD8
330
13D32
100
AcDbEntity
  8
slidesx - Level 25
  6
Continuous
 62
     7
370
    13
100
AcDbLine
 10
3556.186791
 20
2359.08886
 30
0.0
 11
3074.457458
 21
2359.08886
 31
0.0
  0
LINE
  5
13BD9
330
13D32
100
AcDbEntity
  8
slidesx - Level 25
  6
Continuous
 62
     7
370
    13
100
AcDbLine
 10
3556.186791
 20
2390.807256
 30
0.0
 11
3074.457458
 21
2390.807256
 31
0.0
  0
LINE
  5
13BDA
330
13D32
100
AcDbEntity
  8
slidesx - Level 25
  6
Continuous
 62
     7
370
    13
100
AcDbLine
 10
3556.186791
 20
2407.196611
 30
0.0
 11
3074.457458
 21
2407.196611
 31
0.0
  0
LINE
  5
13BDB
330
13D32
100
AcDbEntity
  8
slidesx - Level 25
  6
Continuous
 62
     7
370
    13
100
AcDbLine
 10
3556.186791
 20
2436.68492
 30
0.0
 11
3074.457458
 21
2436.68492
 31
0.0
  0
ELLIPSE
  5
13BDC
330
13D32
100
AcDbEntity
  8
slidesx - Level 25
  6
Continuous
 62
     7
370
    13
100
AcDbEllipse
 10
3599.609491
 20
2375.080143
 30
0.0
 11
0.0
 21
15.99999999999999
 31
0.0
210
0.0
220
0.0
230
-1.0
 40
0.2216270240209793
 41
0.1849546169046681
 42
3.108582026054939
  0
LINE
  5
13BDD
330
13D32
100
AcDbEntity
  8
slidesx - Level 25
  6
Continuous
 62
     7
370
    13
100
AcDbLine
 10
3580.847632
 20
2407.196611
 30
0.0
 11
3600.261613
 21
2390.807256
 31
0.0
  0
LINE
  5
13BDE
330
13D32
100
AcDbEntity
  8
slidesx - Level 25
  6
Continuous
 62
     7
370
    13
100
AcDbLine
 10
3599.726526
 20
2359.08886
 30
0.0
 11
3567.836776
 21
2354.342168
 31
0.0
  0
LINE
  5
13BDF
330
13D32
100
AcDbEntity
  8
slidesx - Level 25
  6
Continuous
 62
     7
370
    13
100
AcDbLine
 10
3599.726526
 20
2359.08886
 30
0.0
 11
3556.184791
 21
2359.08886
 31
0.0
  0
LINE
  5
13BE0
330
13D32
100
AcDbEntity
  8
slidesx - Level 25
  6
Continuous
 62
     7
370
    13
100
AcDbLine
 10
3600.261613
 20
2390.807256
 30
0.0
 11
3556.184791
 21
2390.807256
 31
0.0
  0
LINE
  5
13BE1
330
13D32
100
AcDbEntity
  8
slidesx - Level 25
  6
Continuous
 62
     7
370
    13
100
AcDbLine
 10
3580.847632
 20
2407.196611
 30
0.0
 11
3556.184791
 21
2407.196611
 31
0.0
  0
ELLIPSE
  5
13BE2
330
13D32
100
AcDbEntity
  8
slidesx - Level 25
  6
Continuous
 62
     7
370
    13
100
AcDbEllipse
 10
3582.070396
 20
2436.68492
 30
0.0
 11
0.0
 21
-29.99999999999999
 31
0.0
210
0.0
220
0.0
230
1.0
 40
0.2216270240209791
 41
4.71238898038469
 42
6.098225391433754
  0
LINE
  5
13BE3
330
13D32
100
AcDbEntity
  8
slidesx - Level 25
  6
Continuous
 62
     7
370
    13
100
AcDbLine
 10
3567.836776
 20
2354.342168
 30
0.0
 11
3556.184791
 21
2354.342168
 31
0.0
  0
LINE
  5
13BE4
330
13D32
100
AcDbEntity
  8
slidesx - Level 25
  6
Continuous
 62
     7
370
    13
100
AcDbLine
 10
3575.421585
 20
2436.68492
 30
0.0
 11
3556.184791
 21
2436.68492
 31
0.0
  0
LINE
  5
13BE5
330
13D32
100
AcDbEntity
  8
slidesx - Level 25
  6
Continuous
 62
     7
370
    13
100
AcDbLine
 10
3567.836776
 20
2354.342168
 30
0.0
 11
4037.914124
 21
2354.342168
 31
0.0
  0
LINE
  5
13BE6
330
13D32
100
AcDbEntity
  8
slidesx - Level 25
  6
Continuous
 62
     7
370
    13
100
AcDbLine
 10
3599.726526
 20
2359.08886
 30
0.0
 11
4037.914124
 21
2359.08886
 31
0.0
  0
LINE
  5
13BE7
330
13D32
100
AcDbEntity
  8
slidesx - Level 25
  6
Continuous
 62
     7
370
    13
100
AcDbLine
 10
3600.261613
 20
2390.807256
 30
0.0
 11
4037.914124
 21
2390.807256
 31
0.0
  0
LINE
  5
13BE8
330
13D32
100
AcDbEntity
  8
slidesx - Level 25
  6
Continuous
 62
     7
370
    13
100
AcDbLine
 10
3580.847632
 20
2407.196611
 30
0.0
 11
4037.914124
 21
2407.196611
 31
0.0
  0
LINE
  5
13BE9
330
13D32
100
AcDbEntity
  8
slidesx - Level 25
  6
Continuous
 62
     7
370
    13
100
AcDbLine
 10
3575.421585
 20
2436.68492
 30
0.0
 11
4037.914124
 21
2436.68492
 31
0.0
  0
LINE
  5
13BEA
330
13D32
100
AcDbEntity
  8
slidesx - Level 25
  6
Continuous
 62
     7
370
    13
100
AcDbLine
 10
3575.421585
 20
2601.54312
 30
0.0
 11
3575.421585
 21
2436.68492
 31
0.0
  0
LINE
  5
13BEB
330
13D32
100
AcDbEntity
  8
Level 17
  6
DGN Style 2
 62
     7
370
    13
100
AcDbLine
 10
579.913108
 20
2891.770451
 30
0.0
 11
579.913108
 21
2601.54112
 31
0.0
  0
LWPOLYLINE
  5
13BEC
330
13D32
100
AcDbEntity
  8
Level 17
  6
DGN Style 2
 62
     7
370
    13
100
AcDbPolyline
 90
        3
 70
   128
 43
0.0
 10
596.717004
 20
3181.997782
 42
0.036568
 10
579.913108
 20
2952.54212
 10
579.913108
 20
2891.768451
  0
ARC
  5
13BEF
330
13D32
100
AcDbEntity
  8
Level 17
  6
DGN Style 2
 62
     7
370
    13
100
AcDbCircle
 10
2154.913108
 20
2952.54212
 30
0.0
 40
1575.000000000013
100
AcDbArc
 50
160.988668
 51
171.62306
  0
ARC
  5
13BF0
330
13D32
100
AcDbEntity
  8
Level 17
  6
DGN Style 2
 62
     7
370
    13
100
AcDbCircle
 10
2154.913108
 20
2952.54212
 30
0.0
 40
1575.000000000013
100
AcDbArc
 50
160.733807
 51
160.988892
  0
ARC
  5
13BF1
330
13D32
100
AcDbEntity
  8
Level 17
  6
DGN Style 2
 62
     7
370
    13
100
AcDbCircle
 10
2154.913108
 20
2952.54212
 30
0.0
 40
1575.000000000013
100
AcDbArc
 50
149.054081
 51
160.733884
  0
ARC
  5
13BF2
330
13D32
100
AcDbEntity
  8
slidesx - Level 26
  6
Continuous
 62
     7
370
    13
100
AcDbCircle
 10
2154.913108
 20
2952.54212
 30
0.0
 40
75.00000000000001
100
AcDbArc
 50
125.834377
 51
234.126777
  0
ARC
  5
13BF3
330
13D32
100
AcDbEntity
  8
slidesx - Level 26
  6
Continuous
 62
     7
370
    13
100
AcDbCircle
 10
-2154.913108
 20
2952.54212
 30
0.0
 40
51.0
210
0.0
220
0.0
230
-1.0
100
AcDbArc
 50
0.0
 51
30.57688
  0
ARC
  5
13BF4
330
13D32
100
AcDbEntity
  8
slidesx - Level 26
  6
Continuous
 62
     7
370
    13
100
AcDbCircle
 10
-2154.913108
 20
2952.54212
 30
0.0
 40
51.0
210
0.0
220
0.0
230
-1.0
100
AcDbArc
 50
329.42312
 51
0.0
  0
ARC
  5
13BF5
330
13D32
100
AcDbEntity
  8
Level 17
  6
DGN Style 2
 62
     7
370
    13
100
AcDbCircle
 10
2154.913108
 20
2952.54212
 30
0.0
 40
1575.000000000013
100
AcDbArc
 50
135.69321
 51
149.054166
  0
ARC
  5
13BF6
330
13D32
100
AcDbEntity
  8
Level 17
  6
DGN Style 2
 62
     7
370
    13
100
AcDbCircle
 10
2154.913108
 20
2952.54212
 30
0.0
 40
1575.000000000013
100
AcDbArc
 50
129.761667
 51
135.693311
  0
ARC
  5
13BF7
330
13D32
100
AcDbEntity
  8
Level 17
  6
DGN Style 2
 62
     7
370
    13
100
AcDbCircle
 10
2154.913108
 20
2952.54212
 30
0.0
 40
1575.000000000013
100
AcDbArc
 50
118.021493
 51
129.761761
  0
ARC
  5
13BF8
330
13D32
100
AcDbEntity
  8
Level 17
  6
DGN Style 2
 62
     7
370
    13
100
AcDbCircle
 10
2154.913108
 20
2952.54212
 30
0.0
 40
1575.000000000013
100
AcDbArc
 50
109.495749
 51
118.021648
  0
ARC
  5
13BF9
330
13D32
100
AcDbEntity
  8
Level 17
  6
DGN Style 2
 62
     7
370
    13
100
AcDbCircle
 10
2154.913108
 20
2952.54212
 30
0.0
 40
1575.000000000013
100
AcDbArc
 50
91.597516
 51
109.495826
  0
ARC
  5
13BFA
330
13D32
100
AcDbEntity
  8
slidesx - Level 26
  6
Continuous
 62
     7
370
    13
100
AcDbCircle
 10
2135.913108
 20
2761.54212
 30
0.0
 40
9.999999999999998
100
AcDbArc
 50
90.0
 51
180.0
  0
LINE
  5
13BFB
330
13D32
100
AcDbEntity
  8
slidesx - Level 26
  6
Continuous
 62
     7
370
    13
100
AcDbLine
 10
2458.913108
 20
2771.54212
 30
0.0
 11
2135.913108
 21
2771.54212
 31
0.0
  0
ARC
  5
13BFC
330
13D32
100
AcDbEntity
  8
slidesx - Level 26
  6
Continuous
 62
     7
370
    13
100
AcDbCircle
 10
-2450.913108
 20
2726.528865
 30
0.0
 40
10.99999999999999
210
0.0
220
0.0
230
-1.0
100
AcDbArc
 50
0.0
 51
136.658242
  0
ARC
  5
13BFD
330
13D32
100
AcDbEntity
  8
slidesx - Level 26
  6
Continuous
 62
     7
370
    13
100
AcDbCircle
 10
-2450.913108
 20
2726.528865
 30
0.0
 40
10.99999999999999
210
0.0
220
0.0
230
-1.0
100
AcDbArc
 50
223.341758
 51
0.0
  0
ARC
  5
13BFE
330
13D32
100
AcDbEntity
  8
slidesx - Level 26
  6
Continuous
 62
     7
370
    13
100
AcDbCircle
 10
-2220.913108
 20
2726.528865
 30
0.0
 40
10.99999999999999
210
0.0
220
0.0
230
-1.0
100
AcDbArc
 50
0.0
 51
359.999994
  0
LINE
  5
13BFF
330
13D32
100
AcDbEntity
  8
slidesx - Level 26
  6
Continuous
 62
     7
370
    13
100
AcDbLine
 10
2120.913108
 20
2761.54212
 30
0.0
 11
2125.913108
 21
2761.54212
 31
0.0
  0
ARC
  5
13C00
330
13D32
100
AcDbEntity
  8
slidesx - Level 26
  6
Continuous
 62
     7
370
    13
100
AcDbCircle
 10
-2135.913108
 20
2761.54212
 30
0.0
 40
14.99999999999999
210
0.0
220
0.0
230
-1.0
100
AcDbArc
 50
0.0
 51
90.0
  0
LINE
  5
13C01
330
13D32
100
AcDbEntity
  8
slidesx - Level 26
  6
Continuous
 62
     7
370
    13
100
AcDbLine
 10
2135.913108
 20
2776.54212
 30
0.0
 11
2135.913108
 21
2771.54212
 31
0.0
  0
LINE
  5
13C02
330
13D32
100
AcDbEntity
  8
slidesx - Level 26
  6
Continuous
 62
     7
370
    13
100
AcDbLine
 10
2135.913108
 20
2776.54212
 30
0.0
 11
2458.913108
 21
2776.54212
 31
0.0
  0
ARC
  5
13C03
330
13D32
100
AcDbEntity
  8
slidesx - Level 26
  6
Continuous
 62
     7
370
    13
100
AcDbCircle
 10
2154.913108
 20
2952.54212
 30
0.0
 40
75.00000000000001
100
AcDbArc
 50
234.163738
 51
305.87583
  0
LINE
  5
13C04
330
13D32
100
AcDbEntity
  8
slidesx - Level 25
  6
Continuous
 62
     7
370
    13
100
AcDbLine
 10
2592.732125
 20
2849.200658
 30
0.0
 11
2492.913108
 21
2849.200658
 31
0.0
  0
LINE
  5
13C05
330
13D32
100
AcDbEntity
  8
slidesx - Level 25
  6
Continuous
 62
     7
370
    13
100
AcDbLine
 10
2592.732125
 20
2766.399321
 30
0.0
 11
2492.913108
 21
2766.399321
 31
0.0
  0
LINE
  5
13C06
330
13D32
100
AcDbEntity
  8
slidesx - Level 25
  6
Continuous
 62
     7
370
    13
100
AcDbLine
 10
2592.732125
 20
2795.971787
 30
0.0
 11
2492.913108
 21
2795.971787
 31
0.0
  0
LINE
  5
13C07
330
13D32
100
AcDbEntity
  8
slidesx - Level 25
  6
Continuous
 62
     7
370
    13
100
AcDbLine
 10
2592.732125
 20
2810.7943
 30
0.0
 11
2492.913108
 21
2810.7943
 31
0.0
  0
LINE
  5
13C08
330
13D32
100
AcDbEntity
  8
slidesx - Level 25
  6
Continuous
 62
     7
370
    13
100
AcDbLine
 10
2592.732125
 20
2842.549468
 30
0.0
 11
2492.913108
 21
2842.549468
 31
0.0
  0
LINE
  5
13C09
330
13D32
100
AcDbEntity
  8
slidesx - Level 25
  6
Continuous
 62
     7
370
    13
100
AcDbLine
 10
2592.732125
 20
2849.174187
 30
0.0
 11
2492.913108
 21
2849.174187
 31
0.0
  0
LINE
  5
13C0A
330
13D32
100
AcDbEntity
  8
slidesx - Level 25
  6
Continuous
 62
     7
370
    13
100
AcDbLine
 10
2592.732125
 20
2849.192068
 30
0.0
 11
2492.913108
 21
2849.192068
 31
0.0
  0
LINE
  5
13C0B
330
13D32
100
AcDbEntity
  8
slidesx - Level 27
  6
Continuous
 62
     7
370
    13
100
AcDbLine
 10
2458.913108
 20
2891.770451
 30
0.0
 11
2458.913108
 21
2601.54112
 31
0.0
  0
LINE
  5
13C0C
330
13D32
100
AcDbEntity
  8
slidesx - Level 27
  6
Continuous
 62
     7
370
    13
100
AcDbLine
 10
2492.913108
 20
2601.54112
 30
0.0
 11
2492.913108
 21
2891.770451
 31
0.0
  0
LINE
  5
13C0D
330
13D32
100
AcDbEntity
  8
slidesx - Level 26
  6
Continuous
 62
     7
370
    13
100
AcDbLine
 10
2120.913108
 20
2601.54112
 30
0.0
 11
2120.913108
 21
2761.54212
 31
0.0
  0
LINE
  5
13C0E
330
13D32
100
AcDbEntity
  8
slidesx - Level 26
  6
Continuous
 62
     7
370
    13
100
AcDbLine
 10
2125.913108
 20
2761.54212
 30
0.0
 11
2125.913108
 21
2601.54112
 31
0.0
  0
SPLINE
  5
13C0F
330
13D32
100
AcDbEntity
  8
slidesx - Level 26
  6
Continuous
 62
     7
370
    13
100
AcDbSpline
210
0.0
220
0.0
230
1.0
 70
     8
 71
     3
 72
     8
 73
     4
 74
     0
 42
0.000000001
 43
0.0000000001
 40
0.0
 40
0.0
 40
0.0
 40
0.0
 40
0.213746279390979
 40
0.213746279390979
 40
0.213746279390979
 40
0.213746279390979
 10
2206.441144780528
 20
3007.038541410904
 30
0.0
 10
2206.44201257438
 20
3007.127796672063
 30
0.0
 10
2206.433971809347
 20
3006.305426867653
 30
0.0
 10
2206.418325930859
 20
3004.705611075393
 30
0.0
  0
SPLINE
  5
13C12
330
13D32
100
AcDbEntity
  8
slidesx - Level 26
  6
Continuous
 62
     7
370
    13
100
AcDbSpline
210
0.0
220
0.0
230
1.0
 70
     8
 71
     3
 72
    13
 73
     9
 74
     0
 42
0.000000001
 43
0.0000000001
 40
0.0
 40
0.0
 40
0.0
 40
0.0
 40
0.4026107362942949
 40
0.4026107362942949
 40
0.8229926864676324
 40
0.8229926864676324
 40
0.8229926864676324
 40
0.9909528443706491
 40
0.9909528443706491
 40
0.9909528443706491
 40
0.9909528443706491
 10
2260.309362355699
 20
2983.953154550905
 30
0.0
 10
2254.673080548552
 20
2989.786164779999
 30
0.0
 10
2248.002946285143
 20
2994.763185731957
 30
0.0
 10
2233.29284084841
 20
3002.412970771751
 30
0.0
 10
2225.000807935009
 20
3005.077011583767
 30
0.0
 10
2216.617202750936
 20
3006.277061612836
 30
0.0
 10
2213.251585357474
 20
3006.758824429929
 30
0.0
 10
2209.845308690212
 20
3007.013753889161
 30
0.0
 10
2206.441144902698
 20
3007.038555113703
 30
0.0
  0
SPLINE
  5
13C15
330
13D32
100
AcDbEntity
  8
slidesx - Level 26
  6
Continuous
 62
     7
370
    13
100
AcDbSpline
210
0.0
220
0.0
230
1.0
 70
     8
 71
     3
 72
    10
 73
     6
 74
     0
 42
0.000000001
 43
0.0000000001
 40
0.0
 40
0.0
 40
0.0
 40
0.0
 40
0.4203819501733377
 40
0.4203819501733377
 40
0.8229926864676324
 40
0.8229926864676324
 40
0.8229926864676324
 40
0.8229926864676324
 10
2216.617202750935
 20
2897.807179188624
 30
0.0
 10
2225.000807935009
 20
2899.007229217693
 30
0.0
 10
2233.29284084841
 20
2901.67127002971
 30
0.0
 10
2248.002946285142
 20
2909.321055069503
 30
0.0
 10
2254.673080548551
 20
2914.298076021461
 30
0.0
 10
2260.309362355698
 20
2920.131086250556
 30
0.0
  0
SPLINE
  5
13C18
330
13D32
100
AcDbEntity
  8
slidesx - Level 26
  6
Continuous
 62
     7
370
    13
100
AcDbSpline
210
0.0
220
0.0
230
1.0
 70
     8
 71
     3
 72
     8
 73
     4
 74
     0
 42
0.000000001
 43
0.0000000001
 40
0.0
 40
0.0
 40
0.0
 40
0.0
 40
0.1865638949220085
 40
0.1865638949220085
 40
0.1865638949220085
 40
0.1865638949220085
 10
2206.288261995424
 20
2960.034875489074
 30
0.0
 10
2206.358600889037
 20
2959.042469009817
 30
0.0
 10
2206.422347761358
 20
2958.049730808216
 30
0.0
 10
2206.421328745177
 20
2957.054159231704
 30
0.0
  0
SPLINE
  5
13C1B
330
13D32
100
AcDbEntity
  8
slidesx - Level 26
  6
Continuous
 62
     7
370
    13
100
AcDbSpline
210
0.0
220
0.0
230
1.0
 70
     8
 71
     3
 72
     8
 73
     4
 74
     0
 42
0.000000001
 43
0.0000000001
 40
0.0
 40
0.0
 40
0.0
 40
0.0
 40
0.0508168536638722
 40
0.0508168536638722
 40
0.0508168536638722
 40
0.0508168536638722
 10
2206.037669021003
 20
2952.906021617216
 30
0.0
 10
2205.99076670081
 20
2952.636277960699
 30
0.0
 10
2205.94744744163
 20
2952.366922253947
 30
0.0
 10
2205.944081746203
 20
2952.097371613248
 30
0.0
  0
SPLINE
  5
13C1E
330
13D32
100
AcDbEntity
  8
slidesx - Level 26
  6
Continuous
 62
     7
370
    13
100
AcDbSpline
210
0.0
220
0.0
230
1.0
 70
     8
 71
     3
 72
     8
 73
     4
 74
     0
 42
0.000000001
 43
0.0000000001
 40
0.0
 40
0.0
 40
0.0
 40
0.0
 40
0.1649854282765025
 40
0.1649854282765025
 40
0.1649854282765025
 40
0.1649854282765025
 10
2206.425622096981
 20
2946.682801625255
 30
0.0
 10
2206.422642723764
 20
2945.802263889079
 30
0.0
 10
2206.355452359604
 20
2944.925814600768
 30
0.0
 10
2206.288261995443
 20
2944.049365312458
 30
0.0
  0
SPLINE
  5
13C21
330
13D32
100
AcDbEntity
  8
slidesx - Level 26
  6
Continuous
 62
     7
370
    13
100
AcDbSpline
210
0.0
220
0.0
230
1.0
 70
     8
 71
     3
 72
     9
 73
     5
 74
     0
 42
0.000000001
 43
0.0000000001
 40
0.0
 40
0.0
 40
0.0
 40
0.0
 40
0.1784143409096705
 40
0.2283227854503139
 40
0.2283227854503139
 40
0.2283227854503139
 40
0.2283227854503139
 10
2205.360340796189
 20
2897.043707494054
 30
0.0
 10
2205.363110005053
 20
2897.323005288943
 30
0.0
 10
2205.367896950893
 20
2897.806062949506
 30
0.0
 10
2205.382324409185
 20
2899.262245579229
 30
0.0
 10
2205.385916603355
 20
2899.624851621281
 30
0.0
  0
SPLINE
  5
13C24
330
13D32
100
AcDbEntity
  8
slidesx - Level 26
  6
Continuous
 62
     7
370
    13
100
AcDbSpline
210
0.0
220
0.0
230
1.0
 70
     8
 71
     3
 72
     8
 73
     4
 74
     0
 42
0.000000001
 43
0.0000000001
 40
0.0
 40
0.0
 40
0.0
 40
0.0
 40
0.1996337781626254
 40
0.1996337781626254
 40
0.1996337781626254
 40
0.1996337781626254
 10
2205.397986702827
 20
2900.84338594654
 30
0.0
 10
2205.41577540309
 20
2902.639462435307
 30
0.0
 10
2205.440227220601
 20
2905.109298302903
 30
0.0
 10
2205.469928316
 20
2908.112531451007
 30
0.0
  0
SPLINE
  5
13C27
330
13D32
100
AcDbEntity
  8
slidesx - Level 26
  6
Continuous
 62
     7
370
    13
100
AcDbSpline
210
0.0
220
0.0
230
1.0
 70
     8
 71
     3
 72
     9
 73
     5
 74
     0
 42
0.000000001
 43
0.0000000001
 40
0.0
 40
0.0
 40
0.0
 40
0.0
 40
0.3992675563252372
 40
0.4673626145737141
 40
0.4673626145737141
 40
0.4673626145737141
 40
0.4673626145737141
 10
2205.493166285914
 20
2910.462775144393
 30
0.0
 10
2205.55764102468
 20
2916.985093458818
 30
0.0
 10
2205.65603512446
 20
2926.952964553528
 30
0.0
 10
2205.765764176072
 20
2938.113350968304
 30
0.0
 10
2205.781832793589
 20
2939.74768129422
 30
0.0
  0
SPLINE
  5
13C2A
330
13D32
100
AcDbEntity
  8
slidesx - Level 26
  6
Continuous
 62
     7
370
    13
100
AcDbSpline
210
0.0
220
0.0
230
1.0
 70
     8
 71
     3
 72
     8
 73
     4
 74
     0
 42
0.000000001
 43
0.0000000001
 40
0.0
 40
0.0
 40
0.0
 40
0.0
 40
0.1904950586068585
 40
0.1904950586068585
 40
0.1904950586068585
 40
0.1904950586068585
 10
2206.441144868118
 20
3007.038550367346
 30
0.0
 10
2206.44193332827
 20
3007.119637402978
 30
0.0
 10
2206.435642166551
 20
3006.476256689709
 30
0.0
 10
2206.423194578651
 20
3005.203443625528
 30
0.0
  0
SPLINE
  5
13C2D
330
13D32
100
AcDbEntity
  8
slidesx - Level 26
  6
Continuous
 62
     7
370
    13
100
AcDbSpline
210
0.0
220
0.0
230
1.0
 70
     8
 71
     3
 72
     8
 73
     4
 74
     0
 42
0.000000001
 43
0.0000000001
 40
0.0
 40
0.0
 40
0.0
 40
0.0
 40
0.2050100626431513
 40
0.2050100626431513
 40
0.2050100626431513
 40
0.2050100626431513
 10
2205.52890681119
 20
2946.293848991487
 30
0.0
 10
2205.481298336125
 20
2945.867496655156
 30
0.0
 10
2205.427225815405
 20
2945.441877018106
 30
0.0
 10
2205.369867056212
 20
2945.016720635777
 30
0.0
  0
LINE
  5
13C30
330
13D32
100
AcDbEntity
  8
slidesx - Level 27
  6
Continuous
 62
     7
370
    13
100
AcDbLine
 10
2260.89517
 20
2922.54212
 30
0.0
 11
2315.913108
 21
2922.54212
 31
0.0
  0
LINE
  5
13C31
330
13D32
100
AcDbEntity
  8
slidesx - Level 27
  6
Continuous
 62
     7
370
    13
100
AcDbLine
 10
2315.913108
 20
2982.54212
 30
0.0
 11
2260.309362
 21
2982.54212
 31
0.0
  0
LINE
  5
13C32
330
13D32
100
AcDbEntity
  8
slidesx - Level 27
  6
Continuous
 62
     7
370
    13
100
AcDbLine
 10
2315.913108
 20
2982.54212
 30
0.0
 11
2315.913108
 21
2922.54212
 31
0.0
  0
ARC
  5
13C33
330
13D32
100
AcDbEntity
  8
slidesx - Level 27
  6
Continuous
 62
     7
370
    13
100
AcDbCircle
 10
2475.913108
 20
2952.54212
 30
0.0
 40
30.00000000000002
100
AcDbArc
 50
304.518108
 51
90.0
  0
LINE
  5
13C34
330
13D32
100
AcDbEntity
  8
slidesx - Level 27
  6
Continuous
 62
     7
370
    13
100
AcDbLine
 10
2315.913108
 20
2982.54212
 30
0.0
 11
2475.913108
 21
2982.54212
 31
0.0
  0
LINE
  5
13C35
330
13D32
100
AcDbEntity
  8
slidesx - Level 27
  6
Continuous
 62
     7
370
    13
100
AcDbLine
 10
2475.009983
 20
2922.54212
 30
0.0
 11
2315.913108
 21
2922.54212
 31
0.0
  0
SPLINE
  5
13C36
330
13D32
100
AcDbEntity
  8
slidesx - Level 26
  6
Continuous
 62
     7
370
    13
100
AcDbSpline
210
0.0
220
0.0
230
1.0
 70
     8
 71
     3
 72
     9
 73
     5
 74
     0
 42
0.000000001
 43
0.0000000001
 40
0.0
 40
0.0
 40
0.0
 40
0.0
 40
0.8015485477161995
 40
1.0
 40
1.0
 40
1.0
 40
1.0
 10
2206.441144780528
 20
3007.038541410906
 30
0.0
 10
2206.444399007473
 20
3007.373248640247
 30
0.0
 10
2206.292165705169
 20
2991.797123786944
 30
0.0
 10
2206.051929316829
 20
2967.280834230758
 30
0.0
 10
2206.004563869004
 20
2962.447887186421
 30
0.0
  0
SPLINE
  5
13C3C
330
13D32
100
AcDbEntity
  8
slidesx - Level 26
  6
Continuous
 62
     7
370
    13
100
AcDbSpline
210
0.0
220
0.0
230
1.0
 70
     8
 71
     3
 72
    13
 73
     9
 74
     0
 42
0.000000001
 43
0.0000000001
 40
0.0
 40
0.0
 40
0.0
 40
0.0
 40
0.1770073135323675
 40
0.1770073135323675
 40
0.1770073135323675
 40
0.5973892637057052
 40
0.5973892637057052
 40
1.0
 40
1.0
 40
1.0
 40
1.0
 10
2205.89107524244
 20
2897.043681557391
 30
0.0
 10
2209.47823327624
 20
2897.043681557452
 30
0.0
 10
2213.070296742794
 20
2897.299466269812
 30
0.0
 10
2216.617202750936
 20
2897.807179188623
 30
0.0
 10
2225.000807935009
 20
2899.007229217693
 30
0.0
 10
2233.29284084841
 20
2901.67127002971
 30
0.0
 10
2248.002946285143
 20
2909.321055069504
 30
0.0
 10
2254.673080548552
 20
2914.298076021461
 30
0.0
 10
2260.309362355699
 20
2920.131086250555
 30
0.0
  0
LINE
  5
13C3F
330
13D32
100
AcDbEntity
  8
slidesx - Level 26
  6
Continuous
 62
     7
370
    13
100
AcDbLine
 10
2260.309362
 20
2920.131224
 30
0.0
 11
2260.309362
 21
2920.131086
 31
0.0
  0
LINE
  5
13C40
330
13D32
100
AcDbEntity
  8
slidesx - Level 26
  6
Continuous
 62
     7
370
    13
100
AcDbLine
 10
2205.891075
 20
2897.043683
 30
0.0
 11
2205.891075
 21
2940.813947
 31
0.0
  0
LINE
  5
13C41
330
13D32
100
AcDbEntity
  8
slidesx - Level 26
  6
Continuous
 62
     7
370
    13
100
AcDbLine
 10
2206.288262
 20
2944.049365
 30
0.0
 11
2205.891075
 21
2940.813947
 31
0.0
  0
SPLINE
  5
13C42
330
13D32
100
AcDbEntity
  8
slidesx - Level 26
  6
Continuous
 62
     7
370
    13
100
AcDbSpline
210
0.0
220
0.0
230
1.0
 70
     8
 71
     3
 72
    14
 73
    10
 74
     0
 42
0.000000001
 43
0.0000000001
 40
0.0
 40
0.0
 40
0.0
 40
0.0
 40
0.1998898874164375
 40
0.4345940426261821
 40
0.5009621743071472
 40
0.5681741329641346
 40
0.7015836229835891
 40
0.8350145717234974
 40
1.0
 40
1.0
 40
1.0
 40
1.0
 10
2206.288261995424
 20
2960.034875489074
 30
0.0
 10
2206.363625095724
 20
2958.971582832727
 30
0.0
 10
2206.511024347802
 20
2956.658978853528
 30
0.0
 10
2206.249825342369
 20
2953.974369602483
 30
0.0
 10
2205.869713904219
 20
2952.022906565091
 30
0.0
 10
2206.189678057515
 20
2950.604790165515
 30
0.0
 10
2206.348860584135
 20
2948.824423311979
 30
0.0
 10
2206.47698251686
 20
2946.511086851709
 30
0.0
 10
2206.355452359604
 20
2944.925814600768
 30
0.0
 10
2206.288261995443
 20
2944.049365312458
 30
0.0
  0
LINE
  5
13C45
330
13D32
100
AcDbEntity
  8
slidesx - Level 26
  6
Continuous
 62
     7
370
    13
100
AcDbLine
 10
2206.004564
 20
2962.447887
 30
0.0
 11
2206.288262
 21
2960.034875
 31
0.0
  0
SPLINE
  5
13C46
330
13D32
100
AcDbEntity
  8
slidesx - Level 26
  6
Continuous
 62
     7
370
    13
100
AcDbSpline
210
0.0
220
0.0
230
1.0
 70
     8
 71
     3
 72
    10
 73
     6
 74
     0
 42
0.000000001
 43
0.0000000001
 40
0.0
 40
0.0
 40
0.0
 40
0.0
 40
0.1784143409096856
 40
0.927041009019488
 40
1.0
 40
1.0
 40
1.0
 40
1.0
 10
2205.360340796189
 20
2897.043707494054
 30
0.0
 10
2205.363110005052
 20
2897.323005288943
 30
0.0
 10
2205.382546063937
 20
2899.284326232797
 30
0.0
 10
2205.574947179678
 20
2918.704903381631
 30
0.0
 10
2205.768049346499
 20
2938.34577671048
 30
0.0
 10
2205.785277250681
 20
2940.098015058489
 30
0.0
  0
SPLINE
  5
13C49
330
13D32
100
AcDbEntity
  8
slidesx - Level 26
  6
Continuous
 62
     7
370
    13
100
AcDbSpline
210
0.0
220
0.0
230
1.0
 70
     8
 71
     3
 72
     9
 73
     5
 74
     0
 42
0.000000001
 43
0.0000000001
 40
0.0
 40
0.0
 40
0.0
 40
0.0
 40
0.8015904421624783
 40
1.0
 40
1.0
 40
1.0
 40
1.0
 10
2206.441144868116
 20
3007.038550367346
 30
0.0
 10
2206.444462655608
 20
3007.379759179908
 30
0.0
 10
2206.292216636679
 20
2991.802322530277
 30
0.0
 10
2206.051929283663
 20
2967.280830640899
 30
0.0
 10
2206.004563869004
 20
2962.447887186423
 30
0.0
  0
SPLINE
  5
13C4C
330
13D32
100
AcDbEntity
  8
slidesx - Level 26
  6
Continuous
 62
     7
370
    13
100
AcDbSpline
210
0.0
220
0.0
230
1.0
 70
     8
 71
     3
 72
    11
 73
     7
 74
     0
 42
0.000000001
 43
0.0000000001
 40
0.0
 40
0.0
 40
0.0
 40
0.0
 40
0.0838634918527889
 40
0.2406092571599204
 40
0.8609328576728724
 40
1.0
 40
1.0
 40
1.0
 40
1.0
 10
2205.579875832201
 20
2962.39348723165
 30
0.0
 10
2205.435006426674
 20
2962.374860065398
 30
0.0
 10
2205.329350320964
 20
2961.88621885822
 30
0.0
 10
2205.419017066783
 20
2960.088979519958
 30
0.0
 10
2205.641330034338
 20
2958.187874770104
 30
0.0
 10
2205.753038023662
 20
2956.603366567481
 30
0.0
 10
2205.773495095328
 20
2956.313195756459
 30
0.0
  0
SPLINE
  5
13C4F
330
13D32
100
AcDbEntity
  8
slidesx - Level 26
  6
Continuous
 62
     7
370
    13
100
AcDbSpline
210
0.0
220
0.0
230
1.0
 70
     8
 71
     3
 72
    12
 73
     8
 74
     0
 42
0.000000001
 43
0.0000000001
 40
0.0
 40
0.0
 40
0.0
 40
0.0
 40
0.6291683941156362
 40
0.8006344483845039
 40
0.9401402127873506
 40
0.9876111823999371
 40
1.0
 40
1.0
 40
1.0
 40
1.0
 10
2205.52890681119
 20
2946.293848991487
 30
0.0
 10
2205.382798140148
 20
2944.985389244104
 30
0.0
 10
2205.119396887448
 20
2943.329119133578
 30
0.0
 10
2204.868994505192
 20
2941.38256652292
 30
0.0
 10
2204.822718764191
 20
2940.638577265936
 30
0.0
 10
2204.919240448072
 20
2940.253443494698
 30
0.0
 10
2205.021440260979
 20
2940.229656824217
 30
0.0
 10
2205.038835691739
 20
2940.230247492308
 30
0.0
  0
LINE
  5
13C52
330
13D32
100
AcDbEntity
  8
slidesx - Level 26
  6
Continuous
 62
     7
370
    13
100
AcDbLine
 10
2205.038836
 20
2940.230247
 30
0.0
 11
2205.785277
 21
2940.098015
 31
0.0
  0
LINE
  5
13C53
330
13D32
100
AcDbEntity
  8
slidesx - Level 26
  6
Continuous
 62
     7
370
    13
100
AcDbLine
 10
2206.004564
 20
2962.447887
 30
0.0
 11
2205.579876
 21
2962.393487
 31
0.0
  0
SPLINE
  5
13C54
330
13D32
100
AcDbEntity
  8
slidesx - Level 26
  6
Continuous
 62
     7
370
    13
100
AcDbSpline
210
0.0
220
0.0
230
1.0
 70
     8
 71
     3
 72
    11
 73
     7
 74
     0
 42
0.000000001
 43
0.0000000001
 40
0.0
 40
0.0
 40
0.0
 40
0.0
 40
0.1768991339144769
 40
0.6075314606508878
 40
0.6075314606508878
 40
1.0
 40
1.0
 40
1.0
 40
1.0
 10
2260.895169679924
 20
2982.542832009724
 30
0.0
 10
2260.894980335325
 20
2982.63525079824
 30
0.0
 10
2260.872781372917
 20
2982.9509566617
 30
0.0
 10
2260.773881360754
 20
2983.260331080925
 30
0.0
 10
2260.577002633199
 20
2983.640276304623
 30
0.0
 10
2260.453667087935
 20
2983.808832089303
 30
0.0
 10
2260.309362355701
 20
2983.953154550906
 30
0.0
  0
SPLINE
  5
13C57
330
13D32
100
AcDbEntity
  8
slidesx - Level 26
  6
Continuous
 62
     7
370
    13
100
AcDbSpline
210
0.0
220
0.0
230
1.0
 70
    24
 71
     3
 72
    11
 73
     7
 74
     0
 42
0.000000001
 43
0.0000000001
 40
0.0
 40
0.0
 40
0.0
 40
0.0
 40
0.1768991339144769
 40
0.6075314606508878
 40
0.6075314606508878
 40
1.0
 40
1.0
 40
1.0
 40
1.0
 10
2260.895169679924
 20
2952.042120400731
 30
0.0
 10
2260.894980335325
 20
2952.042120400731
 30
0.0
 10
2260.872781372917
 20
2952.042120400731
 30
0.0
 10
2260.773881360754
 20
2952.042120400731
 30
0.0
 10
2260.577002633199
 20
2952.042120400731
 30
0.0
 10
2260.453667087935
 20
2952.042120400731
 30
0.0
 10
2260.309362355701
 20
2952.042120400731
 30
0.0
  0
LINE
  5
13C5A
330
13D32
100
AcDbEntity
  8
slidesx - Level 26
  6
Continuous
 62
     7
370
    13
100
AcDbLine
 10
2260.309362
 20
2983.953153
 30
0.0
 11
2260.309362
 21
2952.04212
 31
0.0
  0
LINE
  5
13C5B
330
13D32
100
AcDbEntity
  8
slidesx - Level 26
  6
Continuous
 62
     7
370
    13
100
AcDbLine
 10
2260.89517
 20
2982.542832
 30
0.0
 11
2260.89517
 21
2952.04212
 31
0.0
  0
LINE
  5
13C5C
330
13D32
100
AcDbEntity
  8
slidesx - Level 26
  6
Continuous
 62
     7
370
    13
100
AcDbLine
 10
2260.309362
 20
2952.04212
 30
0.0
 11
2260.309362
 21
2920.131086
 31
0.0
  0
LINE
  5
13C5D
330
13D32
100
AcDbEntity
  8
slidesx - Level 26
  6
Continuous
 62
     7
370
    13
100
AcDbLine
 10
2260.89517
 20
2952.04212
 30
0.0
 11
2260.89517
 21
2921.541473
 31
0.0
  0
SPLINE
  5
13C5E
330
13D32
100
AcDbEntity
  8
slidesx - Level 26
  6
Continuous
 62
     7
370
    13
100
AcDbSpline
210
0.0
220
0.0
230
1.0
 70
     8
 71
     3
 72
    12
 73
     8
 74
     0
 42
0.000000001
 43
0.0000000001
 40
0.0
 40
0.0
 40
0.0
 40
0.0
 40
0.3924685393491123
 40
0.3924685393491123
 40
0.8231008660855231
 40
0.8231008660855231
 40
1.0
 40
1.0
 40
1.0
 40
1.0
 10
2260.309362355701
 20
2920.131086250555
 30
0.0
 10
2260.453667087935
 20
2920.275408712158
 30
0.0
 10
2260.577002633199
 20
2920.44396449684
 30
0.0
 10
2260.773881360754
 20
2920.823909720537
 30
0.0
 10
2260.843983972899
 20
2921.043201452098
 30
0.0
 10
2260.888355541646
 20
2921.356363301199
 30
0.0
 10
2260.894980335324
 20
2921.44899000322
 30
0.0
 10
2260.895169679924
 20
2921.541408791738
 30
0.0
  0
SPLINE
  5
13C61
330
13D32
100
AcDbEntity
  8
slidesx - Level 26
  6
Continuous
 62
     7
370
    13
100
AcDbSpline
210
0.0
220
0.0
230
1.0
 70
     8
 71
     3
 72
    10
 73
     6
 74
     0
 42
0.000000001
 43
0.0000000001
 40
0.0
 40
0.0
 40
0.0
 40
0.0
 40
0.4306323267364109
 40
0.4306323267364109
 40
0.8231008660855231
 40
0.8231008660855231
 40
0.8231008660855231
 40
0.8231008660855231
 10
2260.875390291363
 20
2982.819382530767
 30
0.0
 10
2260.843983972899
 20
2983.041039349364
 30
0.0
 10
2260.773881360754
 20
2983.260331080925
 30
0.0
 10
2260.577002633199
 20
2983.640276304621
 30
0.0
 10
2260.453667087935
 20
2983.808832089303
 30
0.0
 10
2260.309362355701
 20
2983.953154550906
 30
0.0
  0
SPLINE
  5
13C64
330
13D32
100
AcDbEntity
  8
slidesx - Level 26
  6
Continuous
 62
     7
370
    13
100
AcDbSpline
210
0.0
220
0.0
230
1.0
 70
     8
 71
     3
 72
    10
 73
     6
 74
     0
 42
0.000000001
 43
0.0000000001
 40
0.0
 40
0.0
 40
0.0
 40
0.0
 40
0.4306323267364109
 40
0.4306323267364109
 40
0.6075314606508878
 40
0.6075314606508878
 40
0.6075314606508878
 40
0.6075314606508878
 10
2260.670883387513
 20
2920.625139703739
 30
0.0
 10
2260.773881360754
 20
2920.823909720538
 30
0.0
 10
2260.843983972899
 20
2921.043201452098
 30
0.0
 10
2260.888355541647
 20
2921.3563633012
 30
0.0
 10
2260.894980335325
 20
2921.44899000322
 30
0.0
 10
2260.895169679924
 20
2921.541408791738
 30
0.0
  0
ARC
  5
13C67
330
13D32
100
AcDbEntity
  8
slidesx - Level 26
  6
Continuous
 62
     7
370
    13
100
AcDbCircle
 10
2154.913108
 20
2952.54212
 30
0.0
 40
75.00000000000001
100
AcDbArc
 50
46.337888
 51
125.836262
  0
ARC
  5
13C68
330
13D32
100
AcDbEntity
  8
slidesx - Level 26
  6
Continuous
 62
     7
370
    13
100
AcDbCircle
 10
2154.913108
 20
2952.54212
 30
0.0
 40
75.00000000000001
100
AcDbArc
 50
305.873223
 51
312.605036
  0
ARC
  5
13C69
330
13D32
100
AcDbEntity
  8
slidesx - Level 26
  6
Continuous
 62
     7
370
    13
100
AcDbCircle
 10
-2154.913108
 20
2952.54212
 30
0.0
 40
51.0
210
0.0
220
0.0
230
-1.0
100
AcDbArc
 50
30.572463
 51
329.427537
  0
LINE
  5
13C6A
330
13D32
100
AcDbEntity
  8
slidesx - Level 27
  6
Continuous
 62
     7
370
    13
100
AcDbLine
 10
2458.913108
 20
2922.54212
 30
0.0
 11
2458.913108
 21
2891.768451
 31
0.0
  0
LINE
  5
13C6B
330
13D32
100
AcDbEntity
  8
slidesx - Level 27
  6
Continuous
 62
     7
370
    13
100
AcDbLine
 10
2492.913108
 20
2891.768451
 30
0.0
 11
2492.913108
 21
2927.823706
 31
0.0
  0
LINE
  5
13C6C
330
13D32
100
AcDbEntity
  8
slidesx - Level 25
  6
Continuous
 62
     7
370
    13
100
AcDbLine
 10
2620.913108
 20
2810.7943
 30
0.0
 11
2620.913108
 21
2842.549468
 31
0.0
  0
ELLIPSE
  5
13C6D
330
13D32
100
AcDbEntity
  8
slidesx - Level 25
  6
Continuous
 62
     7
370
    13
100
AcDbEllipse
 10
2880.982665
 20
2826.566381
 30
0.0
 11
0.0
 21
15.99999999999999
 31
0.0
210
0.0
220
0.0
230
-1.0
 40
0.7783300374115393
 41
0.0459839995436644
 42
2.972602220579269
  0
LINE
  5
13C6E
330
13D32
100
AcDbEntity
  8
slidesx - Level 25
  6
Continuous
 62
     7
370
    13
100
AcDbLine
 10
2620.913108
 20
2810.7943
 30
0.0
 11
2883.077148
 21
2810.7943
 31
0.0
  0
LINE
  5
13C6F
330
13D32
100
AcDbEntity
  8
slidesx - Level 25
  6
Continuous
 62
     7
370
    13
100
AcDbLine
 10
2620.913108
 20
2842.549468
 30
0.0
 11
2881.555115
 21
2842.549468
 31
0.0
  0
LINE
  5
13C70
330
13D32
100
AcDbEntity
  8
slidesx - Level 25
  6
Continuous
 62
     7
370
    13
100
AcDbLine
 10
2883.077148
 20
2810.7943
 30
0.0
 11
2815.459264
 21
2795.971787
 31
0.0
  0
LINE
  5
13C71
330
13D32
100
AcDbEntity
  8
slidesx - Level 25
  6
Continuous
 62
     7
370
    13
100
AcDbLine
 10
2620.913108
 20
2795.971787
 30
0.0
 11
2815.459264
 21
2795.971787
 31
0.0
  0
LINE
  5
13C72
330
13D32
100
AcDbEntity
  8
slidesx - Level 25
  6
Continuous
 62
     7
370
    13
100
AcDbLine
 10
2620.913108
 20
2810.7943
 30
0.0
 11
2620.913108
 21
2795.971787
 31
0.0
  0
LINE
  5
13C73
330
13D32
100
AcDbEntity
  8
slidesx - Level 25
  6
Continuous
 62
     7
370
    13
100
AcDbLine
 10
2769.596949
 20
2849.174187
 30
0.0
 11
2881.555115
 21
2842.549468
 31
0.0
  0
LINE
  5
13C74
330
13D32
100
AcDbEntity
  8
slidesx - Level 25
  6
Continuous
 62
     7
370
    13
100
AcDbLine
 10
2620.913108
 20
2849.174187
 30
0.0
 11
2620.913108
 21
2842.549468
 31
0.0
  0
LINE
  5
13C75
330
13D32
100
AcDbEntity
  8
slidesx - Level 25
  6
Continuous
 62
     7
370
    13
100
AcDbLine
 10
2620.913108
 20
2849.174187
 30
0.0
 11
2769.596949
 21
2849.174187
 31
0.0
  0
ELLIPSE
  5
13C76
330
13D32
100
AcDbEntity
  8
slidesx - Level 25
  6
Continuous
 62
     7
370
    13
100
AcDbEllipse
 10
2819.387267
 20
2766.399321
 30
0.0
 11
0.0
 21
-29.99999999999998
 31
0.0
210
0.0
220
0.0
230
0.9999999999999998
 40
0.778330037411539
 41
3.310619896542945
 42
4.712388980384688
  0
LINE
  5
13C77
330
13D32
100
AcDbEntity
  8
slidesx - Level 25
  6
Continuous
 62
     7
370
    13
100
AcDbLine
 10
2620.913108
 20
2766.399321
 30
0.0
 11
2796.037366
 21
2766.399321
 31
0.0
  0
LINE
  5
13C78
330
13D32
100
AcDbEntity
  8
slidesx - Level 25
  6
Continuous
 62
     7
370
    13
100
AcDbLine
 10
2620.913108
 20
2795.971787
 30
0.0
 11
2620.913108
 21
2766.399321
 31
0.0
  0
LINE
  5
13C79
330
13D32
100
AcDbEntity
  8
slidesx - Level 25
  6
Continuous
 62
     7
370
    13
100
AcDbLine
 10
2620.913108
 20
2849.192068
 30
0.0
 11
2620.913108
 21
2849.174187
 31
0.0
  0
LINE
  5
13C7A
330
13D32
100
AcDbEntity
  8
slidesx - Level 25
  6
Continuous
 62
     7
370
    13
100
AcDbLine
 10
2620.913108
 20
2849.192068
 30
0.0
 11
2769.211814
 21
2849.192068
 31
0.0
  0
LINE
  5
13C7B
330
13D32
100
AcDbEntity
  8
slidesx - Level 25
  6
Continuous
 62
     7
370
    13
100
AcDbLine
 10
2769.211814
 20
2849.192068
 30
0.0
 11
2769.596949
 21
2849.174187
 31
0.0
  0
LINE
  5
13C7C
330
13D32
100
AcDbEntity
  8
slidesx - Level 25
  6
Continuous
 62
     7
370
    13
100
AcDbLine
 10
2620.913108
 20
2849.192068
 30
0.0
 11
2620.913108
 21
2849.200658
 31
0.0
  0
LINE
  5
13C7D
330
13D32
100
AcDbEntity
  8
slidesx - Level 25
  6
Continuous
 62
     7
370
    13
100
AcDbLine
 10
2620.913108
 20
2849.200658
 30
0.0
 11
2592.730125
 21
2849.200658
 31
0.0
  0
LINE
  5
13C7E
330
13D32
100
AcDbEntity
  8
slidesx - Level 25
  6
Continuous
 62
     7
370
    13
100
AcDbLine
 10
2620.913108
 20
2766.399321
 30
0.0
 11
2592.730125
 21
2766.399321
 31
0.0
  0
LINE
  5
13C7F
330
13D32
100
AcDbEntity
  8
slidesx - Level 25
  6
Continuous
 62
     7
370
    13
100
AcDbLine
 10
2620.913108
 20
2795.971787
 30
0.0
 11
2592.730125
 21
2795.971787
 31
0.0
  0
LINE
  5
13C80
330
13D32
100
AcDbEntity
  8
slidesx - Level 25
  6
Continuous
 62
     7
370
    13
100
AcDbLine
 10
2620.913108
 20
2810.7943
 30
0.0
 11
2592.730125
 21
2810.7943
 31
0.0
  0
LINE
  5
13C81
330
13D32
100
AcDbEntity
  8
slidesx - Level 25
  6
Continuous
 62
     7
370
    13
100
AcDbLine
 10
2620.913108
 20
2842.549468
 30
0.0
 11
2592.730125
 21
2842.549468
 31
0.0
  0
LINE
  5
13C82
330
13D32
100
AcDbEntity
  8
slidesx - Level 25
  6
Continuous
 62
     7
370
    13
100
AcDbLine
 10
2620.913108
 20
2849.174187
 30
0.0
 11
2592.730125
 21
2849.174187
 31
0.0
  0
LINE
  5
13C83
330
13D32
100
AcDbEntity
  8
slidesx - Level 25
  6
Continuous
 62
     7
370
    13
100
AcDbLine
 10
2620.913108
 20
2849.192068
 30
0.0
 11
2592.730125
 21
2849.192068
 31
0.0
  0
LINE
  5
13C84
330
13D32
100
AcDbEntity
  8
slidesx - Level 25
  6
Continuous
 62
     7
370
    13
100
AcDbLine
 10
2620.913108
 20
2766.399321
 30
0.0
 11
2620.913108
 21
2601.54112
 31
0.0
  0
LINE
  5
13C85
330
13D32
100
AcDbEntity
  8
slidesx - Level 25
  6
Continuous
 62
     7
370
    13
100
AcDbLine
 10
2796.037366
 20
2766.399321
 30
0.0
 11
2796.037366
 21
2601.54112
 31
0.0
  0
LINE
  5
13C86
330
13D32
100
AcDbEntity
  8
slidesx - Level 25
  6
Continuous
 62
     7
370
    13
100
AcDbLine
 10
3074.459458
 20
2766.399321
 30
0.0
 11
2796.037366
 21
2766.399321
 31
0.0
  0
LINE
  5
13C87
330
13D32
100
AcDbEntity
  8
slidesx - Level 25
  6
Continuous
 62
     7
370
    13
100
AcDbLine
 10
3074.459458
 20
2795.971787
 30
0.0
 11
2815.459264
 21
2795.971787
 31
0.0
  0
LINE
  5
13C88
330
13D32
100
AcDbEntity
  8
slidesx - Level 25
  6
Continuous
 62
     7
370
    13
100
AcDbLine
 10
3074.459458
 20
2810.7943
 30
0.0
 11
2883.077148
 21
2810.7943
 31
0.0
  0
LINE
  5
13C89
330
13D32
100
AcDbEntity
  8
slidesx - Level 25
  6
Continuous
 62
     7
370
    13
100
AcDbLine
 10
3074.459458
 20
2842.549468
 30
0.0
 11
2881.555115
 21
2842.549468
 31
0.0
  0
LINE
  5
13C8A
330
13D32
100
AcDbEntity
  8
slidesx - Level 25
  6
Continuous
 62
     7
370
    13
100
AcDbLine
 10
3074.459458
 20
2849.174187
 30
0.0
 11
2769.596949
 21
2849.174187
 31
0.0
  0
LINE
  5
13C8B
330
13D32
100
AcDbEntity
  8
slidesx - Level 25
  6
Continuous
 62
     7
370
    13
100
AcDbLine
 10
3074.459458
 20
2849.192068
 30
0.0
 11
2769.211814
 21
2849.192068
 31
0.0
  0
ELLIPSE
  5
13C8C
330
13D32
100
AcDbEntity
  8
slidesx - Level 25
  6
Continuous
 62
     7
370
    13
100
AcDbEllipse
 10
3599.609491
 20
2826.566381
 30
0.0
 11
0.0
 21
16.0
 31
0.0
210
0.0
220
0.0
230
-1.0
 40
0.2216270240209793
 41
0.0459839995436848
 42
2.972602220579251
  0
LINE
  5
13C8D
330
13D32
100
AcDbEntity
  8
slidesx - Level 25
  6
Continuous
 62
     7
370
    13
100
AcDbLine
 10
3600.205888
 20
2810.7943
 30
0.0
 11
3580.951909
 21
2795.971787
 31
0.0
  0
LINE
  5
13C8E
330
13D32
100
AcDbEntity
  8
slidesx - Level 25
  6
Continuous
 62
     7
370
    13
100
AcDbLine
 10
3580.951909
 20
2795.971787
 30
0.0
 11
3074.457458
 21
2795.971787
 31
0.0
  0
LINE
  5
13C8F
330
13D32
100
AcDbEntity
  8
slidesx - Level 25
  6
Continuous
 62
     7
370
    13
100
AcDbLine
 10
3600.205888
 20
2810.7943
 30
0.0
 11
3074.457458
 21
2810.7943
 31
0.0
  0
LINE
  5
13C90
330
13D32
100
AcDbEntity
  8
slidesx - Level 25
  6
Continuous
 62
     7
370
    13
100
AcDbLine
 10
3599.772494
 20
2842.549468
 30
0.0
 11
3074.457458
 21
2842.549468
 31
0.0
  0
LINE
  5
13C91
330
13D32
100
AcDbEntity
  8
slidesx - Level 25
  6
Continuous
 62
     7
370
    13
100
AcDbLine
 10
3567.89276
 20
2849.174187
 30
0.0
 11
3599.772494
 21
2842.549468
 31
0.0
  0
ELLIPSE
  5
13C92
330
13D32
100
AcDbEntity
  8
slidesx - Level 25
  6
Continuous
 62
     7
370
    13
100
AcDbEllipse
 10
3582.070396
 20
2766.399321
 30
0.0
 11
0.0
 21
-29.99999999999999
 31
0.0
210
0.0
220
0.0
230
1.0
 40
0.2216270240209791
 41
3.310619896542963
 42
4.712388980384687
  0
LINE
  5
13C93
330
13D32
100
AcDbEntity
  8
slidesx - Level 25
  6
Continuous
 62
     7
370
    13
100
AcDbLine
 10
3567.783094
 20
2849.192068
 30
0.0
 11
3567.89276
 21
2849.174187
 31
0.0
  0
LINE
  5
13C94
330
13D32
100
AcDbEntity
  8
slidesx - Level 25
  6
Continuous
 62
     7
370
    13
100
AcDbLine
 10
3575.421585
 20
2766.399321
 30
0.0
 11
3074.457458
 21
2766.399321
 31
0.0
  0
LINE
  5
13C95
330
13D32
100
AcDbEntity
  8
slidesx - Level 25
  6
Continuous
 62
     7
370
    13
100
AcDbLine
 10
3567.89276
 20
2849.174187
 30
0.0
 11
3074.457458
 21
2849.174187
 31
0.0
  0
LINE
  5
13C96
330
13D32
100
AcDbEntity
  8
slidesx - Level 25
  6
Continuous
 62
     7
370
    13
100
AcDbLine
 10
3567.783094
 20
2849.192068
 30
0.0
 11
3074.457458
 21
2849.192068
 31
0.0
  0
LINE
  5
13C97
330
13D32
100
AcDbEntity
  8
slidesx - Level 25
  6
Continuous
 62
     7
370
    13
100
AcDbLine
 10
3575.421585
 20
2766.399321
 30
0.0
 11
3575.421585
 21
2601.54112
 31
0.0
  0
LINE
  5
13C98
330
13D32
100
AcDbEntity
  8
slidesx - Level 25
  6
Continuous
 62
     7
370
    13
100
AcDbLine
 10
3575.421585
 20
2766.399321
 30
0.0
 11
4037.914124
 21
2766.399321
 31
0.0
  0
LINE
  5
13C99
330
13D32
100
AcDbEntity
  8
slidesx - Level 25
  6
Continuous
 62
     7
370
    13
100
AcDbLine
 10
3580.951909
 20
2795.971787
 30
0.0
 11
4037.914124
 21
2795.971787
 31
0.0
  0
LINE
  5
13C9A
330
13D32
100
AcDbEntity
  8
slidesx - Level 25
  6
Continuous
 62
     7
370
    13
100
AcDbLine
 10
3600.205888
 20
2810.7943
 30
0.0
 11
4037.914124
 21
2810.7943
 31
0.0
  0
LINE
  5
13C9B
330
13D32
100
AcDbEntity
  8
slidesx - Level 25
  6
Continuous
 62
     7
370
    13
100
AcDbLine
 10
3599.772494
 20
2842.549468
 30
0.0
 11
4037.914124
 21
2842.549468
 31
0.0
  0
LINE
  5
13C9C
330
13D32
100
AcDbEntity
  8
slidesx - Level 25
  6
Continuous
 62
     7
370
    13
100
AcDbLine
 10
3567.89276
 20
2849.174187
 30
0.0
 11
4037.914124
 21
2849.174187
 31
0.0
  0
LINE
  5
13C9D
330
13D32
100
AcDbEntity
  8
slidesx - Level 25
  6
Continuous
 62
     7
370
    13
100
AcDbLine
 10
3567.783094
 20
2849.192068
 30
0.0
 11
4037.914124
 21
2849.192068
 31
0.0
  0
ARC
  5
13C9E
330
13D32
100
AcDbEntity
  8
Level 17
  6
DGN Style 2
 62
     7
370
    13
100
AcDbCircle
 10
2154.913108
 20
2952.54212
 30
0.0
 40
1575.000000000013
100
AcDbArc
 50
85.831969
 51
91.597588
  0
LINE
  5
13C9F
330
13D32
100
AcDbEntity
  8
Level 17
  6
DGN Style 2
 62
     7
370
    13
100
AcDbLine
 10
3074.459458
 20
4464.707303
 30
0.0
 11
2269.386822
 21
4523.376538
 31
0.0
  0
LINE
  5
13CA0
330
13D32
100
AcDbEntity
  8
Level 17
  6
DGN Style 2
 62
     7
370
    13
100
AcDbLine
 10
3556.186791
 20
4429.601682
 30
0.0
 11
3074.457458
 21
4464.707449
 31
0.0
  0
LINE
  5
13CA1
330
13D32
100
AcDbEntity
  8
Level 17
  6
DGN Style 2
 62
     7
370
    13
100
AcDbLine
 10
4037.914124
 20
4394.496062
 30
0.0
 11
3556.184791
 21
4429.601828
 31
0.0
  0
LWPOLYLINE
  5
13CA2
330
13D32
100
AcDbEntity
  8
Level 17
  6
DGN Style 2
 62
     7
370
    13
100
AcDbPolyline
 90
        4
 70
   128
 43
0.0
 10
4037.912124
 20
808.588033
 10
4665.298832
 20
854.308502
 10
5248.218092
 20
854.304749
 42
0.125167
 10
5964.823455
 20
1036.550313
  0
ELLIPSE
  5
13CA5
330
13D32
100
AcDbEntity
  8
slidesx - Level 25
  6
Continuous
 62
     7
370
    13
100
AcDbEllipse
 10
4390.011542
 20
2375.080143
 30
0.0
 11
0.0
 21
15.99999999999998
 31
0.0
210
0.0
220
0.0
230
-1.0
 40
0.7453711137546402
 41
0.1849546169047089
 42
3.108582026054913
  0
LINE
  5
13CA6
330
13D32
100
AcDbEntity
  8
slidesx - Level 25
  6
Continuous
 62
     7
370
    13
100
AcDbLine
 10
4326.912072
 20
2407.196611
 30
0.0
 11
4392.204745
 21
2390.807256
 31
0.0
  0
LINE
  5
13CA7
330
13D32
100
AcDbEntity
  8
slidesx - Level 25
  6
Continuous
 62
     7
370
    13
100
AcDbLine
 10
4390.405153
 20
2359.08886
 30
0.0
 11
4283.154248
 21
2354.342168
 31
0.0
  0
ELLIPSE
  5
13CA8
330
13D32
100
AcDbEntity
  8
slidesx - Level 25
  6
Continuous
 62
     7
370
    13
100
AcDbEllipse
 10
4331.024444
 20
2436.68492
 30
0.0
 11
0.0
 21
-29.99999999999998
 31
0.0
210
0.0
220
0.0
230
0.9999999999999998
 40
0.74537111375464
 41
4.712388980384689
 42
6.098225391433725
  0
LINE
  5
13CA9
330
13D32
100
AcDbEntity
  8
slidesx - Level 25
  6
Continuous
 62
     7
370
    13
100
AcDbLine
 10
4037.912124
 20
2354.342168
 30
0.0
 11
4283.154248
 21
2354.342168
 31
0.0
  0
LINE
  5
13CAA
330
13D32
100
AcDbEntity
  8
slidesx - Level 25
  6
Continuous
 62
     7
370
    13
100
AcDbLine
 10
4037.912124
 20
2359.08886
 30
0.0
 11
4390.405153
 21
2359.08886
 31
0.0
  0
LINE
  5
13CAB
330
13D32
100
AcDbEntity
  8
slidesx - Level 25
  6
Continuous
 62
     7
370
    13
100
AcDbLine
 10
4037.912124
 20
2390.807256
 30
0.0
 11
4392.204745
 21
2390.807256
 31
0.0
  0
LINE
  5
13CAC
330
13D32
100
AcDbEntity
  8
slidesx - Level 25
  6
Continuous
 62
     7
370
    13
100
AcDbLine
 10
4037.912124
 20
2407.196611
 30
0.0
 11
4326.912072
 21
2407.196611
 31
0.0
  0
LINE
  5
13CAD
330
13D32
100
AcDbEntity
  8
slidesx - Level 25
  6
Continuous
 62
     7
370
    13
100
AcDbLine
 10
4037.912124
 20
2436.68492
 30
0.0
 11
4308.663311
 21
2436.68492
 31
0.0
  0
LINE
  5
13CAE
330
13D32
100
AcDbEntity
  8
slidesx - Level 25
  6
Continuous
 62
     7
370
    13
100
AcDbLine
 10
5001.368789
 20
2354.342168
 30
0.0
 11
4283.154248
 21
2354.342168
 31
0.0
  0
LINE
  5
13CAF
330
13D32
100
AcDbEntity
  8
slidesx - Level 25
  6
Continuous
 62
     7
370
    13
100
AcDbLine
 10
5001.368789
 20
2359.08886
 30
0.0
 11
4390.405153
 21
2359.08886
 31
0.0
  0
LINE
  5
13CB0
330
13D32
100
AcDbEntity
  8
slidesx - Level 25
  6
Continuous
 62
     7
370
    13
100
AcDbLine
 10
5001.368789
 20
2390.807256
 30
0.0
 11
4392.204745
 21
2390.807256
 31
0.0
  0
LINE
  5
13CB1
330
13D32
100
AcDbEntity
  8
slidesx - Level 25
  6
Continuous
 62
     7
370
    13
100
AcDbLine
 10
5001.368789
 20
2407.196611
 30
0.0
 11
4326.912072
 21
2407.196611
 31
0.0
  0
LINE
  5
13CB2
330
13D32
100
AcDbEntity
  8
slidesx - Level 25
  6
Continuous
 62
     7
370
    13
100
AcDbLine
 10
5001.368789
 20
2436.68492
 30
0.0
 11
4308.663311
 21
2436.68492
 31
0.0
  0
LINE
  5
13CB3
330
13D32
100
AcDbEntity
  8
slidesx - Level 25
  6
Continuous
 62
     7
370
    13
100
AcDbLine
 10
4308.663311
 20
2601.54312
 30
0.0
 11
4308.663311
 21
2436.68492
 31
0.0
  0
ELLIPSE
  5
13CB4
330
13D32
100
AcDbEntity
  8
slidesx - Level 25
  6
Continuous
 62
     7
370
    13
100
AcDbEllipse
 10
5256.482233
 20
2375.080143
 30
0.0
 11
0.0
 21
15.99999999999999
 31
0.0
210
0.0
220
0.0
230
-1.0
 40
0.0741369941391732
 41
0.1849546169047302
 42
3.108582026054894
  0
LINE
  5
13CB5
330
13D32
100
AcDbEntity
  8
slidesx - Level 25
  6
Continuous
 62
     7
370
    13
100
AcDbLine
 10
5250.206158
 20
2407.196611
 30
0.0
 11
5256.700376
 21
2390.807256
 31
0.0
  0
LINE
  5
13CB6
330
13D32
100
AcDbEntity
  8
slidesx - Level 25
  6
Continuous
 62
     7
370
    13
100
AcDbLine
 10
5256.521383
 20
2359.08886
 30
0.0
 11
5245.853865
 21
2354.342168
 31
0.0
  0
LINE
  5
13CB7
330
13D32
100
AcDbEntity
  8
slidesx - Level 25
  6
Continuous
 62
     7
370
    13
100
AcDbLine
 10
5256.521383
 20
2359.08886
 30
0.0
 11
5001.366789
 21
2359.08886
 31
0.0
  0
LINE
  5
13CB8
330
13D32
100
AcDbEntity
  8
slidesx - Level 25
  6
Continuous
 62
     7
370
    13
100
AcDbLine
 10
5256.700376
 20
2390.807256
 30
0.0
 11
5001.366789
 21
2390.807256
 31
0.0
  0
LINE
  5
13CB9
330
13D32
100
AcDbEntity
  8
slidesx - Level 25
  6
Continuous
 62
     7
370
    13
100
AcDbLine
 10
5250.206158
 20
2407.196611
 30
0.0
 11
5001.366789
 21
2407.196611
 31
0.0
  0
ELLIPSE
  5
13CBA
330
13D32
100
AcDbEntity
  8
slidesx - Level 25
  6
Continuous
 62
     7
370
    13
100
AcDbEllipse
 10
5250.615188
 20
2436.68492
 30
0.0
 11
0.0
 21
-29.99999999999999
 31
0.0
210
0.0
220
0.0
230
1.0
 40
0.0741369941391732
 41
4.71238898038469
 42
6.098225391433764
  0
ELLIPSE
  5
13CBB
330
13D32
100
AcDbEntity
  8
slidesx - Level 25
  6
Continuous
 62
     7
370
    13
100
AcDbEllipse
 10
5245.792682
 20
2379.328544
 30
0.0
 11
0.0
 21
24.99999999999999
 31
0.0
210
0.0
220
0.0
230
-1.0
 40
0.0741369941391732
 41
3.108576032161572
 42
3.141592653589757
  0
LINE
  5
13CBC
330
13D32
100
AcDbEntity
  8
slidesx - Level 25
  6
Continuous
 62
     7
370
    13
100
AcDbLine
 10
5388.489562
 20
2390.807256
 30
0.0
 11
5256.700376
 21
2390.807256
 31
0.0
  0
ELLIPSE
  5
13CBD
330
13D32
100
AcDbEntity
  8
slidesx - Level 25
  6
Continuous
 62
     7
370
    13
100
AcDbEllipse
 10
5388.271419
 20
2375.080143
 30
0.0
 11
0.0
 21
15.99999999999999
 31
0.0
210
0.0
220
0.0
230
-1.0
 40
0.0741369941391732
 41
0.1849546169047302
 42
3.108582026054892
  0
LINE
  5
13CBE
330
13D32
100
AcDbEntity
  8
slidesx - Level 25
  6
Continuous
 62
     7
370
    13
100
AcDbLine
 10
5388.310569
 20
2359.08886
 30
0.0
 11
5256.521383
 21
2359.08886
 31
0.0
  0
LINE
  5
13CBF
330
13D32
100
AcDbEntity
  8
slidesx - Level 25
  6
Continuous
 62
     7
370
    13
100
AcDbLine
 10
5381.995344
 20
2407.196611
 30
0.0
 11
5250.206158
 21
2407.196611
 31
0.0
  0
LINE
  5
13CC0
330
13D32
100
AcDbEntity
  8
slidesx - Level 25
  6
Continuous
 62
     7
370
    13
100
AcDbLine
 10
5381.995344
 20
2407.196611
 30
0.0
 11
5388.489562
 21
2390.807256
 31
0.0
  0
LINE
  5
13CC1
330
13D32
100
AcDbEntity
  8
slidesx - Level 25
  6
Continuous
 62
     7
370
    13
100
AcDbLine
 10
5388.310569
 20
2359.08886
 30
0.0
 11
5377.643051
 21
2354.342168
 31
0.0
  0
LINE
  5
13CC2
330
13D32
100
AcDbEntity
  8
slidesx - Level 25
  6
Continuous
 62
     7
370
    13
100
AcDbLine
 10
5377.643051
 20
2354.342168
 30
0.0
 11
5245.853865
 21
2354.342168
 31
0.0
  0
LINE
  5
13CC3
330
13D32
100
AcDbEntity
  8
slidesx - Level 25
  6
Continuous
 62
     7
370
    13
100
AcDbLine
 10
5377.643051
 20
2354.342168
 30
0.0
 11
5461.689835
 21
2354.342168
 31
0.0
  0
LINE
  5
13CC4
330
13D32
100
AcDbEntity
  8
slidesx - Level 25
  6
Continuous
 62
     7
370
    13
100
AcDbLine
 10
5380.180264
 20
2436.68492
 30
0.0
 11
5248.391078
 21
2436.68492
 31
0.0
  0
ELLIPSE
  5
13CC5
330
13D32
100
AcDbEntity
  8
slidesx - Level 25
  6
Continuous
 62
     7
370
    13
100
AcDbEllipse
 10
5382.404373
 20
2436.68492
 30
0.0
 11
0.0
 21
-29.99999999999999
 31
0.0
210
0.0
220
0.0
230
1.0
 40
0.0741369941391732
 41
4.71238898038469
 42
6.098225391433736
  0
LINE
  5
13CC6
330
13D32
100
AcDbEntity
  8
slidesx - Level 25
  6
Continuous
 62
     7
370
    13
100
AcDbLine
 10
5245.792682
 20
2354.328544
 30
0.0
 11
5377.581868
 21
2354.328544
 31
0.0
  0
ELLIPSE
  5
13CC7
330
13D32
100
AcDbEntity
  8
slidesx - Level 25
  6
Continuous
 62
     7
370
    13
100
AcDbEllipse
 10
5377.581868
 20
2379.328544
 30
0.0
 11
0.0
 21
24.99999999999999
 31
0.0
210
0.0
220
0.0
230
-1.0
 40
0.0741369941391732
 41
3.108576032161608
 42
3.141592653589793
  0
LINE
  5
13CC8
330
13D32
100
AcDbEntity
  8
slidesx - Level 25
  6
Continuous
 62
     7
370
    13
100
AcDbLine
 10
5460.864569
 20
2354.328544
 30
0.0
 11
5377.581868
 21
2354.328544
 31
0.0
  0
LINE
  5
13CC9
330
13D32
100
AcDbEntity
  8
slidesx - Level 25
  6
Continuous
 62
     7
370
    13
100
AcDbLine
 10
5245.853865
 20
2354.342168
 30
0.0
 11
5001.366789
 21
2354.342168
 31
0.0
  0
LINE
  5
13CCA
330
13D32
100
AcDbEntity
  8
slidesx - Level 25
  6
Continuous
 62
     7
370
    13
100
AcDbLine
 10
5248.391078
 20
2436.68492
 30
0.0
 11
5001.366789
 21
2436.68492
 31
0.0
  0
LINE
  5
13CCB
330
13D32
100
AcDbEntity
  8
slidesx - Level 25
  6
Continuous
 62
     7
370
    13
100
AcDbLine
 10
5248.391078
 20
2601.54312
 30
0.0
 11
5248.391078
 21
2436.68492
 31
0.0
  0
LINE
  5
13CCC
330
13D32
100
AcDbEntity
  8
slidesx - Level 25
  6
Continuous
 62
     7
370
    13
100
AcDbLine
 10
5388.310569
 20
2359.08886
 30
0.0
 11
5483.096122
 21
2359.08886
 31
0.0
  0
LINE
  5
13CCD
330
13D32
100
AcDbEntity
  8
slidesx - Level 25
  6
Continuous
 62
     7
370
    13
100
AcDbLine
 10
5388.489562
 20
2390.807256
 30
0.0
 11
5483.096122
 21
2390.807256
 31
0.0
  0
LINE
  5
13CCE
330
13D32
100
AcDbEntity
  8
slidesx - Level 25
  6
Continuous
 62
     7
370
    13
100
AcDbLine
 10
5381.995344
 20
2407.196611
 30
0.0
 11
5483.096122
 21
2407.196611
 31
0.0
  0
LINE
  5
13CCF
330
13D32
100
AcDbEntity
  8
slidesx - Level 25
  6
Continuous
 62
     7
370
    13
100
AcDbLine
 10
5380.180264
 20
2436.68492
 30
0.0
 11
5483.096122
 21
2436.68492
 31
0.0
  0
LINE
  5
13CD0
330
13D32
100
AcDbEntity
  8
slidesx - Level 25
  6
Continuous
 62
     7
370
    13
100
AcDbLine
 10
5380.180264
 20
2601.54312
 30
0.0
 11
5380.180264
 21
2436.68492
 31
0.0
  0
LINE
  5
13CD1
330
13D32
100
AcDbEntity
  8
slidesx - Level 25
  6
Continuous
 62
     7
370
    13
100
AcDbLine
 10
5483.096122
 20
2355.04833
 30
0.0
 11
5461.689835
 21
2354.342168
 31
0.0
  0
ARC
  5
13CD2
330
13D32
100
AcDbEntity
  8
slidesx - Level 25
  6
Continuous
 62
     7
370
    13
100
AcDbCircle
 10
-5605.05103
 20
2375.080143
 30
0.0
 40
15.99999999999949
210
0.0
220
0.0
230
-1.0
100
AcDbArc
 50
100.597119
 51
268.10863
  0
LINE
  5
13CD3
330
13D32
100
AcDbEntity
  8
slidesx - Level 25
  6
Continuous
 62
     7
370
    13
100
AcDbLine
 10
5520.395925
 20
2407.196611
 30
0.0
 11
5607.993461
 21
2390.807256
 31
0.0
  0
LINE
  5
13CD4
330
13D32
100
AcDbEntity
  8
slidesx - Level 25
  6
Continuous
 62
     7
370
    13
100
AcDbLine
 10
5483.094122
 20
2359.08886
 30
0.0
 11
5605.579104
 21
2359.08886
 31
0.0
  0
LINE
  5
13CD5
330
13D32
100
AcDbEntity
  8
slidesx - Level 25
  6
Continuous
 62
     7
370
    13
100
AcDbLine
 10
5483.094122
 20
2390.807256
 30
0.0
 11
5607.993461
 21
2390.807256
 31
0.0
  0
LINE
  5
13CD6
330
13D32
100
AcDbEntity
  8
slidesx - Level 25
  6
Continuous
 62
     7
370
    13
100
AcDbLine
 10
5483.094122
 20
2407.196611
 30
0.0
 11
5520.395925
 21
2407.196611
 31
0.0
  0
LINE
  5
13CD7
330
13D32
100
AcDbEntity
  8
slidesx - Level 25
  6
Continuous
 62
     7
370
    13
100
AcDbLine
 10
5605.579104
 20
2359.08886
 30
0.0
 11
5483.094122
 21
2355.048264
 31
0.0
  0
ARC
  5
13CD8
330
13D32
100
AcDbEntity
  8
slidesx - Level 25
  6
Continuous
 62
     7
370
    13
100
AcDbCircle
 10
5525.913139
 20
2436.68492
 30
0.0
 40
29.99999999999904
100
AcDbArc
 50
180.0
 51
259.402577
  0
LINE
  5
13CD9
330
13D32
100
AcDbEntity
  8
slidesx - Level 25
  6
Continuous
 62
     7
370
    13
100
AcDbLine
 10
5483.094122
 20
2436.68492
 30
0.0
 11
5495.913139
 21
2436.68492
 31
0.0
  0
LINE
  5
13CDA
330
13D32
100
AcDbEntity
  8
slidesx - Level 25
  6
Continuous
 62
     7
370
    13
100
AcDbLine
 10
5495.913139
 20
2601.54312
 30
0.0
 11
5495.913139
 21
2436.68492
 31
0.0
  0
LWPOLYLINE
  5
13CDB
330
13D32
100
AcDbEntity
  8
Level 17
  6
DGN Style 2
 62
     7
370
    13
100
AcDbPolyline
 90
        4
 70
   128
 43
0.0
 10
5964.821455
 20
1036.549226
 42
0.085959
 10
6366.252081
 20
1354.304749
 10
6495.913139
 20
1354.304749
 42
0.105026
 10
6902.367799
 20
1440.633797
  0
LWPOLYLINE
  5
13CDF
330
13D32
100
AcDbEntity
  8
Level 17
  6
DGN Style 2
 62
     7
370
    13
100
AcDbPolyline
 90
        3
 70
   128
 43
0.0
 10
6902.363304
 20
1440.631797
 42
0.296299
 10
7495.913139
 20
2354.304749
 10
7495.913139
 20
2601.54312
  0
ELLIPSE
  5
13CE2
330
13D32
100
AcDbEntity
  8
slidesx - Level 25
  6
Continuous
 62
     7
370
    13
100
AcDbEllipse
 10
4390.011542
 20
2826.566381
 30
0.0
 11
0.0
 21
15.99999999999999
 31
0.0
210
0.0
220
0.0
230
-1.0
 40
0.7453711137546402
 41
0.0459839995436688
 42
2.972602220579266
  0
LINE
  5
13CE3
330
13D32
100
AcDbEntity
  8
slidesx - Level 25
  6
Continuous
 62
     7
370
    13
100
AcDbLine
 10
4392.017333
 20
2810.7943
 30
0.0
 11
4327.262775
 21
2795.971787
 31
0.0
  0
LINE
  5
13CE4
330
13D32
100
AcDbEntity
  8
slidesx - Level 25
  6
Continuous
 62
     7
370
    13
100
AcDbLine
 10
4283.342531
 20
2849.174187
 30
0.0
 11
4390.559751
 21
2842.549468
 31
0.0
  0
ELLIPSE
  5
13CE5
330
13D32
100
AcDbEntity
  8
slidesx - Level 25
  6
Continuous
 62
     7
370
    13
100
AcDbEllipse
 10
4331.024444
 20
2766.399321
 30
0.0
 11
0.0
 21
-29.99999999999998
 31
0.0
210
0.0
220
0.0
230
0.9999999999999998
 40
0.74537111375464
 41
3.310619896542977
 42
4.712388980384688
  0
LINE
  5
13CE6
330
13D32
100
AcDbEntity
  8
slidesx - Level 25
  6
Continuous
 62
     7
370
    13
100
AcDbLine
 10
4282.973705
 20
2849.192068
 30
0.0
 11
4283.342531
 21
2849.174187
 31
0.0
  0
LINE
  5
13CE7
330
13D32
100
AcDbEntity
  8
slidesx - Level 25
  6
Continuous
 62
     7
370
    13
100
AcDbLine
 10
4037.912124
 20
2766.399321
 30
0.0
 11
4308.663311
 21
2766.399321
 31
0.0
  0
LINE
  5
13CE8
330
13D32
100
AcDbEntity
  8
slidesx - Level 25
  6
Continuous
 62
     7
370
    13
100
AcDbLine
 10
4037.912124
 20
2795.971787
 30
0.0
 11
4327.262775
 21
2795.971787
 31
0.0
  0
LINE
  5
13CE9
330
13D32
100
AcDbEntity
  8
slidesx - Level 25
  6
Continuous
 62
     7
370
    13
100
AcDbLine
 10
4037.912124
 20
2810.7943
 30
0.0
 11
4392.017333
 21
2810.7943
 31
0.0
  0
LINE
  5
13CEA
330
13D32
100
AcDbEntity
  8
slidesx - Level 25
  6
Continuous
 62
     7
370
    13
100
AcDbLine
 10
4037.912124
 20
2842.549468
 30
0.0
 11
4390.559751
 21
2842.549468
 31
0.0
  0
LINE
  5
13CEB
330
13D32
100
AcDbEntity
  8
slidesx - Level 25
  6
Continuous
 62
     7
370
    13
100
AcDbLine
 10
4037.912124
 20
2849.174187
 30
0.0
 11
4283.342531
 21
2849.174187
 31
0.0
  0
LINE
  5
13CEC
330
13D32
100
AcDbEntity
  8
slidesx - Level 25
  6
Continuous
 62
     7
370
    13
100
AcDbLine
 10
4037.912124
 20
2849.192068
 30
0.0
 11
4282.973705
 21
2849.192068
 31
0.0
  0
LINE
  5
13CED
330
13D32
100
AcDbEntity
  8
slidesx - Level 25
  6
Continuous
 62
     7
370
    13
100
AcDbLine
 10
4308.663311
 20
2766.399321
 30
0.0
 11
4308.663311
 21
2601.54112
 31
0.0
  0
LINE
  5
13CEE
330
13D32
100
AcDbEntity
  8
slidesx - Level 25
  6
Continuous
 62
     7
370
    13
100
AcDbLine
 10
4519.641456
 20
2766.399321
 30
0.0
 11
4308.663311
 21
2766.399321
 31
0.0
  0
LINE
  5
13CEF
330
13D32
100
AcDbEntity
  8
slidesx - Level 25
  6
Continuous
 62
     7
370
    13
100
AcDbLine
 10
4519.641456
 20
2795.971787
 30
0.0
 11
4327.262775
 21
2795.971787
 31
0.0
  0
LINE
  5
13CF0
330
13D32
100
AcDbEntity
  8
slidesx - Level 25
  6
Continuous
 62
     7
370
    13
100
AcDbLine
 10
4519.641456
 20
2810.7943
 30
0.0
 11
4392.017333
 21
2810.7943
 31
0.0
  0
LINE
  5
13CF1
330
13D32
100
AcDbEntity
  8
slidesx - Level 25
  6
Continuous
 62
     7
370
    13
100
AcDbLine
 10
4519.641456
 20
2842.549468
 30
0.0
 11
4390.559751
 21
2842.549468
 31
0.0
  0
LINE
  5
13CF2
330
13D32
100
AcDbEntity
  8
slidesx - Level 25
  6
Continuous
 62
     7
370
    13
100
AcDbLine
 10
4519.641456
 20
2849.174187
 30
0.0
 11
4283.342531
 21
2849.174187
 31
0.0
  0
LINE
  5
13CF3
330
13D32
100
AcDbEntity
  8
slidesx - Level 25
  6
Continuous
 62
     7
370
    13
100
AcDbLine
 10
4519.641456
 20
2849.192068
 30
0.0
 11
4282.973705
 21
2849.192068
 31
0.0
  0
LINE
  5
13CF4
330
13D32
100
AcDbEntity
  8
slidesx - Level 25
  6
Continuous
 62
     7
370
    13
100
AcDbLine
 10
5001.368789
 20
2795.971787
 30
0.0
 11
4519.639456
 21
2795.971787
 31
0.0
  0
LINE
  5
13CF5
330
13D32
100
AcDbEntity
  8
slidesx - Level 25
  6
Continuous
 62
     7
370
    13
100
AcDbLine
 10
5001.368789
 20
2810.7943
 30
0.0
 11
4519.639456
 21
2810.7943
 31
0.0
  0
LINE
  5
13CF6
330
13D32
100
AcDbEntity
  8
slidesx - Level 25
  6
Continuous
 62
     7
370
    13
100
AcDbLine
 10
5001.368789
 20
2842.549468
 30
0.0
 11
4519.639456
 21
2842.549468
 31
0.0
  0
LINE
  5
13CF7
330
13D32
100
AcDbEntity
  8
slidesx - Level 25
  6
Continuous
 62
     7
370
    13
100
AcDbLine
 10
5001.368789
 20
2849.174187
 30
0.0
 11
4519.639456
 21
2849.174187
 31
0.0
  0
LINE
  5
13CF8
330
13D32
100
AcDbEntity
  8
slidesx - Level 25
  6
Continuous
 62
     7
370
    13
100
AcDbLine
 10
5001.368789
 20
2766.399321
 30
0.0
 11
4519.639456
 21
2766.399321
 31
0.0
  0
LINE
  5
13CF9
330
13D32
100
AcDbEntity
  8
slidesx - Level 25
  6
Continuous
 62
     7
370
    13
100
AcDbLine
 10
5001.368789
 20
2849.192068
 30
0.0
 11
4519.639456
 21
2849.192068
 31
0.0
  0
ELLIPSE
  5
13CFA
330
13D32
100
AcDbEntity
  8
slidesx - Level 25
  6
Continuous
 62
     7
370
    13
100
AcDbEllipse
 10
5256.482233
 20
2826.566381
 30
0.0
 11
0.0
 21
15.99999999999999
 31
0.0
210
0.0
220
0.0
230
-1.0
 40
0.0741369941391732
 41
0.0459839995436875
 42
2.97260222057928
  0
LINE
  5
13CFB
330
13D32
100
AcDbEntity
  8
slidesx - Level 25
  6
Continuous
 62
     7
370
    13
100
AcDbLine
 10
5256.681736
 20
2810.7943
 30
0.0
 11
5250.24104
 21
2795.971787
 31
0.0
  0
LINE
  5
13CFC
330
13D32
100
AcDbEntity
  8
slidesx - Level 25
  6
Continuous
 62
     7
370
    13
100
AcDbLine
 10
5250.24104
 20
2795.971787
 30
0.0
 11
5001.366789
 21
2795.971787
 31
0.0
  0
LINE
  5
13CFD
330
13D32
100
AcDbEntity
  8
slidesx - Level 25
  6
Continuous
 62
     7
370
    13
100
AcDbLine
 10
5256.681736
 20
2810.7943
 30
0.0
 11
5001.366789
 21
2810.7943
 31
0.0
  0
LINE
  5
13CFE
330
13D32
100
AcDbEntity
  8
slidesx - Level 25
  6
Continuous
 62
     7
370
    13
100
AcDbLine
 10
5256.53676
 20
2842.549468
 30
0.0
 11
5001.366789
 21
2842.549468
 31
0.0
  0
LINE
  5
13CFF
330
13D32
100
AcDbEntity
  8
slidesx - Level 25
  6
Continuous
 62
     7
370
    13
100
AcDbLine
 10
5245.872592
 20
2849.174187
 30
0.0
 11
5256.53676
 21
2842.549468
 31
0.0
  0
ELLIPSE
  5
13D00
330
13D32
100
AcDbEntity
  8
slidesx - Level 25
  6
Continuous
 62
     7
370
    13
100
AcDbEllipse
 10
5250.615188
 20
2766.399321
 30
0.0
 11
0.0
 21
-29.99999999999999
 31
0.0
210
0.0
220
0.0
230
1.0
 40
0.0741369941391732
 41
3.310619896542952
 42
4.712388980384688
  0
LINE
  5
13D01
330
13D32
100
AcDbEntity
  8
slidesx - Level 25
  6
Continuous
 62
     7
370
    13
100
AcDbLine
 10
5245.835908
 20
2849.192068
 30
0.0
 11
5245.872592
 21
2849.174187
 31
0.0
  0
LINE
  5
13D02
330
13D32
100
AcDbEntity
  8
slidesx - Level 25
  6
Continuous
 62
     7
370
    13
100
AcDbLine
 10
5388.325945
 20
2842.549468
 30
0.0
 11
5256.53676
 21
2842.549468
 31
0.0
  0
ELLIPSE
  5
13D03
330
13D32
100
AcDbEntity
  8
slidesx - Level 25
  6
Continuous
 62
     7
370
    13
100
AcDbEllipse
 10
5388.271419
 20
2826.566381
 30
0.0
 11
0.0
 21
15.99999999999999
 31
0.0
210
0.0
220
0.0
230
-1.0
 40
0.0741369941391732
 41
0.0459839995436324
 42
2.97260222057928
  0
LINE
  5
13D04
330
13D32
100
AcDbEntity
  8
slidesx - Level 25
  6
Continuous
 62
     7
370
    13
100
AcDbLine
 10
5388.470921
 20
2810.7943
 30
0.0
 11
5256.681736
 21
2810.7943
 31
0.0
  0
LINE
  5
13D05
330
13D32
100
AcDbEntity
  8
slidesx - Level 25
  6
Continuous
 62
     7
370
    13
100
AcDbLine
 10
5388.325945
 20
2842.549468
 30
0.0
 11
5605.786515
 21
2842.549468
 31
0.0
  0
ARC
  5
13D06
330
13D32
100
AcDbEntity
  8
slidesx - Level 25
  6
Continuous
 62
     7
370
    13
100
AcDbCircle
 10
-5605.05103
 20
2826.566381
 30
0.0
 40
15.99999999999949
210
0.0
220
0.0
230
-1.0
100
AcDbArc
 50
92.634689
 51
260.317561
  0
LINE
  5
13D07
330
13D32
100
AcDbEntity
  8
slidesx - Level 25
  6
Continuous
 62
     7
370
    13
100
AcDbLine
 10
5388.470921
 20
2810.7943
 30
0.0
 11
5607.742026
 21
2810.7943
 31
0.0
  0
LINE
  5
13D08
330
13D32
100
AcDbEntity
  8
slidesx - Level 25
  6
Continuous
 62
     7
370
    13
100
AcDbLine
 10
5388.470921
 20
2810.7943
 30
0.0
 11
5382.030226
 21
2795.971787
 31
0.0
  0
LINE
  5
13D09
330
13D32
100
AcDbEntity
  8
slidesx - Level 25
  6
Continuous
 62
     7
370
    13
100
AcDbLine
 10
5382.030226
 20
2795.971787
 30
0.0
 11
5250.24104
 21
2795.971787
 31
0.0
  0
LINE
  5
13D0A
330
13D32
100
AcDbEntity
  8
slidesx - Level 25
  6
Continuous
 62
     7
370
    13
100
AcDbLine
 10
5377.661778
 20
2849.174187
 30
0.0
 11
5245.872592
 21
2849.174187
 31
0.0
  0
LINE
  5
13D0B
330
13D32
100
AcDbEntity
  8
slidesx - Level 25
  6
Continuous
 62
     7
370
    13
100
AcDbLine
 10
5377.661778
 20
2849.174187
 30
0.0
 11
5388.325945
 21
2842.549468
 31
0.0
  0
LINE
  5
13D0C
330
13D32
100
AcDbEntity
  8
slidesx - Level 25
  6
Continuous
 62
     7
370
    13
100
AcDbLine
 10
5607.742026
 20
2810.7943
 30
0.0
 11
5520.866433
 21
2795.971787
 31
0.0
  0
LINE
  5
13D0D
330
13D32
100
AcDbEntity
  8
slidesx - Level 25
  6
Continuous
 62
     7
370
    13
100
AcDbLine
 10
5382.030226
 20
2795.971787
 30
0.0
 11
5520.866433
 21
2795.971787
 31
0.0
  0
LINE
  5
13D0E
330
13D32
100
AcDbEntity
  8
slidesx - Level 25
  6
Continuous
 62
     7
370
    13
100
AcDbLine
 10
5377.661778
 20
2849.174187
 30
0.0
 11
5461.942438
 21
2849.174187
 31
0.0
  0
LINE
  5
13D0F
330
13D32
100
AcDbEntity
  8
slidesx - Level 25
  6
Continuous
 62
     7
370
    13
100
AcDbLine
 10
5461.942438
 20
2849.174187
 30
0.0
 11
5605.786515
 21
2842.549468
 31
0.0
  0
ELLIPSE
  5
13D10
330
13D32
100
AcDbEntity
  8
slidesx - Level 25
  6
Continuous
 62
     7
370
    13
100
AcDbEllipse
 10
5382.404373
 20
2766.399321
 30
0.0
 11
0.0
 21
-29.99999999999999
 31
0.0
210
0.0
220
0.0
230
1.0
 40
0.0741369941391732
 41
3.310619896542981
 42
4.712388980384688
  0
LINE
  5
13D11
330
13D32
100
AcDbEntity
  8
slidesx - Level 25
  6
Continuous
 62
     7
370
    13
100
AcDbLine
 10
5380.180264
 20
2766.399321
 30
0.0
 11
5248.391078
 21
2766.399321
 31
0.0
  0
ARC
  5
13D12
330
13D32
100
AcDbEntity
  8
slidesx - Level 25
  6
Continuous
 62
     7
370
    13
100
AcDbCircle
 10
5525.913139
 20
2766.399321
 30
0.0
 40
29.99999999999904
100
AcDbArc
 50
99.684548
 51
180.0
  0
LINE
  5
13D13
330
13D32
100
AcDbEntity
  8
slidesx - Level 25
  6
Continuous
 62
     7
370
    13
100
AcDbLine
 10
5380.180264
 20
2766.399321
 30
0.0
 11
5495.913139
 21
2766.399321
 31
0.0
  0
LINE
  5
13D14
330
13D32
100
AcDbEntity
  8
slidesx - Level 25
  6
Continuous
 62
     7
370
    13
100
AcDbLine
 10
5377.625093
 20
2849.192068
 30
0.0
 11
5245.835908
 21
2849.192068
 31
0.0
  0
LINE
  5
13D15
330
13D32
100
AcDbEntity
  8
slidesx - Level 25
  6
Continuous
 62
     7
370
    13
100
AcDbLine
 10
5377.625093
 20
2849.192068
 30
0.0
 11
5377.661778
 21
2849.174187
 31
0.0
  0
ELLIPSE
  5
13D16
330
13D32
100
AcDbEntity
  8
slidesx - Level 25
  6
Continuous
 62
     7
370
    13
100
AcDbEllipse
 10
5377.576509
 20
2824.200658
 30
0.0
 11
0.0
 21
25.0
 31
0.0
210
0.0
220
0.0
230
-1.0
 40
0.0741369941391732
 41
0.0
 42
0.0262161336898919
  0
ELLIPSE
  5
13D17
330
13D32
100
AcDbEntity
  8
slidesx - Level 25
  6
Continuous
 62
     7
370
    13
100
AcDbEllipse
 10
5245.787324
 20
2824.200658
 30
0.0
 11
0.0
 21
25.0
 31
0.0
210
0.0
220
0.0
230
-1.0
 40
0.0741369941391732
 41
-0.0000000000000355
 42
0.0262161336898558
  0
LINE
  5
13D18
330
13D32
100
AcDbEntity
  8
slidesx - Level 25
  6
Continuous
 62
     7
370
    13
100
AcDbLine
 10
5377.576509
 20
2849.200658
 30
0.0
 11
5245.787324
 21
2849.200658
 31
0.0
  0
LINE
  5
13D19
330
13D32
100
AcDbEntity
  8
slidesx - Level 25
  6
Continuous
 62
     7
370
    13
100
AcDbLine
 10
5377.625093
 20
2849.192068
 30
0.0
 11
5461.447616
 21
2849.192068
 31
0.0
  0
LINE
  5
13D1A
330
13D32
100
AcDbEntity
  8
slidesx - Level 25
  6
Continuous
 62
     7
370
    13
100
AcDbLine
 10
5461.447616
 20
2849.192068
 30
0.0
 11
5461.942438
 21
2849.174187
 31
0.0
  0
LINE
  5
13D1B
330
13D32
100
AcDbEntity
  8
slidesx - Level 25
  6
Continuous
 62
     7
370
    13
100
AcDbLine
 10
5377.576509
 20
2849.200658
 30
0.0
 11
5460.792288
 21
2849.200658
 31
0.0
  0
LINE
  5
13D1C
330
13D32
100
AcDbEntity
  8
slidesx - Level 25
  6
Continuous
 62
     7
370
    13
100
AcDbLine
 10
5248.391078
 20
2766.399321
 30
0.0
 11
5001.366789
 21
2766.399321
 31
0.0
  0
LINE
  5
13D1D
330
13D32
100
AcDbEntity
  8
slidesx - Level 25
  6
Continuous
 62
     7
370
    13
100
AcDbLine
 10
5245.872592
 20
2849.174187
 30
0.0
 11
5001.366789
 21
2849.174187
 31
0.0
  0
LINE
  5
13D1E
330
13D32
100
AcDbEntity
  8
slidesx - Level 25
  6
Continuous
 62
     7
370
    13
100
AcDbLine
 10
5245.835908
 20
2849.192068
 30
0.0
 11
5001.366789
 21
2849.192068
 31
0.0
  0
LINE
  5
13D1F
330
13D32
100
AcDbEntity
  8
slidesx - Level 25
  6
Continuous
 62
     7
370
    13
100
AcDbLine
 10
5248.391078
 20
2766.399321
 30
0.0
 11
5248.391078
 21
2601.54112
 31
0.0
  0
LINE
  5
13D20
330
13D32
100
AcDbEntity
  8
slidesx - Level 25
  6
Continuous
 62
     7
370
    13
100
AcDbLine
 10
5380.180264
 20
2766.399321
 30
0.0
 11
5380.180264
 21
2601.54112
 31
0.0
  0
LINE
  5
13D21
330
13D32
100
AcDbEntity
  8
slidesx - Level 25
  6
Continuous
 62
     7
370
    13
100
AcDbLine
 10
5495.913139
 20
2766.399321
 30
0.0
 11
5495.913139
 21
2601.54112
 31
0.0
  0
LWPOLYLINE
  5
13D22
330
13D32
100
AcDbEntity
  8
Level 17
  6
DGN Style 2
 62
     7
370
    13
100
AcDbPolyline
 90
        4
 70
   128
 43
0.0
 10
5964.823455
 20
4166.922243
 42
0.125167
 10
5248.218092
 20
4349.167807
 10
4659.970748
 20
4349.16402
 10
4037.912124
 20
4394.496208
  0
LWPOLYLINE
  5
13D25
330
13D32
100
AcDbEntity
  8
Level 17
  6
DGN Style 2
 62
     7
370
    13
100
AcDbPolyline
 90
        3
 70
   128
 43
0.0
 10
7495.913139
 20
2601.54112
 10
7495.913139
 20
2849.167807
 42
0.296039
 10
6903.235091
 20
3762.452444
  0
LWPOLYLINE
  5
13D28
330
13D32
100
AcDbEntity
  8
Level 17
  6
DGN Style 2
 62
     7
370
    13
100
AcDbPolyline
 90
        4
 70
   128
 43
0.0
 10
6903.239575
 20
3762.450444
 42
0.105267
 10
6495.913139
 20
3849.167807
 10
6366.252081
 20
3849.167807
 42
0.085959
 10
5964.821455
 20
4166.923331
  0
ENDSEC
  0
SECTION
  2
OBJECTS
  0
DICTIONARY
  5
13D3B
330
0
100
AcDbDictionary
281
     1
  3
ACAD_COLOR
350
13D96
  3
ACAD_GROUP
350
13D83
  3
ACAD_LAYOUT
350
13D65
  3
ACAD_MATERIAL
350
13D3D
  3
ACAD_MLEADERSTYLE
350
13D99
  3
ACAD_MLINESTYLE
350
13D84
  3
ACAD_PLOTSETTINGS
350
13D85
  3
ACAD_PLOTSTYLENAME
350
13D3A
  3
ACAD_SCALELIST
350
13D97
  3
ACAD_TABLESTYLE
350
13D98
  3
ACAD_VISUALSTYLE
350
13D7D
  3
AcadDim
350
13F16
  3
ACDB_RECOMPOSE_DATA
350
13F1C
  3
AcDbVariableDictionary
350
13D9A
  3
AcDsDecomposeData
350
13F22
  3
MicroStation
350
13F15
  0
DICTIONARY
  5
13D6E
330
13D6D
100
AcDbDictionary
280
     1
281
     1
  3
ACAD_LAYERFILTERS
360
13D6F
  3
ACAD_LAYERSTATES
360
13D70
  3
ACLYDICTIONARY
360
13D71
  0
DICTIONARY
  5
13D37
330
13D36
100
AcDbDictionary
280
     1
281
     1
  3
ADSK_XREC_LAYER_RECONCILED
360
13D38
  0
DICTIONARY
  5
13D33
330
13D32
100
AcDbDictionary
280
     1
281
     1
  3
ACAD_SORTENTS
360
13F0F
  0
DICTIONARY
  5
13D96
102
{ACAD_REACTORS
330
13D3B
102
}
330
13D3B
100
AcDbDictionary
281
     1
  0
DICTIONARY
  5
13D83
102
{ACAD_REACTORS
330
13D3B
102
}
330
13D3B
100
AcDbDictionary
281
     1
  0
DICTIONARY
  5
13D65
102
{ACAD_REACTORS
330
13D3B
102
}
330
13D3B
100
AcDbDictionary
281
     1
  3
Layout1
350
13D6A
  3
Model
350
13D64
  0
DICTIONARY
  5
13D3D
102
{ACAD_REACTORS
330
13D3B
102
}
330
13D3B
100
AcDbDictionary
281
     1
  3
ByBlock
350
13D8E
  3
ByLayer
350
13D86
  3
Chrome
350
8DC
  3
Global
350
13D3C
  0
DICTIONARY
  5
13D99
102
{ACAD_REACTORS
330
13D3B
102
}
330
13D3B
100
AcDbDictionary
281
     1
  3
Standard
350
13F17
  0
DICTIONARY
  5
13D84
102
{ACAD_REACTORS
330
13D3B
102
}
330
13D3B
100
AcDbDictionary
281
     1
  3
Standard
350
13DAB
  0
DICTIONARY
  5
13D85
102
{ACAD_REACTORS
330
13D3B
102
}
330
13D3B
100
AcDbDictionary
281
     1
  0
ACDBDICTIONARYWDFLT
  5
13D3A
102
{ACAD_REACTORS
330
13D3B
102
}
330
13D3B
100
AcDbDictionary
281
     1
  3
Normal
350
13D39
100
AcDbDictionaryWithDefault
340
13D39
  0
DICTIONARY
  5
13D97
102
{ACAD_REACTORS
330
13D3B
102
}
330
13D3B
100
AcDbDictionary
281
     1
  3
A0
350
13DB0
  3
A1
350
13DB1
  3
A2
350
13DB2
  3
A3
350
13DB3
  3
A4
350
13DB4
  3
A5
350
13DB5
  3
A6
350
13DB6
  3
A7
350
13DB7
  3
A8
350
13DB8
  3
A9
350
13DB9
  3
B0
350
13DBA
  3
B1
350
13DBB
  3
B2
350
13DBC
  3
B3
350
13DBD
  3
B4
350
13DBE
  3
B5
350
13DBF
  3
B6
350
13DC0
  3
B7
350
13DC1
  3
B8
350
13DC2
  3
B9
350
13DC3
  3
C0
350
13DC4
  3
C1
350
13DC5
  3
C2
350
13DC6
  3
C3
350
13DC7
  3
C4
350
13DC8
  3
C5
350
13DC9
  3
C6
350
13DCA
  3
C7
350
13DCB
  3
C8
350
13DCC
  3
C9
350
13DCD
  3
D0
350
13DCE
  3
D1
350
13DCF
  3
D2
350
13DD0
  0
DICTIONARY
  5
13D98
102
{ACAD_REACTORS
330
13D3B
102
}
330
13D3B
100
AcDbDictionary
281
     1
  3
Standard
350
13DAC
  0
DICTIONARY
  5
13D7D
102
{ACAD_REACTORS
330
13D3B
102
}
330
13D3B
100
AcDbDictionary
281
     1
  3
2dWireframe
350
13D7C
  3
Realistic
350
13DAE
  3
Wireframe
350
13DAF
  0
XRECORD
  5
13F16
102
{ACAD_REACTORS
330
13D3B
102
}
330
13D3B
100
AcDbXrecord
280
     1
 90
   990106
  3
 
 60
     0
 61
     0
 62
     1
 63
     1
 64
     0
 65
     0
 66
     0
 67
     3
 68
     1
 69
     1
 70
     0
 71
     0
 72
     0
 40
0.0
170
     0
  0
XRECORD
  5
13F1C
102
{ACAD_REACTORS
330
13D3B
102
}
330
13D3B
100
AcDbXrecord
280
     1
 90
        1
330
13DAC
  0
DICTIONARY
  5
13D9A
102
{ACAD_REACTORS
330
13D3B
102
}
330
13D3B
100
AcDbDictionary
281
     1
  3
CANNOSCALE
350
13D9B
  3
CMLEADERSTYLE
350
13D9C
  3
CTABLESTYLE
350
13D9D
  3
CVIEWDETAILSTYLE
350
13D9E
  3
CVIEWSECTIONSTYLE
350
13D9F
  3
LAYEREVAL
350
13DA0
  3
LAYERNOTIFY
350
13DA1
  3
MSLTSCALE
350
13DA2
  3
PDFFRAME
350
13DA3
  0
DICTIONARY
  5
13F22
102
{ACAD_REACTORS
330
13D3B
102
}
330
13D3B
100
AcDbDictionary
281
     1
  3
AcDsRecords
350
13F24
  3
AcDsSchemas
350
13F23
1001
ACAD
1070
     2
  0
DICTIONARY
  5
13F15
102
{ACAD_REACTORS
330
13D3B
102
}
330
13D3B
100
AcDbDictionary
281
     1
  0
DICTIONARY
  5
13D6F
102
{ACAD_REACTORS
330
13D6E
102
}
330
13D6E
100
AcDbDictionary
281
     1
  0
DICTIONARY
  5
13D70
102
{ACAD_REACTORS
330
13D6E
102
}
330
13D6E
100
AcDbDictionary
281
     1
  0
DICTIONARY
  5
13D71
102
{ACAD_REACTORS
330
13D6E
102
}
330
13D6E
100
AcDbDictionary
281
     1
  0
XRECORD
  5
13D38
102
{ACAD_REACTORS
330
13D37
102
}
330
13D37
100
AcDbXrecord
280
     1
290
     1
  0
SORTENTSTABLE
  5
13F0F
102
{ACAD_REACTORS
330
13D33
102
}
330
13D33
100
AcDbSortentsTable
330
13D32
  0
LAYOUT
  5
13D6A
102
{ACAD_XDICTIONARY
360
13D6B
102
}
102
{ACAD_REACTORS
330
13D65
102
}
330
13D65
100
AcDbPlotSettings
  1

  2
none_device
  4
Letter_(8.50_x_11.00_Inches)
  6

 40
6.35
 41
6.35
 42
6.350006
 43
6.350006
 44
215.899994
 45
279.399994
 46
0.0
 47
0.0
 48
0.0
 49
0.0
140
0.0
141
0.0
142
1.0
143
1.0
 70
   688
 72
     0
 73
     1
 74
     5
  7

 75
    16
147
1.0
 76
     0
 77
     2
 78
   300
148
0.0
149
0.0
100
AcDbLayout
  1
Layout1
 70
     1
 71
     1
 10
-0.25
 20
-0.25
 11
10.75
 21
8.25
 12
0.0
 22
0.0
 32
0.0
 14
1.05
 24
0.8
 34
0.0
 15
9.45
 25
7.2
 35
0.0
146
0.0
 13
0.0
 23
0.0
 33
0.0
 16
1.0
 26
0.0
 36
0.0
 17
0.0
 27
1.0
 37
0.0
 76
     0
330
13D67
1001
ACAD_PSEXT
1000
None
1000
None
1000
Not applicable
1000
The layout will not be plotted unless a new plotter configuration name is selected.
1070
     0
  0
LAYOUT
  5
13D64
102
{ACAD_XDICTIONARY
360
13D66
102
}
102
{ACAD_REACTORS
330
13D65
102
}
330
13D65
100
AcDbPlotSettings
  1

  2
none_device
  4
ANSI_A_(8.50_x_11.00_Inches)
  6

 40
6.35
 41
19.049999
 42
6.350006
 43
19.049988
 44
215.899994
 45
279.399994
 46
0.0
 47
0.0
 48
0.0
 49
0.0
140
0.0
141
0.0
142
1.0
143
2.584895
 70
 11952
 72
     0
 73
     1
 74
     0
  7

 75
     0
147
0.386863
 76
     0
 77
     2
 78
   300
148
0.0
149
0.0
100
AcDbLayout
  1
Model
 70
     1
 71
     0
 10
0.0
 20
0.0
 11
12.0
 21
9.0
 12
0.0
 22
0.0
 32
0.0
 14
0.0
 24
0.0
 34
0.0
 15
0.0
 25
0.0
 35
0.0
146
0.0
 13
0.0
 23
0.0
 33
0.0
 16
1.0
 26
0.0
 36
0.0
 17
0.0
 27
1.0
 37
0.0
 76
     0
330
13D32
  0
MATERIAL
  5
13D8E
102
{ACAD_XDICTIONARY
360
13D8F
102
}
102
{ACAD_REACTORS
330
13D3D
102
}
330
13D3D
100
AcDbMaterial
  1
ByBlock
 72
     0
 43
0.020833
 43
0.0
 43
0.0
 43
0.0
 43
0.0
 43
0.020833
 43
0.0
 43
0.0
 43
0.0
 43
0.0
 43
1.0
 43
0.0
 43
0.0
 43
0.0
 43
0.0
 43
1.0
 77
     0
 47
0.020833
 47
0.0
 47
0.0
 47
0.0
 47
0.0
 47
0.020833
 47
0.0
 47
0.0
 47
0.0
 47
0.0
 47
1.0
 47
0.0
 47
0.0
 47
0.0
 47
0.0
 47
1.0
171
     0
 49
0.020833
 49
0.0
 49
0.0
 49
0.0
 49
0.0
 49
0.020833
 49
0.0
 49
0.0
 49
0.0
 49
0.0
 49
1.0
 49
0.0
 49
0.0
 49
0.0
 49
0.0
 49
1.0
175
     0
142
0.020833
142
0.0
142
0.0
142
0.0
142
0.0
142
0.020833
142
0.0
142
0.0
142
0.0
142
0.0
142
1.0
142
0.0
142
0.0
142
0.0
142
0.0
142
1.0
179
     0
144
0.020833
144
0.0
144
0.0
144
0.0
144
0.0
144
0.020833
144
0.0
144
0.0
144
0.0
144
0.0
144
1.0
144
0.0
144
0.0
144
0.0
144
0.0
144
1.0
147
0.020833
147
0.0
147
0.0
147
0.0
147
0.0
147
0.020833
147
0.0
147
0.0
147
0.0
147
0.0
147
1.0
147
0.0
147
0.0
147
0.0
147
0.0
147
1.0
  0
MATERIAL
  5
13D86
102
{ACAD_XDICTIONARY
360
13D87
102
}
102
{ACAD_REACTORS
330
13D3D
102
}
330
13D3D
100
AcDbMaterial
  1
ByLayer
 72
     0
 43
0.020833
 43
0.0
 43
0.0
 43
0.0
 43
0.0
 43
0.020833
 43
0.0
 43
0.0
 43
0.0
 43
0.0
 43
1.0
 43
0.0
 43
0.0
 43
0.0
 43
0.0
 43
1.0
 77
     0
 47
0.020833
 47
0.0
 47
0.0
 47
0.0
 47
0.0
 47
0.020833
 47
0.0
 47
0.0
 47
0.0
 47
0.0
 47
1.0
 47
0.0
 47
0.0
 47
0.0
 47
0.0
 47
1.0
171
     0
 49
0.020833
 49
0.0
 49
0.0
 49
0.0
 49
0.0
 49
0.020833
 49
0.0
 49
0.0
 49
0.0
 49
0.0
 49
1.0
 49
0.0
 49
0.0
 49
0.0
 49
0.0
 49
1.0
175
     0
142
0.020833
142
0.0
142
0.0
142
0.0
142
0.0
142
0.020833
142
0.0
142
0.0
142
0.0
142
0.0
142
1.0
142
0.0
142
0.0
142
0.0
142
0.0
142
1.0
179
     0
144
0.020833
144
0.0
144
0.0
144
0.0
144
0.0
144
0.020833
144
0.0
144
0.0
144
0.0
144
0.0
144
1.0
144
0.0
144
0.0
144
0.0
144
0.0
144
1.0
147
0.020833
147
0.0
147
0.0
147
0.0
147
0.0
147
0.020833
147
0.0
147
0.0
147
0.0
147
0.0
147
1.0
147
0.0
147
0.0
147
0.0
147
0.0
147
1.0
  0
MATERIAL
  5
8DC
102
{ACAD_XDICTIONARY
360
13F10
102
}
102
{ACAD_REACTORS
330
13D3D
102
}
330
13D3D
100
AcDbMaterial
  1
Chrome
 71
     1
 41
0.2
 91
-1026370853
 72
     0
 44
10.0
 76
     1
 45
0.76
 92
-1026299413
 77
     0
175
     0
468
0.5
 93
        1
 94
       39
  0
MATERIAL
  5
13D3C
102
{ACAD_XDICTIONARY
360
13D3E
102
}
102
{ACAD_REACTORS
330
13D3D
102
}
330
13D3D
100
AcDbMaterial
  1
Global
 72
     0
 43
0.020833
 43
0.0
 43
0.0
 43
0.0
 43
0.0
 43
0.020833
 43
0.0
 43
0.0
 43
0.0
 43
0.0
 43
1.0
 43
0.0
 43
0.0
 43
0.0
 43
0.0
 43
1.0
 77
     0
 47
0.020833
 47
0.0
 47
0.0
 47
0.0
 47
0.0
 47
0.020833
 47
0.0
 47
0.0
 47
0.0
 47
0.0
 47
1.0
 47
0.0
 47
0.0
 47
0.0
 47
0.0
 47
1.0
171
     0
 49
0.020833
 49
0.0
 49
0.0
 49
0.0
 49
0.0
 49
0.020833
 49
0.0
 49
0.0
 49
0.0
 49
0.0
 49
1.0
 49
0.0
 49
0.0
 49
0.0
 49
0.0
 49
1.0
175
     0
142
0.020833
142
0.0
142
0.0
142
0.0
142
0.0
142
0.020833
142
0.0
142
0.0
142
0.0
142
0.0
142
1.0
142
0.0
142
0.0
142
0.0
142
0.0
142
1.0
179
     0
144
0.020833
144
0.0
144
0.0
144
0.0
144
0.0
144
0.020833
144
0.0
144
0.0
144
0.0
144
0.0
144
1.0
144
0.0
144
0.0
144
0.0
144
0.0
144
1.0
147
0.020833
147
0.0
147
0.0
147
0.0
147
0.0
147
0.020833
147
0.0
147
0.0
147
0.0
147
0.0
147
1.0
147
0.0
147
0.0
147
0.0
147
0.0
147
1.0
  0
MLEADERSTYLE
  5
13F17
102
{ACAD_REACTORS
330
13D99
102
}
330
13D99
100
AcDbMLeaderStyle
179
     2
170
     2
171
     1
172
     0
 90
        2
 40
0.0
 41
0.0
173
     1
 91
-1073741824
 92
       -2
290
     1
 42
1.5
291
     1
 43
3.0
  3

 44
3.0
300

342
313
174
     1
178
     1
175
     1
176
     0
 93
-1073741824
 45
3.0
292
     0
297
     1
 46
5.0
 94
-1073741824
 47
1.0
 49
1.0
140
1.0
293
     1
141
0.0
294
     1
177
     0
142
1.0
295
     0
296
     0
143
0.125
271
     0
272
     9
273
     9
298
     0
  0
MLINESTYLE
  5
13DAB
102
{ACAD_REACTORS
330
13D84
102
}
330
13D84
100
AcDbMlineStyle
  2
STANDARD
 70
     0
  3

 62
   256
 51
90.0
 52
90.0
 71
     2
 49
0.5
 62
   256
  6
BYLAYER
 49
-0.5
 62
   256
  6
BYLAYER
  0
ACDBPLACEHOLDER
  5
13D39
102
{ACAD_REACTORS
330
13D3A
102
}
330
13D3A
  0
SCALE
  5
13DB0
102
{ACAD_REACTORS
330
13D97
102
}
330
13D97
100
AcDbScale
 70
     0
300
1:1
140
1.0
141
1.0
290
     1
  0
SCALE
  5
13DB1
102
{ACAD_REACTORS
330
13D97
102
}
330
13D97
100
AcDbScale
 70
     0
300
1:2
140
1.0
141
2.0
290
     0
  0
SCALE
  5
13DB2
102
{ACAD_REACTORS
330
13D97
102
}
330
13D97
100
AcDbScale
 70
     0
300
1:4
140
1.0
141
4.0
290
     0
  0
SCALE
  5
13DB3
102
{ACAD_REACTORS
330
13D97
102
}
330
13D97
100
AcDbScale
 70
     0
300
1:5
140
1.0
141
5.0
290
     0
  0
SCALE
  5
13DB4
102
{ACAD_REACTORS
330
13D97
102
}
330
13D97
100
AcDbScale
 70
     0
300
1:8
140
1.0
141
8.0
290
     0
  0
SCALE
  5
13DB5
102
{ACAD_REACTORS
330
13D97
102
}
330
13D97
100
AcDbScale
 70
     0
300
1:10
140
1.0
141
10.0
290
     0
  0
SCALE
  5
13DB6
102
{ACAD_REACTORS
330
13D97
102
}
330
13D97
100
AcDbScale
 70
     0
300
1:16
140
1.0
141
16.0
290
     0
  0
SCALE
  5
13DB7
102
{ACAD_REACTORS
330
13D97
102
}
330
13D97
100
AcDbScale
 70
     0
300
1:20
140
1.0
141
20.0
290
     0
  0
SCALE
  5
13DB8
102
{ACAD_REACTORS
330
13D97
102
}
330
13D97
100
AcDbScale
 70
     0
300
1:30
140
1.0
141
30.0
290
     0
  0
SCALE
  5
13DB9
102
{ACAD_REACTORS
330
13D97
102
}
330
13D97
100
AcDbScale
 70
     0
300
1:40
140
1.0
141
40.0
290
     0
  0
SCALE
  5
13DBA
102
{ACAD_REACTORS
330
13D97
102
}
330
13D97
100
AcDbScale
 70
     0
300
1:50
140
1.0
141
50.0
290
     0
  0
SCALE
  5
13DBB
102
{ACAD_REACTORS
330
13D97
102
}
330
13D97
100
AcDbScale
 70
     0
300
1:100
140
1.0
141
100.0
290
     0
  0
SCALE
  5
13DBC
102
{ACAD_REACTORS
330
13D97
102
}
330
13D97
100
AcDbScale
 70
     0
300
2:1
140
2.0
141
1.0
290
     0
  0
SCALE
  5
13DBD
102
{ACAD_REACTORS
330
13D97
102
}
330
13D97
100
AcDbScale
 70
     0
300
4:1
140
4.0
141
1.0
290
     0
  0
SCALE
  5
13DBE
102
{ACAD_REACTORS
330
13D97
102
}
330
13D97
100
AcDbScale
 70
     0
300
8:1
140
8.0
141
1.0
290
     0
  0
SCALE
  5
13DBF
102
{ACAD_REACTORS
330
13D97
102
}
330
13D97
100
AcDbScale
 70
     0
300
10:1
140
10.0
141
1.0
290
     0
  0
SCALE
  5
13DC0
102
{ACAD_REACTORS
330
13D97
102
}
330
13D97
100
AcDbScale
 70
     0
300
100:1
140
100.0
141
1.0
290
     0
  0
SCALE
  5
13DC1
102
{ACAD_REACTORS
330
13D97
102
}
330
13D97
100
AcDbScale
 70
     0
300
1/128" = 1'-0"
140
0.007813
141
12.0
290
     0
  0
SCALE
  5
13DC2
102
{ACAD_REACTORS
330
13D97
102
}
330
13D97
100
AcDbScale
 70
     0
300
1/64" = 1'-0"
140
0.015625
141
12.0
290
     0
  0
SCALE
  5
13DC3
102
{ACAD_REACTORS
330
13D97
102
}
330
13D97
100
AcDbScale
 70
     0
300
1/32" = 1'-0"
140
0.03125
141
12.0
290
     0
  0
SCALE
  5
13DC4
102
{ACAD_REACTORS
330
13D97
102
}
330
13D97
100
AcDbScale
 70
     0
300
1/16" = 1'-0"
140
0.0625
141
12.0
290
     0
  0
SCALE
  5
13DC5
102
{ACAD_REACTORS
330
13D97
102
}
330
13D97
100
AcDbScale
 70
     0
300
3/32" = 1'-0"
140
0.09375
141
12.0
290
     0
  0
SCALE
  5
13DC6
102
{ACAD_REACTORS
330
13D97
102
}
330
13D97
100
AcDbScale
 70
     0
300
1/8" = 1'-0"
140
0.125
141
12.0
290
     0
  0
SCALE
  5
13DC7
102
{ACAD_REACTORS
330
13D97
102
}
330
13D97
100
AcDbScale
 70
     0
300
3/16" = 1'-0"
140
0.1875
141
12.0
290
     0
  0
SCALE
  5
13DC8
102
{ACAD_REACTORS
330
13D97
102
}
330
13D97
100
AcDbScale
 70
     0
300
1/4" = 1'-0"
140
0.25
141
12.0
290
     0
  0
SCALE
  5
13DC9
102
{ACAD_REACTORS
330
13D97
102
}
330
13D97
100
AcDbScale
 70
     0
300
3/8" = 1'-0"
140
0.375
141
12.0
290
     0
  0
SCALE
  5
13DCA
102
{ACAD_REACTORS
330
13D97
102
}
330
13D97
100
AcDbScale
 70
     0
300
1/2" = 1'-0"
140
0.5
141
12.0
290
     0
  0
SCALE
  5
13DCB
102
{ACAD_REACTORS
330
13D97
102
}
330
13D97
100
AcDbScale
 70
     0
300
3/4" = 1'-0"
140
0.75
141
12.0
290
     0
  0
SCALE
  5
13DCC
102
{ACAD_REACTORS
330
13D97
102
}
330
13D97
100
AcDbScale
 70
     0
300
1" = 1'-0"
140
1.0
141
12.0
290
     0
  0
SCALE
  5
13DCD
102
{ACAD_REACTORS
330
13D97
102
}
330
13D97
100
AcDbScale
 70
     0
300
1-1/2" = 1'-0"
140
1.5
141
12.0
290
     0
  0
SCALE
  5
13DCE
102
{ACAD_REACTORS
330
13D97
102
}
330
13D97
100
AcDbScale
 70
     0
300
3" = 1'-0"
140
3.0
141
12.0
290
     0
  0
SCALE
  5
13DCF
102
{ACAD_REACTORS
330
13D97
102
}
330
13D97
100
AcDbScale
 70
     0
300
6" = 1'-0"
140
6.0
141
12.0
290
     0
  0
SCALE
  5
13DD0
102
{ACAD_REACTORS
330
13D97
102
}
330
13D97
100
AcDbScale
 70
     0
300
1'-0" = 1'-0"
140
12.0
141
12.0
290
     0
  0
TABLESTYLE
  5
13DAC
102
{ACAD_XDICTIONARY
360
13DAD
102
}
102
{ACAD_REACTORS
330
13D98
102
}
330
13D98
100
AcDbTableStyle
280
     0
  3
Standard
 70
     0
 71
     0
 40
0.06
 41
0.06
280
     0
281
     0
  7
Standard
140
0.18
170
     2
 62
     0
 63
     7
283
     0
 90
        4
 91
        0
  1

274
    -2
284
     1
 64
     0
275
    -2
285
     1
 65
     0
276
    -2
286
     1
 66
     0
277
    -2
287
     1
 67
     0
278
    -2
288
     1
 68
     0
279
    -2
289
     1
 69
     0
  7
Standard
140
0.25
170
     5
 62
     0
 63
     7
283
     0
 90
        4
 91
        0
  1

274
    -2
284
     1
 64
     0
275
    -2
285
     1
 65
     0
276
    -2
286
     1
 66
     0
277
    -2
287
     1
 67
     0
278
    -2
288
     1
 68
     0
279
    -2
289
     1
 69
     0
  7
Standard
140
0.18
170
     5
 62
     0
 63
     7
283
     0
 90
        4
 91
        0
  1

274
    -2
284
     1
 64
     0
275
    -2
285
     1
 65
     0
276
    -2
286
     1
 66
     0
277
    -2
287
     1
 67
     0
278
    -2
288
     1
 68
     0
279
    -2
289
     1
 69
     0
  0
VISUALSTYLE
  5
13D7C
102
{ACAD_REACTORS
330
13D7D
102
}
330
13D7D
100
AcDbVisualStyle
  2
2dWireframe
 70
     4
177
     3
291
     0
 70
    58
 90
        0
176
     1
 90
        2
176
     1
 90
        0
176
     1
 90
        0
176
     1
 40
0.6
176
     1
 40
30.0
176
     1
 62
     7
420
 16777215
176
     1
 90
        1
176
     1
 90
        4
176
     1
 62
     7
176
     1
 62
   257
176
     1
 90
        1
176
     1
 90
        1
176
     1
 40
1.0
176
     1
 90
        0
176
     1
 62
   257
176
     1
 40
1.0
176
     1
 90
        1
176
     1
 90
        6
176
     1
 90
        2
176
     1
 62
     7
176
     1
 90
        5
176
     1
 90
        0
176
     1
 90
        0
176
     1
290
     0
176
     1
 90
        1
176
     1
 40
0.0
176
     1
 90
        0
176
     1
290
     1
176
     1
290
     1
176
     1
290
     0
176
     1
290
     0
176
     1
290
     0
176
     1
290
     0
176
     1
290
     0
176
     1
290
     0
176
     1
290
     0
176
     1
 90
       50
176
     1
 40
0.0
176
     1
 40
1.0
176
     1
 90
        0
176
     1
 62
    18
420
        0
176
     1
 90
       50
176
     1
 90
        3
176
     1
 62
     5
420
      255
176
     1
290
     0
176
     1
 90
       50
176
     1
 90
       50
176
     1
 90
       50
176
     1
290
     0
176
     1
 90
       50
176
     1
 62
   256
176
     0
 40
1.0
176
     0
 90
        2
176
     1
  1
strokes_ogs.tif
176
     1
290
     0
176
     1
 40
1.0
176
     1
 40
1.0
176
     1
1001
ACAD
1000
AcDbSavedByObjectVersion
1070
     0
  0
VISUALSTYLE
  5
13DAE
102
{ACAD_REACTORS
330
13D7D
102
}
330
13D7D
100
AcDbVisualStyle
  2
Realistic
 70
     8
177
     3
291
     0
 70
    58
 90
        2
176
     1
 90
        2
176
     1
 90
        0
176
     1
 90
        0
176
     1
 40
0.6
176
     1
 40
30.0
176
     1
 62
     7
420
 16777215
176
     1
 90
        1
176
     1
 90
        0
176
     1
 62
     7
176
     1
 62
   257
176
     1
 90
        1
176
     1
 90
        1
176
     1
 40
1.0
176
     1
 90
        8
176
     1
 62
     8
420
  7895160
176
     1
 40
1.0
176
     1
 90
        1
176
     1
 90
        6
176
     1
 90
        2
176
     1
 62
     7
176
     1
 90
        5
176
     1
 90
        0
176
     1
 90
        0
176
     1
290
     0
176
     1
 90
       13
176
     1
 40
0.0
176
     1
 90
        0
176
     1
290
     0
176
     1
290
     1
176
     1
290
     1
176
     1
290
     0
176
     1
290
     0
176
     1
290
     0
176
     1
290
     0
176
     1
290
     0
176
     1
290
     0
176
     1
 90
       50
176
     1
 40
0.0
176
     1
 40
1.0
176
     1
 90
        0
176
     1
 62
    18
420
        0
176
     1
 90
       50
176
     1
 90
        3
176
     1
 62
     5
420
      255
176
     1
290
     0
176
     1
 90
       50
176
     1
 90
       50
176
     1
 90
       50
176
     1
290
     0
176
     1
 90
       50
176
     1
 62
   256
176
     0
 40
1.0
176
     0
 90
        2
176
     1
  1
strokes_ogs.tif
176
     1
290
     0
176
     1
 40
1.0
176
     1
 40
1.0
176
     1
1001
ACAD
1000
AcDbSavedByObjectVersion
1070
     0
  0
VISUALSTYLE
  5
13DAF
102
{ACAD_REACTORS
330
13D7D
102
}
330
13D7D
100
AcDbVisualStyle
  2
Wireframe
 70
     5
177
     3
291
     0
 70
    58
 90
        0
176
     1
 90
        2
176
     1
 90
        0
176
     1
 90
        0
176
     1
 40
0.6
176
     1
 40
30.0
176
     1
 62
     7
420
 16777215
176
     1
 90
        1
176
     1
 90
        4
176
     1
 62
     7
176
     1
 62
   257
176
     1
 90
        1
176
     1
 90
        1
176
     1
 40
1.0
176
     1
 90
        0
176
     1
 62
   257
176
     1
 40
1.0
176
     1
 90
        1
176
     1
 90
        6
176
     1
 90
        2
176
     1
 62
     7
176
     1
 90
        3
176
     1
 90
        0
176
     1
 90
        0
176
     1
290
     0
176
     1
 90
        1
176
     1
 40
0.0
176
     1
 90
        0
176
     1
290
     0
176
     1
290
     1
176
     1
290
     1
176
     1
290
     0
176
     1
290
     0
176
     1
290
     0
176
     1
290
     0
176
     1
290
     0
176
     1
290
     0
176
     1
 90
       50
176
     1
 40
0.0
176
     1
 40
1.0
176
     1
 90
        0
176
     1
 62
    18
420
        0
176
     1
 90
       50
176
     1
 90
        3
176
     1
 62
     5
420
      255
176
     1
290
     0
176
     1
 90
       50
176
     1
 90
       50
176
     1
 90
       50
176
     1
290
     0
176
     1
 90
       50
176
     1
 62
   256
176
     0
 40
1.0
176
     0
 90
        2
176
     1
  1
strokes_ogs.tif
176
     1
290
     0
176
     1
 40
1.0
176
     1
 40
1.0
176
     1
1001
ACAD
1000
AcDbSavedByObjectVersion
1070
     0
  0
DICTIONARYVAR
  5
13D9B
102
{ACAD_REACTORS
330
13D9A
102
}
330
13D9A
100
DictionaryVariables
280
     0
  1
1:1
  0
DICTIONARYVAR
  5
13D9C
102
{ACAD_REACTORS
330
13D9A
102
}
330
13D9A
100
DictionaryVariables
280
     0
  1
STANDARD
  0
DICTIONARYVAR
  5
13D9D
102
{ACAD_REACTORS
330
13D9A
102
}
330
13D9A
100
DictionaryVariables
280
     0
  1
STANDARD
  0
DICTIONARYVAR
  5
13D9E
102
{ACAD_REACTORS
330
13D9A
102
}
330
13D9A
100
DictionaryVariables
280
     0
  1

  0
DICTIONARYVAR
  5
13D9F
102
{ACAD_REACTORS
330
13D9A
102
}
330
13D9A
100
DictionaryVariables
280
     0
  1

  0
DICTIONARYVAR
  5
13DA0
102
{ACAD_REACTORS
330
13D9A
102
}
330
13D9A
100
DictionaryVariables
280
     0
  1
1
  0
DICTIONARYVAR
  5
13DA1
102
{ACAD_REACTORS
330
13D9A
102
}
330
13D9A
100
DictionaryVariables
280
     0
  1
15
  0
DICTIONARYVAR
  5
13DA2
102
{ACAD_REACTORS
330
13D9A
102
}
330
13D9A
100
DictionaryVariables
280
     0
  1
0
  0
DICTIONARYVAR
  5
13DA3
102
{ACAD_REACTORS
330
13D9A
102
}
330
13D9A
100
DictionaryVariables
280
     0
  1
0
  0
DICTIONARY
  5
13F24
102
{ACAD_REACTORS
330
13F22
102
}
330
13F22
100
AcDbDictionary
281
     1
  0
DICTIONARY
  5
13F23
102
{ACAD_REACTORS
330
13F22
102
}
330
13F22
100
AcDbDictionary
281
     1
  3
2218906041040
350
13F1D
  3
2218906041056
350
13F1E
  3
2218906041072
350
13F1F
  3
2218906045568
350
13F20
  3
2218906045584
350
13F21
  0
DICTIONARY
  5
13D6B
330
13D6A
100
AcDbDictionary
280
     1
281
     1
  0
DICTIONARY
  5
13D66
330
13D64
100
AcDbDictionary
280
     1
281
     1
  0
DICTIONARY
  5
13D8F
330
13D8E
100
AcDbDictionary
280
     1
281
     1
  3
BUMPTILE
360
13D90
  3
DIFFUSETILE
360
13D91
  3
OPACITYTILE
360
13D92
  3
REFLECTIONTILE
360
13D93
  3
REFRACTIONTILE
360
13D94
  3
SPECULARTILE
360
13D95
  0
DICTIONARY
  5
13D87
330
13D86
100
AcDbDictionary
280
     1
281
     1
  3
BUMPTILE
360
13D88
  3
DIFFUSETILE
360
13D89
  3
OPACITYTILE
360
13D8A
  3
REFLECTIONTILE
360
13D8B
  3
REFRACTIONTILE
360
13D8C
  3
SPECULARTILE
360
13D8D
  0
DICTIONARY
  5
13F10
330
8DC
100
AcDbDictionary
280
     1
281
     1
  3
ADVMATERIAL
360
13F13
  3
DIFFUSETILE
360
13F11
  3
OPACITYTILE
360
13F14
  3
SPECULARTILE
360
13F12
  0
DICTIONARY
  5
13D3E
330
13D3C
100
AcDbDictionary
280
     1
281
     1
  3
BUMPTILE
360
13D3F
  3
DIFFUSETILE
360
13D40
  3
OPACITYTILE
360
13D41
  3
REFLECTIONTILE
360
13D42
  3
REFRACTIONTILE
360
13D43
  3
SPECULARTILE
360
13D44
  0
DICTIONARY
  5
13DAD
330
13DAC
100
AcDbDictionary
280
     1
281
     1
  3
ACAD_ROUNDTRIP_2008_TABLESTYLE_CELLSTYLEMAP
360
13F1B
  0
XRECORD
  5
13F1D
102
{ACAD_REACTORS
330
13F23
102
}
330
13F23
100
AcDbXrecord
280
     1
  1
AcDb_Thumbnail_Schema
102
{ATTRRECORD
341
13F1E
  2
AcDbDs::TreatedAsObjectData
280
     1
291
     1
102
ATTRRECORD}
102
{ATTRRECORD
341
13F1F
  2
AcDbDs::Legacy
280
     1
291
     1
102
ATTRRECORD}
  2
AcDbDs::ID
280
    10
 91
        8
102
{ATTRRECORD
341
13F20
  2
AcDs:Indexable
280
     1
291
     1
102
ATTRRECORD}
102
{ATTRRECORD
341
13F21
  2
AcDbDs::HandleAttribute
280
     7
282
     1
102
ATTRRECORD}
  2
Thumbnail_Data
280
    15
 91
        0
  0
XRECORD
  5
13F1E
102
{ACAD_REACTORS
330
13F23
102
}
330
13F23
100
AcDbXrecord
280
     1
  1
AcDbDs::TreatedAsObjectDataSchema
  2
AcDbDs::TreatedAsObjectData
280
     1
 91
        0
  0
XRECORD
  5
13F1F
102
{ACAD_REACTORS
330
13F23
102
}
330
13F23
100
AcDbXrecord
280
     1
  1
AcDbDs::LegacySchema
  2
AcDbDs::Legacy
280
     1
 91
        0
  0
XRECORD
  5
13F20
102
{ACAD_REACTORS
330
13F23
102
}
330
13F23
100
AcDbXrecord
280
     1
  1
AcDbDs::IndexedPropertySchema
  2
AcDs:Indexable
280
     1
 91
        0
  0
XRECORD
  5
13F21
102
{ACAD_REACTORS
330
13F23
102
}
330
13F23
100
AcDbXrecord
280
     1
  1
AcDbDs::HandleAttributeSchema
  2
AcDbDs::HandleAttribute
280
     7
 91
        1
284
     1
  0
XRECORD
  5
13D90
102
{ACAD_REACTORS
330
13D8F
102
}
330
13D8F
100
AcDbXrecord
280
     1
270
     1
271
     1
  0
XRECORD
  5
13D91
102
{ACAD_REACTORS
330
13D8F
102
}
330
13D8F
100
AcDbXrecord
280
     1
270
     1
271
     1
  0
XRECORD
  5
13D92
102
{ACAD_REACTORS
330
13D8F
102
}
330
13D8F
100
AcDbXrecord
280
     1
270
     1
271
     1
  0
XRECORD
  5
13D93
102
{ACAD_REACTORS
330
13D8F
102
}
330
13D8F
100
AcDbXrecord
280
     1
270
     1
271
     1
  0
XRECORD
  5
13D94
102
{ACAD_REACTORS
330
13D8F
102
}
330
13D8F
100
AcDbXrecord
280
     1
270
     1
271
     1
  0
XRECORD
  5
13D95
102
{ACAD_REACTORS
330
13D8F
102
}
330
13D8F
100
AcDbXrecord
280
     1
270
     1
271
     1
  0
XRECORD
  5
13D88
102
{ACAD_REACTORS
330
13D87
102
}
330
13D87
100
AcDbXrecord
280
     1
270
     1
271
     1
  0
XRECORD
  5
13D89
102
{ACAD_REACTORS
330
13D87
102
}
330
13D87
100
AcDbXrecord
280
     1
270
     1
271
     1
  0
XRECORD
  5
13D8A
102
{ACAD_REACTORS
330
13D87
102
}
330
13D87
100
AcDbXrecord
280
     1
270
     1
271
     1
  0
XRECORD
  5
13D8B
102
{ACAD_REACTORS
330
13D87
102
}
330
13D87
100
AcDbXrecord
280
     1
270
     1
271
     1
  0
XRECORD
  5
13D8C
102
{ACAD_REACTORS
330
13D87
102
}
330
13D87
100
AcDbXrecord
280
     1
270
     1
271
     1
  0
XRECORD
  5
13D8D
102
{ACAD_REACTORS
330
13D87
102
}
330
13D87
100
AcDbXrecord
280
     1
270
     1
271
     1
  0
XRECORD
  5
13F13
102
{ACAD_REACTORS
330
13F10
102
}
330
13F10
100
AcDbXrecord
280
     1
460
100.0
461
100.0
462
100.0
463
100.0
290
     0
270
     0
464
0.0
293
     0
272
     3
273
     3
  0
XRECORD
  5
13F11
102
{ACAD_REACTORS
330
13F10
102
}
330
13F10
100
AcDbXrecord
280
     1
270
     1
271
     1
  0
XRECORD
  5
13F14
102
{ACAD_REACTORS
330
13F10
102
}
330
13F10
100
AcDbXrecord
280
     1
270
     1
271
     1
  0
XRECORD
  5
13F12
102
{ACAD_REACTORS
330
13F10
102
}
330
13F10
100
AcDbXrecord
280
     1
270
     1
271
     1
  0
XRECORD
  5
13D3F
102
{ACAD_REACTORS
330
13D3E
102
}
330
13D3E
100
AcDbXrecord
280
     1
270
     1
271
     1
  0
XRECORD
  5
13D40
102
{ACAD_REACTORS
330
13D3E
102
}
330
13D3E
100
AcDbXrecord
280
     1
270
     1
271
     1
  0
XRECORD
  5
13D41
102
{ACAD_REACTORS
330
13D3E
102
}
330
13D3E
100
AcDbXrecord
280
     1
270
     1
271
     1
  0
XRECORD
  5
13D42
102
{ACAD_REACTORS
330
13D3E
102
}
330
13D3E
100
AcDbXrecord
280
     1
270
     1
271
     1
  0
XRECORD
  5
13D43
102
{ACAD_REACTORS
330
13D3E
102
}
330
13D3E
100
AcDbXrecord
280
     1
270
     1
271
     1
  0
XRECORD
  5
13D44
102
{ACAD_REACTORS
330
13D3E
102
}
330
13D3E
100
AcDbXrecord
280
     1
270
     1
271
     1
  0
CELLSTYLEMAP
  5
13F1B
102
{ACAD_REACTORS
330
13DAD
102
}
330
13DAD
100
AcDbCellStyleMap
 90
        3
300
CELLSTYLE
  1
TABLEFORMAT_BEGIN
 90
        5
170
     1
 91
        0
 92
    32768
 62
   257
 93
        1
300
CONTENTFORMAT
  1
CONTENTFORMAT_BEGIN
 90
        0
 91
        0
 92
        4
 93
        0
300

 40
0.0
140
1.0
 94
        5
 62
     0
340
13D73
144
0.25
309
CONTENTFORMAT_END
171
     0
 94
        6
 95
        1
302
GRIDFORMAT
  1
GRIDFORMAT_BEGIN
 90
        0
 91
        1
 62
     0
 92
       -2
340
0
 93
        0
 40
0.045
309
GRIDFORMAT_END
 95
        2
302
GRIDFORMAT
  1
GRIDFORMAT_BEGIN
 90
        0
 91
        1
 62
     0
 92
       -2
340
0
 93
        0
 40
0.045
309
GRIDFORMAT_END
 95
        4
302
GRIDFORMAT
  1
GRIDFORMAT_BEGIN
 90
        0
 91
        1
 62
     0
 92
       -2
340
0
 93
        0
 40
0.045
309
GRIDFORMAT_END
 95
        8
302
GRIDFORMAT
  1
GRIDFORMAT_BEGIN
 90
        0
 91
        1
 62
     0
 92
       -2
340
0
 93
        0
 40
0.045
309
GRIDFORMAT_END
 95
       16
302
GRIDFORMAT
  1
GRIDFORMAT_BEGIN
 90
        0
 91
        1
 62
     0
 92
       -2
340
0
 93
        0
 40
0.045
309
GRIDFORMAT_END
 95
       32
302
GRIDFORMAT
  1
GRIDFORMAT_BEGIN
 90
        0
 91
        1
 62
     0
 92
       -2
340
0
 93
        0
 40
0.045
309
GRIDFORMAT_END
309
TABLEFORMAT_END
  1
CELLSTYLE_BEGIN
 90
        1
 91
        1
300
_TITLE
309
CELLSTYLE_END
300
CELLSTYLE
  1
TABLEFORMAT_BEGIN
 90
        5
170
     1
 91
        0
 92
        0
 62
   257
 93
        1
300
CONTENTFORMAT
  1
CONTENTFORMAT_BEGIN
 90
        0
 91
        0
 92
        4
 93
        0
300

 40
0.0
140
1.0
 94
        5
 62
     0
340
13D73
144
0.18
309
CONTENTFORMAT_END
171
     0
 94
        6
 95
        1
302
GRIDFORMAT
  1
GRIDFORMAT_BEGIN
 90
        0
 91
        1
 62
     0
 92
       -2
340
0
 93
        0
 40
0.045
309
GRIDFORMAT_END
 95
        2
302
GRIDFORMAT
  1
GRIDFORMAT_BEGIN
 90
        0
 91
        1
 62
     0
 92
       -2
340
0
 93
        0
 40
0.045
309
GRIDFORMAT_END
 95
        4
302
GRIDFORMAT
  1
GRIDFORMAT_BEGIN
 90
        0
 91
        1
 62
     0
 92
       -2
340
0
 93
        0
 40
0.045
309
GRIDFORMAT_END
 95
        8
302
GRIDFORMAT
  1
GRIDFORMAT_BEGIN
 90
        0
 91
        1
 62
     0
 92
       -2
340
0
 93
        0
 40
0.045
309
GRIDFORMAT_END
 95
       16
302
GRIDFORMAT
  1
GRIDFORMAT_BEGIN
 90
        0
 91
        1
 62
     0
 92
       -2
340
0
 93
        0
 40
0.045
309
GRIDFORMAT_END
 95
       32
302
GRIDFORMAT
  1
GRIDFORMAT_BEGIN
 90
        0
 91
        1
 62
     0
 92
       -2
340
0
 93
        0
 40
0.045
309
GRIDFORMAT_END
309
TABLEFORMAT_END
  1
CELLSTYLE_BEGIN
 90
        2
 91
        1
300
_HEADER
309
CELLSTYLE_END
300
CELLSTYLE
  1
TABLEFORMAT_BEGIN
 90
        5
170
     1
 91
        0
 92
        0
 62
   257
 93
        1
300
CONTENTFORMAT
  1
CONTENTFORMAT_BEGIN
 90
        0
 91
        0
 92
        4
 93
        0
300

 40
0.0
140
1.0
 94
        2
 62
     0
340
13D73
144
0.18
309
CONTENTFORMAT_END
171
     0
 94
        6
 95
        1
302
GRIDFORMAT
  1
GRIDFORMAT_BEGIN
 90
        0
 91
        1
 62
     0
 92
       -2
340
0
 93
        0
 40
0.045
309
GRIDFORMAT_END
 95
        2
302
GRIDFORMAT
  1
GRIDFORMAT_BEGIN
 90
        0
 91
        1
 62
     0
 92
       -2
340
0
 93
        0
 40
0.045
309
GRIDFORMAT_END
 95
        4
302
GRIDFORMAT
  1
GRIDFORMAT_BEGIN
 90
        0
 91
        1
 62
     0
 92
       -2
340
0
 93
        0
 40
0.045
309
GRIDFORMAT_END
 95
        8
302
GRIDFORMAT
  1
GRIDFORMAT_BEGIN
 90
        0
 91
        1
 62
     0
 92
       -2
340
0
 93
        0
 40
0.045
309
GRIDFORMAT_END
 95
       16
302
GRIDFORMAT
  1
GRIDFORMAT_BEGIN
 90
        0
 91
        1
 62
     0
 92
       -2
340
0
 93
        0
 40
0.045
309
GRIDFORMAT_END
 95
       32
302
GRIDFORMAT
  1
GRIDFORMAT_BEGIN
 90
        0
 91
        1
 62
     0
 92
       -2
340
0
 93
        0
 40
0.045
309
GRIDFORMAT_END
309
TABLEFORMAT_END
  1
CELLSTYLE_BEGIN
 90
        3
 91
        2
300
_DATA
309
CELLSTYLE_END
  0
ENDSEC
  0
SECTION
  2
ACDSDATA
 70
     2
 71
     8
  0
ACDSSCHEMA
 90
        0
  1
AcDb_Thumbnail_Schema
  2
AcDbDs::ID
280
    10
 91
        8
  2
Thumbnail_Data
280
    15
 91
        0
101
ACDSRECORD
 95
        0
 90
        1
  2
AcDbDs::TreatedAsObjectData
280
     1
291
     1
101
ACDSRECORD
 95
        0
 90
        2
  2
AcDbDs::Legacy
280
     1
291
     1
101
ACDSRECORD
  1
AcDbDs::ID
 90
        3
  2
AcDs:Indexable
280
     1
291
     1
101
ACDSRECORD
  1
AcDbDs::ID
 90
        4
  2
AcDbDs::HandleAttribute
280
     7
282
     1
  0
ACDSSCHEMA
 90
        1
  1
AcDbDs::TreatedAsObjectDataSchema
  2
AcDbDs::TreatedAsObjectData
280
     1
 91
        0
  0
ACDSSCHEMA
 90
        2
  1
AcDbDs::LegacySchema
  2
AcDbDs::Legacy
280
     1
 91
        0
  0
ACDSSCHEMA
 90
        3
  1
AcDbDs::IndexedPropertySchema
  2
AcDs:Indexable
280
     1
 91
        0
  0
ACDSSCHEMA
 90
        4
  1
AcDbDs::HandleAttributeSchema
  2
AcDbDs::HandleAttribute
280
     7
 91
        1
284
     1
  0
ACDSRECORD
 90
        0
  2
AcDbDs::ID
280
    10
320
13D64
  2
Thumbnail_Data
280
    15
 94
     1017
310
89504E470D0A1A0A0000000D4948445200000100000000890803000000F46416F000000300504C5445FEFCF0000000FFFFFF0000000000000000000000000000000000000000000000000000330000660000990000CC0000FF0033000033330033660033990033CC0033FF0066000066330066660066990066CC0066FF0099
310
000099330099660099990099CC0099FF00CC0000CC3300CC6600CC9900CCCC00CCFF00FF0000FF3300FF6600FF9900FFCC00FFFF3300003300333300663300993300CC3300FF3333003333333333663333993333CC3333FF3366003366333366663366993366CC3366FF3399003399333399663399993399CC3399FF33CC00
310
33CC3333CC6633CC9933CCCC33CCFF33FF0033FF3333FF6633FF9933FFCC33FFFF6600006600336600666600996600CC6600FF6633006633336633666633996633CC6633FF6666006666336666666666996666CC6666FF6699006699336699666699996699CC6699FF66CC0066CC3366CC6666CC9966CCCC66CCFF66FF0066
310
FF3366FF6666FF9966FFCC66FFFF9900009900339900669900999900CC9900FF9933009933339933669933999933CC9933FF9966009966339966669966999966CC9966FF9999009999339999669999999999CC9999FF99CC0099CC3399CC6699CC9999CCCC99CCFF99FF0099FF3399FF6699FF9999FFCC99FFFFCC0000CC00
310
33CC0066CC0099CC00CCCC00FFCC3300CC3333CC3366CC3399CC33CCCC33FFCC6600CC6633CC6666CC6699CC66CCCC66FFCC9900CC9933CC9966CC9999CC99CCCC99FFCCCC00CCCC33CCCC66CCCC99CCCCCCCCCCFFCCFF00CCFF33CCFF66CCFF99CCFFCCCCFFFFFF0000FF0033FF0066FF0099FF00CCFF00FFFF3300FF3333
310
FF3366FF3399FF33CCFF33FFFF6600FF6633FF6666FF6699FF66CCFF66FFFF9900FF9933FF9966FF9999FF99CCFF99FFFFCC00FFCC33FFCC66FFCC99FFCCCCFFCCFFFFFF00FFFF33FFFF66FFFF99FFFFCCFFFFFF0000000D0D0D1A1A1A2828283535354343435050505D5D5D6B6B6B787878868686939393A1A1A1AEAEAEBB
310
BBBBC9C9C9D6D6D6E4E4E4F1F1F1FFFFFF0000000000000000000000000000000000000000000000000000000000007C77BAA7000000B44944415478DAEDD0310100000C0220FBB7B48931760C22903E1701020408102040800001020408102040800001020408102040800001020408102040800001020408102040800001
310
020408102040800001020408102040800001020408102040800001020408102040800001020408102040800001020408102040800001020408102040800001020408102040800001020408102040800001020408102040800001020408102040800001020408102040C099016B33700943E05F3C0000000049454E44AE4260
310
82
  0
ACDSRECORD
 90
        0
  2
AcDbDs::ID
280
    10
320
13D6A
  2
Thumbnail_Data
280
    15
 94
     1183
310
89504E470D0A1A0A0000000D4948445200000100000000C508030000008CFEDCE700000300504C5445FFFFFF000000FFFFFF0000000000000000000000000000000000000000000000000000330000660000990000CC0000FF0033000033330033660033990033CC0033FF0066000066330066660066990066CC0066FF0099
310
000099330099660099990099CC0099FF00CC0000CC3300CC6600CC9900CCCC00CCFF00FF0000FF3300FF6600FF9900FFCC00FFFF3300003300333300663300993300CC3300FF3333003333333333663333993333CC3333FF3366003366333366663366993366CC3366FF3399003399333399663399993399CC3399FF33CC00
310
33CC3333CC6633CC9933CCCC33CCFF33FF0033FF3333FF6633FF9933FFCC33FFFF6600006600336600666600996600CC6600FF6633006633336633666633996633CC6633FF6666006666336666666666996666CC6666FF6699006699336699666699996699CC6699FF66CC0066CC3366CC6666CC9966CCCC66CCFF66FF0066
310
FF3366FF6666FF9966FFCC66FFFF9900009900339900669900999900CC9900FF9933009933339933669933999933CC9933FF9966009966339966669966999966CC9966FF9999009999339999669999999999CC9999FF99CC0099CC3399CC6699CC9999CCCC99CCFF99FF0099FF3399FF6699FF9999FFCC99FFFFCC0000CC00
310
33CC0066CC0099CC00CCCC00FFCC3300CC3333CC3366CC3399CC33CCCC33FFCC6600CC6633CC6666CC6699CC66CCCC66FFCC9900CC9933CC9966CC9999CC99CCCC99FFCCCC00CCCC33CCCC66CCCC99CCCCCCCCCCFFCCFF00CCFF33CCFF66CCFF99CCFFCCCCFFFFFF0000FF0033FF0066FF0099FF00CCFF00FFFF3300FF3333
310
FF3366FF3399FF33CCFF33FFFF6600FF6633FF6666FF6699FF66CCFF66FFFF9900FF9933FF9966FF9999FF99CCFF99FFFFCC00FFCC33FFCC66FFCC99FFCCCCFFCCFFFFFF00FFFF33FFFF66FFFF99FFFFCCFFFFFF0000000D0D0D1A1A1A2828283535354343435050505D5D5D6B6B6B787878868686939393A1A1A1AEAEAEBB
310
BBBBC9C9C9D6D6D6E4E4E4F1F1F1FFFFFF000000000000000000000000000000000000000000000000000000000000790CAC0F0000015A4944415478DAEDD8410A8340100440FFFFCCF9C09EE61E104224896014844D579F64F420A587DE592A3A632CD5C101100F500500C0F36ACDF6D636BFCEEBAEF9E9177D0788FBF600
310
000000000000004D1000000000000000100F50FB4F4C9E8B5578FAFF0300000000000000000000000000000000B00BD069000D0000000000000000A009020000000000000000000000000000000052013A0DA001000000000000000000A8C2000000000000000000000000000000402A40FC420400000000000000002016C0
310
5900000000000000000000000000000000C803885F88000000000000000000C402380B0000000000000000000000000000000000E2003A0DA0010000000000000000344100000000000000000000000000000000C0E7C660F21C04080D0000000000000000C01F54DE73151900000000000000D0AFCDCFB6227CDDAB1C9CD7
310
5DF3D32FAA0902000000C00A109E658C110DF0000E6CC6FBCCF8EC2E0000000049454E44AE426082
  0
ENDSEC
  0
SECTION
  2
THUMBNAILIMAGE
 90
    14496
310
28000000B80000004900000001000800000000007834000001000000010000000001000000000000FFFFFF009898980030303000F8F8F80090909000F0F0F00088888800C0C0C00078787800B0B0B0008080800050505000D0D0D000A0A0A000C8C8C80048484800B8B8B80058585800D8D8D8003838380068686800E0E0E0
310
00E8E8E800A8A8A800606060007070700040404000FFFFFF00FFFFFF00FFFFFF00FFFFFF00FFFFFF00FFFFFF00FFFFFF00FFFFFF00FFFFFF00FFFFFF00FFFFFF00FFFFFF00FFFFFF00FFFFFF00FFFFFF00FFFFFF00FFFFFF00FFFFFF00FFFFFF00FFFFFF00FFFFFF00FFFFFF00FFFFFF00FFFFFF00FFFFFF00FFFFFF00FFFF
310
FF00FFFFFF00FFFFFF00FFFFFF00FFFFFF00FFFFFF00FFFFFF00FFFFFF00FFFFFF00FFFFFF00FFFFFF00FFFFFF00FFFFFF00FFFFFF00FFFFFF00FFFFFF00FFFFFF00FFFFFF00FFFFFF00FFFFFF00FFFFFF00FFFFFF00FFFFFF00FFFFFF00FFFFFF00FFFFFF00FFFFFF00FFFFFF00FFFFFF00FFFFFF00FFFFFF00FFFFFF00FF
310
FFFF00FFFFFF00FFFFFF00FFFFFF00FFFFFF40FFFFFF00FFFFFF3FFFFFFFFFFFFFFFFFFFFFFF00FFFFFF00FFFFFF00FFFFFF40FFFFFF00FFFFFF3FFFFFFFFFFFFFFFFFFFFFFF00FFFFFF00FFFFFF00FFFFFF40FFFFFF00FFFFFF3FFFFFFFFFFFFFFFFFFFFFFF00FFFFFF00FFFFFF00FFFFFF40FFFFFF00FFFFFF3FFFFFFFFF
310
FFFFFFFFFFFFFF00FFFFFF00FFFFFF00FFFFFF40FFFFFF00FFFFFF3FFFFFFFFFFFFFFFFFFFFFFF00FFFFFF00FFFFFF00FFFFFF40FFFFFF00FFFFFF3FFFFFFFFFFFFFFFFFFFFFFF00FFFFFF00FFFFFF00FFFFFF40FFFFFF00FFFFFF3FFFFFFFFFFFFFFFFFFFFFFF00FFFFFF00FFFFFF00FFFFFF40FFFFFF00FFFFFF3FFFFFFF
310
FFFFFFFFFFFFFFFF00FFFFFF00FFFFFF00FFFFFF40FFFFFF00FFFFFF3FFFFFFFFFFFFFFFFFFFFFFF00FFFFFF00FFFFFF00FFFFFF40FFFFFF00FFFFFF3FFFFFFFFFFFFFFFFFFFFFFF00FFFFFF00FFFFFF00FFFFFF40FFFFFF00FFFFFF3FFFFFFFFFFFFFFFFFFFFFFF00FFFFFF00FFFFFF00FFFFFF40FFFFFF00FFFFFF3FFFFF
310
FFFFFFFFFFFFFFFFFF00FFFFFF00FFFFFF00FFFFFF40FFFFFF00FFFFFF3FFFFFFFFFFFFFFFFFFFFFFF00FFFFFF00FFFFFF00FFFFFF40FFFFFF00FFFFFF3FFFFFFFFFFFFFFFFFFFFFFF00FFFFFF00FFFFFF00FFFFFF40FFFFFF00FFFFFF3FFFFFFFFFFFFFFFFFFFFFFF00FFFFFF00FFFFFF00FFFFFF40FFFFFF00FFFFFF3FFF
310
FFFFFFFFFFFFFFFFFFFF00FFFFFF00FFFFFF00FFFFFF40FFFFFF00FFFFFF3FFFFFFFFFFFFFFFFFFFFFFF00FFFFFF00FFFFFF00FFFFFF40FFFFFF00FFFFFF3FFFFFFFFFFFFFFFFFFFFFFF00FFFFFF00FFFFFF00FFFFFF40FFFFFF00FFFFFF3FFFFFFFFFFFFFFFFFFFFFFF00FFFFFF00FFFFFF00FFFFFF40FFFFFF00FFFFFF3F
310
FFFFFFFFFFFFFFFFFFFFFF00FFFFFF00FFFFFF00FFFFFF40FFFFFF00FFFFFF3FFFFFFFFFFFFFFFFFFFFFFFFFFFFFFFFF00000000000000000000000000000000000000000000000000000000000000000000000000000000000000000000000000000000000000000000000000000000000000000000000000000000000000
310
00000000000000000000000000000000000000000000000000000000000000000000000000000000000000000000000000000000000000000000000000000000000000000000000000000000000000000000000000000000000000000000000000000000000000000000000000000000000000000000000000000000000000
310
00000000000000000000000000000000000000000000000000000000000000000000000000000000000000000000000000000000000000000000000000000000000000000000000000000000000000000000000000000000000000000000000000000000000000000000000000000000000000000000000000000000000000
310
00000000000000000000000000000000000000000000000000000000000000000000000000000000000000000000000000000000000000000000000000000000000000000000000000000000000000000000000000000000000000000000000000000000000000000000000000000000000000000000000000000000000000
310
00000000000000000000000000000000000000000000000000000000000000000000000000000000000000000000000000000000000000000000000000000000000000000000000000000000000000000000000000000000000000000000000000000000000000000000000000000000000000000000000000000000000000
310
00000000000000000000000000000000000000000000000000000000000000000000000000000000000000000000000000000000000000000000000000000000000000000000000000000000000000000000000000000000000000000000000000000000000000000000000000000000000000000000000000000000000000
310
00000000000000000000000000000000000000000000000000000000000000000000000000000000000000000000000000000000000000000000000000000000000000000000000000000000000000000000000000000000000000000000000000000000000000000000000000000000000000000000000000000000000000
310
00000000000000000000000000000000000000000000000000000000000000000000000000000000000000000000000000000000000000000000000000000000000000000000000000000000000000000000000000000000000000000000000000000000000000000000000000000000000000000000000000000000000000
310
00000000000000000000000000000000000000000000000000000000000000000000000000000000000000000000000000000000000000000000000000000000000000000000000000000000000000000000000000000000000000000000000000000000000000000000000000000000000000000000000000000000000000
310
00000000000000000000000000000000000000000000000000000000000000000000000000000000000000000000000000000000000000000000000000000000000000000000000000000000000000000000000000000000000000000000000000000000000000000000000000000000000000000000000000000000000000
310
00000000000000000000000000000000000000000000000000000000000000000000000000000000000000000000000000000000000000000000000000000000000000000000000000000000000000000000000000000000000000000000000000000000000000000000000000000000000000000000000000000000000000
310
00000000000000000000000000000000000000000000000000000000000000000000000000000000000000000000000000000000000000000000000000000000000000000000000000000000000000000000000000000000000000000000000000000000000000000000000000000000000000000000000000000000000000
310
00000000000000000000000000000000000000000000000000000000000000000000000000000000000000000000000000000000000000000000000000000000000000000000000000000000000000000000000000000000000000000000000000000000000000000000000000000000000000000000000000000000000000
310
00000000000000000000000000000000000000000000000000000000000000000000000000000000000000000000000000000000000000000000000000000000000000000000000000000000000000000000000000000000000000000000000000000000000000000000000000000000000000000000000000000000000000
310
00000000000000000000000000000000000000000000000000000000000000000000000000000000000000000000000000000000000000000000000000000000000000000000000000000000000000000000000000000000000000000000000000000000000000000000000000000000000000000000000000000000000000
310
00000000000000000000000000000000000000000000000000000000000000000000000000000000000000000000000000000000000000000000000000000000000000000000000000000000000000000000000000000000000000000000000000000000000000000000000000000000000000000000000000000000000000
310
00000000000000000000000000000000000000000000000000000000000000000000000000000000000000000000000000000000000000000000000000000000000000000000000000000000000000000000000000000000000000000000000000000000000000000000000000000000000000000000000000000000000000
310
00000000000000000000000000000000000000000000000000000000000000000000000000000000000000000000000000000000000000000000000000000000000000000000000000000000000000000000000000000000000000000000000000000000000000000000000000000000000000000000000000000000000000
310
00000000000000000000000000000000000000000000000000000000000000000000000000000000000000000000000000000000000000000000000000000000000000000000000000000000000000000000000000000000000000000000000000000000000000000000000000000000000000000000000000000000000000
310
00000000000000000000000000000000000000000000000000000000000000000000000000000000000000000000000000000000000000000000000000000000000000000000000000000000000000000000000000000000000000000000000000000000000000000000000000000000000000000000000000000000000000
310
00000000000000000000000000000000000000000000000000000000000000000000000000000000000000000000000000000000000000000000000000000000000000000000000000000000000000000000000000000000000000000000000000000000000000000000000000000000000000000000000000000000000000
310
00000000000000000000000000000000000000000000000000000000000000000000000000000000000000000000000000000000000000000000000000000000000000000000000000000000000000000000000000000000000000000000000000000000000000000000000000000000000000000000000000000000000000
310
00000000000000000000000000000000000000000000000000000000000000000000000000000000000000000000000000000000000000000000000000000000000000000000000000000000000000000000000000000000000000000000000000000000000000000000000000000000000000000000000000000000000000
310
00000000000000000000000000000000000000000000000000000000000000000000000000000000000000000000000000000000000000000000000000000000000000000000000000000000000000000000000000000000000000000000000000000000000000000000000000000000000000000000000000000000000000
310
00000000000000000000000000000000000000000000000000000000000000000000000000000000000000000000000000000000000000000000000000000000000000000000000000000000000000000000000000000000000000000000000000000000000000000000000000000000000000000000000000000000000000
310
00000000000000000000000000000000000000000000000000000000000000000000000000000000000000000000000000000000000000000000000000000000000000000000000000000000000000000000000000000000000000000000000000000000000000000000000000000000000000000000000000000000000000
310
00000000000000000000000000000000000000000000000000000000000000000000000000000000000000000000000000000000000000000000000000000000000000000000000000000000000000000000000000000000000000000000000000000000000000000000000000000000000000000000000000000000000000
310
00000000000000000000000000000000000000000000000000000000000000000000000000000000000000000000000000000000000000000000000000000000000000000000000000000000000000000000000000000000000000000000000000000000000000000000000000000000000000000000000000000000000000
310
00000000000000000000000000000000000000000000000000000000000000000000000000000000000000000000000000000000000000000000000000000000000000000000000000000000000000000000000000000000000000000000000000000000000000000000000000000000000000000000000000000000000000
310
00000000000000000000000000000000000000000000000000000000000000000000000000000000000000000000000000000000000000000000000000000000000000000000000000000000000000000000000000000000000000000000000000000000000000000000000000000000000000000000000000000000000000
310
00000000000000000000000000000000000000000000000000000000000000000000000000000000000000000000000000000000000000000000000000000000000000000000000000000000000000000000000000000000000000000000000000000000000000000000000000000000000000000000000000000000000000
310
00000000000000000000000000000000000000000000000000000000000000000000000000000000000000000000000000000000000000000000000000000000000000000000000000000000000000000000000000000000000000000000000000000000000000000000000000000000000000000000000000000000000000
310
00000000000000000000000000000000000000000000000000000000000000000000000000000000000000000000000000000000000000000000000000000000000000000000000000000000000000000000000000000000000000000000000000000000000000000000000000000000000000000000000000000000000000
310
00000000000000000000000000000000000000000000000000000000000000000000000000000000000000000000000000000000000000000000000000000000000000000000000000000000000000000000000000000000000000000000000000000000000000000000000000000000000000000000000000000000000000
310
00000000000000000000000000000000000000000000000000000000000000000000000000000000000000000000000000000000000000000000000000000000000000000000000000000000000000000000000000000000000000000000000000000000000000000000000000000000000000000000000000000000000000
310
00000000000000000000000000000000000000000000000000000000000000000000000000000000000000000000000000000000000000000000000000000000000000000000000000000000000000000000000000000000000000000000000000000000000000000000000000000000000000000000000000000000000000
310
00000000000000000000000000000000000000000000000000000000000000000000000000000000000000000000000000000000000000000000000000000000000000000000000000000000000000000000000000000000000000000000000000000000000000000000000000000000000000000000000000000000000000
310
00000000000000000000000000000000000000000000000000000000000000000000000000000000000000000000000000000000000000000000000000000000000000000000000000000000000000000000000000000000000000000000000000000000000000000000000000000000000000000000000000000000000000
310
0000000000000000000000000000000000000000000000000000000000000000000000000000000000000000000000000000000000000B080D0E160303030305050303030303160E0D080000000000000000000000000000000000000000000000000000000000000000000000000000000000000000000000000000000000
310
000000000000000000000000000000000000000000000000000000000000000000000000000000000000000000000000000000000000000000000000000000000000000000000000000000000000000000000000000000000000000000000000000000000000000000000000000B0703160E0D080000000000000000000000
310
080D0E160303030303030512070D0000000000000000000000000000000000000000000000000000000000000000000000000000000000000000000000000000000000000000000000000000000000000000000000000000000000000000000000000000000000000000000000000000000000000000000000000000000000
310
00000000000000000000000000000000000000000000000000000000000000000000000000001703070B00000000000000000000000000000000000000000000000000180617090000000503030305000000150E18000000000000000000000000000000000000000000000000000000000000000000000000000000000000
310
00000000000000000000000000000000000000000000000000000000000000000000000000000000000000000000000000000000000000000000000000000000000000000000000000000000000000000000000000000000000000000014121204000000000000000000000000000000000000000000000000000000000000
310
00000000000000000000000011090307130000000000000000000000000000000000000000000000000000000000000000000000000000000000000000000000000000000000000000000000000000000000000000000000000000000000000000000000000000000000000000000000000000000000000000000000000000
310
00000000000000000000000000000000000000000000060317000000000000000000000000000000000000000000000000000000000000000000000000000000000000000000000F09030D00000000000000000000000000000000000000000000000000000000000000000000000000000000000000000000000000000000
310
00000000000000000000000000000000000000000000000000000000000000000000000000000000000000000000000000000000000000000000000000000000000000000000000000000000000006030600000000000000000000000000000000000000000000000000000000000000000000000000000000000000000000
310
00000019150E00000000000000000000000000000000000000000000000000000000000000000000000000000000000000000000000000000000000000000000000000000000000000000000000000000000000000000000000000000000000000000000000000000000000000000000000000000000000000000000000000
310
00000000000000060306000000000000000000000000000000000000000000000000000000000000000000000000000000000000000000000000000000000E150B0000000000000000000000000000000000000000000000000000000000000000000000000000000000000000000000000000000000000000000000000000
310
000000000000000000000000000000000000000000000000000000000000000000000000000000000000000000000000000000000000000000000000000000060306000000000000000000000000000000000000000000000000000000000000000000000000000000000000000000000000000000000000040000000C1006
310
130000000000000000000000000000000000000000000000000000000000000000000000000000000000000000000000000000000000000000000000000000000000000000000000000000000000000000000000000000000000000000000000000000000000000000000000000000000000000000000013030D0000000000
310
00000000000000000000000000000000000000000000000000000000000000000000000000000000000000000000000000000000000006101503070B00000000000000000000000000000000000000000000000000000000000000000000000000000000000000000000000000000000000000000000000000000000000000
310
00000000000000000000000000000000000000000000000000000000000000000000000000000000000000000000000000010C0000000000000000000000000000000000000000000000000000000000000000000000000000000000000000000000000000000000000000000000000000000B070314000000000000000000
310
000000000000000000000000000000000000000000000000000000000000000000000000000000000000000000000000000000000000000000000000000000000000000000000000000000000000000000000000000000000000000000000000000000000000000000000C0100000000000000000000000000000000000000
310
00000000000000000000000000000000000000000000000000000000000000000000000000000000000000000000171200000000000000000000000000000000000000000000000000000000000000000000000000000000000000000000000000000000000000000000000000000000000000000000000000000000000000
310
0000000000000000000000000000000000000000000000000000000000000000000000130314000000000000000000000000000000000000000000000000000000000000000000000000000000000000000000000000000000000000000000000000000000000000071A000000000000000000000000000000000000000000
310
0000000000000000000000000000000000000000000000000000000000000000000000000000000000000000000000000000000000000000000000000000000000000000000000000000000000000000000000000000000000000000010C000000000000000000000000000000000000000000000000000000000000000000
310
00000000000000000000000000000000000000000000000000000000000000000000000000000000000000000000000000000000000000000000000000000000000000000000000000000000000000000000000000000000000000000000000000000000000000000000000000000000000000000000000000000000000000
310
000000000000000000000000000000000000000000000C0100000000000000000000000000000000000000000000000000000000000000000000000000000000000000000000000000000000000000000000000000000000000000000004060000000000000000000000000000000000000000000000000000000000000000
310
00000000000000000000000000000000000000000000000000000000000000000000000000000000000000000000000000000000000000000000000000000000000000000000000000000000000000031300000000000000000000000000000000000000000000000000000000000000000000000000000000000000000000
310
00000000000000000000000000000000000000000000000603000000000000000000000000000000000000000000000000000000000000000000000000000000000000000000000000000000000000000000000000000000000000000000000000000000000000000000000000000000000000000000000000000000000000
310
00000000000000000003000000000000000000000000000000000006000000000000000000000000000000000000000000000000000000000000000000000000000000000000000000000000000000000003000000000000000000000000000000000000000000000000000000000000000000000000000000000000000000
310
000000000000000000000000000000000000000000000000000000000000000000000000000000000000000000000000000000000000000000000000000000000000030000000000000000000000000000000303030303130000000000000000000000000000000000000000000000000000000F0F00000000000000000000
310
00000000000000000000000300000000000000000000000000000000000000000000000000000000000000000000000000000000000000000000000000000000000000000000000000000000000000000000000000000000000000000000000000000000000000000000000000000000000000000000000000000003000000
310
00000000000000000000000003030303030303030303030303030303030303030303030303030303030303030303030303000000000000000000000000000000000000000500000000000000000000000000000000000000000000000000000000000000000000000000000000000000000000000000000000000000000000
310
00000000000000000000000000000000000000000000000000000000000000000000000000000000000000000000000000000000000300000000000000000000000000000003030303030303030303030303030303030303030303030303030303030303030303030303000000000000000000000000000000000000000000
310
00000000000000000000000000000000000000000000000000000000000000000000000000000000000000000000000000000000000000000000000000000000000000000000000000000000000000000000000000000000000000000000000000000000000000000000000000000300000000000000000000000000000003
310
03000303030003000000000000000300000000000000030000000000000000000303030000000000000000000000000000000000000000000000000000000000000000000000000000000000000000000000000000000000000000000000000000000000000000000000000000000000000000000000000000000000000000
310
00000000000000000000000000000000000000000000000000000000000000000000000000000000030000000000000000000000000000000307000803030003000000000000000300000000000000030000000000000000000303030000000000000000000000000000000000000000050000000000000000000000000000
310
00000000000000000000000000000000000000000000000000000000000000000000000000000000000000000000000000000000000000000000000000000000000000000000000000000000000000000000000000000000000000000000000000030000000000000000000000000000000303000303030003000000000000
310
00030000000000000003000000000000000000030303000000000000000000000000000000000000000003000000000000000000000000000000000000000000000000000000000000000000000000000000000000000000000000000000000000000000000000000000000000000000000000000000000000000000000000
310
00000000000000000000000000000000000000000000000000000003000000000000000000000000000000030303030303030303030303030303030303030303030303030303030303030303030303030000000000000000000000000000000000000003000000000000000000000000000000000000000000000000000000
310
00000000000000000000000000000000000000000000000000000000000000000000000000000000000000000000000000000000000000000000000000000000000000000000000000000000000000000000000016000000000000000000000000000000030303030313000000000000000000000000000000000000000000
310
0000000000000B0B00000000000000000000000000000000000000001A0300000000000000000000000000000000000000000000000000000000000000000000000000000000000000000000000000000000000000000000000000000000000000000000000000000000000000000000000000000000000000000000000000
310
00000000000000000000000000000300000000000000000000000000000003030303030000000000000000000000000000000000000000000000000000000000000000000000000000000000000000000000000000191600000000000000000000000000000000000000000000000000000000000000000000000000000000
310
00000000000000000000000000000000000000000000000000000000000000000000000000000000000000000000000000000000000000000000000000000000000000000000000300000000000000000000000000000000000F00000000000000000000000000000000000000000000000000000000000000000000000000
310
0000000000000000000000000000000F0A0000000000000000000000000000000000000000000000000000000000000000000000000000000000000000000000000000000000000000000000000000000000000000000000000000000000000000000000000000000000000000000000000000000000000000000000000000
310
13031300000000000000000000000000000000000000000000000000000000000000000000000000000000000000000000000000000000000000000000000000000000000000000000000000000000000000000000000000000000000000000000000000000000000000000000000000000000000000000000000000000000
310
000000000000000000000000000000000000000000000000000000000000000000000000000000000000000000000000000000000000000000000C0100000000000000000000000000000000000000000000000000000000000000000000000000000000000000000000000000000000000000000000000000000000000000
310
00000000000000000000000000000000000000000000000000000000000000000000000000000000000000000000000000000000000000000000000000000000000000000000000000000000000000000000000000000000000000000000000000000000000000000000000000000000000000010C00000000000000000000
310
000000000000000000000000000000000000000000000000000000000000000000000000000000000000000000000000000000000000000000000E0600000000000000000000000000000000000000000000000000000000000000000000000000000000000000000000000000000000000000000000000000000000000000
310
000000000000000000000000000000000000000000000000000000000000000000000000000000000000000000140313000000000000000000000000000000000000000000000000000000000000000000000000000000000000000000000000000000000000000000000000000000000000070C0000000000000000000000
310
000000000000000000000000000000000000000000000000000000000000000000000000000000000000000000000000000000000000000000000000000000000000000000000000000000000000000000000000000000000000000000000000000000000000000C0100000000000000000000000000000000000000000000
310
00000000000000000000000000000000000000000000000000000000000000000000000000000000000000091500000000000000000000000000000000000000000000000000000000000000000000000000000000000000000000000000000000000000000000000000000000000000000000000000000000000000000000
310
000000000000000000000000000000000000000000000000000000000000000000010C0000000000000000000000000000000000000000000000000000000000000000000000000000000000000000000000000000000000000000000000000000000001120B00000000000000000000000000000000000000000000000000
310
00000000000000000000000000000000000000000000000000000000000000000000000000000000000000000000000000000000000000000000000000000000000000000000000000000000000000000000000000000000000013030600000000000000000000000000000000000000000000000000000000000000000000
310
00000000000000000000000000000000000000000000000000061015030000000000000000000000000000000000000000000000000000000000000000000000000000000000000000000000000000000000000000000000000000000000000000000000000000000000000000000000000000000000000000000000000000
310
00000000000000000000000000000000000000000006030600000000000000000000000000000000000000000000000000000000000000000000000000000000000000000000000000000000000000000016151006000000000000000000000000000000000000000000000000000000000000000000000000000000000000
310
00000000000000000000000000000000000000000000000000000000000000000000000000000000000000000000000000000000000000000000000000000000000000000000000000000000000000060306000000000000000000000000000000000000000000000000000000000000000000000000000000000000000000
310
00000000000000070800000000000000000000000000000000000000000000000000000000000000000000000000000000000000000000000000000000000000000000000000000000000000000000000000000000000000000000000000000000000000000000000000000000000000000000000000000000000000000000
310
000000000000000000000603060000000000000000000000000000000000000000000000000000000000000000000000000000000000000000000000000004150E0000000000000000000000000000000000000000000000000000000000000000000000000000000000000000000000000000000000000000000000000000
310
0000000000000000000000000000000000000000000000000000000000000000000000000000000000000000000000000000000000000000000000000000000000000000060317000000000000000000000000000000000000000000000000000000000000000000000000000000000000000000000B07030D000000000000
310
00000000000000000000000000000000000000000000000000000000000000000000000000000000000000000000000000000000000000000000000000000000000000000000000000000000000000000000000000000000000000000000000000000000000000000000000000000000000000000000000000000000000014
310
1212010000000000000000000000000000000000000000000000000000000000000000000000000000000000000B0703070B0000000000000000000000000000000000000000000000000000000000000000000000000000000000000000000000000000000000000000000000000000000000000000000000000000000000
310
000000000000000000000000000000000000000000000000000000000000000000000000000000000000000000000000000000000000000000001703070B000000000000000000000000000000000000000000000000001401100E000000050303030500000005070B00000000000000000000000000000000000000000000
310
00000000000000000000000000000000000000000000000000000000000000000000000000000000000000000000000000000000000000000000000000000000000000000000000000000000000000000000000000000000000000000000000000000000000000000000000000000000000000000B0703160E0D0800000000
310
0008100E15050303030303030303030303160C100400000000000000000000000000000000000000000000000000000000000000000000000000000000000000000000000000000000000000000000000000000000000000000000000000000000000000000000000000000000000000000000000000000000000000000000
310
00000000000000000000000000000000000000000000000000000000000000000000000000000000000000000000000013080D0E16030305000006100D0A1100000000000000000000000000000000000000000000000000000000000000000000000000000000000000000000000000000000000000000000000000000000
310
00000000000000000000000000000000000000000000000000000000000000000000000000000000000000000000000000000000000000000000000000000000000000000000000000000000000000000000000000000000000000000000000000000000000000000000000000000000000000000000000000000000000000
310
00000000000000000000000000000000000000000000000000000000000000000000000000000000000000000000000000000000000000000000000000000000000000000000000000000000000000000000000000000000000000000000000000000000000000000000000000000000000000000000000000000000000000
310
00000000000000000000000000000000000000000000000000000000000000000000000000000000000000000000000000000000000000000000000000000000000000000000000000000000000000000000000000000000000000000000000000000000000000000000000000000000000000000000000000000000000000
310
00000000000000000000000000000000000000000000000000000000000000000000000000000000000000000000000000000000000000000000000000000000000000000000000000000000000000000000000000000000000000000000000000000000000000000000000000000000000000000000000000000000000000
310
00000000000000000000000000000000000000000000000000000000000000000000000000000000000000000000000000000000000000000000000000000000000000000000000000000000000000000000000000000000000000000000000000000000000000000000000000000000000000000000000000000000000000
310
00000000000000000000000000000000000000000000000000000000000000000000000000000000000000000000000000000000000000000000000000000000000000000000000000000000000000000000000000000000000000000000000000000000000000000000000000000000000000000000000000000000000000
310
00000000000000000000000000000000000000000000000000000000000000000000000000000000000000000000000000000000000000000000000000000000000000000000000000000000000000000000000000000000000000000000000000000000000000000000000000000000000000000000000000000000000000
310
00000000000000000000000000000000000000000000000000000000000000000000000000000000000000000000000000000000000000000000000000000000000000000000000000000000000000000000000000000000000000000000000000000000000000000000000000000000000000000000000000000000000000
310
00000000000000000000000000000000000000000000000000000000000000000000000000000000000000000000000000000000000000000000000000000000000000000000000000000000000000000000000000000000000000000000000000000000000000000000000000000000000000000000000000000000000000
310
000000000000000000000000000000000000
  0
ENDSEC
  0
EOF
