  0
SECTION
  2
HEADER
  9
$ACADVER
  1
AC1027
  9
$ACADMAINTVER
 70
   125
  9
$DWGCODEPAGE
  3
ANSI_1252
  9
$SUBJECT
  1
MicroStation
  9
$AUTHOR
  1
WAEngineering2
  9
$LASTSAVEDBY
  1
WAEngineering2
  9
$CUSTOMPROPERTYTAG
  1
BentleyWorkSetProperties
  9
$CUSTOMPROPERTY
  1
02050000000B000000540200000000000000000200000057006F0072006B005300650074004E0061006D00650000000000000001000109040000000200000000000000000000000100000057006F0072006B005300650074004400650073006300720069007000740069006F006E0000000000000001000109080000000000000000000000000000000200000057006F0072006B00530070006100630065004E0061006D006500000000000000010001090C0000000200000000000000000000000400000043006F006E006E00650063007400500072006F006A006500630074004700550049004400000000000000010001091000000000000000000000000000000008000000500072006F006A00650063007400410073007300650074005400790070006500000000000000010001091400000000000000000000000000000010000000500072006F006A0065006300740049006E00640075007300740072007900000000000000010001091800000000000000000000000000000020000000500072006F006A006500630074004C006F0063006100740069006F006E00000000000000010001091C00000000000000000000000000000040000000500072006F006A006500630074004E0075006D00620065007200000000000000010001092000000000000000000000000000000080000000500072006F006A00650063007400530074006100740075007300000000000000010001092400000000000000000000000000000000010000500072006F006A006500630074004E0061006D00650000000000000001000109280000000000000000000000000000000002000031010000000000050002FCFFFF300000004A0000004A0000005A000000A4000000D2000000F4000000F600000004010000120100002C0100004D006500740072006F00530074006100740069006F006E0000004500780061006D0070006C0065000000350039003800370063003200620065002D0066003000660064002D0034003300660038002D0039006100610031002D00620039003100360035006200350030003400650032003300000050006C006100740066006F0072006D007300200061006E0064002000530074006100740069006F006E00730000005200610069006C00200061006E00640020005400720061006E0073006900740000000000310030003000310030003000000041006300740069007600650000004D006500740072006F00530074006100740069006F006E000000
  9
$REQUIREDVERSIONS
160
                 0
  9
$INSBASE
 10
0.0
 20
0.0
 30
0.0
  9
$EXTMIN
 10
534.5
 20
645.3
 30
0.0
  9
$EXTMAX
 10
3584.6
 20
3475.9
 30
0.0
  9
$LIMMIN
 10
-6262.806967
 20
-6261.756967
  9
$LIMMAX
 10
10381.906967
 20
10382.956967
  9
$ORTHOMODE
 70
     0
  9
$REGENMODE
 70
     1
  9
$FILLMODE
 70
     1
  9
$QTEXTMODE
 70
     0
  9
$MIRRTEXT
 70
     0
  9
$LTSCALE
 40
1.0
  9
$ATTMODE
 70
     1
  9
$TEXTSIZE
 40
3.0
  9
$TRACEWID
 40
0.05
  9
$TEXTSTYLE
  7
Standard
  9
$CLAYER
  8
0
  9
$CELTYPE
  6
Continuous
  9
$CECOLOR
 62
     3
  9
$CELTSCALE
 40
1.0
  9
$DISPSILH
 70
     0
  9
$DIMSCALE
 40
1.0
  9
$DIMASZ
 40
3.0
  9
$DIMEXO
 40
1.5
  9
$DIMDLI
 40
0.0
  9
$DIMRND
 40
0.0
  9
$DIMDLE
 40
0.0
  9
$DIMEXE
 40
1.5
  9
$DIMTP
 40
0.0
  9
$DIMTM
 40
0.0
  9
$DIMTXT
 40
3.0
  9
$DIMCEN
 40
2.0
  9
$DIMTSZ
 40
0.0
  9
$DIMTOL
 70
     0
  9
$DIMLIM
 70
     0
  9
$DIMTIH
 70
     0
  9
$DIMTOH
 70
     0
  9
$DIMSE1
 70
     0
  9
$DIMSE2
 70
     0
  9
$DIMTAD
 70
     1
  9
$DIMZIN
 70
     8
  9
$DIMBLK
  1

  9
$DIMASO
 70
     1
  9
$DIMSHO
 70
     1
  9
$DIMPOST
  1

  9
$DIMAPOST
  1

  9
$DIMALT
 70
     0
  9
$DIMALTD
 70
     4
  9
$DIMALTF
 40
0.000001
  9
$DIMLFAC
 40
1.0
  9
$DIMTOFL
 70
     0
  9
$DIMTVP
 40
0.0
  9
$DIMTIX
 70
     0
  9
$DIMSOXD
 70
     0
  9
$DIMSAH
 70
     0
  9
$DIMBLK1
  1

  9
$DIMBLK2
  1

  9
$DIMSTYLE
  2
Standard
  9
$DIMCLRD
 70
     0
  9
$DIMCLRE
 70
     0
  9
$DIMCLRT
 70
     0
  9
$DIMTFAC
 40
1.0
  9
$DIMGAP
 40
1.5
  9
$DIMJUST
 70
     0
  9
$DIMSD1
 70
     0
  9
$DIMSD2
 70
     0
  9
$DIMTOLJ
 70
     1
  9
$DIMTZIN
 70
     8
  9
$DIMALTZ
 70
    12
  9
$DIMALTTZ
 70
    12
  9
$DIMUPT
 70
     0
  9
$DIMDEC
 70
     1
  9
$DIMTDEC
 70
     0
  9
$DIMALTU
 70
     2
  9
$DIMALTTD
 70
     0
  9
$DIMTXSTY
  7
Style-INTL_ISO
  9
$DIMAUNIT
 70
     0
  9
$DIMADEC
 70
     0
  9
$DIMALTRND
 40
0.0
  9
$DIMAZIN
 70
     3
  9
$DIMDSEP
 70
     0
  9
$DIMATFIT
 70
     1
  9
$DIMFRAC
 70
     2
  9
$DIMLDRBLK
  1

  9
$DIMLUNIT
 70
     2
  9
$DIMLWD
 70
    -2
  9
$DIMLWE
 70
    -2
  9
$DIMTMOVE
 70
     0
  9
$DIMFXL
 40
1.0
  9
$DIMFXLON
 70
     0
  9
$DIMJOGANG
 40
0.785398
  9
$DIMTFILL
 70
     0
  9
$DIMTFILLCLR
 70
     0
  9
$DIMARCSYM
 70
     0
  9
$DIMLTYPE
  6
ByBlock
  9
$DIMLTEX1
  6
ByBlock
  9
$DIMLTEX2
  6
ByBlock
  9
$DIMTXTDIRECTION
 70
     0
  9
$LUNITS
 70
     2
  9
$LUPREC
 70
     1
  9
$SKETCHINC
 40
0.1
  9
$FILLETRAD
 40
0.0
  9
$AUNITS
 70
     0
  9
$AUPREC
 70
     0
  9
$MENU
  1
.
  9
$ELEVATION
 40
0.0
  9
$PELEVATION
 40
0.0
  9
$THICKNESS
 40
0.0
  9
$LIMCHECK
 70
     0
  9
$CHAMFERA
 40
0.0
  9
$CHAMFERB
 40
0.0
  9
$CHAMFERC
 40
0.0
  9
$CHAMFERD
 40
0.0
  9
$SKPOLY
 70
     0
  9
$TDCREATE
 40
2454145.111354167
  9
$TDUCREATE
 40
2454144.778024017
  9
$TDUPDATE
 40
2459716.428981482
  9
$TDUUPDATE
 40
2459716.095648148
  9
$TDINDWG
 40
0.0055612847
  9
$TDUSRTIMER
 40
0.0055610995
  9
$USRTIMER
 70
     1
  9
$ANGBASE
 50
0.0
  9
$ANGDIR
 70
     0
  9
$PDMODE
 70
     0
  9
$PDSIZE
 40
0.0
  9
$PLINEWID
 40
0.0
  9
$SPLFRAME
 70
     0
  9
$SPLINETYPE
 70
     6
  9
$SPLINESEGS
 70
     8
  9
$HANDSEED
  5
120D9
  9
$SURFTAB1
 70
     6
  9
$SURFTAB2
 70
     6
  9
$SURFTYPE
 70
     6
  9
$SURFU
 70
     6
  9
$SURFV
 70
     6
  9
$UCSBASE
  2

  9
$UCSNAME
  2

  9
$UCSORG
 10
0.0
 20
0.0
 30
0.0
  9
$UCSXDIR
 10
1.0
 20
0.0
 30
0.0
  9
$UCSYDIR
 10
0.0
 20
1.0
 30
0.0
  9
$UCSORTHOREF
  2

  9
$UCSORTHOVIEW
 70
     0
  9
$UCSORGTOP
 10
0.0
 20
0.0
 30
0.0
  9
$UCSORGBOTTOM
 10
0.0
 20
0.0
 30
0.0
  9
$UCSORGLEFT
 10
0.0
 20
0.0
 30
0.0
  9
$UCSORGRIGHT
 10
0.0
 20
0.0
 30
0.0
  9
$UCSORGFRONT
 10
0.0
 20
0.0
 30
0.0
  9
$UCSORGBACK
 10
0.0
 20
0.0
 30
0.0
  9
$PUCSBASE
  2

  9
$PUCSNAME
  2

  9
$PUCSORG
 10
0.0
 20
0.0
 30
0.0
  9
$PUCSXDIR
 10
1.0
 20
0.0
 30
0.0
  9
$PUCSYDIR
 10
0.0
 20
1.0
 30
0.0
  9
$PUCSORTHOREF
  2

  9
$PUCSORTHOVIEW
 70
     0
  9
$PUCSORGTOP
 10
0.0
 20
0.0
 30
0.0
  9
$PUCSORGBOTTOM
 10
0.0
 20
0.0
 30
0.0
  9
$PUCSORGLEFT
 10
0.0
 20
0.0
 30
0.0
  9
$PUCSORGRIGHT
 10
0.0
 20
0.0
 30
0.0
  9
$PUCSORGFRONT
 10
0.0
 20
0.0
 30
0.0
  9
$PUCSORGBACK
 10
0.0
 20
0.0
 30
0.0
  9
$USERI1
 70
     0
  9
$USERI2
 70
     0
  9
$USERI3
 70
     0
  9
$USERI4
 70
     0
  9
$USERI5
 70
     0
  9
$USERR1
 40
0.0
  9
$USERR2
 40
0.0
  9
$USERR3
 40
0.0
  9
$USERR4
 40
0.0
  9
$USERR5
 40
0.0
  9
$WORLDVIEW
 70
     1
  9
$SHADEDGE
 70
     3
  9
$SHADEDIF
 70
    70
  9
$TILEMODE
 70
     1
  9
$MAXACTVP
 70
    64
  9
$PINSBASE
 10
0.0
 20
0.0
 30
0.0
  9
$PLIMCHECK
 70
     0
  9
$PEXTMIN
 10
1.05
 20
0.8
 30
0.0
  9
$PEXTMAX
 10
9.45
 20
7.2
 30
0.0
  9
$PLIMMIN
 10
-0.25
 20
-0.25
  9
$PLIMMAX
 10
10.75
 20
8.25
  9
$UNITMODE
 70
     0
  9
$VISRETAIN
 70
     1
  9
$PLINEGEN
 70
     0
  9
$PSLTSCALE
 70
     0
  9
$TREEDEPTH
 70
  3020
  9
$CMLSTYLE
  2
Standard
  9
$CMLJUST
 70
     0
  9
$CMLSCALE
 40
1.0
  9
$PROXYGRAPHICS
 70
     1
  9
$MEASUREMENT
 70
     0
  9
$CELWEIGHT
370
     0
  9
$ENDCAPS
280
     0
  9
$JOINSTYLE
280
     0
  9
$LWDISPLAY
290
     1
  9
$INSUNITS
 70
     4
  9
$HYPERLINKBASE
  1

  9
$STYLESHEET
  1

  9
$XEDIT
290
     1
  9
$CEPSNTYPE
380
     0
  9
$PSTYLEMODE
290
     1
  9
$FINGERPRINTGUID
  2
{525A9B56-E100-B04F-B237-0EEE1F72035F}
  9
$VERSIONGUID
  2
{38E7CD85-556C-4D6E-9C4C-B935CE7E055D}
  9
$EXTNAMES
290
     1
  9
$PSVPSCALE
 40
0.0
  9
$OLESTARTUP
290
     0
  9
$SORTENTS
280
   127
  9
$INDEXCTL
280
     0
  9
$HIDETEXT
280
     1
  9
$XCLIPFRAME
280
     0
  9
$HALOGAP
280
     0
  9
$OBSCOLOR
 70
   257
  9
$OBSLTYPE
280
     0
  9
$INTERSECTIONDISPLAY
280
     0
  9
$INTERSECTIONCOLOR
 70
   257
  9
$DIMASSOC
280
     2
  9
$PROJECTNAME
  1

  9
$CAMERADISPLAY
290
     0
  9
$LENSLENGTH
 40
50.0
  9
$CAMERAHEIGHT
 40
0.0
  9
$STEPSPERSEC
 40
2.0
  9
$STEPSIZE
 40
6.0
  9
$3DDWFPREC
 40
2.0
  9
$PSOLWIDTH
 40
0.25
  9
$PSOLHEIGHT
 40
4.0
  9
$LOFTANG1
 40
1.570796
  9
$LOFTANG2
 40
1.570796
  9
$LOFTMAG1
 40
0.0
  9
$LOFTMAG2
 40
0.0
  9
$LOFTPARAM
 70
     7
  9
$LOFTNORMALS
280
     1
  9
$LATITUDE
 40
37.795
  9
$LONGITUDE
 40
-122.394
  9
$NORTHDIRECTION
 40
0.0
  9
$TIMEZONE
 70
 -8000
  9
$LIGHTGLYPHDISPLAY
280
     1
  9
$TILEMODELIGHTSYNCH
280
     1
  9
$CMATERIAL
347
11A35
  9
$SOLIDHIST
280
     1
  9
$SHOWHIST
280
     1
  9
$DWFFRAME
280
     2
  9
$DGNFRAME
280
     0
  9
$REALWORLDSCALE
290
     1
  9
$INTERFERECOLOR
 62
     1
  9
$INTERFEREOBJVS
345
11A5D
  9
$INTERFEREVPVS
346
11A5E
  9
$CSHADOW
280
     0
  9
$SHADOWPLANELOCATION
 40
0.0
  0
ENDSEC
  0
SECTION
  2
CLASSES
  0
CLASS
  1
ACDBDICTIONARYWDFLT
  2
AcDbDictionaryWithDefault
  3
ObjectDBX Classes
 90
        0
 91
        1
280
     0
281
     0
  0
CLASS
  1
DICTIONARYVAR
  2
AcDbDictionaryVar
  3
ObjectDBX Classes
 90
        0
 91
        9
280
     0
281
     0
  0
CLASS
  1
TABLESTYLE
  2
AcDbTableStyle
  3
ObjectDBX Classes
 90
     4095
 91
        1
280
     0
281
     0
  0
CLASS
  1
MATERIAL
  2
AcDbMaterial
  3
ObjectDBX Classes
 90
     1153
 91
        4
280
     0
281
     0
  0
CLASS
  1
VISUALSTYLE
  2
AcDbVisualStyle
  3
ObjectDBX Classes
 90
     4095
 91
       24
280
     0
281
     0
  0
CLASS
  1
SCALE
  2
AcDbScale
  3
ObjectDBX Classes
 90
     1153
 91
       33
280
     0
281
     0
  0
CLASS
  1
MLEADERSTYLE
  2
AcDbMLeaderStyle
  3
ACDB_MLEADERSTYLE_CLASS
 90
     4095
 91
        1
280
     0
281
     0
  0
CLASS
  1
EXACXREFPANELOBJECT
  2
ExAcXREFPanelObject
  3
EXAC_ESW
 90
     1025
 91
        0
280
     1
281
     0
  0
CLASS
  1
NPOCOLLECTION
  2
AcDbImpNonPersistentObjectsCollection
  3
ObjectDBX Classes
 90
     1153
 91
        0
280
     0
281
     0
  0
CLASS
  1
CELLSTYLEMAP
  2
AcDbCellStyleMap
  3
ObjectDBX Classes
 90
     1152
 91
        1
280
     0
281
     0
  0
CLASS
  1
ACDBSECTIONVIEWSTYLE
  2
AcDbSectionViewStyle
  3
ObjectDBX Classes
 90
     1025
 91
        1
280
     0
281
     0
  0
CLASS
  1
ACDBDETAILVIEWSTYLE
  2
AcDbDetailViewStyle
  3
ObjectDBX Classes
 90
     1025
 91
        1
280
     0
281
     0
  0
CLASS
  1
SORTENTSTABLE
  2
AcDbSortentsTable
  3
ObjectDBX Classes
 90
        0
 91
        1
280
     0
281
     0
  0
ENDSEC
  0
SECTION
  2
TABLES
  0
TABLE
  2
VPORT
  5
11A29
330
0
100
AcDbSymbolTable
 70
     1
1001
ACAD
1000
DbSaveVer
1071
      224
  0
VPORT
  5
4B
330
11A29
100
AcDbSymbolTableRecord
100
AcDbViewportTableRecord
  2
*ACTIVE
 70
     0
 10
0.0
 20
0.0
 11
1.0
 21
1.0
 12
2059.502898
 22
2060.614602
 13
0.0
 23
0.0
 14
100000.0
 24
100000.0
 15
100000.0
 25
100000.0
 16
0.0
 26
0.0
 36
1.0
 17
0.0
 27
0.0
 37
0.0
 40
2943.791703
 41
2.442283
 42
50.0
 43
0.0
 44
0.0
 50
0.0
 51
0.0
 71
     0
 72
 20000
 73
     1
 74
     1
 75
     0
 76
     0
 77
     0
 78
     1
281
     0
 65
     1
110
0.0
120
0.0
130
0.0
111
1.0
121
0.0
131
0.0
112
0.0
122
1.0
132
0.0
 79
     0
146
0.0
348
11A2B
 60
     3
 61
     1
292
     0
282
     1
141
0.0
142
0.0
 63
     7
421
 16777215
  0
ENDTAB
  0
TABLE
  2
LTYPE
  5
11A24
330
0
100
AcDbSymbolTable
 70
     2
  0
LTYPE
  5
11A25
330
11A24
100
AcDbSymbolTableRecord
100
AcDbLinetypeTableRecord
  2
ByBlock
 70
     0
  3

 72
    65
 73
     0
 40
0.0
  0
LTYPE
  5
11A26
330
11A24
100
AcDbSymbolTableRecord
100
AcDbLinetypeTableRecord
  2
ByLayer
 70
     0
  3

 72
    65
 73
     0
 40
0.0
  0
LTYPE
  5
119F4
330
11A24
100
AcDbSymbolTableRecord
100
AcDbLinetypeTableRecord
  2
Continuous
 70
     0
  3
Solid line
 72
    65
 73
     0
 40
0.0
  0
LTYPE
  5
11BC8
330
11A24
100
AcDbSymbolTableRecord
100
AcDbLinetypeTableRecord
  2
DGN Style 2
 70
     0
  3
Dgn Style 2
 72
    65
 73
     2
 40
71.895717
 49
43.13743
 74
     0
 49
-28.758287
 74
     0
  0
ENDTAB
  0
TABLE
  2
LAYER
  5
11A1C
102
{ACAD_XDICTIONARY
360
11A1D
102
}
330
0
100
AcDbSymbolTable
 70
   323
  0
LAYER
  5
119E5
102
{ACAD_XDICTIONARY
360
119E6
102
}
330
11A1C
100
AcDbSymbolTableRecord
100
AcDbLayerTableRecord
  2
0
 70
     0
 62
     3
  6
Continuous
370
    -3
390
119E8
347
119EB
348
0
1001
AcCmTransparency
1071
 33554687
  0
LAYER
  5
11A53
330
11A1C
100
AcDbSymbolTableRecord
100
AcDbLayerTableRecord
  2
Level 1
 70
     0
 62
     7
  6
Continuous
370
     0
390
119E8
347
119EB
348
0
1001
AcCmTransparency
1071
 33554687
  0
LAYER
  5
119F7
330
11A1C
100
AcDbSymbolTableRecord
100
AcDbLayerTableRecord
  2
Level 2
 70
     0
 62
     7
  6
Continuous
370
     0
390
119E8
347
119EB
348
0
1001
AcCmTransparency
1071
 33554687
  0
LAYER
  5
119DE
330
11A1C
100
AcDbSymbolTableRecord
100
AcDbLayerTableRecord
  2
Level 14
 70
     0
 62
     7
  6
Continuous
370
     0
390
119E8
347
119EB
348
0
1001
AcAecLayerStandard
1000

1000
Fall Zone Individual
1001
AcCmTransparency
1071
 33554687
  0
LAYER
  5
119DF
330
11A1C
100
AcDbSymbolTableRecord
100
AcDbLayerTableRecord
  2
springs2 - Level 26
 70
     0
 62
     7
  6
Continuous
370
     0
390
119E8
347
119EB
348
0
1001
AcAecLayerStandard
1000

1000
Assemblies - Colour Locked
1001
AcCmTransparency
1071
 33554687
  0
ENDTAB
  0
TABLE
  2
STYLE
  5
11A21
330
0
100
AcDbSymbolTable
 70
     3
  0
STYLE
  5
11A22
330
11A21
100
AcDbSymbolTableRecord
100
AcDbTextStyleTableRecord
  2
Standard
 70
     0
 40
3.0
 41
1.0
 50
0.0
 71
     0
 42
3.0
  3
INTL_ISO.shx
  4

1001
AcadAnnotative
1000
AnnotativeData
1002
{
1070
     1
1070
     0
1002
}
  0
STYLE
  5
119F8
330
11A21
100
AcDbSymbolTableRecord
100
AcDbTextStyleTableRecord
  2
Style-STANDARD
 70
     0
 40
0.0
 41
1.0
 50
0.0
 71
     0
 42
3.5
  3
STANDARD.shx
  4

1001
AcadAnnotative
1000
AnnotativeData
1002
{
1070
     1
1070
     1
1002
}
  0
STYLE
  5
313
330
11A21
100
AcDbSymbolTableRecord
100
AcDbTextStyleTableRecord
  2
Style-INTL_ISO
 70
     0
 40
0.0
 41
1.0
 50
0.0
 71
     0
 42
3.5
  3
INTL_ISO.shx
  4

  0
ENDTAB
  0
TABLE
  2
VIEW
  5
11A27
330
0
100
AcDbSymbolTable
 70
     0
  0
ENDTAB
  0
TABLE
  2
UCS
  5
11A28
330
0
100
AcDbSymbolTable
 70
     0
  0
ENDTAB
  0
TABLE
  2
APPID
  5
11A2D
330
0
100
AcDbSymbolTable
 70
     6
  0
APPID
  5
11A2E
330
11A2D
100
AcDbSymbolTableRecord
100
AcDbRegAppTableRecord
  2
ACAD
 70
     0
  0
APPID
  5
11A1B
330
11A2D
100
AcDbSymbolTableRecord
100
AcDbRegAppTableRecord
  2
ACAD_PSEXT
 70
     0
  0
APPID
  5
119F5
330
11A2D
100
AcDbSymbolTableRecord
100
AcDbRegAppTableRecord
  2
AcCmTransparency
 70
     0
  0
APPID
  5
119F9
330
11A2D
100
AcDbSymbolTableRecord
100
AcDbRegAppTableRecord
  2
AcadAnnotative
 70
     0
  0
APPID
  5
11A01
330
11A2D
100
AcDbSymbolTableRecord
100
AcDbRegAppTableRecord
  2
MStation
 70
     0
  0
APPID
  5
11BBF
330
11A2D
100
AcDbSymbolTableRecord
100
AcDbRegAppTableRecord
  2
AcAecLayerStandard
 70
     0
  0
ENDTAB
  0
TABLE
  2
DIMSTYLE
  5
11A2F
330
0
100
AcDbSymbolTable
 70
     1
100
AcDbDimStyleTable
 71
     1
340
11A30
  0
DIMSTYLE
105
11A30
330
11A2F
100
AcDbSymbolTableRecord
100
AcDbDimStyleTableRecord
  2
Standard
 70
     0
 42
0.0625
 44
0.18
 78
     3
272
     0
274
     0
278
     0
284
     3
285
     3
286
     3
289
     1
340
11A22
345
119F4
346
119F4
347
119F4
  0
ENDTAB
  0
TABLE
  2
BLOCK_RECORD
  5
119E0
330
0
100
AcDbSymbolTable
 70
     6
  0
BLOCK_RECORD
  5
119E1
102
{ACAD_XDICTIONARY
360
119E2
102
}
330
119E0
100
AcDbSymbolTableRecord
100
AcDbBlockTableRecord
  2
*Model_Space
340
11A13
 70
     0
280
     1
281
     0
  0
BLOCK_RECORD
  5
11A16
330
119E0
100
AcDbSymbolTableRecord
100
AcDbBlockTableRecord
  2
*Paper_Space
340
11A19
 70
     0
280
     1
281
     0
  0
ENDTAB
  0
ENDSEC
  0
SECTION
  2
BLOCKS
  0
BLOCK
  5
119E4
330
119E1
100
AcDbEntity
  8
0
100
AcDbBlockBegin
  2
*Model_Space
 70
     0
 10
0.0
 20
0.0
 30
0.0
  3
*Model_Space
  1

  0
ENDBLK
  5
11A12
330
119E1
100
AcDbEntity
  8
0
100
AcDbBlockEnd
  0
BLOCK
  5
11A17
330
11A16
100
AcDbEntity
 67
     1
  8
0
100
AcDbBlockBegin
  2
*Paper_Space
 70
     0
 10
0.0
 20
0.0
 30
0.0
  3
*Paper_Space
  1

  0
ENDBLK
  5
11A18
330
11A16
100
AcDbEntity
 67
     1
  8
0
100
AcDbBlockEnd
  0
ENDSEC
  0
SECTION
  2
ENTITIES
  0
MTEXT
  5
119F6
330
119E1
100
AcDbEntity
  8
Level 2
  6
Continuous
 62
     7
370
    30
100
AcDbMText
 10
454.0
 20
47.166667
 30
0.0
 40
4.999998
 41
0.0
 46
0.0
 71
     5
 72
     1
  1
ENERGEX DRAWING NUMBER,\PDRAWING TITLE\PAND LOGO\P
  7
Style-STANDARD
 73
     2
 44
0.897
  0
TEXT
  5
119FA
330
119E1
100
AcDbEntity
  8
Level 2
  6
Continuous
 62
     7
370
    30
100
AcDbText
 10
681.0
 20
24.5
 30
0.0
 40
4.999998
  1
DRAWING NUMBER
  7
Style-STANDARD
 11
681.0
 21
26.999999
 31
0.0
100
AcDbText
 73
     2
  0
MTEXT
  5
119FB
330
119E1
100
AcDbEntity
  8
Level 2
  6
Continuous
 62
     7
370
    30
100
AcDbMText
 10
710.0
 20
43.166667
 30
0.0
 40
4.999998
 41
0.0
 46
0.0
 71
     5
 72
     1
  1
ElectraNet SA \PDRAWING TITLE\P
  7
Style-STANDARD
 73
     2
 44
0.897
  0
TEXT
  5
119FC
330
119E1
100
AcDbEntity
  8
Level 2
  6
Continuous
 62
     7
370
    30
100
AcDbText
 10
704.0
 20
68.0
 30
0.0
 40
4.999998
  1
ElectraNet SA SUB TITLE
  7
Style-STANDARD
100
AcDbText
  0
ARC
  5
11852
330
119E1
100
AcDbEntity
  8
Level 14
  6
DGN Style 2
 62
     7
370
    13
100
AcDbCircle
 10
-1734.502898
 20
1845.330129
 30
0.0
 40
1200.0
210
0.0
220
0.0
230
-1.0
100
AcDbArc
 50
324.323486
 51
330.199304
  0
ARC
  5
11853
330
119E1
100
AcDbEntity
  8
Level 14
  6
DGN Style 2
 62
     7
370
    13
100
AcDbCircle
 10
-1734.502898
 20
1845.330129
 30
0.0
 40
1200.0
210
0.0
220
0.0
230
-1.0
100
AcDbArc
 50
296.825176
 51
303.365408
  0
ARC
  5
11854
330
119E1
100
AcDbEntity
  8
Level 14
  6
DGN Style 2
 62
     7
370
    13
100
AcDbCircle
 10
-1734.502898
 20
1845.330129
 30
0.0
 40
1200.0
210
0.0
220
0.0
230
-1.0
100
AcDbArc
 50
309.182766
 51
318.234592
  0
ARC
  5
11855
330
119E1
100
AcDbEntity
  8
Level 14
  6
DGN Style 2
 62
     7
370
    13
100
AcDbCircle
 10
-1734.502898
 20
1845.330129
 30
0.0
 40
1200.0
210
0.0
220
0.0
230
-1.0
100
AcDbArc
 50
318.234148
 51
324.324053
  0
ARC
  5
11856
330
119E1
100
AcDbEntity
  8
Level 14
  6
DGN Style 2
 62
     7
370
    13
100
AcDbCircle
 10
-1734.502898
 20
1845.330129
 30
0.0
 40
1200.0
210
0.0
220
0.0
230
-1.0
100
AcDbArc
 50
303.364807
 51
309.183193
  0
ARC
  5
11857
330
119E1
100
AcDbEntity
  8
Level 14
  6
DGN Style 2
 62
     7
370
    13
100
AcDbCircle
 10
-1734.502898
 20
1845.330129
 30
0.0
 40
1200.0
210
0.0
220
0.0
230
-1.0
100
AcDbArc
 50
330.198923
 51
340.859442
  0
ARC
  5
11858
330
119E1
100
AcDbEntity
  8
Level 14
  6
DGN Style 2
 62
     7
370
    13
100
AcDbCircle
 10
-1734.502898
 20
1845.330129
 30
0.0
 40
1200.0
210
0.0
220
0.0
230
-1.0
100
AcDbArc
 50
340.859092
 51
350.863391
  0
LWPOLYLINE
  5
11859
330
119E1
100
AcDbEntity
  8
Level 14
  6
DGN Style 2
 62
     7
370
    13
100
AcDbPolyline
 90
        3
 70
   128
 43
0.0
 10
543.083937
 20
1702.079097
 42
-0.029924
 10
534.502898
 20
1845.330129
 10
534.502898
 20
1857.700734
  0
LINE
  5
1185C
330
119E1
100
AcDbEntity
  8
Level 14
  6
DGN Style 2
 62
     7
370
    13
100
AcDbLine
 10
534.502898
 20
1857.693801
 30
0.0
 11
534.502898
 21
2060.618068
 31
0.0
  0
ARC
  5
1185D
330
119E1
100
AcDbEntity
  8
Level 14
  6
DGN Style 2
 62
     7
370
    13
100
AcDbCircle
 10
-1734.502898
 20
1845.330129
 30
0.0
 40
1200.0
210
0.0
220
0.0
230
-1.0
100
AcDbArc
 50
350.863056
 51
353.14669
  0
ARC
  5
1185E
330
119E1
100
AcDbEntity
  8
Level 14
  6
DGN Style 2
 62
     7
370
    13
100
AcDbCircle
 10
-1734.502898
 20
1845.330129
 30
0.0
 40
1200.0
210
0.0
220
0.0
230
-1.0
100
AcDbArc
 50
285.708497
 51
296.825546
  0
ARC
  5
1185F
330
119E1
100
AcDbEntity
  8
Level 14
  6
DGN Style 2
 62
     7
370
    13
100
AcDbCircle
 10
-1734.502898
 20
1845.330129
 30
0.0
 40
1200.0
210
0.0
220
0.0
230
-1.0
100
AcDbArc
 50
275.176076
 51
285.708841
  0
LWPOLYLINE
  5
11860
330
119E1
100
AcDbEntity
  8
Level 14
  6
DGN Style 2
 62
     7
370
    13
100
AcDbPolyline
 90
        3
 70
   128
 43
0.0
 10
1842.874589
 20
645.330129
 10
1734.502898
 20
645.330129
 42
-0.02259
 10
1626.235881
 20
650.22417
  0
LINE
  5
11863
330
119E1
100
AcDbEntity
  8
Level 14
  6
DGN Style 2
 62
     7
370
    13
100
AcDbLine
 10
2059.506364
 20
645.330129
 30
0.0
 11
1842.867657
 21
645.330129
 31
0.0
  0
SPLINE
  5
11864
330
119E1
100
AcDbEntity
  8
springs2 - Level 26
  6
Continuous
 62
     7
370
    13
100
AcDbSpline
210
0.0
220
0.0
230
1.0
 70
    24
 71
     3
 72
    43
 73
    39
 74
     0
 42
0.000000001
 43
0.0000000001
 40
0.0
 40
0.0
 40
0.0
 40
0.0
 40
0.0043525681016769
 40
0.0043525681016769
 40
0.0109873452550028
 40
0.0109873452550028
 40
0.0132706905177318
 40
0.0132706905177318
 40
0.0149065261895166
 40
0.0149065261895166
 40
0.0165951025792458
 40
0.0165951025792458
 40
0.0189892507085241
 40
0.0189892507085241
 40
0.0264263771247377
 40
0.0264263771247377
 40
0.0483630793045837
 40
0.0706238779064986
 40
0.0706238779064986
 40
0.0784393853853608
 40
0.0784393853853608
 40
0.0810333731418905
 40
0.0810333731418905
 40
0.0828128031642173
 40
0.0828128031642173
 40
0.0837982562857111
 40
0.0837982562857111
 40
0.0850248087675382
 40
0.0850248087675382
 40
0.0885540536948526
 40
0.0885540536948526
 40
0.0997640568159913
 40
0.0997640568159913
 40
0.1312913394689915
 40
0.1312913394689915
 40
0.1587035601957163
 40
0.1587035601957163
 40
0.1623212154653517
 40
0.1623212154653517
 40
0.1623212154653517
 40
0.1623212154653517
 10
1842.874589017114
 20
1856.807021892475
 30
0.0
 10
1842.250090554372
 20
1856.807021892475
 30
0.0
 10
1841.616485712859
 20
1856.807021892475
 30
0.0
 10
1839.97539326313
 20
1856.807021892475
 30
0.0
 10
1838.666516754821
 20
1856.807021892475
 30
0.0
 10
1836.822687356456
 20
1856.807021892475
 30
0.0
 10
1836.298836785421
 20
1856.807021892475
 30
0.0
 10
1835.021562826174
 20
1856.807021892475
 30
0.0
 10
1834.449593939552
 20
1856.807021892475
 30
0.0
 10
1833.295852195241
 20
1856.807021892475
 30
0.0
 10
1832.655619201188
 20
1856.807021892475
 30
0.0
 10
1831.268123978874
 20
1856.807021892475
 30
0.0
 10
1830.784113366833
 20
1856.807021892475
 30
0.0
 10
1829.069937785209
 20
1856.807021892475
 30
0.0
 10
1827.824699198481
 20
1856.807021892475
 30
0.0
 10
1825.139911838042
 20
1856.807021892475
 30
0.0
 10
1821.132975746187
 20
1856.807021892475
 30
0.0
 10
1817.315916897253
 20
1856.807021892475
 30
0.0
 10
1814.631305228298
 20
1856.807021892475
 30
0.0
 10
1813.409903518428
 20
1856.807021892475
 30
0.0
 10
1811.767364159074
 20
1856.807021892475
 30
0.0
 10
1811.254172977567
 20
1856.807021892475
 30
0.0
 10
1809.994030784895
 20
1856.807021892475
 30
0.0
 10
1809.390966651392
 20
1856.807021892475
 30
0.0
 10
1808.408635118606
 20
1856.807021892475
 30
0.0
 10
1808.008590291593
 20
1856.807021892475
 30
0.0
 10
1807.235277696215
 20
1856.807021892475
 30
0.0
 10
1806.858242268632
 20
1856.807021892475
 30
0.0
 10
1805.566702803299
 20
1856.807021892475
 30
0.0
 10
1804.747508467267
 20
1856.807021892475
 30
0.0
 10
1802.155505352855
 20
1856.807021892475
 30
0.0
 10
1800.343851068281
 20
1856.807021892475
 30
0.0
 10
1794.973060804431
 20
1856.807021892475
 30
0.0
 10
1791.536283846562
 20
1856.807021892475
 30
0.0
 10
1784.293900049093
 20
1856.807021892475
 30
0.0
 10
1780.69780066532
 20
1856.807021892475
 30
0.0
 10
1775.969812862376
 20
1856.807021892475
 30
0.0
 10
1775.090245147035
 20
1856.807021892475
 30
0.0
 10
1774.084868574135
 20
1856.807021892475
 30
0.0
  0
ARC
  5
11867
330
119E1
100
AcDbEntity
  8
springs2 - Level 26
  6
Continuous
 62
     7
370
    13
100
AcDbCircle
 10
1774.324566
 20
1856.807022
 30
0.0
 40
11.0
100
AcDbArc
 50
207.004704
 51
0.0
  0
ARC
  5
11868
330
119E1
100
AcDbEntity
  8
springs2 - Level 26
  6
Continuous
 62
     7
370
    13
100
AcDbCircle
 10
1764.865324
 20
1862.807022
 30
0.0
 40
11.0
100
AcDbArc
 50
207.65898
 51
332.34102
  0
LINE
  5
11869
330
119E1
100
AcDbEntity
  8
springs2 - Level 26
  6
Continuous
 62
     7
370
    13
100
AcDbLine
 10
1734.502898
 20
1862.807022
 30
0.0
 11
1736.131138
 21
1862.807022
 31
0.0
  0
LINE
  5
1186A
330
119E1
100
AcDbEntity
  8
springs2 - Level 26
  6
Continuous
 62
     7
370
    13
100
AcDbLine
 10
1753.865324
 20
1862.807022
 30
0.0
 11
1736.131138
 21
1862.807022
 31
0.0
  0
LINE
  5
1186B
330
119E1
100
AcDbEntity
  8
springs2 - Level 26
  6
Continuous
 62
     7
370
    13
100
AcDbLine
 10
1778.428903
 20
1862.807022
 30
0.0
 11
1775.865324
 21
1862.807022
 31
0.0
  0
LINE
  5
1186C
330
119E1
100
AcDbEntity
  8
springs2 - Level 26
  6
Continuous
 62
     7
370
    13
100
AcDbLine
 10
1778.428903
 20
1862.807022
 30
0.0
 11
1779.462383
 21
1862.807022
 31
0.0
  0
LINE
  5
1186D
330
119E1
100
AcDbEntity
  8
springs2 - Level 26
  6
Continuous
 62
     7
370
    13
100
AcDbLine
 10
1734.502898
 20
1878.007022
 30
0.0
 11
1734.502898
 21
1863.007022
 31
0.0
  0
LINE
  5
1186E
330
119E1
100
AcDbEntity
  8
springs2 - Level 26
  6
Continuous
 62
     7
370
    13
100
AcDbLine
 10
1788.040947
 20
1878.407022
 30
0.0
 11
1789.865328
 21
1878.407022
 31
0.0
  0
LINE
  5
1186F
330
119E1
100
AcDbEntity
  8
springs2 - Level 26
  6
Continuous
 62
     7
370
    13
100
AcDbLine
 10
1739.865328
 20
1878.407022
 30
0.0
 11
1741.689707
 21
1878.407022
 31
0.0
  0
LINE
  5
11870
330
119E1
100
AcDbEntity
  8
springs2 - Level 26
  6
Continuous
 62
     7
370
    13
100
AcDbLine
 10
1752.814001
 20
1878.407022
 30
0.0
 11
1741.689707
 21
1878.407022
 31
0.0
  0
LINE
  5
11871
330
119E1
100
AcDbEntity
  8
springs2 - Level 26
  6
Continuous
 62
     7
370
    13
100
AcDbLine
 10
1752.814001
 20
1878.407022
 30
0.0
 11
1776.916647
 21
1878.407022
 31
0.0
  0
LINE
  5
11872
330
119E1
100
AcDbEntity
  8
springs2 - Level 26
  6
Continuous
 62
     7
370
    13
100
AcDbLine
 10
1788.040947
 20
1878.407022
 30
0.0
 11
1776.916647
 21
1878.407022
 31
0.0
  0
LINE
  5
11873
330
119E1
100
AcDbEntity
  8
springs2 - Level 26
  6
Continuous
 62
     7
370
    13
100
AcDbLine
 10
1832.540636
 20
1862.807022
 30
0.0
 11
1757.343596
 21
1862.807022
 31
0.0
  0
LINE
  5
11874
330
119E1
100
AcDbEntity
  8
springs2 - Level 26
  6
Continuous
 62
     7
370
    13
100
AcDbLine
 10
1751.415328
 20
2060.618068
 30
0.0
 11
1751.415328
 21
1878.007022
 31
0.0
  0
LINE
  5
11875
330
119E1
100
AcDbEntity
  8
springs2 - Level 26
  6
Continuous
 62
     7
370
    13
100
AcDbLine
 10
1778.315328
 20
1878.007022
 30
0.0
 11
1778.315328
 21
2060.618068
 31
0.0
  0
LINE
  5
11876
330
119E1
100
AcDbEntity
  8
springs2 - Level 26
  6
Continuous
 62
     7
370
    13
100
AcDbLine
 10
1734.502898
 20
1878.207022
 30
0.0
 11
1842.874589
 21
1878.207022
 31
0.0
  0
SPLINE
  5
11877
330
119E1
100
AcDbEntity
  8
springs2 - Level 26
  6
Continuous
 62
     7
370
    13
100
AcDbSpline
210
0.0
220
0.0
230
1.0
 70
    24
 71
     3
 72
    43
 73
    39
 74
     0
 42
0.000000001
 43
0.0000000001
 40
0.0
 40
0.0
 40
0.0
 40
0.0
 40
0.0043525681016769
 40
0.0043525681016769
 40
0.0109873452550028
 40
0.0109873452550028
 40
0.0132706905177318
 40
0.0132706905177318
 40
0.0149065261895166
 40
0.0149065261895166
 40
0.0165951025792458
 40
0.0165951025792458
 40
0.0189892507085241
 40
0.0189892507085241
 40
0.0264263771247377
 40
0.0264263771247377
 40
0.0483630793045837
 40
0.0706238779064986
 40
0.0706238779064986
 40
0.0784393853853608
 40
0.0784393853853608
 40
0.0810333731418905
 40
0.0810333731418905
 40
0.0828128031642173
 40
0.0828128031642173
 40
0.0837982562857111
 40
0.0837982562857111
 40
0.0850248087675382
 40
0.0850248087675382
 40
0.0885540536948526
 40
0.0885540536948526
 40
0.0997640568159913
 40
0.0997640568159913
 40
0.1312913394689915
 40
0.1312913394689915
 40
0.1587035601957163
 40
0.1587035601957163
 40
0.1599135412213302
 40
0.1599135412213302
 40
0.1599135412213302
 40
0.1599135412213302
 10
1842.874589017114
 20
1862.807021892475
 30
0.0
 10
1842.250090554372
 20
1862.807021892475
 30
0.0
 10
1841.616485712859
 20
1862.807021892475
 30
0.0
 10
1839.97539326313
 20
1862.807021892475
 30
0.0
 10
1838.666516754821
 20
1862.807021892475
 30
0.0
 10
1836.822687356456
 20
1862.807021892475
 30
0.0
 10
1836.298836785421
 20
1862.807021892475
 30
0.0
 10
1835.021562826174
 20
1862.807021892475
 30
0.0
 10
1834.449593939552
 20
1862.807021892475
 30
0.0
 10
1833.295852195241
 20
1862.807021892475
 30
0.0
 10
1832.655619201188
 20
1862.807021892475
 30
0.0
 10
1831.268123978874
 20
1862.807021892475
 30
0.0
 10
1830.784113366833
 20
1862.807021892475
 30
0.0
 10
1829.069937785209
 20
1862.807021892475
 30
0.0
 10
1827.824699198481
 20
1862.807021892475
 30
0.0
 10
1825.139911838042
 20
1862.807021892475
 30
0.0
 10
1821.132975746187
 20
1862.807021892475
 30
0.0
 10
1817.315916897253
 20
1862.807021892475
 30
0.0
 10
1814.631305228298
 20
1862.807021892475
 30
0.0
 10
1813.409903518428
 20
1862.807021892475
 30
0.0
 10
1811.767364159074
 20
1862.807021892475
 30
0.0
 10
1811.254172977567
 20
1862.807021892475
 30
0.0
 10
1809.994030784895
 20
1862.807021892475
 30
0.0
 10
1809.390966651392
 20
1862.807021892475
 30
0.0
 10
1808.408635118606
 20
1862.807021892475
 30
0.0
 10
1808.008590291593
 20
1862.807021892475
 30
0.0
 10
1807.235277696215
 20
1862.807021892475
 30
0.0
 10
1806.858242268632
 20
1862.807021892475
 30
0.0
 10
1805.566702803299
 20
1862.807021892475
 30
0.0
 10
1804.747508467267
 20
1862.807021892475
 30
0.0
 10
1802.155505352855
 20
1862.807021892475
 30
0.0
 10
1800.343851068281
 20
1862.807021892475
 30
0.0
 10
1794.973060804431
 20
1862.807021892475
 30
0.0
 10
1791.536283846562
 20
1862.807021892475
 30
0.0
 10
1784.293900049093
 20
1862.807021892475
 30
0.0
 10
1780.69780066532
 20
1862.807021892475
 30
0.0
 10
1776.336667517565
 20
1862.807021892475
 30
0.0
 10
1776.115572501322
 20
1862.807021892475
 30
0.0
 10
1775.86532414422
 20
1862.807021892475
 30
0.0
  0
LINE
  5
1187A
330
119E1
100
AcDbEntity
  8
springs2 - Level 26
  6
Continuous
 62
     7
370
    13
100
AcDbLine
 10
1842.874589
 20
1862.807022
 30
0.0
 11
1842.566585
 21
1862.807022
 31
0.0
  0
LINE
  5
1187B
330
119E1
100
AcDbEntity
  8
springs2 - Level 26
  6
Continuous
 62
     7
370
    13
100
AcDbLine
 10
1812.435679
 20
1862.807022
 30
0.0
 11
1779.462383
 21
1862.807022
 31
0.0
  0
LINE
  5
1187C
330
119E1
100
AcDbEntity
  8
springs2 - Level 26
  6
Continuous
 62
     7
370
    13
100
AcDbLine
 10
1734.502898
 20
1863.007022
 30
0.0
 11
1842.874589
 21
1863.007022
 31
0.0
  0
LINE
  5
1187D
330
119E1
100
AcDbEntity
  8
springs2 - Level 26
  6
Continuous
 62
     7
370
    13
100
AcDbLine
 10
1734.502898
 20
1878.007022
 30
0.0
 11
1842.874589
 21
1878.007022
 31
0.0
  0
ARC
  5
1187E
330
119E1
100
AcDbEntity
  8
springs2 - Level 26
  6
Continuous
 62
     7
370
    13
100
AcDbCircle
 10
1774.324566
 20
1856.807022
 30
0.0
 40
11.0
100
AcDbArc
 50
33.055731
 51
34.307652
  0
ARC
  5
1187F
330
119E1
100
AcDbEntity
  8
springs2 - Level 26
  6
Continuous
 62
     7
370
    13
100
AcDbCircle
 10
1764.865324
 20
1862.807022
 30
0.0
 40
11.0
100
AcDbArc
 50
0.0
 51
1.041799
  0
ARC
  5
11880
330
119E1
100
AcDbEntity
  8
springs2 - Level 26
  6
Continuous
 62
     7
370
    13
100
AcDbCircle
 10
1764.865324
 20
1862.807022
 30
0.0
 40
11.0
100
AcDbArc
 50
178.958201
 51
207.699754
  0
ARC
  5
11881
330
119E1
100
AcDbEntity
  8
springs2 - Level 26
  6
Continuous
 62
     7
370
    13
100
AcDbCircle
 10
1764.865324
 20
1862.807022
 30
0.0
 40
11.0
100
AcDbArc
 50
332.300246
 51
0.0
  0
LINE
  5
11882
330
119E1
100
AcDbEntity
  8
springs2 - Level 26
  6
Continuous
 62
     7
370
    13
100
AcDbLine
 10
1812.435679
 20
1862.807022
 30
0.0
 11
1842.566585
 21
1862.807022
 31
0.0
  0
SPLINE
  5
11884
330
119E1
100
AcDbEntity
  8
springs2 - Level 26
  6
Continuous
 62
     7
370
    13
100
AcDbSpline
210
0.0
220
0.0
230
1.0
 70
    24
 71
     3
 72
    60
 73
    56
 74
     0
 42
0.000000001
 43
0.0000000001
 40
0.0
 40
0.0
 40
0.0
 40
0.0
 40
0.0029144735360527
 40
0.0029144735360527
 40
0.0096569610318635
 40
0.0096569610318635
 40
0.0112792332527923
 40
0.0112792332527923
 40
0.0141070955375418
 40
0.0141070955375418
 40
0.0175116806964775
 40
0.0175116806964775
 40
0.0263276085918062
 40
0.0263276085918062
 40
0.0493928833559332
 40
0.0720932625546796
 40
0.0720932625546796
 40
0.0804440571239548
 40
0.0804440571239548
 40
0.0835543039151166
 40
0.0835543039151166
 40
0.0860896556009211
 40
0.0860896556009211
 40
0.0873346101576739
 40
0.0873346101576739
 40
0.0888307355868957
 40
0.0888307355868957
 40
0.0929803352055982
 40
0.0929803352055982
 40
0.1047305242756406
 40
0.1168890429260224
 40
0.1168890429260224
 40
0.1215591326683881
 40
0.1215591326683881
 40
0.1241642832740755
 40
0.1241642832740755
 40
0.1249191274900057
 40
0.1255468672600293
 40
0.1255468672600293
 40
0.127700923184807
 40
0.127700923184807
 40
0.131374229247557
 40
0.131374229247557
 40
0.1499528762038683
 40
0.1499528762038683
 40
0.1551723179432504
 40
0.1551723179432504
 40
0.1565011177868017
 40
0.1578052483706939
 40
0.1578052483706939
 40
0.1593104646001681
 40
0.1593104646001681
 40
0.1631080410709491
 40
0.1631080410709491
 40
0.1715225416662178
 40
0.1715225416662178
 40
0.1715225416662178
 40
0.1715225416662178
 10
2059.50636439343
 20
1856.807021892475
 30
0.0
 10
2058.52609598432
 20
1856.807021892475
 30
0.0
 10
2057.544730589657
 20
1856.807021892475
 30
0.0
 10
2054.287588625792
 20
1856.807021892475
 30
0.0
 10
2051.712051024518
 20
1856.807021892475
 30
0.0
 10
2048.644646609907
 20
1856.807021892475
 30
0.0
 10
2048.016311229023
 20
1856.807021892475
 30
0.0
 10
2046.377731801498
 20
1856.807021892475
 30
0.0
 10
2045.461358393704
 20
1856.807021892475
 30
0.0
 10
2043.541143016527
 20
1856.807021892475
 30
0.0
 10
2042.667866976897
 20
1856.807021892475
 30
0.0
 10
2039.966651259835
 20
1856.807021892475
 30
0.0
 10
2038.098199444498
 20
1856.807021892475
 30
0.0
 10
2033.93817740476
 20
1856.807021892475
 30
0.0
 10
2028.001241046729
 20
1856.807021892475
 30
0.0
 10
2022.165543537862
 20
1856.807021892475
 30
0.0
 10
2018.150847027874
 20
1856.807021892475
 30
0.0
 10
2016.391134731431
 20
1856.807021892475
 30
0.0
 10
2013.846464109235
 20
1856.807021892475
 30
0.0
 10
2013.052592499294
 20
1856.807021892475
 30
0.0
 10
2011.215147256522
 20
1856.807021892475
 30
0.0
 10
2010.329295299145
 20
1856.807021892475
 30
0.0
 10
2008.968871345899
 20
1856.807021892475
 30
0.0
 10
2008.472436515972
 20
1856.807021892475
 30
0.0
 10
2007.4939553913
 20
1856.807021892475
 30
0.0
 10
2007.037343944383
 20
1856.807021892475
 30
0.0
 10
2005.527618933669
 20
1856.807021892475
 30
0.0
 10
2004.520566762133
 20
1856.807021892475
 30
0.0
 10
2001.916877479701
 20
1856.807021892475
 30
0.0
 10
1998.088552456064
 20
1856.807021892475
 30
0.0
 10
1994.147370891088
 20
1856.807021892475
 30
0.0
 10
1991.354410741107
 20
1856.807021892475
 30
0.0
 10
1990.245203782146
 20
1856.807021892475
 30
0.0
 10
1988.273798176107
 20
1856.807021892475
 30
0.0
 10
1987.480172377902
 20
1856.807021892475
 30
0.0
 10
1986.26304896275
 20
1856.807021892475
 30
0.0
 10
1985.757709915745
 20
1856.807021892475
 30
0.0
 10
1985.231898559895
 20
1856.807021892475
 30
0.0
 10
1984.193494776719
 20
1856.807021892475
 30
0.0
 10
1983.41555694687
 20
1856.807021892475
 30
0.0
 10
1981.377855850664
 20
1856.807021892475
 30
0.0
 10
1980.181155074468
 20
1856.807021892475
 30
0.0
 10
1973.894020794759
 20
1856.807021892475
 30
0.0
 10
1968.668338742121
 20
1856.807021892475
 30
0.0
 10
1961.928291315027
 20
1856.807021892475
 30
0.0
 10
1960.1082146656
 20
1856.807021892475
 30
0.0
 10
1957.722100649147
 20
1856.807021892475
 30
0.0
 10
1956.701313741588
 20
1856.807021892475
 30
0.0
 10
1955.763765033607
 20
1856.807021892475
 30
0.0
 10
1954.783332222472
 20
1856.807021892475
 30
0.0
 10
1954.343946529836
 20
1856.807021892475
 30
0.0
 10
1952.905229924828
 20
1856.807021892475
 30
0.0
 10
1951.946702212656
 20
1856.807021892475
 30
0.0
 10
1949.794279241836
 20
1856.807021892475
 30
0.0
 10
1948.373370430585
 20
1856.807021892475
 30
0.0
 10
1946.976339673483
 20
1856.807021892475
 30
0.0
  0
SPLINE
  5
11887
330
119E1
100
AcDbEntity
  8
springs2 - Level 26
  6
Continuous
 62
     7
370
    13
100
AcDbSpline
210
0.0
220
0.0
230
1.0
 70
    24
 71
     3
 72
    38
 73
    34
 74
     0
 42
0.000000001
 43
0.0000000001
 40
0.0
 40
0.0
 40
0.0
 40
0.0
 40
0.0028344919146013
 40
0.0164200261025774
 40
0.0164200261025774
 40
0.0214051250683153
 40
0.0214051250683153
 40
0.0239790329697803
 40
0.0239790329697803
 40
0.0246920107564706
 40
0.0246920107564706
 40
0.0268565133167528
 40
0.0268565133167528
 40
0.0294993813687771
 40
0.0294993813687771
 40
0.0364720580977583
 40
0.0364720580977583
 40
0.0550996442212458
 40
0.0739108353235619
 40
0.0739108353235619
 40
0.0811249346935262
 40
0.0811249346935262
 40
0.0862038905399737
 40
0.0862038905399737
 40
0.0884553362314178
 40
0.0884553362314178
 40
0.0911642479596237
 40
0.0911642479596237
 40
0.0982878857050147
 40
0.0982878857050147
 40
0.1172482103630751
 40
0.1172482103630751
 40
0.1315766012793879
 40
0.1315766012793879
 40
0.1315766012793879
 40
0.1315766012793879
 10
1928.537250813653
 20
1856.807021892475
 30
0.0
 10
1928.223463887857
 20
1856.807021892475
 30
0.0
 10
1926.403869851089
 20
1856.807021892475
 30
0.0
 10
1924.561997271244
 20
1856.807021892475
 30
0.0
 10
1922.472467882278
 20
1856.807021892475
 30
0.0
 10
1921.535951662638
 20
1856.807021892475
 30
0.0
 10
1919.876106593181
 20
1856.807021892475
 30
0.0
 10
1919.184528706668
 20
1856.807021892475
 30
0.0
 10
1918.022065967474
 20
1856.807021892475
 30
0.0
 10
1917.764351713693
 20
1856.807021892475
 30
0.0
 10
1916.699778598296
 20
1856.807021892475
 30
0.0
 10
1915.86964273572
 20
1856.807021892475
 30
0.0
 10
1914.105237605613
 20
1856.807021892475
 30
0.0
 10
1913.224588241483
 20
1856.807021892475
 30
0.0
 10
1910.183432454683
 20
1856.807021892475
 30
0.0
 10
1908.077598236526
 20
1856.807021892475
 30
0.0
 10
1901.824406457067
 20
1856.807021892475
 30
0.0
 10
1892.754433578337
 20
1856.807021892475
 30
0.0
 10
1883.593406464642
 20
1856.807021892475
 30
0.0
 10
1877.213459033695
 20
1856.807021892475
 30
0.0
 10
1875.291072572154
 20
1856.807021892475
 30
0.0
 10
1870.913666186941
 20
1856.807021892475
 30
0.0
 10
1869.081777072764
 20
1856.807021892475
 30
0.0
 10
1866.462141540313
 20
1856.807021892475
 30
0.0
 10
1865.657917623841
 20
1856.807021892475
 30
0.0
 10
1863.893859810526
 20
1856.807021892475
 30
0.0
 10
1863.168958193602
 20
1856.807021892475
 30
0.0
 10
1860.663482039603
 20
1856.807021892475
 30
0.0
 10
1858.989455075585
 20
1856.807021892475
 30
0.0
 10
1854.725069971312
 20
1856.807021892475
 30
0.0
 10
1851.810636994702
 20
1856.807021892475
 30
0.0
 10
1846.88074225578
 20
1856.807021892475
 30
0.0
 10
1844.923690130586
 20
1856.807021892475
 30
0.0
 10
1842.867656800302
 20
1856.807021892475
 30
0.0
  0
ARC
  5
1188A
330
119E1
100
AcDbEntity
  8
springs2 - Level 26
  6
Continuous
 62
     7
370
    13
100
AcDbCircle
 10
1915.841151
 20
1856.807022
 30
0.0
 40
11.0
100
AcDbArc
 50
180.0
 51
0.0
  0
ARC
  5
1188B
330
119E1
100
AcDbEntity
  8
springs2 - Level 26
  6
Continuous
 62
     7
370
    13
100
AcDbCircle
 10
1937.756795
 20
1862.807022
 30
0.0
 40
11.0
100
AcDbArc
 50
207.65898
 51
332.34102
  0
SPLINE
  5
1188C
330
119E1
100
AcDbEntity
  8
springs2 - Level 26
  6
Continuous
 62
     7
370
    13
100
AcDbSpline
210
0.0
220
0.0
230
1.0
 70
    24
 71
     3
 72
    14
 73
    10
 74
     0
 42
0.000000001
 43
0.0000000001
 40
0.0
 40
0.0
 40
0.0
 40
0.0
 40
0.0039062500000522
 40
0.0078125000001045
 40
0.0156250000001845
 40
0.0312500000002513
 40
0.0625000000002671
 40
0.1250000000002058
 40
0.1875000000001912
 40
0.1875000000001912
 40
0.1875000000001912
 40
0.1875000000001912
 10
2003.861191129927
 20
1862.807021934543
 30
0.0
 10
2003.847973882855
 20
1862.807021934543
 30
0.0
 10
2003.819533446755
 20
1862.807021934543
 30
0.0
 10
2003.76363247934
 20
1862.807021934543
 30
0.0
 10
2003.665803610165
 20
1862.807021934543
 30
0.0
 10
2003.470185245039
 20
1862.807021934543
 30
0.0
 10
2003.077425550761
 20
1862.807021934543
 30
0.0
 10
2002.519575177778
 20
1862.807021934543
 30
0.0
 10
2002.074290169717
 20
1862.807021934543
 30
0.0
 10
2001.851791595252
 20
1862.807021934543
 30
0.0
  0
SPLINE
  5
1188F
330
119E1
100
AcDbEntity
  8
springs2 - Level 26
  6
Continuous
 62
     7
370
    13
100
AcDbSpline
210
0.0
220
0.0
230
1.0
 70
    24
 71
     3
 72
    28
 73
    24
 74
     0
 42
0.000000001
 43
0.0000000001
 40
0.0
 40
0.0
 40
0.0
 40
0.0
 40
0.0156250000005728
 40
0.0312500000011457
 40
0.0468750000017184
 40
0.0625000000022913
 40
0.1250000000030385
 40
0.1875000000037856
 40
0.218750000004106
 40
0.2343750000042664
 40
0.2500000000044267
 40
0.5000000000033733
 40
0.75000000000232
 40
0.8750000000017932
 40
0.9062500000014564
 40
0.9140625000011917
 40
0.9218750000009272
 40
0.9375000000009844
 40
0.9687500000005726
 40
0.9843750000006471
 40
0.9921875000006272
 40
0.9960937500003137
 40
1.0
 40
1.0
 40
1.0
 40
1.0
 10
2006.647948560182
 20
1862.807021934543
 30
0.0
 10
2006.631825517409
 20
1862.807021934543
 30
0.0
 10
2006.597556140879
 20
1862.807021934543
 30
0.0
 10
2006.547022627723
 20
1862.807021934543
 30
0.0
 10
2006.498350546334
 20
1862.807021934543
 30
0.0
 10
2006.391965107062
 20
1862.807021934543
 30
0.0
 10
2006.236111630945
 20
1862.807021934543
 30
0.0
 10
2006.069092399024
 20
1862.807021934543
 30
0.0
 10
2005.958272772058
 20
1862.807021934543
 30
0.0
 10
2005.891761749991
 20
1862.807021934543
 30
0.0
 10
2005.59905972068
 20
1862.807021934543
 30
0.0
 10
2005.085710334469
 20
1862.807021934543
 30
0.0
 10
2004.528624967341
 20
1862.807021934543
 30
0.0
 10
2004.209560600751
 20
1862.807021934543
 30
0.0
 10
2004.088351045634
 20
1862.807021934543
 30
0.0
 10
2004.054196848685
 20
1862.807021934543
 30
0.0
 10
2004.031992615047
 20
1862.807021934543
 30
0.0
 10
2003.994561599497
 20
1862.807021934543
 30
0.0
 10
2003.94439685802
 20
1862.807021934543
 30
0.0
 10
2003.900816043877
 20
1862.807021934543
 30
0.0
 10
2003.879581110686
 20
1862.807021934543
 30
0.0
 10
2003.86881141625
 20
1862.807021934543
 30
0.0
 10
2003.862722271242
 20
1862.807021934543
 30
0.0
 10
2003.861191129927
 20
1862.807021934543
 30
0.0
  0
SPLINE
  5
11892
330
119E1
100
AcDbEntity
  8
springs2 - Level 26
  6
Continuous
 62
     7
370
    13
100
AcDbSpline
210
0.0
220
0.0
230
1.0
 70
    24
 71
     3
 72
    21
 73
    17
 74
     0
 42
0.000000001
 43
0.0000000001
 40
0.0
 40
0.0
 40
0.0
 40
0.0
 40
0.0625000000109401
 40
0.1250000000218802
 40
0.1562500000258085
 40
0.1562500000258085
 40
0.1718750000277727
 40
0.1875000000297369
 40
0.250000000029488
 40
0.5000000000196853
 40
0.7500000000098826
 40
0.8750000000035967
 40
0.9062500000026975
 40
0.9375000000017983
 40
0.9687500000008991
 40
1.0
 40
1.0
 40
1.0
 40
1.0
 10
2008.041064690199
 20
1862.807021934543
 30
0.0
 10
2008.022689469784
 20
1862.807021934543
 30
0.0
 10
2007.928170932361
 20
1862.807021934543
 30
0.0
 10
2007.84366601431
 20
1862.807021934543
 30
0.0
 10
2007.804035425673
 20
1862.807021934543
 30
0.0
 10
2007.785977214782
 20
1862.807021934543
 30
0.0
 10
2007.769641928295
 20
1862.807021934543
 30
0.0
 10
2007.723494952526
 20
1862.807021934543
 30
0.0
 10
2007.562495539901
 20
1862.807021934543
 30
0.0
 10
2007.297279925313
 20
1862.807021934543
 30
0.0
 10
2007.023320860894
 20
1862.807021934543
 30
0.0
 10
2006.859227942984
 20
1862.807021934543
 30
0.0
 10
2006.790965514127
 20
1862.807021934543
 30
0.0
 10
2006.75143507931
 20
1862.807021934543
 30
0.0
 10
2006.695872444813
 20
1862.807021934543
 30
0.0
 10
2006.665051631308
 20
1862.807021934543
 30
0.0
 10
2006.647948560182
 20
1862.807021934543
 30
0.0
  0
SPLINE
  5
11895
330
119E1
100
AcDbEntity
  8
springs2 - Level 26
  6
Continuous
 62
     7
370
    13
100
AcDbSpline
210
0.0
220
0.0
230
1.0
 70
    24
 71
     3
 72
    24
 73
    20
 74
     0
 42
0.000000001
 43
0.0000000001
 40
0.0
 40
0.0
 40
0.0
 40
0.0
 40
0.0156249999995799
 40
0.0234374999993698
 40
0.0273437499982574
 40
0.0292968749986387
 40
0.0312499999990198
 40
0.0624999999978577
 40
0.1249999999996209
 40
0.2499999999991194
 40
0.3749999999986178
 40
0.4999999999981162
 40
0.7499999999971129
 40
0.8749999999948302
 40
0.9062499999961225
 40
0.937499999997415
 40
0.9687499999987075
 40
0.9843749999993537
 40
1.0
 40
1.0
 40
1.0
 40
1.0
 10
2009.443220575221
 20
1862.807021934543
 30
0.0
 10
2009.437368536156
 20
1862.807021934543
 30
0.0
 10
2009.424819127254
 20
1862.807021934543
 30
0.0
 10
2009.40349236964
 20
1862.807021934543
 30
0.0
 10
2009.391150435627
 20
1862.807021934543
 30
0.0
 10
2009.382634622884
 20
1862.807021934543
 30
0.0
 10
2009.367077756573
 20
1862.807021934543
 30
0.0
 10
2009.325472329611
 20
1862.807021934543
 30
0.0
 10
2009.23034992371
 20
1862.807021934543
 30
0.0
 10
2009.092512871251
 20
1862.807021934543
 30
0.0
 10
2008.919199398514
 20
1862.807021934543
 30
0.0
 10
2008.692207081361
 20
1862.807021934543
 30
0.0
 10
2008.459531384369
 20
1862.807021934543
 30
0.0
 10
2008.284128795828
 20
1862.807021934543
 30
0.0
 10
2008.20349987096
 20
1862.807021934543
 30
0.0
 10
2008.164391945681
 20
1862.807021934543
 30
0.0
 10
2008.119316797956
 20
1862.807021934543
 30
0.0
 10
2008.077533700219
 20
1862.807021934543
 30
0.0
 10
2008.052545726278
 20
1862.807021934543
 30
0.0
 10
2008.041064690199
 20
1862.807021934543
 30
0.0
  0
LINE
  5
11898
330
119E1
100
AcDbEntity
  8
springs2 - Level 26
  6
Continuous
 62
     7
370
    13
100
AcDbLine
 10
1896.733806
 20
1862.807022
 30
0.0
 11
2034.692626
 21
1862.807022
 31
0.0
  0
LINE
  5
11899
330
119E1
100
AcDbEntity
  8
springs2 - Level 26
  6
Continuous
 62
     7
370
    13
100
AcDbLine
 10
1905.256795
 20
2060.618068
 30
0.0
 11
1905.256795
 21
1881.271032
 31
0.0
  0
LINE
  5
1189A
330
119E1
100
AcDbEntity
  8
springs2 - Level 26
  6
Continuous
 62
     7
370
    13
100
AcDbLine
 10
1905.256795
 20
1881.271032
 30
0.0
 11
2059.506364
 21
1881.271032
 31
0.0
  0
LINE
  5
1189B
330
119E1
100
AcDbEntity
  8
springs2 - Level 26
  6
Continuous
 62
     7
370
    13
100
AcDbLine
 10
1842.867657
 20
1878.207022
 30
0.0
 11
2059.506364
 21
1878.207022
 31
0.0
  0
LINE
  5
1189C
330
119E1
100
AcDbEntity
  8
springs2 - Level 26
  6
Continuous
 62
     7
370
    13
100
AcDbLine
 10
2059.506364
 20
1862.807022
 30
0.0
 11
2006.745722
 21
1862.807022
 31
0.0
  0
LINE
  5
1189D
330
119E1
100
AcDbEntity
  8
springs2 - Level 26
  6
Continuous
 62
     7
370
    13
100
AcDbLine
 10
2006.745722
 20
1862.807022
 30
0.0
 11
1842.867657
 21
1862.807022
 31
0.0
  0
SPLINE
  5
1189E
330
119E1
100
AcDbEntity
  8
springs2 - Level 26
  6
Continuous
 62
     7
370
    13
100
AcDbSpline
210
0.0
220
0.0
230
1.0
 70
    24
 71
     3
 72
    60
 73
    56
 74
     0
 42
0.000000001
 43
0.0000000001
 40
0.0
 40
0.0
 40
0.0
 40
0.0
 40
0.0029144735360527
 40
0.0029144735360527
 40
0.0096569610318635
 40
0.0096569610318635
 40
0.0112792332527923
 40
0.0112792332527923
 40
0.0141070955375418
 40
0.0141070955375418
 40
0.0175116806964775
 40
0.0175116806964775
 40
0.0263276085918062
 40
0.0263276085918062
 40
0.0493928833559332
 40
0.0720932625546796
 40
0.0720932625546796
 40
0.0804440571239548
 40
0.0804440571239548
 40
0.0835543039151166
 40
0.0835543039151166
 40
0.0860896556009211
 40
0.0860896556009211
 40
0.0873346101576739
 40
0.0873346101576739
 40
0.0888307355868957
 40
0.0888307355868957
 40
0.0929803352055982
 40
0.0929803352055982
 40
0.1047305242756406
 40
0.1168890429260224
 40
0.1168890429260224
 40
0.1215591326683881
 40
0.1215591326683881
 40
0.1241642832740755
 40
0.1241642832740755
 40
0.1249191274900057
 40
0.1255468672600293
 40
0.1255468672600293
 40
0.127700923184807
 40
0.127700923184807
 40
0.131374229247557
 40
0.131374229247557
 40
0.1499528762038683
 40
0.1499528762038683
 40
0.1551723179432504
 40
0.1551723179432504
 40
0.1565011177868017
 40
0.1578052483706939
 40
0.1578052483706939
 40
0.1593104646001681
 40
0.1593104646001681
 40
0.1631080410709491
 40
0.1631080410709491
 40
0.1679791478188807
 40
0.1679791478188807
 40
0.1679791478188807
 40
0.1679791478188807
 10
2059.50636439343
 20
1862.807021892475
 30
0.0
 10
2058.52609598432
 20
1862.807021892475
 30
0.0
 10
2057.544730589657
 20
1862.807021892475
 30
0.0
 10
2054.287588625792
 20
1862.807021892475
 30
0.0
 10
2051.712051024518
 20
1862.807021892475
 30
0.0
 10
2048.644646609907
 20
1862.807021892475
 30
0.0
 10
2048.016311229023
 20
1862.807021892475
 30
0.0
 10
2046.377731801498
 20
1862.807021892475
 30
0.0
 10
2045.461358393704
 20
1862.807021892475
 30
0.0
 10
2043.541143016527
 20
1862.807021892475
 30
0.0
 10
2042.667866976897
 20
1862.807021892475
 30
0.0
 10
2039.966651259835
 20
1862.807021892475
 30
0.0
 10
2038.098199444498
 20
1862.807021892475
 30
0.0
 10
2033.93817740476
 20
1862.807021892475
 30
0.0
 10
2028.001241046729
 20
1862.807021892475
 30
0.0
 10
2022.165543537862
 20
1862.807021892475
 30
0.0
 10
2018.150847027874
 20
1862.807021892475
 30
0.0
 10
2016.391134731431
 20
1862.807021892475
 30
0.0
 10
2013.846464109235
 20
1862.807021892475
 30
0.0
 10
2013.052592499294
 20
1862.807021892475
 30
0.0
 10
2011.215147256522
 20
1862.807021892475
 30
0.0
 10
2010.329295299145
 20
1862.807021892475
 30
0.0
 10
2008.968871345899
 20
1862.807021892475
 30
0.0
 10
2008.472436515972
 20
1862.807021892475
 30
0.0
 10
2007.4939553913
 20
1862.807021892475
 30
0.0
 10
2007.037343944383
 20
1862.807021892475
 30
0.0
 10
2005.527618933669
 20
1862.807021892475
 30
0.0
 10
2004.520566762133
 20
1862.807021892475
 30
0.0
 10
2001.916877479701
 20
1862.807021892475
 30
0.0
 10
1998.088552456064
 20
1862.807021892475
 30
0.0
 10
1994.147370891088
 20
1862.807021892475
 30
0.0
 10
1991.354410741107
 20
1862.807021892475
 30
0.0
 10
1990.245203782146
 20
1862.807021892475
 30
0.0
 10
1988.273798176107
 20
1862.807021892475
 30
0.0
 10
1987.480172377902
 20
1862.807021892475
 30
0.0
 10
1986.26304896275
 20
1862.807021892475
 30
0.0
 10
1985.757709915745
 20
1862.807021892475
 30
0.0
 10
1985.231898559895
 20
1862.807021892475
 30
0.0
 10
1984.193494776719
 20
1862.807021892475
 30
0.0
 10
1983.41555694687
 20
1862.807021892475
 30
0.0
 10
1981.377855850664
 20
1862.807021892475
 30
0.0
 10
1980.181155074468
 20
1862.807021892475
 30
0.0
 10
1973.894020794759
 20
1862.807021892475
 30
0.0
 10
1968.668338742121
 20
1862.807021892475
 30
0.0
 10
1961.928291315027
 20
1862.807021892475
 30
0.0
 10
1960.1082146656
 20
1862.807021892475
 30
0.0
 10
1957.722100649147
 20
1862.807021892475
 30
0.0
 10
1956.701313741588
 20
1862.807021892475
 30
0.0
 10
1955.763765033607
 20
1862.807021892475
 30
0.0
 10
1954.783332222472
 20
1862.807021892475
 30
0.0
 10
1954.343946529836
 20
1862.807021892475
 30
0.0
 10
1952.905229924828
 20
1862.807021892475
 30
0.0
 10
1951.946702212656
 20
1862.807021892475
 30
0.0
 10
1950.418815286803
 20
1862.807021892475
 30
0.0
 10
1949.58110185842
 20
1862.807021892475
 30
0.0
 10
1948.756795243567
 20
1862.807021892475
 30
0.0
  0
SPLINE
  5
118A1
330
119E1
100
AcDbEntity
  8
springs2 - Level 26
  6
Continuous
 62
     7
370
    13
100
AcDbSpline
210
0.0
220
0.0
230
1.0
 70
    24
 71
     3
 72
    37
 73
    33
 74
     0
 42
0.000000001
 43
0.0000000001
 40
0.0
 40
0.0
 40
0.0
 40
0.0
 40
0.0110752546406693
 40
0.0110752546406693
 40
0.0160603536064071
 40
0.0160603536064071
 40
0.0186342615078722
 40
0.0186342615078722
 40
0.0193472392945624
 40
0.0193472392945624
 40
0.0215117418548446
 40
0.0215117418548446
 40
0.0241546099068689
 40
0.0241546099068689
 40
0.0311272866358502
 40
0.0311272866358502
 40
0.0497548727593377
 40
0.0685660638616538
 40
0.0685660638616538
 40
0.0757801632316181
 40
0.0757801632316181
 40
0.0808591190780655
 40
0.0808591190780655
 40
0.0831105647695097
 40
0.0831105647695097
 40
0.0858194764977155
 40
0.0858194764977155
 40
0.0929431142431065
 40
0.0929431142431065
 40
0.1119034389011669
 40
0.1119034389011669
 40
0.1262318298174797
 40
0.1262318298174797
 40
0.1262318298174797
 40
0.1262318298174797
 10
1926.756795243568
 20
1862.807021892475
 30
0.0
 10
1925.522590172633
 20
1862.807021892475
 30
0.0
 10
1924.279545787485
 20
1862.807021892475
 30
0.0
 10
1922.472467882278
 20
1862.807021892475
 30
0.0
 10
1921.535951662638
 20
1862.807021892475
 30
0.0
 10
1919.876106593181
 20
1862.807021892475
 30
0.0
 10
1919.184528706668
 20
1862.807021892475
 30
0.0
 10
1918.022065967474
 20
1862.807021892475
 30
0.0
 10
1917.764351713693
 20
1862.807021892475
 30
0.0
 10
1916.699778598296
 20
1862.807021892475
 30
0.0
 10
1915.86964273572
 20
1862.807021892475
 30
0.0
 10
1914.105237605613
 20
1862.807021892475
 30
0.0
 10
1913.224588241483
 20
1862.807021892475
 30
0.0
 10
1910.183432454683
 20
1862.807021892475
 30
0.0
 10
1908.077598236526
 20
1862.807021892475
 30
0.0
 10
1901.824406457067
 20
1862.807021892475
 30
0.0
 10
1892.754433578337
 20
1862.807021892475
 30
0.0
 10
1883.593406464642
 20
1862.807021892475
 30
0.0
 10
1877.213459033695
 20
1862.807021892475
 30
0.0
 10
1875.291072572154
 20
1862.807021892475
 30
0.0
 10
1870.913666186941
 20
1862.807021892475
 30
0.0
 10
1869.081777072764
 20
1862.807021892475
 30
0.0
 10
1866.462141540313
 20
1862.807021892475
 30
0.0
 10
1865.657917623841
 20
1862.807021892475
 30
0.0
 10
1863.893859810526
 20
1862.807021892475
 30
0.0
 10
1863.168958193602
 20
1862.807021892475
 30
0.0
 10
1860.663482039603
 20
1862.807021892475
 30
0.0
 10
1858.989455075585
 20
1862.807021892475
 30
0.0
 10
1854.725069971312
 20
1862.807021892475
 30
0.0
 10
1851.810636994702
 20
1862.807021892475
 30
0.0
 10
1846.88074225578
 20
1862.807021892475
 30
0.0
 10
1844.923690130586
 20
1862.807021892475
 30
0.0
 10
1842.867656800302
 20
1862.807021892475
 30
0.0
  0
ARC
  5
118A4
330
119E1
100
AcDbEntity
  8
springs2 - Level 26
  6
Continuous
 62
     7
370
    13
100
AcDbCircle
 10
1915.841151
 20
1856.807022
 30
0.0
 40
11.0
100
AcDbArc
 50
33.055731
 51
34.307652
  0
ARC
  5
118A5
330
119E1
100
AcDbEntity
  8
springs2 - Level 26
  6
Continuous
 62
     7
370
    13
100
AcDbCircle
 10
1915.841151
 20
1856.807022
 30
0.0
 40
11.0
100
AcDbArc
 50
145.692348
 51
146.944269
  0
ARC
  5
118A6
330
119E1
100
AcDbEntity
  8
springs2 - Level 26
  6
Continuous
 62
     7
370
    13
100
AcDbCircle
 10
1937.756795
 20
1862.807022
 30
0.0
 40
11.0
100
AcDbArc
 50
0.0
 51
1.041799
  0
ARC
  5
118A7
330
119E1
100
AcDbEntity
  8
springs2 - Level 26
  6
Continuous
 62
     7
370
    13
100
AcDbCircle
 10
1937.756795
 20
1862.807022
 30
0.0
 40
11.0
100
AcDbArc
 50
178.958201
 51
207.699754
  0
ARC
  5
118A8
330
119E1
100
AcDbEntity
  8
springs2 - Level 26
  6
Continuous
 62
     7
370
    13
100
AcDbCircle
 10
1937.756795
 20
1862.807022
 30
0.0
 40
11.0
100
AcDbArc
 50
332.300246
 51
0.0
  0
SPLINE
  5
118A9
330
119E1
100
AcDbEntity
  8
springs2 - Level 26
  6
Continuous
 62
     7
370
    13
100
AcDbSpline
210
0.0
220
0.0
230
1.0
 70
    24
 71
     3
 72
    80
 73
    76
 74
     0
 42
0.000000001
 43
0.0000000001
 40
0.0
 40
0.0
 40
0.0
 40
0.0
 40
0.0624999999954822
 40
0.0937499999932327
 40
0.124999999990983
 40
0.1289062499907093
 40
0.1293945312406723
 40
0.1296386718656608
 40
0.129760742178155
 40
0.1298217773344046
 40
0.129882812490654
 40
0.1301269531156235
 40
0.1303710937405929
 40
0.1308593749905318
 40
0.1318359374904096
 40
0.1320800781153868
 40
0.1323242187403641
 40
0.1328124999903186
 40
0.1406249999894886
 40
0.1562499999878236
 40
0.1718749999861586
 40
0.1874999999844937
 40
0.1914062499840811
 40
0.1953124999836685
 40
0.1992187499832558
 40
0.200195312483145
 40
0.2006835937330895
 40
0.2011718749830341
 40
0.2014160156080043
 40
0.2014770507642294
 40
0.2015380859204545
 40
0.2016601562329047
 40
0.2017211913891409
 40
0.2017822265453772
 40
0.2019042968578431
 40
0.202148437482775
 40
0.2026367187326384
 40
0.203124999982502
 40
0.2036132812323656
 40
0.203857421857299
 40
0.203857421857299
 40
0.203979492169764
 40
0.2041015624822292
 40
0.2050781249819026
 40
0.207031249981245
 40
0.2109374999799297
 40
0.218749999977303
 40
0.2226562499759744
 40
0.2246093749753102
 40
0.2265624999746458
 40
0.2275390624743005
 40
0.2277832030992205
 40
0.2279052734116806
 40
0.2279663085679106
 40
0.2280273437241406
 40
0.2282714843492201
 40
0.2283935546617401
 40
0.2285156249742601
 40
0.2290039062243633
 40
0.2294921874744666
 40
0.2304687499746728
 40
0.2343749999754713
 40
0.242187499977031
 40
0.24609374997781
 40
0.2470703124780051
 40
0.2473144531030862
 40
0.2473754882593562
 40
0.247436523415626
 40
0.247558593728138
 40
0.2480468749782472
 40
0.2485351562283564
 40
0.2490234374784657
 40
0.2495117187285748
 40
0.2497558593536481
 40
0.2499999999787211
 40
0.2499999999787211
 40
0.2499999999787211
 40
0.2499999999787211
 10
2025.060130836703
 20
1862.807021934543
 30
0.0
 10
2024.1286910788
 20
1862.807021934543
 30
0.0
 10
2022.732413758163
 20
1862.807021934543
 30
0.0
 10
2020.865514345336
 20
1862.807021934543
 30
0.0
 10
2019.870982210958
 20
1862.807021934543
 30
0.0
 10
2019.336642264903
 20
1862.807021934543
 30
0.0
 10
2019.267149781916
 20
1862.807021934543
 30
0.0
 10
2019.254389040438
 20
1862.807021934543
 30
0.0
 10
2019.247294940784
 20
1862.807021934543
 30
0.0
 10
2019.24567170505
 20
1862.807021934543
 30
0.0
 10
2019.241330089312
 20
1862.807021934543
 30
0.0
 10
2019.232955244042
 20
1862.807021934543
 30
0.0
 10
2019.218412313321
 20
1862.807021934543
 30
0.0
 10
2019.192714169723
 20
1862.807021934543
 30
0.0
 10
2019.165153187037
 20
1862.807021934543
 30
0.0
 10
2019.140400736837
 20
1862.807021934543
 30
0.0
 10
2019.123553791171
 20
1862.807021934543
 30
0.0
 10
2018.989357839373
 20
1862.807021934543
 30
0.0
 10
2018.588086351654
 20
1862.807021934543
 30
0.0
 10
2017.826515892778
 20
1862.807021934543
 30
0.0
 10
2016.78160054123
 20
1862.807021934543
 30
0.0
 10
2015.925121352813
 20
1862.807021934543
 30
0.0
 10
2015.335767047759
 20
1862.807021934543
 30
0.0
 10
2015.038513627267
 20
1862.807021934543
 30
0.0
 10
2014.811870011017
 20
1862.807021934543
 30
0.0
 10
2014.67291489504
 20
1862.807021934543
 30
0.0
 10
2014.621205775936
 20
1862.807021934543
 30
0.0
 10
2014.59204430751
 20
1862.807021934543
 30
0.0
 10
2014.572049230042
 20
1862.807021934543
 30
0.0
 10
2014.563240755638
 20
1862.807021934543
 30
0.0
 10
2014.558158972212
 20
1862.807021934543
 30
0.0
 10
2014.551729025959
 20
1862.807021934543
 30
0.0
 10
2014.544150024013
 20
1862.807021934543
 30
0.0
 10
2014.541697697068
 20
1862.807021934543
 30
0.0
 10
2014.533661341553
 20
1862.807021934543
 30
0.0
 10
2014.514061563688
 20
1862.807021934543
 30
0.0
 10
2014.480759147723
 20
1862.807021934543
 30
0.0
 10
2014.438306346878
 20
1862.807021934543
 30
0.0
 10
2014.4004387432
 20
1862.807021934543
 30
0.0
 10
2014.376586915028
 20
1862.807021934543
 30
0.0
 10
2014.364469735878
 20
1862.807021934543
 30
0.0
 10
2014.359214615778
 20
1862.807021934543
 30
0.0
 10
2014.328606654389
 20
1862.807021934543
 30
0.0
 10
2014.250891689035
 20
1862.807021934543
 30
0.0
 10
2014.067977884689
 20
1862.807021934543
 30
0.0
 10
2013.681800049197
 20
1862.807021934543
 30
0.0
 10
2013.203138717113
 20
1862.807021934543
 30
0.0
 10
2012.744999906358
 20
1862.807021934543
 30
0.0
 10
2012.470290668685
 20
1862.807021934543
 30
0.0
 10
2012.300377336003
 20
1862.807021934543
 30
0.0
 10
2012.170646157487
 20
1862.807021934543
 30
0.0
 10
2012.116716036947
 20
1862.807021934543
 30
0.0
 10
2012.099649873644
 20
1862.807021934543
 30
0.0
 10
2012.088627532708
 20
1862.807021934543
 30
0.0
 10
2012.081303078157
 20
1862.807021934543
 30
0.0
 10
2012.073542002273
 20
1862.807021934543
 30
0.0
 10
2012.056911054892
 20
1862.807021934543
 30
0.0
 10
2012.021089430746
 20
1862.807021934543
 30
0.0
 10
2011.98108501466
 20
1862.807021934543
 30
0.0
 10
2011.907234777273
 20
1862.807021934543
 30
0.0
 10
2011.703944967988
 20
1862.807021934543
 30
0.0
 10
2011.211802916694
 20
1862.807021934543
 30
0.0
 10
2010.586990414493
 20
1862.807021934543
 30
0.0
 10
2010.060988842763
 20
1862.807021934543
 30
0.0
 10
2009.859244143635
 20
1862.807021934543
 30
0.0
 10
2009.809558832734
 20
1862.807021934543
 30
0.0
 10
2009.794422754983
 20
1862.807021934543
 30
0.0
 10
2009.784459227152
 20
1862.807021934543
 30
0.0
 10
2009.745852551374
 20
1862.807021934543
 30
0.0
 10
2009.688423751491
 20
1862.807021934543
 30
0.0
 10
2009.623459866487
 20
1862.807021934543
 30
0.0
 10
2009.577581120596
 20
1862.807021934543
 30
0.0
 10
2009.528693979526
 20
1862.807021934543
 30
0.0
 10
2009.477678556573
 20
1862.807021934543
 30
0.0
 10
2009.452247571569
 20
1862.807021934543
 30
0.0
 10
2009.443220575221
 20
1862.807021934543
 30
0.0
  0
LINE
  5
118AC
330
119E1
100
AcDbEntity
  8
springs2 - Level 26
  6
Continuous
 62
     7
370
    13
100
AcDbLine
 10
1842.867657
 20
1863.007022
 30
0.0
 11
2059.506364
 21
1863.007022
 31
0.0
  0
LINE
  5
118AD
330
119E1
100
AcDbEntity
  8
springs2 - Level 26
  6
Continuous
 62
     7
370
    13
100
AcDbLine
 10
1842.867657
 20
1878.007022
 30
0.0
 11
2059.506364
 21
1878.007022
 31
0.0
  0
LINE
  5
118AE
330
119E1
100
AcDbEntity
  8
springs2 - Level 26
  6
Continuous
 62
     7
370
    13
100
AcDbLine
 10
2059.506364
 20
1862.807022
 30
0.0
 11
2016.475459
 21
1862.807022
 31
0.0
  0
LINE
  5
118AF
330
119E1
100
AcDbEntity
  8
Level 14
  6
DGN Style 2
 62
     7
370
    13
100
AcDbLine
 10
534.502898
 20
2060.611136
 30
0.0
 11
534.502898
 21
2263.535403
 31
0.0
  0
LWPOLYLINE
  5
118B0
330
119E1
100
AcDbEntity
  8
Level 14
  6
DGN Style 2
 62
     7
370
    13
100
AcDbPolyline
 90
        3
 70
   128
 43
0.0
 10
534.502898
 20
2263.52847
 10
534.502898
 20
2275.899075
 42
-0.029924
 10
543.083937
 20
2419.150107
  0
ARC
  5
118B3
330
119E1
100
AcDbEntity
  8
Level 14
  6
DGN Style 2
 62
     7
370
    13
100
AcDbCircle
 10
-1734.502898
 20
2275.899075
 30
0.0
 40
1200.0
210
0.0
220
0.0
230
-1.0
100
AcDbArc
 50
6.85331
 51
9.136944
  0
ARC
  5
118B4
330
119E1
100
AcDbEntity
  8
Level 14
  6
DGN Style 2
 62
     7
370
    13
100
AcDbCircle
 10
-1734.502898
 20
2275.899075
 30
0.0
 40
1200.0
210
0.0
220
0.0
230
-1.0
100
AcDbArc
 50
9.136609
 51
19.140908
  0
ARC
  5
118B5
330
119E1
100
AcDbEntity
  8
Level 14
  6
DGN Style 2
 62
     7
370
    13
100
AcDbCircle
 10
-1734.502898
 20
2275.899075
 30
0.0
 40
1200.0
210
0.0
220
0.0
230
-1.0
100
AcDbArc
 50
19.140558
 51
29.801077
  0
ARC
  5
118B6
330
119E1
100
AcDbEntity
  8
Level 14
  6
DGN Style 2
 62
     7
370
    13
100
AcDbCircle
 10
-1734.502898
 20
2275.899075
 30
0.0
 40
1200.0
210
0.0
220
0.0
230
-1.0
100
AcDbArc
 50
29.800696
 51
35.676514
  0
ARC
  5
118B7
330
119E1
100
AcDbEntity
  8
Level 14
  6
DGN Style 2
 62
     7
370
    13
100
AcDbCircle
 10
-1734.502898
 20
2275.899075
 30
0.0
 40
1200.0
210
0.0
220
0.0
230
-1.0
100
AcDbArc
 50
35.675947
 51
41.765852
  0
ARC
  5
118B8
330
119E1
100
AcDbEntity
  8
Level 14
  6
DGN Style 2
 62
     7
370
    13
100
AcDbCircle
 10
-1734.502898
 20
2275.899075
 30
0.0
 40
1200.0
210
0.0
220
0.0
230
-1.0
100
AcDbArc
 50
41.765408
 51
50.817234
  0
ARC
  5
118B9
330
119E1
100
AcDbEntity
  8
Level 14
  6
DGN Style 2
 62
     7
370
    13
100
AcDbCircle
 10
-1734.502898
 20
2275.899075
 30
0.0
 40
1200.0
210
0.0
220
0.0
230
-1.0
100
AcDbArc
 50
50.816807
 51
56.635193
  0
ARC
  5
118BA
330
119E1
100
AcDbEntity
  8
Level 14
  6
DGN Style 2
 62
     7
370
    13
100
AcDbCircle
 10
-1734.502898
 20
2275.899075
 30
0.0
 40
1200.0
210
0.0
220
0.0
230
-1.0
100
AcDbArc
 50
56.634592
 51
63.174824
  0
LINE
  5
118BB
330
119E1
100
AcDbEntity
  8
springs2 - Level 26
  6
Continuous
 62
     7
370
    13
100
AcDbLine
 10
1778.428903
 20
2258.899075
 30
0.0
 11
1779.462383
 21
2258.899075
 31
0.0
  0
LINE
  5
118BC
330
119E1
100
AcDbEntity
  8
springs2 - Level 26
  6
Continuous
 62
     7
370
    13
100
AcDbLine
 10
1778.428903
 20
2258.899075
 30
0.0
 11
1775.865324
 21
2258.899075
 31
0.0
  0
LINE
  5
118BD
330
119E1
100
AcDbEntity
  8
springs2 - Level 26
  6
Continuous
 62
     7
370
    13
100
AcDbLine
 10
1753.865324
 20
2258.899075
 30
0.0
 11
1736.131138
 21
2258.899075
 31
0.0
  0
LINE
  5
118BE
330
119E1
100
AcDbEntity
  8
springs2 - Level 26
  6
Continuous
 62
     7
370
    13
100
AcDbLine
 10
1734.502898
 20
2258.899075
 30
0.0
 11
1736.131138
 21
2258.899075
 31
0.0
  0
LINE
  5
118BF
330
119E1
100
AcDbEntity
  8
springs2 - Level 26
  6
Continuous
 62
     7
370
    13
100
AcDbLine
 10
1734.502898
 20
2258.699075
 30
0.0
 11
1734.502898
 21
2243.699075
 31
0.0
  0
LINE
  5
118C0
330
119E1
100
AcDbEntity
  8
springs2 - Level 26
  6
Continuous
 62
     7
370
    13
100
AcDbLine
 10
1812.435679
 20
2258.899075
 30
0.0
 11
1842.566585
 21
2258.899075
 31
0.0
  0
LINE
  5
118C1
330
119E1
100
AcDbEntity
  8
springs2 - Level 26
  6
Continuous
 62
     7
370
    13
100
AcDbLine
 10
1832.540636
 20
2258.899075
 30
0.0
 11
1757.343596
 21
2258.899075
 31
0.0
  0
LINE
  5
118C2
330
119E1
100
AcDbEntity
  8
springs2 - Level 26
  6
Continuous
 62
     7
370
    13
100
AcDbLine
 10
1788.040947
 20
2243.299075
 30
0.0
 11
1789.865328
 21
2243.299075
 31
0.0
  0
LINE
  5
118C3
330
119E1
100
AcDbEntity
  8
springs2 - Level 26
  6
Continuous
 62
     7
370
    13
100
AcDbLine
 10
1842.874589
 20
2258.899075
 30
0.0
 11
1842.566585
 21
2258.899075
 31
0.0
  0
LINE
  5
118C4
330
119E1
100
AcDbEntity
  8
springs2 - Level 26
  6
Continuous
 62
     7
370
    13
100
AcDbLine
 10
1812.435679
 20
2258.899075
 30
0.0
 11
1779.462383
 21
2258.899075
 31
0.0
  0
SPLINE
  5
118C5
330
119E1
100
AcDbEntity
  8
springs2 - Level 26
  6
Continuous
 62
     7
370
    13
100
AcDbSpline
210
0.0
220
0.0
230
1.0
 70
    24
 71
     3
 72
    43
 73
    39
 74
     0
 42
0.000000001
 43
0.0000000001
 40
0.0
 40
0.0
 40
0.0
 40
0.0
 40
0.0043525681016769
 40
0.0043525681016769
 40
0.0109873452550028
 40
0.0109873452550028
 40
0.0132706905177318
 40
0.0132706905177318
 40
0.0149065261895166
 40
0.0149065261895166
 40
0.0165951025792458
 40
0.0165951025792458
 40
0.0189892507085241
 40
0.0189892507085241
 40
0.0264263771247377
 40
0.0264263771247377
 40
0.0483630793045837
 40
0.0706238779064986
 40
0.0706238779064986
 40
0.0784393853853608
 40
0.0784393853853608
 40
0.0810333731418905
 40
0.0810333731418905
 40
0.0828128031642173
 40
0.0828128031642173
 40
0.0837982562857111
 40
0.0837982562857111
 40
0.0850248087675382
 40
0.0850248087675382
 40
0.0885540536948526
 40
0.0885540536948526
 40
0.0997640568159913
 40
0.0997640568159913
 40
0.1312913394689915
 40
0.1312913394689915
 40
0.1587035601957163
 40
0.1587035601957163
 40
0.1599135412213302
 40
0.1599135412213302
 40
0.1599135412213302
 40
0.1599135412213302
 10
1842.874589017114
 20
2258.89907470446
 30
0.0
 10
1842.250090554372
 20
2258.89907470446
 30
0.0
 10
1841.616485712859
 20
2258.89907470446
 30
0.0
 10
1839.97539326313
 20
2258.89907470446
 30
0.0
 10
1838.666516754821
 20
2258.89907470446
 30
0.0
 10
1836.822687356456
 20
2258.89907470446
 30
0.0
 10
1836.298836785421
 20
2258.89907470446
 30
0.0
 10
1835.021562826174
 20
2258.89907470446
 30
0.0
 10
1834.449593939552
 20
2258.89907470446
 30
0.0
 10
1833.295852195241
 20
2258.89907470446
 30
0.0
 10
1832.655619201188
 20
2258.89907470446
 30
0.0
 10
1831.268123978874
 20
2258.89907470446
 30
0.0
 10
1830.784113366833
 20
2258.89907470446
 30
0.0
 10
1829.069937785209
 20
2258.89907470446
 30
0.0
 10
1827.824699198481
 20
2258.89907470446
 30
0.0
 10
1825.139911838042
 20
2258.89907470446
 30
0.0
 10
1821.132975746187
 20
2258.89907470446
 30
0.0
 10
1817.315916897253
 20
2258.89907470446
 30
0.0
 10
1814.631305228298
 20
2258.89907470446
 30
0.0
 10
1813.409903518428
 20
2258.89907470446
 30
0.0
 10
1811.767364159074
 20
2258.89907470446
 30
0.0
 10
1811.254172977567
 20
2258.89907470446
 30
0.0
 10
1809.994030784895
 20
2258.89907470446
 30
0.0
 10
1809.390966651392
 20
2258.89907470446
 30
0.0
 10
1808.408635118606
 20
2258.89907470446
 30
0.0
 10
1808.008590291593
 20
2258.89907470446
 30
0.0
 10
1807.235277696215
 20
2258.89907470446
 30
0.0
 10
1806.858242268632
 20
2258.89907470446
 30
0.0
 10
1805.566702803299
 20
2258.89907470446
 30
0.0
 10
1804.747508467267
 20
2258.89907470446
 30
0.0
 10
1802.155505352855
 20
2258.89907470446
 30
0.0
 10
1800.343851068281
 20
2258.89907470446
 30
0.0
 10
1794.973060804431
 20
2258.89907470446
 30
0.0
 10
1791.536283846562
 20
2258.89907470446
 30
0.0
 10
1784.293900049093
 20
2258.89907470446
 30
0.0
 10
1780.69780066532
 20
2258.89907470446
 30
0.0
 10
1776.336667517565
 20
2258.89907470446
 30
0.0
 10
1776.115572501322
 20
2258.89907470446
 30
0.0
 10
1775.86532414422
 20
2258.89907470446
 30
0.0
  0
LINE
  5
118C8
330
119E1
100
AcDbEntity
  8
springs2 - Level 26
  6
Continuous
 62
     7
370
    13
100
AcDbLine
 10
1734.502898
 20
2243.699075
 30
0.0
 11
1842.874589
 21
2243.699075
 31
0.0
  0
LINE
  5
118C9
330
119E1
100
AcDbEntity
  8
springs2 - Level 26
  6
Continuous
 62
     7
370
    13
100
AcDbLine
 10
1734.502898
 20
2258.699075
 30
0.0
 11
1842.874589
 21
2258.699075
 31
0.0
  0
LINE
  5
118CA
330
119E1
100
AcDbEntity
  8
springs2 - Level 26
  6
Continuous
 62
     7
370
    13
100
AcDbLine
 10
1751.415328
 20
2243.699075
 30
0.0
 11
1751.415328
 21
2060.611136
 31
0.0
  0
LINE
  5
118CB
330
119E1
100
AcDbEntity
  8
springs2 - Level 26
  6
Continuous
 62
     7
370
    13
100
AcDbLine
 10
1778.315328
 20
2060.611136
 30
0.0
 11
1778.315328
 21
2243.699075
 31
0.0
  0
ARC
  5
118CC
330
119E1
100
AcDbEntity
  8
springs2 - Level 26
  6
Continuous
 62
     7
370
    13
100
AcDbCircle
 10
1764.865324
 20
2258.899075
 30
0.0
 40
11.0
100
AcDbArc
 50
0.0
 51
24.928336
  0
ARC
  5
118CD
330
119E1
100
AcDbEntity
  8
springs2 - Level 26
  6
Continuous
 62
     7
370
    13
100
AcDbCircle
 10
1764.865324
 20
2258.899075
 30
0.0
 40
11.0
100
AcDbArc
 50
155.071664
 51
181.041799
  0
ARC
  5
118CE
330
119E1
100
AcDbEntity
  8
springs2 - Level 26
  6
Continuous
 62
     7
370
    13
100
AcDbCircle
 10
1764.865324
 20
2258.899075
 30
0.0
 40
11.0
100
AcDbArc
 50
358.958201
 51
0.0
  0
LINE
  5
118D0
330
119E1
100
AcDbEntity
  8
springs2 - Level 26
  6
Continuous
 62
     7
370
    13
100
AcDbLine
 10
1734.502898
 20
2243.499075
 30
0.0
 11
1842.874589
 21
2243.499075
 31
0.0
  0
ARC
  5
118D1
330
119E1
100
AcDbEntity
  8
springs2 - Level 26
  6
Continuous
 62
     7
370
    13
100
AcDbCircle
 10
1774.324566
 20
2264.899075
 30
0.0
 40
11.0
100
AcDbArc
 50
325.692348
 51
326.944269
  0
LINE
  5
118D2
330
119E1
100
AcDbEntity
  8
springs2 - Level 26
  6
Continuous
 62
     7
370
    13
100
AcDbLine
 10
1788.040947
 20
2243.299075
 30
0.0
 11
1776.916647
 21
2243.299075
 31
0.0
  0
LINE
  5
118D3
330
119E1
100
AcDbEntity
  8
springs2 - Level 26
  6
Continuous
 62
     7
370
    13
100
AcDbLine
 10
1752.814001
 20
2243.299075
 30
0.0
 11
1776.916647
 21
2243.299075
 31
0.0
  0
LINE
  5
118D4
330
119E1
100
AcDbEntity
  8
springs2 - Level 26
  6
Continuous
 62
     7
370
    13
100
AcDbLine
 10
1752.814001
 20
2243.299075
 30
0.0
 11
1741.689707
 21
2243.299075
 31
0.0
  0
LINE
  5
118D5
330
119E1
100
AcDbEntity
  8
springs2 - Level 26
  6
Continuous
 62
     7
370
    13
100
AcDbLine
 10
1739.865328
 20
2243.299075
 30
0.0
 11
1741.689707
 21
2243.299075
 31
0.0
  0
SPLINE
  5
118D6
330
119E1
100
AcDbEntity
  8
springs2 - Level 26
  6
Continuous
 62
     7
370
    13
100
AcDbSpline
210
0.0
220
0.0
230
1.0
 70
    24
 71
     3
 72
    43
 73
    39
 74
     0
 42
0.000000001
 43
0.0000000001
 40
0.0
 40
0.0
 40
0.0
 40
0.0
 40
0.0043525681016769
 40
0.0043525681016769
 40
0.0109873452550028
 40
0.0109873452550028
 40
0.0132706905177318
 40
0.0132706905177318
 40
0.0149065261895166
 40
0.0149065261895166
 40
0.0165951025792458
 40
0.0165951025792458
 40
0.0189892507085241
 40
0.0189892507085241
 40
0.0264263771247377
 40
0.0264263771247377
 40
0.0483630793045837
 40
0.0706238779064986
 40
0.0706238779064986
 40
0.0784393853853608
 40
0.0784393853853608
 40
0.0810333731418905
 40
0.0810333731418905
 40
0.0828128031642173
 40
0.0828128031642173
 40
0.0837982562857111
 40
0.0837982562857111
 40
0.0850248087675382
 40
0.0850248087675382
 40
0.0885540536948526
 40
0.0885540536948526
 40
0.0997640568159913
 40
0.0997640568159913
 40
0.1312913394689915
 40
0.1312913394689915
 40
0.1587035601957163
 40
0.1587035601957163
 40
0.1623212154653517
 40
0.1623212154653517
 40
0.1623212154653517
 40
0.1623212154653517
 10
1842.874589017114
 20
2264.899074704461
 30
0.0
 10
1842.250090554372
 20
2264.899074704461
 30
0.0
 10
1841.616485712859
 20
2264.899074704461
 30
0.0
 10
1839.97539326313
 20
2264.899074704461
 30
0.0
 10
1838.666516754821
 20
2264.899074704461
 30
0.0
 10
1836.822687356456
 20
2264.899074704461
 30
0.0
 10
1836.298836785421
 20
2264.899074704461
 30
0.0
 10
1835.021562826174
 20
2264.899074704461
 30
0.0
 10
1834.449593939552
 20
2264.899074704461
 30
0.0
 10
1833.295852195241
 20
2264.899074704461
 30
0.0
 10
1832.655619201188
 20
2264.899074704461
 30
0.0
 10
1831.268123978874
 20
2264.899074704461
 30
0.0
 10
1830.784113366833
 20
2264.899074704461
 30
0.0
 10
1829.069937785209
 20
2264.899074704461
 30
0.0
 10
1827.824699198481
 20
2264.899074704461
 30
0.0
 10
1825.139911838042
 20
2264.899074704461
 30
0.0
 10
1821.132975746187
 20
2264.899074704461
 30
0.0
 10
1817.315916897253
 20
2264.899074704461
 30
0.0
 10
1814.631305228298
 20
2264.899074704461
 30
0.0
 10
1813.409903518428
 20
2264.899074704461
 30
0.0
 10
1811.767364159074
 20
2264.899074704461
 30
0.0
 10
1811.254172977567
 20
2264.899074704461
 30
0.0
 10
1809.994030784895
 20
2264.899074704461
 30
0.0
 10
1809.390966651392
 20
2264.899074704461
 30
0.0
 10
1808.408635118606
 20
2264.899074704461
 30
0.0
 10
1808.008590291593
 20
2264.899074704461
 30
0.0
 10
1807.235277696215
 20
2264.899074704461
 30
0.0
 10
1806.858242268632
 20
2264.899074704461
 30
0.0
 10
1805.566702803299
 20
2264.899074704461
 30
0.0
 10
1804.747508467267
 20
2264.899074704461
 30
0.0
 10
1802.155505352855
 20
2264.899074704461
 30
0.0
 10
1800.343851068281
 20
2264.899074704461
 30
0.0
 10
1794.973060804431
 20
2264.899074704461
 30
0.0
 10
1791.536283846562
 20
2264.899074704461
 30
0.0
 10
1784.293900049093
 20
2264.899074704461
 30
0.0
 10
1780.69780066532
 20
2264.899074704461
 30
0.0
 10
1775.969812862376
 20
2264.899074704461
 30
0.0
 10
1775.090245147035
 20
2264.899074704461
 30
0.0
 10
1774.084868574135
 20
2264.899074704461
 30
0.0
  0
ARC
  5
118D9
330
119E1
100
AcDbEntity
  8
springs2 - Level 26
  6
Continuous
 62
     7
370
    13
100
AcDbCircle
 10
1764.865324
 20
2258.899075
 30
0.0
 40
11.0
100
AcDbArc
 50
24.888525
 51
155.111475
  0
ARC
  5
118DA
330
119E1
100
AcDbEntity
  8
springs2 - Level 26
  6
Continuous
 62
     7
370
    13
100
AcDbCircle
 10
1774.324566
 20
2264.899075
 30
0.0
 40
11.0
100
AcDbArc
 50
0.0
 51
152.995296
  0
SPLINE
  5
118DB
330
119E1
100
AcDbEntity
  8
springs2 - Level 26
  6
Continuous
 62
     7
370
    13
100
AcDbSpline
210
0.0
220
0.0
230
1.0
 70
    24
 71
     3
 72
    24
 73
    20
 74
     0
 42
0.000000001
 43
0.0000000001
 40
0.0
 40
0.0
 40
0.0
 40
0.0
 40
0.0156249999995799
 40
0.0234374999993698
 40
0.0273437499982574
 40
0.0292968749986387
 40
0.0312499999990198
 40
0.0624999999978577
 40
0.1249999999996209
 40
0.2499999999991194
 40
0.3749999999986178
 40
0.4999999999981162
 40
0.7499999999971129
 40
0.8749999999948302
 40
0.9062499999961225
 40
0.937499999997415
 40
0.9687499999987075
 40
0.9843749999993537
 40
1.0
 40
1.0
 40
1.0
 40
1.0
 10
2009.443220575221
 20
2258.899074662391
 30
0.0
 10
2009.437368536156
 20
2258.899074662391
 30
0.0
 10
2009.424819127254
 20
2258.899074662391
 30
0.0
 10
2009.40349236964
 20
2258.899074662391
 30
0.0
 10
2009.391150435627
 20
2258.899074662391
 30
0.0
 10
2009.382634622884
 20
2258.899074662391
 30
0.0
 10
2009.367077756573
 20
2258.899074662391
 30
0.0
 10
2009.325472329611
 20
2258.899074662391
 30
0.0
 10
2009.23034992371
 20
2258.899074662391
 30
0.0
 10
2009.092512871251
 20
2258.899074662391
 30
0.0
 10
2008.919199398514
 20
2258.899074662391
 30
0.0
 10
2008.692207081361
 20
2258.899074662391
 30
0.0
 10
2008.459531384369
 20
2258.899074662391
 30
0.0
 10
2008.284128795828
 20
2258.899074662391
 30
0.0
 10
2008.20349987096
 20
2258.899074662391
 30
0.0
 10
2008.164391945681
 20
2258.899074662391
 30
0.0
 10
2008.119316797956
 20
2258.899074662391
 30
0.0
 10
2008.077533700219
 20
2258.899074662391
 30
0.0
 10
2008.052545726278
 20
2258.899074662391
 30
0.0
 10
2008.041064690199
 20
2258.899074662391
 30
0.0
  0
SPLINE
  5
118DE
330
119E1
100
AcDbEntity
  8
springs2 - Level 26
  6
Continuous
 62
     7
370
    13
100
AcDbSpline
210
0.0
220
0.0
230
1.0
 70
    24
 71
     3
 72
    22
 73
    18
 74
     0
 42
0.000000001
 43
0.0000000001
 40
0.0
 40
0.0
 40
0.0
 40
0.0
 40
0.0625000000109401
 40
0.1250000000218802
 40
0.1562500000258085
 40
0.1562500000258085
 40
0.1718750000277727
 40
0.1875000000297369
 40
0.250000000029488
 40
0.5000000000196853
 40
0.7500000000098826
 40
0.8750000000035967
 40
0.8750000000035967
 40
0.9062500000026975
 40
0.9375000000017983
 40
0.9687500000008991
 40
1.0
 40
1.0
 40
1.0
 40
1.0
 10
2008.041064690199
 20
2258.899074662391
 30
0.0
 10
2008.022689469784
 20
2258.899074662391
 30
0.0
 10
2007.928170932361
 20
2258.899074662391
 30
0.0
 10
2007.84366601431
 20
2258.899074662391
 30
0.0
 10
2007.804035425673
 20
2258.899074662391
 30
0.0
 10
2007.785977214782
 20
2258.899074662391
 30
0.0
 10
2007.769641928295
 20
2258.899074662391
 30
0.0
 10
2007.723494952526
 20
2258.899074662391
 30
0.0
 10
2007.562495539901
 20
2258.899074662391
 30
0.0
 10
2007.297279925313
 20
2258.899074662391
 30
0.0
 10
2007.023320860894
 20
2258.899074662391
 30
0.0
 10
2006.873960288737
 20
2258.899074662391
 30
0.0
 10
2006.81245658538
 20
2258.899074662391
 30
0.0
 10
2006.790965514127
 20
2258.899074662391
 30
0.0
 10
2006.75143507931
 20
2258.899074662391
 30
0.0
 10
2006.695872444813
 20
2258.899074662391
 30
0.0
 10
2006.665051631308
 20
2258.899074662391
 30
0.0
 10
2006.647948560182
 20
2258.899074662391
 30
0.0
  0
SPLINE
  5
118E1
330
119E1
100
AcDbEntity
  8
springs2 - Level 26
  6
Continuous
 62
     7
370
    13
100
AcDbSpline
210
0.0
220
0.0
230
1.0
 70
    24
 71
     3
 72
    28
 73
    24
 74
     0
 42
0.000000001
 43
0.0000000001
 40
0.0
 40
0.0
 40
0.0
 40
0.0
 40
0.0156250000005728
 40
0.0312500000011457
 40
0.0468750000017184
 40
0.0625000000022913
 40
0.1250000000030385
 40
0.1875000000037856
 40
0.218750000004106
 40
0.2343750000042664
 40
0.2500000000044267
 40
0.5000000000033733
 40
0.75000000000232
 40
0.8750000000017932
 40
0.9062500000014564
 40
0.9140625000011917
 40
0.9218750000009272
 40
0.9375000000009844
 40
0.9687500000005726
 40
0.9843750000006471
 40
0.9921875000006272
 40
0.9960937500003137
 40
1.0
 40
1.0
 40
1.0
 40
1.0
 10
2006.647948560182
 20
2258.899074662391
 30
0.0
 10
2006.631825517409
 20
2258.899074662391
 30
0.0
 10
2006.597556140879
 20
2258.899074662391
 30
0.0
 10
2006.547022627723
 20
2258.899074662391
 30
0.0
 10
2006.498350546334
 20
2258.899074662391
 30
0.0
 10
2006.391965107062
 20
2258.899074662391
 30
0.0
 10
2006.236111630945
 20
2258.899074662391
 30
0.0
 10
2006.069092399024
 20
2258.899074662391
 30
0.0
 10
2005.958272772058
 20
2258.899074662391
 30
0.0
 10
2005.891761749991
 20
2258.899074662391
 30
0.0
 10
2005.59905972068
 20
2258.899074662391
 30
0.0
 10
2005.085710334469
 20
2258.899074662391
 30
0.0
 10
2004.528624967341
 20
2258.899074662391
 30
0.0
 10
2004.209560600751
 20
2258.899074662391
 30
0.0
 10
2004.088351045634
 20
2258.899074662391
 30
0.0
 10
2004.054196848685
 20
2258.899074662391
 30
0.0
 10
2004.031992615047
 20
2258.899074662391
 30
0.0
 10
2003.994561599497
 20
2258.899074662391
 30
0.0
 10
2003.94439685802
 20
2258.899074662391
 30
0.0
 10
2003.900816043877
 20
2258.899074662391
 30
0.0
 10
2003.879581110686
 20
2258.899074662391
 30
0.0
 10
2003.86881141625
 20
2258.899074662391
 30
0.0
 10
2003.862722271242
 20
2258.899074662391
 30
0.0
 10
2003.861191129927
 20
2258.899074662391
 30
0.0
  0
SPLINE
  5
118E4
330
119E1
100
AcDbEntity
  8
springs2 - Level 26
  6
Continuous
 62
     7
370
    13
100
AcDbSpline
210
0.0
220
0.0
230
1.0
 70
    24
 71
     3
 72
    14
 73
    10
 74
     0
 42
0.000000001
 43
0.0000000001
 40
0.0
 40
0.0
 40
0.0
 40
0.0
 40
0.0039062500000522
 40
0.0078125000001045
 40
0.0156250000001845
 40
0.0312500000002513
 40
0.0625000000002671
 40
0.1250000000002058
 40
0.1875000000001912
 40
0.1875000000001912
 40
0.1875000000001912
 40
0.1875000000001912
 10
2003.861191129927
 20
2258.899074662391
 30
0.0
 10
2003.847973882855
 20
2258.899074662391
 30
0.0
 10
2003.819533446755
 20
2258.899074662391
 30
0.0
 10
2003.76363247934
 20
2258.899074662391
 30
0.0
 10
2003.665803610165
 20
2258.899074662391
 30
0.0
 10
2003.470185245039
 20
2258.899074662391
 30
0.0
 10
2003.077425550761
 20
2258.899074662391
 30
0.0
 10
2002.519575177778
 20
2258.899074662391
 30
0.0
 10
2002.074290169717
 20
2258.899074662391
 30
0.0
 10
2001.851791595252
 20
2258.899074662391
 30
0.0
  0
LINE
  5
118E7
330
119E1
100
AcDbEntity
  8
springs2 - Level 26
  6
Continuous
 62
     7
370
    13
100
AcDbLine
 10
1896.733806
 20
2258.899075
 30
0.0
 11
2034.692626
 21
2258.899075
 31
0.0
  0
ARC
  5
118E8
330
119E1
100
AcDbEntity
  8
springs2 - Level 26
  6
Continuous
 62
     7
370
    13
100
AcDbCircle
 10
1937.756795
 20
2258.899075
 30
0.0
 40
11.0
100
AcDbArc
 50
0.0
 51
24.928336
  0
ARC
  5
118E9
330
119E1
100
AcDbEntity
  8
springs2 - Level 26
  6
Continuous
 62
     7
370
    13
100
AcDbCircle
 10
1937.756795
 20
2258.899075
 30
0.0
 40
11.0
100
AcDbArc
 50
155.071664
 51
181.041799
  0
ARC
  5
118EA
330
119E1
100
AcDbEntity
  8
springs2 - Level 26
  6
Continuous
 62
     7
370
    13
100
AcDbCircle
 10
1937.756795
 20
2258.899075
 30
0.0
 40
11.0
100
AcDbArc
 50
358.958201
 51
0.0
  0
LINE
  5
118EB
330
119E1
100
AcDbEntity
  8
springs2 - Level 26
  6
Continuous
 62
     7
370
    13
100
AcDbLine
 10
2059.506364
 20
2258.899075
 30
0.0
 11
2016.475459
 21
2258.899075
 31
0.0
  0
ARC
  5
118EC
330
119E1
100
AcDbEntity
  8
springs2 - Level 26
  6
Continuous
 62
     7
370
    13
100
AcDbCircle
 10
1915.841151
 20
2264.899075
 30
0.0
 40
11.0
100
AcDbArc
 50
213.055731
 51
214.307652
  0
ARC
  5
118ED
330
119E1
100
AcDbEntity
  8
springs2 - Level 26
  6
Continuous
 62
     7
370
    13
100
AcDbCircle
 10
1915.841151
 20
2264.899075
 30
0.0
 40
11.0
100
AcDbArc
 50
325.692348
 51
326.944269
  0
SPLINE
  5
118EE
330
119E1
100
AcDbEntity
  8
springs2 - Level 26
  6
Continuous
 62
     7
370
    13
100
AcDbSpline
210
0.0
220
0.0
230
1.0
 70
    24
 71
     3
 72
    80
 73
    76
 74
     0
 42
0.000000001
 43
0.0000000001
 40
0.0
 40
0.0
 40
0.0
 40
0.0
 40
0.0624999999954822
 40
0.0937499999932327
 40
0.124999999990983
 40
0.1289062499907093
 40
0.1293945312406723
 40
0.1296386718656608
 40
0.129760742178155
 40
0.1298217773344046
 40
0.129882812490654
 40
0.1301269531156235
 40
0.1303710937405929
 40
0.1308593749905318
 40
0.1318359374904096
 40
0.1320800781153868
 40
0.1323242187403641
 40
0.1328124999903186
 40
0.1406249999894886
 40
0.1562499999878236
 40
0.1718749999861586
 40
0.1874999999844937
 40
0.1914062499840811
 40
0.1953124999836685
 40
0.1992187499832558
 40
0.200195312483145
 40
0.2006835937330895
 40
0.2011718749830341
 40
0.2014160156080043
 40
0.2014770507642294
 40
0.2015380859204545
 40
0.2016601562329047
 40
0.2017211913891409
 40
0.2017822265453772
 40
0.2019042968578431
 40
0.202148437482775
 40
0.2026367187326384
 40
0.203124999982502
 40
0.2036132812323656
 40
0.203857421857299
 40
0.203857421857299
 40
0.203979492169764
 40
0.2041015624822292
 40
0.2050781249819026
 40
0.207031249981245
 40
0.2109374999799297
 40
0.218749999977303
 40
0.2226562499759744
 40
0.2246093749753102
 40
0.2265624999746458
 40
0.2275390624743005
 40
0.2277832030992205
 40
0.2279052734116806
 40
0.2279663085679106
 40
0.2280273437241406
 40
0.2282714843492201
 40
0.2283935546617401
 40
0.2285156249742601
 40
0.2290039062243633
 40
0.2294921874744666
 40
0.2304687499746728
 40
0.2343749999754713
 40
0.242187499977031
 40
0.24609374997781
 40
0.2470703124780051
 40
0.2473144531030862
 40
0.2473754882593562
 40
0.247436523415626
 40
0.247558593728138
 40
0.2480468749782472
 40
0.2485351562283564
 40
0.2490234374784657
 40
0.2495117187285748
 40
0.2497558593536481
 40
0.2499999999787211
 40
0.2499999999787211
 40
0.2499999999787211
 40
0.2499999999787211
 10
2025.060130836703
 20
2258.899074662391
 30
0.0
 10
2024.1286910788
 20
2258.899074662391
 30
0.0
 10
2022.732413758163
 20
2258.899074662391
 30
0.0
 10
2020.865514345336
 20
2258.899074662391
 30
0.0
 10
2019.870982210958
 20
2258.899074662391
 30
0.0
 10
2019.336642264903
 20
2258.899074662391
 30
0.0
 10
2019.267149781916
 20
2258.899074662391
 30
0.0
 10
2019.254389040438
 20
2258.899074662391
 30
0.0
 10
2019.247294940784
 20
2258.899074662391
 30
0.0
 10
2019.24567170505
 20
2258.899074662391
 30
0.0
 10
2019.241330089312
 20
2258.899074662391
 30
0.0
 10
2019.232955244042
 20
2258.899074662391
 30
0.0
 10
2019.218412313321
 20
2258.899074662391
 30
0.0
 10
2019.192714169723
 20
2258.899074662391
 30
0.0
 10
2019.165153187037
 20
2258.899074662391
 30
0.0
 10
2019.140400736837
 20
2258.899074662391
 30
0.0
 10
2019.123553791171
 20
2258.899074662391
 30
0.0
 10
2018.989357839373
 20
2258.899074662391
 30
0.0
 10
2018.588086351654
 20
2258.899074662391
 30
0.0
 10
2017.826515892778
 20
2258.899074662391
 30
0.0
 10
2016.78160054123
 20
2258.899074662391
 30
0.0
 10
2015.925121352813
 20
2258.899074662391
 30
0.0
 10
2015.335767047759
 20
2258.899074662391
 30
0.0
 10
2015.038513627267
 20
2258.899074662391
 30
0.0
 10
2014.811870011017
 20
2258.899074662391
 30
0.0
 10
2014.67291489504
 20
2258.899074662391
 30
0.0
 10
2014.621205775936
 20
2258.899074662391
 30
0.0
 10
2014.59204430751
 20
2258.899074662391
 30
0.0
 10
2014.572049230042
 20
2258.899074662391
 30
0.0
 10
2014.563240755638
 20
2258.899074662391
 30
0.0
 10
2014.558158972212
 20
2258.899074662391
 30
0.0
 10
2014.551729025959
 20
2258.899074662391
 30
0.0
 10
2014.544150024013
 20
2258.899074662391
 30
0.0
 10
2014.541697697068
 20
2258.899074662391
 30
0.0
 10
2014.533661341553
 20
2258.899074662391
 30
0.0
 10
2014.514061563688
 20
2258.899074662391
 30
0.0
 10
2014.480759147723
 20
2258.899074662391
 30
0.0
 10
2014.438306346878
 20
2258.899074662391
 30
0.0
 10
2014.4004387432
 20
2258.899074662391
 30
0.0
 10
2014.376586915028
 20
2258.899074662391
 30
0.0
 10
2014.364469735878
 20
2258.899074662391
 30
0.0
 10
2014.359214615778
 20
2258.899074662391
 30
0.0
 10
2014.328606654389
 20
2258.899074662391
 30
0.0
 10
2014.250891689035
 20
2258.899074662391
 30
0.0
 10
2014.067977884689
 20
2258.899074662391
 30
0.0
 10
2013.681800049197
 20
2258.899074662391
 30
0.0
 10
2013.203138717113
 20
2258.899074662391
 30
0.0
 10
2012.744999906358
 20
2258.899074662391
 30
0.0
 10
2012.470290668685
 20
2258.899074662391
 30
0.0
 10
2012.300377336003
 20
2258.899074662391
 30
0.0
 10
2012.170646157487
 20
2258.899074662391
 30
0.0
 10
2012.116716036947
 20
2258.899074662391
 30
0.0
 10
2012.099649873644
 20
2258.899074662391
 30
0.0
 10
2012.088627532708
 20
2258.899074662391
 30
0.0
 10
2012.081303078157
 20
2258.899074662391
 30
0.0
 10
2012.073542002273
 20
2258.899074662391
 30
0.0
 10
2012.056911054892
 20
2258.899074662391
 30
0.0
 10
2012.021089430746
 20
2258.899074662391
 30
0.0
 10
2011.98108501466
 20
2258.899074662391
 30
0.0
 10
2011.907234777273
 20
2258.899074662391
 30
0.0
 10
2011.703944967988
 20
2258.899074662391
 30
0.0
 10
2011.211802916694
 20
2258.899074662391
 30
0.0
 10
2010.586990414493
 20
2258.899074662391
 30
0.0
 10
2010.060988842763
 20
2258.899074662391
 30
0.0
 10
2009.859244143635
 20
2258.899074662391
 30
0.0
 10
2009.809558832734
 20
2258.899074662391
 30
0.0
 10
2009.794422754983
 20
2258.899074662391
 30
0.0
 10
2009.784459227152
 20
2258.899074662391
 30
0.0
 10
2009.745852551374
 20
2258.899074662391
 30
0.0
 10
2009.688423751491
 20
2258.899074662391
 30
0.0
 10
2009.623459866487
 20
2258.899074662391
 30
0.0
 10
2009.577581120596
 20
2258.899074662391
 30
0.0
 10
2009.528693979526
 20
2258.899074662391
 30
0.0
 10
2009.477678556573
 20
2258.899074662391
 30
0.0
 10
2009.452247571569
 20
2258.899074662391
 30
0.0
 10
2009.443220575221
 20
2258.899074662391
 30
0.0
  0
LINE
  5
118F1
330
119E1
100
AcDbEntity
  8
springs2 - Level 26
  6
Continuous
 62
     7
370
    13
100
AcDbLine
 10
1905.256795
 20
2241.271032
 30
0.0
 11
1905.256795
 21
2060.611136
 31
0.0
  0
LINE
  5
118F2
330
119E1
100
AcDbEntity
  8
springs2 - Level 26
  6
Continuous
 62
     7
370
    13
100
AcDbLine
 10
2059.506364
 20
2241.271032
 30
0.0
 11
1905.256795
 21
2241.271032
 31
0.0
  0
SPLINE
  5
118F3
330
119E1
100
AcDbEntity
  8
springs2 - Level 26
  6
Continuous
 62
     7
370
    13
100
AcDbSpline
210
0.0
220
0.0
230
1.0
 70
    24
 71
     3
 72
    60
 73
    56
 74
     0
 42
0.000000001
 43
0.0000000001
 40
0.0
 40
0.0
 40
0.0
 40
0.0
 40
0.0029144735360527
 40
0.0029144735360527
 40
0.0096569610318635
 40
0.0096569610318635
 40
0.0112792332527923
 40
0.0112792332527923
 40
0.0141070955375418
 40
0.0141070955375418
 40
0.0175116806964775
 40
0.0175116806964775
 40
0.0263276085918062
 40
0.0263276085918062
 40
0.0493928833559332
 40
0.0720932625546796
 40
0.0720932625546796
 40
0.0804440571239548
 40
0.0804440571239548
 40
0.0835543039151166
 40
0.0835543039151166
 40
0.0860896556009211
 40
0.0860896556009211
 40
0.0873346101576739
 40
0.0873346101576739
 40
0.0888307355868957
 40
0.0888307355868957
 40
0.0929803352055982
 40
0.0929803352055982
 40
0.1047305242756406
 40
0.1168890429260224
 40
0.1168890429260224
 40
0.1215591326683881
 40
0.1215591326683881
 40
0.1241642832740755
 40
0.1241642832740755
 40
0.1249191274900057
 40
0.1255468672600293
 40
0.1255468672600293
 40
0.127700923184807
 40
0.127700923184807
 40
0.131374229247557
 40
0.131374229247557
 40
0.1499528762038683
 40
0.1499528762038683
 40
0.1551723179432504
 40
0.1551723179432504
 40
0.1565011177868017
 40
0.1578052483706939
 40
0.1578052483706939
 40
0.1593104646001681
 40
0.1593104646001681
 40
0.1631080410709491
 40
0.1631080410709491
 40
0.1679791478188807
 40
0.1679791478188807
 40
0.1679791478188807
 40
0.1679791478188807
 10
2059.50636439343
 20
2258.89907470446
 30
0.0
 10
2058.52609598432
 20
2258.89907470446
 30
0.0
 10
2057.544730589657
 20
2258.89907470446
 30
0.0
 10
2054.287588625792
 20
2258.89907470446
 30
0.0
 10
2051.712051024518
 20
2258.89907470446
 30
0.0
 10
2048.644646609907
 20
2258.89907470446
 30
0.0
 10
2048.016311229023
 20
2258.89907470446
 30
0.0
 10
2046.377731801498
 20
2258.89907470446
 30
0.0
 10
2045.461358393704
 20
2258.89907470446
 30
0.0
 10
2043.541143016527
 20
2258.89907470446
 30
0.0
 10
2042.667866976897
 20
2258.89907470446
 30
0.0
 10
2039.966651259835
 20
2258.89907470446
 30
0.0
 10
2038.098199444498
 20
2258.89907470446
 30
0.0
 10
2033.93817740476
 20
2258.89907470446
 30
0.0
 10
2028.001241046729
 20
2258.89907470446
 30
0.0
 10
2022.165543537862
 20
2258.89907470446
 30
0.0
 10
2018.150847027874
 20
2258.89907470446
 30
0.0
 10
2016.391134731431
 20
2258.89907470446
 30
0.0
 10
2013.846464109235
 20
2258.89907470446
 30
0.0
 10
2013.052592499294
 20
2258.89907470446
 30
0.0
 10
2011.215147256522
 20
2258.89907470446
 30
0.0
 10
2010.329295299145
 20
2258.89907470446
 30
0.0
 10
2008.968871345899
 20
2258.89907470446
 30
0.0
 10
2008.472436515972
 20
2258.89907470446
 30
0.0
 10
2007.4939553913
 20
2258.89907470446
 30
0.0
 10
2007.037343944383
 20
2258.89907470446
 30
0.0
 10
2005.527618933669
 20
2258.89907470446
 30
0.0
 10
2004.520566762133
 20
2258.89907470446
 30
0.0
 10
2001.916877479701
 20
2258.89907470446
 30
0.0
 10
1998.088552456064
 20
2258.89907470446
 30
0.0
 10
1994.147370891088
 20
2258.89907470446
 30
0.0
 10
1991.354410741107
 20
2258.89907470446
 30
0.0
 10
1990.245203782146
 20
2258.89907470446
 30
0.0
 10
1988.273798176107
 20
2258.89907470446
 30
0.0
 10
1987.480172377902
 20
2258.89907470446
 30
0.0
 10
1986.26304896275
 20
2258.89907470446
 30
0.0
 10
1985.757709915745
 20
2258.89907470446
 30
0.0
 10
1985.231898559895
 20
2258.89907470446
 30
0.0
 10
1984.193494776719
 20
2258.89907470446
 30
0.0
 10
1983.41555694687
 20
2258.89907470446
 30
0.0
 10
1981.377855850664
 20
2258.89907470446
 30
0.0
 10
1980.181155074468
 20
2258.89907470446
 30
0.0
 10
1973.894020794759
 20
2258.89907470446
 30
0.0
 10
1968.668338742121
 20
2258.89907470446
 30
0.0
 10
1961.928291315027
 20
2258.89907470446
 30
0.0
 10
1960.1082146656
 20
2258.89907470446
 30
0.0
 10
1957.722100649147
 20
2258.89907470446
 30
0.0
 10
1956.701313741588
 20
2258.89907470446
 30
0.0
 10
1955.763765033607
 20
2258.89907470446
 30
0.0
 10
1954.783332222472
 20
2258.89907470446
 30
0.0
 10
1954.343946529836
 20
2258.89907470446
 30
0.0
 10
1952.905229924828
 20
2258.89907470446
 30
0.0
 10
1951.946702212656
 20
2258.89907470446
 30
0.0
 10
1950.418815286803
 20
2258.89907470446
 30
0.0
 10
1949.58110185842
 20
2258.89907470446
 30
0.0
 10
1948.756795243567
 20
2258.89907470446
 30
0.0
  0
SPLINE
  5
118F6
330
119E1
100
AcDbEntity
  8
springs2 - Level 26
  6
Continuous
 62
     7
370
    13
100
AcDbSpline
210
0.0
220
0.0
230
1.0
 70
    24
 71
     3
 72
    37
 73
    33
 74
     0
 42
0.000000001
 43
0.0000000001
 40
0.0
 40
0.0
 40
0.0
 40
0.0
 40
0.0110752546406693
 40
0.0110752546406693
 40
0.0160603536064071
 40
0.0160603536064071
 40
0.0186342615078722
 40
0.0186342615078722
 40
0.0193472392945624
 40
0.0193472392945624
 40
0.0215117418548446
 40
0.0215117418548446
 40
0.0241546099068689
 40
0.0241546099068689
 40
0.0311272866358502
 40
0.0311272866358502
 40
0.0497548727593377
 40
0.0685660638616538
 40
0.0685660638616538
 40
0.0757801632316181
 40
0.0757801632316181
 40
0.0808591190780655
 40
0.0808591190780655
 40
0.0831105647695097
 40
0.0831105647695097
 40
0.0858194764977155
 40
0.0858194764977155
 40
0.0929431142431065
 40
0.0929431142431065
 40
0.1119034389011669
 40
0.1119034389011669
 40
0.1262318298174797
 40
0.1262318298174797
 40
0.1262318298174797
 40
0.1262318298174797
 10
1926.756795243568
 20
2258.89907470446
 30
0.0
 10
1925.522590172633
 20
2258.89907470446
 30
0.0
 10
1924.279545787485
 20
2258.89907470446
 30
0.0
 10
1922.472467882278
 20
2258.89907470446
 30
0.0
 10
1921.535951662638
 20
2258.89907470446
 30
0.0
 10
1919.876106593181
 20
2258.89907470446
 30
0.0
 10
1919.184528706668
 20
2258.89907470446
 30
0.0
 10
1918.022065967474
 20
2258.89907470446
 30
0.0
 10
1917.764351713693
 20
2258.89907470446
 30
0.0
 10
1916.699778598296
 20
2258.89907470446
 30
0.0
 10
1915.86964273572
 20
2258.89907470446
 30
0.0
 10
1914.105237605613
 20
2258.89907470446
 30
0.0
 10
1913.224588241483
 20
2258.89907470446
 30
0.0
 10
1910.183432454683
 20
2258.89907470446
 30
0.0
 10
1908.077598236526
 20
2258.89907470446
 30
0.0
 10
1901.824406457067
 20
2258.89907470446
 30
0.0
 10
1892.754433578337
 20
2258.89907470446
 30
0.0
 10
1883.593406464642
 20
2258.89907470446
 30
0.0
 10
1877.213459033695
 20
2258.89907470446
 30
0.0
 10
1875.291072572154
 20
2258.89907470446
 30
0.0
 10
1870.913666186941
 20
2258.89907470446
 30
0.0
 10
1869.081777072764
 20
2258.89907470446
 30
0.0
 10
1866.462141540313
 20
2258.89907470446
 30
0.0
 10
1865.657917623841
 20
2258.89907470446
 30
0.0
 10
1863.893859810526
 20
2258.89907470446
 30
0.0
 10
1863.168958193602
 20
2258.89907470446
 30
0.0
 10
1860.663482039603
 20
2258.89907470446
 30
0.0
 10
1858.989455075585
 20
2258.89907470446
 30
0.0
 10
1854.725069971312
 20
2258.89907470446
 30
0.0
 10
1851.810636994702
 20
2258.89907470446
 30
0.0
 10
1846.88074225578
 20
2258.89907470446
 30
0.0
 10
1844.923690130586
 20
2258.89907470446
 30
0.0
 10
1842.867656800302
 20
2258.89907470446
 30
0.0
  0
LINE
  5
118F9
330
119E1
100
AcDbEntity
  8
springs2 - Level 26
  6
Continuous
 62
     7
370
    13
100
AcDbLine
 10
1842.867657
 20
2243.699075
 30
0.0
 11
2059.506364
 21
2243.699075
 31
0.0
  0
LINE
  5
118FA
330
119E1
100
AcDbEntity
  8
springs2 - Level 26
  6
Continuous
 62
     7
370
    13
100
AcDbLine
 10
1842.867657
 20
2258.699075
 30
0.0
 11
2059.506364
 21
2258.699075
 31
0.0
  0
LINE
  5
118FB
330
119E1
100
AcDbEntity
  8
springs2 - Level 26
  6
Continuous
 62
     7
370
    13
100
AcDbLine
 10
2059.506364
 20
2258.899075
 30
0.0
 11
2006.745722
 21
2258.899075
 31
0.0
  0
LINE
  5
118FC
330
119E1
100
AcDbEntity
  8
springs2 - Level 26
  6
Continuous
 62
     7
370
    13
100
AcDbLine
 10
2006.745722
 20
2258.899075
 30
0.0
 11
1842.867657
 21
2258.899075
 31
0.0
  0
LINE
  5
118FD
330
119E1
100
AcDbEntity
  8
springs2 - Level 26
  6
Continuous
 62
     7
370
    13
100
AcDbLine
 10
1842.867657
 20
2243.499075
 30
0.0
 11
2059.506364
 21
2243.499075
 31
0.0
  0
ARC
  5
118FE
330
119E1
100
AcDbEntity
  8
springs2 - Level 26
  6
Continuous
 62
     7
370
    13
100
AcDbCircle
 10
1937.756795
 20
2258.899075
 30
0.0
 40
11.0
100
AcDbArc
 50
24.888525
 51
155.111475
  0
ARC
  5
118FF
330
119E1
100
AcDbEntity
  8
springs2 - Level 26
  6
Continuous
 62
     7
370
    13
100
AcDbCircle
 10
1915.841151
 20
2264.899075
 30
0.0
 40
11.0
100
AcDbArc
 50
0.0
 51
180.0
  0
SPLINE
  5
11900
330
119E1
100
AcDbEntity
  8
springs2 - Level 26
  6
Continuous
 62
     7
370
    13
100
AcDbSpline
210
0.0
220
0.0
230
1.0
 70
    24
 71
     3
 72
    60
 73
    56
 74
     0
 42
0.000000001
 43
0.0000000001
 40
0.0
 40
0.0
 40
0.0
 40
0.0
 40
0.0029144735360527
 40
0.0029144735360527
 40
0.0096569610318635
 40
0.0096569610318635
 40
0.0112792332527923
 40
0.0112792332527923
 40
0.0141070955375418
 40
0.0141070955375418
 40
0.0175116806964775
 40
0.0175116806964775
 40
0.0263276085918062
 40
0.0263276085918062
 40
0.0493928833559332
 40
0.0720932625546796
 40
0.0720932625546796
 40
0.0804440571239548
 40
0.0804440571239548
 40
0.0835543039151166
 40
0.0835543039151166
 40
0.0860896556009211
 40
0.0860896556009211
 40
0.0873346101576739
 40
0.0873346101576739
 40
0.0888307355868957
 40
0.0888307355868957
 40
0.0929803352055982
 40
0.0929803352055982
 40
0.1047305242756406
 40
0.1168890429260224
 40
0.1168890429260224
 40
0.1215591326683881
 40
0.1215591326683881
 40
0.1241642832740755
 40
0.1241642832740755
 40
0.1249191274900057
 40
0.1255468672600293
 40
0.1255468672600293
 40
0.127700923184807
 40
0.127700923184807
 40
0.131374229247557
 40
0.131374229247557
 40
0.1499528762038683
 40
0.1499528762038683
 40
0.1551723179432504
 40
0.1551723179432504
 40
0.1565011177868017
 40
0.1578052483706939
 40
0.1578052483706939
 40
0.1593104646001681
 40
0.1593104646001681
 40
0.1631080410709491
 40
0.1631080410709491
 40
0.1715225416662178
 40
0.1715225416662178
 40
0.1715225416662178
 40
0.1715225416662178
 10
2059.50636439343
 20
2264.899074704461
 30
0.0
 10
2058.52609598432
 20
2264.899074704461
 30
0.0
 10
2057.544730589657
 20
2264.899074704461
 30
0.0
 10
2054.287588625792
 20
2264.899074704461
 30
0.0
 10
2051.712051024518
 20
2264.899074704461
 30
0.0
 10
2048.644646609907
 20
2264.899074704461
 30
0.0
 10
2048.016311229023
 20
2264.899074704461
 30
0.0
 10
2046.377731801498
 20
2264.899074704461
 30
0.0
 10
2045.461358393704
 20
2264.899074704461
 30
0.0
 10
2043.541143016527
 20
2264.899074704461
 30
0.0
 10
2042.667866976897
 20
2264.899074704461
 30
0.0
 10
2039.966651259835
 20
2264.899074704461
 30
0.0
 10
2038.098199444498
 20
2264.899074704461
 30
0.0
 10
2033.93817740476
 20
2264.899074704461
 30
0.0
 10
2028.001241046729
 20
2264.899074704461
 30
0.0
 10
2022.165543537862
 20
2264.899074704461
 30
0.0
 10
2018.150847027874
 20
2264.899074704461
 30
0.0
 10
2016.391134731431
 20
2264.899074704461
 30
0.0
 10
2013.846464109235
 20
2264.899074704461
 30
0.0
 10
2013.052592499294
 20
2264.899074704461
 30
0.0
 10
2011.215147256522
 20
2264.899074704461
 30
0.0
 10
2010.329295299145
 20
2264.899074704461
 30
0.0
 10
2008.968871345899
 20
2264.899074704461
 30
0.0
 10
2008.472436515972
 20
2264.899074704461
 30
0.0
 10
2007.4939553913
 20
2264.899074704461
 30
0.0
 10
2007.037343944383
 20
2264.899074704461
 30
0.0
 10
2005.527618933669
 20
2264.899074704461
 30
0.0
 10
2004.520566762133
 20
2264.899074704461
 30
0.0
 10
2001.916877479701
 20
2264.899074704461
 30
0.0
 10
1998.088552456064
 20
2264.899074704461
 30
0.0
 10
1994.147370891088
 20
2264.899074704461
 30
0.0
 10
1991.354410741107
 20
2264.899074704461
 30
0.0
 10
1990.245203782146
 20
2264.899074704461
 30
0.0
 10
1988.273798176107
 20
2264.899074704461
 30
0.0
 10
1987.480172377902
 20
2264.899074704461
 30
0.0
 10
1986.26304896275
 20
2264.899074704461
 30
0.0
 10
1985.757709915745
 20
2264.899074704461
 30
0.0
 10
1985.231898559895
 20
2264.899074704461
 30
0.0
 10
1984.193494776719
 20
2264.899074704461
 30
0.0
 10
1983.41555694687
 20
2264.899074704461
 30
0.0
 10
1981.377855850664
 20
2264.899074704461
 30
0.0
 10
1980.181155074468
 20
2264.899074704461
 30
0.0
 10
1973.894020794759
 20
2264.899074704461
 30
0.0
 10
1968.668338742121
 20
2264.899074704461
 30
0.0
 10
1961.928291315027
 20
2264.899074704461
 30
0.0
 10
1960.1082146656
 20
2264.899074704461
 30
0.0
 10
1957.722100649147
 20
2264.899074704461
 30
0.0
 10
1956.701313741588
 20
2264.899074704461
 30
0.0
 10
1955.763765033607
 20
2264.899074704461
 30
0.0
 10
1954.783332222472
 20
2264.899074704461
 30
0.0
 10
1954.343946529836
 20
2264.899074704461
 30
0.0
 10
1952.905229924828
 20
2264.899074704461
 30
0.0
 10
1951.946702212656
 20
2264.899074704461
 30
0.0
 10
1949.794279241836
 20
2264.899074704461
 30
0.0
 10
1948.373370430585
 20
2264.899074704461
 30
0.0
 10
1946.976339673483
 20
2264.899074704461
 30
0.0
  0
SPLINE
  5
11903
330
119E1
100
AcDbEntity
  8
springs2 - Level 26
  6
Continuous
 62
     7
370
    13
100
AcDbSpline
210
0.0
220
0.0
230
1.0
 70
    24
 71
     3
 72
    38
 73
    34
 74
     0
 42
0.000000001
 43
0.0000000001
 40
0.0
 40
0.0
 40
0.0
 40
0.0
 40
0.0028344919146014
 40
0.0164200261025775
 40
0.0164200261025775
 40
0.0214051250683154
 40
0.0214051250683154
 40
0.0239790329697804
 40
0.0239790329697804
 40
0.0246920107564707
 40
0.0246920107564707
 40
0.0268565133167529
 40
0.0268565133167529
 40
0.0294993813687772
 40
0.0294993813687772
 40
0.0364720580977585
 40
0.0364720580977585
 40
0.0550996442212459
 40
0.073910835323562
 40
0.073910835323562
 40
0.0811249346935263
 40
0.0811249346935263
 40
0.0862038905399738
 40
0.0862038905399738
 40
0.0884553362314179
 40
0.0884553362314179
 40
0.0911642479596238
 40
0.0911642479596238
 40
0.0982878857050148
 40
0.0982878857050148
 40
0.1172482103630752
 40
0.1172482103630752
 40
0.131576601279388
 40
0.131576601279388
 40
0.131576601279388
 40
0.131576601279388
 10
1928.537250813653
 20
2264.899074704461
 30
0.0
 10
1928.223463887857
 20
2264.899074704461
 30
0.0
 10
1926.403869851089
 20
2264.899074704461
 30
0.0
 10
1924.561997271244
 20
2264.899074704461
 30
0.0
 10
1922.472467882278
 20
2264.899074704461
 30
0.0
 10
1921.535951662638
 20
2264.899074704461
 30
0.0
 10
1919.876106593181
 20
2264.899074704461
 30
0.0
 10
1919.184528706668
 20
2264.899074704461
 30
0.0
 10
1918.022065967474
 20
2264.899074704461
 30
0.0
 10
1917.764351713693
 20
2264.899074704461
 30
0.0
 10
1916.699778598296
 20
2264.899074704461
 30
0.0
 10
1915.86964273572
 20
2264.899074704461
 30
0.0
 10
1914.105237605613
 20
2264.899074704461
 30
0.0
 10
1913.224588241483
 20
2264.899074704461
 30
0.0
 10
1910.183432454683
 20
2264.899074704461
 30
0.0
 10
1908.077598236526
 20
2264.899074704461
 30
0.0
 10
1901.824406457067
 20
2264.899074704461
 30
0.0
 10
1892.754433578337
 20
2264.899074704461
 30
0.0
 10
1883.593406464642
 20
2264.899074704461
 30
0.0
 10
1877.213459033695
 20
2264.899074704461
 30
0.0
 10
1875.291072572154
 20
2264.899074704461
 30
0.0
 10
1870.913666186941
 20
2264.899074704461
 30
0.0
 10
1869.081777072764
 20
2264.899074704461
 30
0.0
 10
1866.462141540313
 20
2264.899074704461
 30
0.0
 10
1865.657917623841
 20
2264.899074704461
 30
0.0
 10
1863.893859810526
 20
2264.899074704461
 30
0.0
 10
1863.168958193602
 20
2264.899074704461
 30
0.0
 10
1860.663482039603
 20
2264.899074704461
 30
0.0
 10
1858.989455075585
 20
2264.899074704461
 30
0.0
 10
1854.725069971312
 20
2264.899074704461
 30
0.0
 10
1851.810636994702
 20
2264.899074704461
 30
0.0
 10
1846.88074225578
 20
2264.899074704461
 30
0.0
 10
1844.923690130586
 20
2264.899074704461
 30
0.0
 10
1842.867656800302
 20
2264.899074704461
 30
0.0
  0
ARC
  5
11906
330
119E1
100
AcDbEntity
  8
Level 14
  6
DGN Style 2
 62
     7
370
    13
100
AcDbCircle
 10
-1734.502898
 20
2275.899075
 30
0.0
 40
1200.0
210
0.0
220
0.0
230
-1.0
100
AcDbArc
 50
63.174454
 51
74.291503
  0
ARC
  5
11907
330
119E1
100
AcDbEntity
  8
Level 14
  6
DGN Style 2
 62
     7
370
    13
100
AcDbCircle
 10
-1734.502898
 20
2275.899075
 30
0.0
 40
1200.0
210
0.0
220
0.0
230
-1.0
100
AcDbArc
 50
74.291159
 51
84.823924
  0
LINE
  5
11908
330
119E1
100
AcDbEntity
  8
Level 14
  6
DGN Style 2
 62
     7
370
    13
100
AcDbLine
 10
1734.502898
 20
3475.899075
 30
0.0
 11
1842.874589
 21
3475.899075
 31
0.0
  0
ARC
  5
11909
330
119E1
100
AcDbEntity
  8
Level 14
  6
DGN Style 2
 62
     7
370
    13
100
AcDbCircle
 10
-1734.502898
 20
2275.899075
 30
0.0
 40
1200.0
210
0.0
220
0.0
230
-1.0
100
AcDbArc
 50
84.823592
 51
90.0
  0
LINE
  5
1190A
330
119E1
100
AcDbEntity
  8
Level 14
  6
DGN Style 2
 62
     7
370
    13
100
AcDbLine
 10
1842.867657
 20
3475.899075
 30
0.0
 11
2059.506364
 21
3475.899075
 31
0.0
  0
LINE
  5
1190B
330
119E1
100
AcDbEntity
  8
Level 14
  6
DGN Style 2
 62
     7
370
    13
100
AcDbLine
 10
2276.13814
 20
645.330129
 30
0.0
 11
2059.499432
 21
645.330129
 31
0.0
  0
LWPOLYLINE
  5
1190C
330
119E1
100
AcDbEntity
  8
Level 14
  6
DGN Style 2
 62
     7
370
    13
100
AcDbPolyline
 90
        3
 70
   128
 43
0.0
 10
2492.769915
 20
650.22417
 42
-0.02259
 10
2384.502898
 20
645.330129
 10
2276.131208
 20
645.330129
  0
ARC
  5
1190F
330
119E1
100
AcDbEntity
  8
Level 14
  6
DGN Style 2
 62
     7
370
    13
100
AcDbCircle
 10
-2384.502898
 20
1845.330129
 30
0.0
 40
1200.0
210
0.0
220
0.0
230
-1.0
100
AcDbArc
 50
254.291159
 51
264.823924
  0
ARC
  5
11910
330
119E1
100
AcDbEntity
  8
Level 14
  6
DGN Style 2
 62
     7
370
    13
100
AcDbCircle
 10
-2384.502898
 20
1845.330129
 30
0.0
 40
1200.0
210
0.0
220
0.0
230
-1.0
100
AcDbArc
 50
243.174454
 51
254.291503
  0
ARC
  5
11911
330
119E1
100
AcDbEntity
  8
springs2 - Level 26
  6
Continuous
 62
     7
370
    13
100
AcDbCircle
 10
2253.204652
 20
1856.807022
 30
0.0
 40
11.0
100
AcDbArc
 50
180.0
 51
338.566173
  0
ARC
  5
11912
330
119E1
100
AcDbEntity
  8
springs2 - Level 26
  6
Continuous
 62
     7
370
    13
100
AcDbCircle
 10
2072.756795
 20
1862.807022
 30
0.0
 40
11.0
100
AcDbArc
 50
207.65898
 51
332.34102
  0
ARC
  5
11913
330
119E1
100
AcDbEntity
  8
springs2 - Level 26
  6
Continuous
 62
     7
370
    13
100
AcDbCircle
 10
2267.983256
 20
1862.807022
 30
0.0
 40
11.0
100
AcDbArc
 50
207.65898
 51
317.846806
  0
ARC
  5
11914
330
119E1
100
AcDbEntity
  8
springs2 - Level 26
  6
Continuous
 62
     7
370
    13
100
AcDbCircle
 10
2189.204653
 20
1856.807022
 30
0.0
 40
11.0
100
AcDbArc
 50
180.0
 51
0.0
  0
SPLINE
  5
11915
330
119E1
100
AcDbEntity
  8
springs2 - Level 26
  6
Continuous
 62
     7
370
    13
100
AcDbSpline
210
0.0
220
0.0
230
1.0
 70
    24
 71
     3
 72
    81
 73
    77
 74
     0
 42
0.000000001
 43
0.0000000001
 40
0.0
 40
0.0
 40
0.0
 40
0.0
 40
0.0139843966992159
 40
0.0139843966992159
 40
0.0279929565480034
 40
0.0279929565480034
 40
0.0333754556801571
 40
0.0333754556801571
 40
0.0373457999766457
 40
0.0373457999766457
 40
0.0401079368283681
 40
0.0401079368283681
 40
0.043542116416543
 40
0.043542116416543
 40
0.0533375007530912
 40
0.0533375007530912
 40
0.0802368558956768
 40
0.0802368558956768
 40
0.1039347576830331
 40
0.1039347576830331
 40
0.1097699279519405
 40
0.1097699279519405
 40
0.1113648227895672
 40
0.1113648227895672
 40
0.1125037851726983
 40
0.1125037851726983
 40
0.1140832286505501
 40
0.1140832286505501
 40
0.1237171912209356
 40
0.1237171912209356
 40
0.1455277829875108
 40
0.1455277829875108
 40
0.1562070982027385
 40
0.1650610297729697
 40
0.1650610297729697
 40
0.1747824497401673
 40
0.1747824497401673
 40
0.1830363281962933
 40
0.1830363281962933
 40
0.1860613430644089
 40
0.1860613430644089
 40
0.1873042037087673
 40
0.1884539861244749
 40
0.1884539861244749
 40
0.1953994488628858
 40
0.1953994488628858
 40
0.2059083305874171
 40
0.2059083305874171
 40
0.2180725583063594
 40
0.2180725583063594
 40
0.2295066162779482
 40
0.2295066162779482
 40
0.2393895087077322
 40
0.2491481099724618
 40
0.2491481099724618
 40
0.2585115674635499
 40
0.2585115674635499
 40
0.2672286994958313
 40
0.2672286994958313
 40
0.2689206089036378
 40
0.2689206089036378
 40
0.2702740723131787
 40
0.2702740723131787
 40
0.2736852437094306
 40
0.2736852437094306
 40
0.2851796956894128
 40
0.2851796956894128
 40
0.2983636233270177
 40
0.2983636233270177
 40
0.3054997231261112
 40
0.3054997231261112
 40
0.3070588172101949
 40
0.3070588172101949
 40
0.3107469000805084
 40
0.3107469000805084
 40
0.3150038217781441
 40
0.3150038217781441
 40
0.3150038217781441
 40
0.3150038217781441
 10
2258.763711355661
 20
1856.807021892475
 30
0.0
 10
2255.716804931719
 20
1856.807021892475
 30
0.0
 10
2252.74944220592
 20
1856.807021892475
 30
0.0
 10
2246.820563308573
 20
1856.807021892475
 30
0.0
 10
2243.945085864383
 20
1856.807021892475
 30
0.0
 10
2239.826589670558
 20
1856.807021892475
 30
0.0
 10
2238.574562580985
 20
1856.807021892475
 30
0.0
 10
2235.285219507099
 20
1856.807021892475
 30
0.0
 10
2233.88872980121
 20
1856.807021892475
 30
0.0
 10
2231.520878466506
 20
1856.807021892475
 30
0.0
 10
2230.549422421407
 20
1856.807021892475
 30
0.0
 10
2228.370241603654
 20
1856.807021892475
 30
0.0
 10
2227.687061652587
 20
1856.807021892475
 30
0.0
 10
2225.347929786983
 20
1856.807021892475
 30
0.0
 10
2223.776847724479
 20
1856.807021892475
 30
0.0
 10
2221.335745588138
 20
1856.807021892475
 30
0.0
 10
2219.626556637081
 20
1856.807021892475
 30
0.0
 10
2216.443172902253
 20
1856.807021892475
 30
0.0
 10
2215.090233838401
 20
1856.807021892475
 30
0.0
 10
2213.243834322196
 20
1856.807021892475
 30
0.0
 10
2212.388767964777
 20
1856.807021892475
 30
0.0
 10
2210.28418689052
 20
1856.807021892475
 30
0.0
 10
2209.442193426539
 20
1856.807021892475
 30
0.0
 10
2208.583187801381
 20
1856.807021892475
 30
0.0
 10
2208.216017326471
 20
1856.807021892475
 30
0.0
 10
2207.535923429504
 20
1856.807021892475
 30
0.0
 10
2207.154875559595
 20
1856.807021892475
 30
0.0
 10
2204.907172831357
 20
1856.807021892475
 30
0.0
 10
2202.981339845003
 20
1856.807021892475
 30
0.0
 10
2196.974526752387
 20
1856.807021892475
 30
0.0
 10
2192.957155440996
 20
1856.807021892475
 30
0.0
 10
2186.324596319112
 20
1856.807021892475
 30
0.0
 10
2182.024004005263
 20
1856.807021892475
 30
0.0
 10
2177.610306083336
 20
1856.807021892475
 30
0.0
 10
2173.392400064452
 20
1856.807021892475
 30
0.0
 10
2171.102672001644
 20
1856.807021892475
 30
0.0
 10
2166.83165828446
 20
1856.807021892475
 30
0.0
 10
2164.581453160828
 20
1856.807021892475
 30
0.0
 10
2161.169384911529
 20
1856.807021892475
 30
0.0
 10
2160.175542906671
 20
1856.807021892475
 30
0.0
 10
2158.593226828889
 20
1856.807021892475
 30
0.0
 10
2157.70362336984
 20
1856.807021892475
 30
0.0
 10
2156.817124649667
 20
1856.807021892475
 30
0.0
 10
2153.825276058786
 20
1856.807021892475
 30
0.0
 10
2152.275965698954
 20
1856.807021892475
 30
0.0
 10
2150.320268084991
 20
1856.807021892475
 30
0.0
 10
2149.285558717008
 20
1856.807021892475
 30
0.0
 10
2147.185905189692
 20
1856.807021892475
 30
0.0
 10
2146.2722176236
 20
1856.807021892475
 30
0.0
 10
2143.936828284505
 20
1856.807021892475
 30
0.0
 10
2142.319490551789
 20
1856.807021892475
 30
0.0
 10
2137.991659649589
 20
1856.807021892475
 30
0.0
 10
2133.906700484411
 20
1856.807021892475
 30
0.0
 10
2129.775952549751
 20
1856.807021892475
 30
0.0
 10
2125.712234438083
 20
1856.807021892475
 30
0.0
 10
2123.593564277929
 20
1856.807021892475
 30
0.0
 10
2119.562446061107
 20
1856.807021892475
 30
0.0
 10
2117.461458499148
 20
1856.807021892475
 30
0.0
 10
2114.86866150728
 20
1856.807021892475
 30
0.0
 10
2114.334104679406
 20
1856.807021892475
 30
0.0
 10
2113.320600402132
 20
1856.807021892475
 30
0.0
 10
2112.717092690454
 20
1856.807021892475
 30
0.0
 10
2111.073149848639
 20
1856.807021892475
 30
0.0
 10
2109.898658126929
 20
1856.807021892475
 30
0.0
 10
2106.856233494307
 20
1856.807021892475
 30
0.0
 10
2104.955895232142
 20
1856.807021892475
 30
0.0
 10
2100.931953814621
 20
1856.807021892475
 30
0.0
 10
2099.104853401619
 20
1856.807021892475
 30
0.0
 10
2095.742941835922
 20
1856.807021892475
 30
0.0
 10
2094.308331612666
 20
1856.807021892475
 30
0.0
 10
2091.834356206986
 20
1856.807021892475
 30
0.0
 10
2091.300139470634
 20
1856.807021892475
 30
0.0
 10
2089.360739762915
 20
1856.807021892475
 30
0.0
 10
2087.907056664289
 20
1856.807021892475
 30
0.0
 10
2085.022706036475
 20
1856.807021892475
 30
0.0
 10
2083.448094036394
 20
1856.807021892475
 30
0.0
 10
2081.976339673479
 20
1856.807021892475
 30
0.0
  0
SPLINE
  5
11918
330
119E1
100
AcDbEntity
  8
springs2 - Level 26
  6
Continuous
 62
     7
370
    13
100
AcDbSpline
210
0.0
220
0.0
230
1.0
 70
    24
 71
     3
 72
     8
 73
     4
 74
     0
 42
0.000000001
 43
0.0000000001
 40
0.0
 40
0.0
 40
0.0
 40
0.0
 40
0.0040064132388518
 40
0.0040064132388518
 40
0.0040064132388518
 40
0.0040064132388518
 10
2063.537250813649
 20
1856.807021892475
 30
0.0
 10
2062.192444607394
 20
1856.807021892475
 30
0.0
 10
2060.846976086519
 20
1856.807021892475
 30
0.0
 10
2059.499432176619
 20
1856.807021892475
 30
0.0
  0
LINE
  5
1191B
330
119E1
100
AcDbEntity
  8
springs2 - Level 26
  6
Continuous
 62
     7
370
    13
100
AcDbLine
 10
2247.516007
 20
1862.807022
 30
0.0
 11
2208.380733
 21
1862.807022
 31
0.0
  0
LINE
  5
1191C
330
119E1
100
AcDbEntity
  8
springs2 - Level 26
  6
Continuous
 62
     7
370
    13
100
AcDbLine
 10
2258.079652
 20
1878.407022
 30
0.0
 11
2266.204652
 21
1878.407022
 31
0.0
  0
LINE
  5
1191D
330
119E1
100
AcDbEntity
  8
springs2 - Level 26
  6
Continuous
 62
     7
370
    13
100
AcDbLine
 10
2176.204652
 20
1878.407022
 30
0.0
 11
2184.329652
 21
1878.407022
 31
0.0
  0
LINE
  5
1191E
330
119E1
100
AcDbEntity
  8
springs2 - Level 26
  6
Continuous
 62
     7
370
    13
100
AcDbLine
 10
2211.829652
 20
1878.407022
 30
0.0
 11
2184.329652
 21
1878.407022
 31
0.0
  0
LINE
  5
1191F
330
119E1
100
AcDbEntity
  8
springs2 - Level 26
  6
Continuous
 62
     7
370
    13
100
AcDbLine
 10
2211.829652
 20
1878.407022
 30
0.0
 11
2230.579652
 21
1878.407022
 31
0.0
  0
LINE
  5
11920
330
119E1
100
AcDbEntity
  8
springs2 - Level 26
  6
Continuous
 62
     7
370
    13
100
AcDbLine
 10
2258.079652
 20
1878.407022
 30
0.0
 11
2230.579652
 21
1878.407022
 31
0.0
  0
LINE
  5
11921
330
119E1
100
AcDbEntity
  8
springs2 - Level 26
  6
Continuous
 62
     7
370
    13
100
AcDbLine
 10
2210.855745
 20
1862.807022
 30
0.0
 11
2232.584885
 21
1862.807022
 31
0.0
  0
LINE
  5
11922
330
119E1
100
AcDbEntity
  8
springs2 - Level 26
  6
Continuous
 62
     7
370
    13
100
AcDbLine
 10
2254.983255
 20
1878.407022
 30
0.0
 11
2275.540094
 21
1878.407022
 31
0.0
  0
LINE
  5
11923
330
119E1
100
AcDbEntity
  8
springs2 - Level 26
  6
Continuous
 62
     7
370
    13
100
AcDbLine
 10
2276.13814
 20
1862.807022
 30
0.0
 11
2232.584885
 21
1862.807022
 31
0.0
  0
LINE
  5
11924
330
119E1
100
AcDbEntity
  8
springs2 - Level 26
  6
Continuous
 62
     7
370
    13
100
AcDbLine
 10
2276.13814
 20
1878.407022
 30
0.0
 11
2275.540094
 21
1878.407022
 31
0.0
  0
LINE
  5
11925
330
119E1
100
AcDbEntity
  8
springs2 - Level 26
  6
Continuous
 62
     7
370
    13
100
AcDbLine
 10
2256.983256
 20
1862.807022
 30
0.0
 11
2251.043959
 21
1862.807022
 31
0.0
  0
LINE
  5
11926
330
119E1
100
AcDbEntity
  8
springs2 - Level 26
  6
Continuous
 62
     7
370
    13
100
AcDbLine
 10
2271.69574
 20
2060.618068
 30
0.0
 11
2271.69574
 21
1878.007022
 31
0.0
  0
LINE
  5
11927
330
119E1
100
AcDbEntity
  8
springs2 - Level 26
  6
Continuous
 62
     7
370
    13
100
AcDbLine
 10
2207.754652
 20
2060.618068
 30
0.0
 11
2207.754652
 21
1878.007022
 31
0.0
  0
LINE
  5
11928
330
119E1
100
AcDbEntity
  8
springs2 - Level 26
  6
Continuous
 62
     7
370
    13
100
AcDbLine
 10
2234.654652
 20
1878.007022
 30
0.0
 11
2234.654652
 21
2060.618068
 31
0.0
  0
ARC
  5
11929
330
119E1
100
AcDbEntity
  8
springs2 - Level 26
  6
Continuous
 62
     7
370
    13
100
AcDbCircle
 10
2253.204652
 20
1856.807022
 30
0.0
 40
11.0
100
AcDbArc
 50
145.692349
 51
146.944269
  0
ARC
  5
1192A
330
119E1
100
AcDbEntity
  8
springs2 - Level 26
  6
Continuous
 62
     7
370
    13
100
AcDbCircle
 10
2072.756795
 20
1862.807022
 30
0.0
 40
11.0
100
AcDbArc
 50
0.0
 51
1.041799
  0
ARC
  5
1192B
330
119E1
100
AcDbEntity
  8
springs2 - Level 26
  6
Continuous
 62
     7
370
    13
100
AcDbCircle
 10
2072.756795
 20
1862.807022
 30
0.0
 40
11.0
100
AcDbArc
 50
178.958201
 51
207.699754
  0
ARC
  5
1192C
330
119E1
100
AcDbEntity
  8
springs2 - Level 26
  6
Continuous
 62
     7
370
    13
100
AcDbCircle
 10
2072.756795
 20
1862.807022
 30
0.0
 40
11.0
100
AcDbArc
 50
332.300246
 51
0.0
  0
ARC
  5
1192D
330
119E1
100
AcDbEntity
  8
springs2 - Level 26
  6
Continuous
 62
     7
370
    13
100
AcDbCircle
 10
2189.204653
 20
1856.807022
 30
0.0
 40
11.0
100
AcDbArc
 50
33.055731
 51
34.307651
  0
ARC
  5
1192E
330
119E1
100
AcDbEntity
  8
springs2 - Level 26
  6
Continuous
 62
     7
370
    13
100
AcDbCircle
 10
2189.204653
 20
1856.807022
 30
0.0
 40
11.0
100
AcDbArc
 50
145.692349
 51
146.944269
  0
LINE
  5
1192F
330
119E1
100
AcDbEntity
  8
springs2 - Level 26
  6
Continuous
 62
     7
370
    13
100
AcDbLine
 10
2105.256795
 20
1881.271032
 30
0.0
 11
2105.256795
 21
2060.618068
 31
0.0
  0
LINE
  5
11930
330
119E1
100
AcDbEntity
  8
springs2 - Level 26
  6
Continuous
 62
     7
370
    13
100
AcDbLine
 10
2059.499432
 20
1881.271032
 30
0.0
 11
2105.256795
 21
1881.271032
 31
0.0
  0
LINE
  5
11931
330
119E1
100
AcDbEntity
  8
springs2 - Level 26
  6
Continuous
 62
     7
370
    13
100
AcDbLine
 10
2059.499432
 20
1878.207022
 30
0.0
 11
2276.13814
 21
1878.207022
 31
0.0
  0
LINE
  5
11932
330
119E1
100
AcDbEntity
  8
springs2 - Level 26
  6
Continuous
 62
     7
370
    13
100
AcDbLine
 10
2075.91745
 20
1862.807022
 30
0.0
 11
2059.499432
 21
1862.807022
 31
0.0
  0
SPLINE
  5
11933
330
119E1
100
AcDbEntity
  8
springs2 - Level 26
  6
Continuous
 62
     7
370
    13
100
AcDbSpline
210
0.0
220
0.0
230
1.0
 70
    24
 71
     3
 72
    81
 73
    77
 74
     0
 42
0.000000001
 43
0.0000000001
 40
0.0
 40
0.0
 40
0.0
 40
0.0
 40
0.0112473399853867
 40
0.0112473399853867
 40
0.0252558998341742
 40
0.0252558998341742
 40
0.0306383989663279
 40
0.0306383989663279
 40
0.0346087432628164
 40
0.0346087432628164
 40
0.0373708801145389
 40
0.0373708801145389
 40
0.0408050597027138
 40
0.0408050597027138
 40
0.050600444039262
 40
0.050600444039262
 40
0.0774997991818475
 40
0.0774997991818475
 40
0.1011977009692039
 40
0.1011977009692039
 40
0.1070328712381113
 40
0.1070328712381113
 40
0.108627766075738
 40
0.108627766075738
 40
0.1097667284588691
 40
0.1097667284588691
 40
0.1113461719367208
 40
0.1113461719367208
 40
0.1209801345071064
 40
0.1209801345071064
 40
0.1427907262736816
 40
0.1427907262736816
 40
0.1534700414889092
 40
0.1623239730591405
 40
0.1623239730591405
 40
0.1720453930263381
 40
0.1720453930263381
 40
0.1802992714824641
 40
0.1802992714824641
 40
0.1833242863505797
 40
0.1833242863505797
 40
0.1845671469949381
 40
0.1857169294106457
 40
0.1857169294106457
 40
0.1926623921490566
 40
0.1926623921490566
 40
0.203171273873588
 40
0.203171273873588
 40
0.2153355015925302
 40
0.2153355015925302
 40
0.226769559564119
 40
0.226769559564119
 40
0.236652451993903
 40
0.2464110532586326
 40
0.2464110532586326
 40
0.2557745107497206
 40
0.2557745107497206
 40
0.2644916427820021
 40
0.2644916427820021
 40
0.2661835521898086
 40
0.2661835521898086
 40
0.2675370155993495
 40
0.2675370155993495
 40
0.2709481869956014
 40
0.2709481869956014
 40
0.2824426389755836
 40
0.2824426389755836
 40
0.2956265666131885
 40
0.2956265666131885
 40
0.3027626664122819
 40
0.3027626664122819
 40
0.3043217604963657
 40
0.3043217604963657
 40
0.3080098433666792
 40
0.3080098433666792
 40
0.3105885969046513
 40
0.3105885969046513
 40
0.3105885969046513
 40
0.3105885969046513
 10
2256.983255785574
 20
1862.807021892475
 30
0.0
 10
2254.555457489072
 20
1862.807021892475
 30
0.0
 10
2252.169736458739
 20
1862.807021892475
 30
0.0
 10
2246.820563308573
 20
1862.807021892475
 30
0.0
 10
2243.945085864383
 20
1862.807021892475
 30
0.0
 10
2239.826589670558
 20
1862.807021892475
 30
0.0
 10
2238.574562580985
 20
1862.807021892475
 30
0.0
 10
2235.285219507099
 20
1862.807021892475
 30
0.0
 10
2233.88872980121
 20
1862.807021892475
 30
0.0
 10
2231.520878466506
 20
1862.807021892475
 30
0.0
 10
2230.549422421407
 20
1862.807021892475
 30
0.0
 10
2228.370241603654
 20
1862.807021892475
 30
0.0
 10
2227.687061652587
 20
1862.807021892475
 30
0.0
 10
2225.347929786983
 20
1862.807021892475
 30
0.0
 10
2223.776847724479
 20
1862.807021892475
 30
0.0
 10
2221.335745588138
 20
1862.807021892475
 30
0.0
 10
2219.626556637081
 20
1862.807021892475
 30
0.0
 10
2216.443172902253
 20
1862.807021892475
 30
0.0
 10
2215.090233838401
 20
1862.807021892475
 30
0.0
 10
2213.243834322196
 20
1862.807021892475
 30
0.0
 10
2212.388767964777
 20
1862.807021892475
 30
0.0
 10
2210.28418689052
 20
1862.807021892475
 30
0.0
 10
2209.442193426539
 20
1862.807021892475
 30
0.0
 10
2208.583187801381
 20
1862.807021892475
 30
0.0
 10
2208.216017326471
 20
1862.807021892475
 30
0.0
 10
2207.535923429504
 20
1862.807021892475
 30
0.0
 10
2207.154875559595
 20
1862.807021892475
 30
0.0
 10
2204.907172831357
 20
1862.807021892475
 30
0.0
 10
2202.981339845003
 20
1862.807021892475
 30
0.0
 10
2196.974526752387
 20
1862.807021892475
 30
0.0
 10
2192.957155440996
 20
1862.807021892475
 30
0.0
 10
2186.324596319112
 20
1862.807021892475
 30
0.0
 10
2182.024004005263
 20
1862.807021892475
 30
0.0
 10
2177.610306083336
 20
1862.807021892475
 30
0.0
 10
2173.392400064452
 20
1862.807021892475
 30
0.0
 10
2171.102672001644
 20
1862.807021892475
 30
0.0
 10
2166.83165828446
 20
1862.807021892475
 30
0.0
 10
2164.581453160828
 20
1862.807021892475
 30
0.0
 10
2161.169384911529
 20
1862.807021892475
 30
0.0
 10
2160.175542906671
 20
1862.807021892475
 30
0.0
 10
2158.593226828889
 20
1862.807021892475
 30
0.0
 10
2157.70362336984
 20
1862.807021892475
 30
0.0
 10
2156.817124649667
 20
1862.807021892475
 30
0.0
 10
2153.825276058786
 20
1862.807021892475
 30
0.0
 10
2152.275965698954
 20
1862.807021892475
 30
0.0
 10
2150.320268084991
 20
1862.807021892475
 30
0.0
 10
2149.285558717008
 20
1862.807021892475
 30
0.0
 10
2147.185905189692
 20
1862.807021892475
 30
0.0
 10
2146.2722176236
 20
1862.807021892475
 30
0.0
 10
2143.936828284505
 20
1862.807021892475
 30
0.0
 10
2142.319490551789
 20
1862.807021892475
 30
0.0
 10
2137.991659649589
 20
1862.807021892475
 30
0.0
 10
2133.906700484411
 20
1862.807021892475
 30
0.0
 10
2129.775952549751
 20
1862.807021892475
 30
0.0
 10
2125.712234438083
 20
1862.807021892475
 30
0.0
 10
2123.593564277929
 20
1862.807021892475
 30
0.0
 10
2119.562446061107
 20
1862.807021892475
 30
0.0
 10
2117.461458499148
 20
1862.807021892475
 30
0.0
 10
2114.86866150728
 20
1862.807021892475
 30
0.0
 10
2114.334104679406
 20
1862.807021892475
 30
0.0
 10
2113.320600402132
 20
1862.807021892475
 30
0.0
 10
2112.717092690454
 20
1862.807021892475
 30
0.0
 10
2111.073149848639
 20
1862.807021892475
 30
0.0
 10
2109.898658126929
 20
1862.807021892475
 30
0.0
 10
2106.856233494307
 20
1862.807021892475
 30
0.0
 10
2104.955895232142
 20
1862.807021892475
 30
0.0
 10
2100.931953814621
 20
1862.807021892475
 30
0.0
 10
2099.104853401619
 20
1862.807021892475
 30
0.0
 10
2095.742941835922
 20
1862.807021892475
 30
0.0
 10
2094.308331612666
 20
1862.807021892475
 30
0.0
 10
2091.834356206986
 20
1862.807021892475
 30
0.0
 10
2091.300139470634
 20
1862.807021892475
 30
0.0
 10
2089.360739762915
 20
1862.807021892475
 30
0.0
 10
2087.907056664289
 20
1862.807021892475
 30
0.0
 10
2085.631947396063
 20
1862.807021892475
 30
0.0
 10
2084.685049384741
 20
1862.807021892475
 30
0.0
 10
2083.756795243564
 20
1862.807021892475
 30
0.0
  0
SPLINE
  5
11936
330
119E1
100
AcDbEntity
  8
springs2 - Level 26
  6
Continuous
 62
     7
370
    13
100
AcDbSpline
210
0.0
220
0.0
230
1.0
 70
    24
 71
     3
 72
     8
 73
     4
 74
     0
 42
0.000000001
 43
0.0000000001
 40
0.0
 40
0.0
 40
0.0
 40
0.0
 40
0.0022388214863509
 40
0.0022388214863509
 40
0.0022388214863509
 40
0.0022388214863509
 10
2061.756795243564
 20
1862.807021892475
 30
0.0
 10
2061.004824579402
 20
1862.807021892475
 30
0.0
 10
2060.252452416774
 20
1862.807021892475
 30
0.0
 10
2059.499432176619
 20
1862.807021892475
 30
0.0
  0
LINE
  5
11939
330
119E1
100
AcDbEntity
  8
springs2 - Level 26
  6
Continuous
 62
     7
370
    13
100
AcDbLine
 10
2256.983256
 20
1862.807022
 30
0.0
 11
2247.516007
 21
1862.807022
 31
0.0
  0
LINE
  5
1193A
330
119E1
100
AcDbEntity
  8
springs2 - Level 26
  6
Continuous
 62
     7
370
    13
100
AcDbLine
 10
2059.499432
 20
1863.007022
 30
0.0
 11
2276.13814
 21
1863.007022
 31
0.0
  0
LINE
  5
1193B
330
119E1
100
AcDbEntity
  8
springs2 - Level 26
  6
Continuous
 62
     7
370
    13
100
AcDbLine
 10
2059.499432
 20
1878.007022
 30
0.0
 11
2276.13814
 21
1878.007022
 31
0.0
  0
ARC
  5
1193C
330
119E1
100
AcDbEntity
  8
springs2 - Level 26
  6
Continuous
 62
     7
370
    13
100
AcDbCircle
 10
2267.983256
 20
1862.807022
 30
0.0
 40
11.0
100
AcDbArc
 50
178.958201
 51
207.699754
  0
LINE
  5
1193D
330
119E1
100
AcDbEntity
  8
springs2 - Level 26
  6
Continuous
 62
     7
370
    13
100
AcDbLine
 10
2227.98333
 20
1862.807022
 30
0.0
 11
2059.499432
 21
1862.807022
 31
0.0
  0
LINE
  5
1193E
330
119E1
100
AcDbEntity
  8
springs2 - Level 26
  6
Continuous
 62
     7
370
    13
100
AcDbLine
 10
2346.717553
 20
1856.807022
 30
0.0
 11
2354.684834
 21
1856.807022
 31
0.0
  0
ARC
  5
1193F
330
119E1
100
AcDbEntity
  8
springs2 - Level 26
  6
Continuous
 62
     7
370
    13
100
AcDbCircle
 10
2317.193613
 20
1856.807022
 30
0.0
 40
11.0
100
AcDbArc
 50
201.201615
 51
0.0
  0
ARC
  5
11940
330
119E1
100
AcDbEntity
  8
springs2 - Level 26
  6
Continuous
 62
     7
370
    13
100
AcDbCircle
 10
2302.308225
 20
1862.807022
 30
0.0
 40
11.0
100
AcDbArc
 50
207.65898
 51
332.34102
  0
ARC
  5
11941
330
119E1
100
AcDbEntity
  8
springs2 - Level 26
  6
Continuous
 62
     7
370
    13
100
AcDbCircle
 10
2267.983256
 20
1862.807022
 30
0.0
 40
11.0
100
AcDbArc
 50
317.793031
 51
332.34102
  0
LINE
  5
11942
330
119E1
100
AcDbEntity
  8
springs2 - Level 26
  6
Continuous
 62
     7
370
    13
100
AcDbLine
 10
2354.684834
 20
1856.807022
 30
0.0
 11
2354.684834
 21
1857.700734
 31
0.0
  0
SPLINE
  5
11943
330
119E1
100
AcDbEntity
  8
springs2 - Level 26
  6
Continuous
 62
     7
370
    13
100
AcDbSpline
210
0.0
220
0.0
230
1.0
 70
    24
 71
     3
 72
    24
 73
    20
 74
     0
 42
0.000000001
 43
0.0000000001
 40
0.0
 40
0.0
 40
0.0
 40
0.0
 40
0.0036382653020443
 40
0.0036382653020443
 40
0.0089734988902208
 40
0.0089734988902208
 40
0.0122211478215728
 40
0.0122211478215728
 40
0.0164403322561049
 40
0.0164403322561049
 40
0.0287400234074742
 40
0.0287400234074742
 40
0.041896934114976
 40
0.041896934114976
 40
0.0470376336116465
 40
0.0470376336116465
 40
0.0508059324024818
 40
0.0508059324024818
 40
0.0508671324289973
 40
0.0508671324289973
 40
0.0508671324289973
 40
0.0508671324289973
 10
2346.717553305028
 20
1856.807021892477
 30
0.0
 10
2345.764261704626
 20
1856.807021892475
 30
0.0
 10
2344.815702745589
 20
1856.807021892475
 30
0.0
 10
2342.378903382449
 20
1856.807021892475
 30
0.0
 10
2340.718844052645
 20
1856.807021892475
 30
0.0
 10
2337.973353105317
 20
1856.807021892475
 30
0.0
 10
2336.423007543028
 20
1856.807021892475
 30
0.0
 10
2333.96320240983
 20
1856.807021892475
 30
0.0
 10
2332.701755782828
 20
1856.807021892475
 30
0.0
 10
2329.660440132256
 20
1856.807021892475
 30
0.0
 10
2327.522864565083
 20
1856.807021892475
 30
0.0
 10
2323.195462844846
 20
1856.807021892475
 30
0.0
 10
2321.129070086817
 20
1856.807021892475
 30
0.0
 10
2317.994071642223
 20
1856.807021892475
 30
0.0
 10
2316.866451993688
 20
1856.807021892475
 30
0.0
 10
2314.266751269574
 20
1856.807021892475
 30
0.0
 10
2312.968930647711
 20
1856.807021892475
 30
0.0
 10
2311.572540699446
 20
1856.807021892475
 30
0.0
 10
2311.550177250605
 20
1856.807021892475
 30
0.0
 10
2311.527768932338
 20
1856.807021892475
 30
0.0
  0
SPLINE
  5
11946
330
119E1
100
AcDbEntity
  8
springs2 - Level 26
  6
Continuous
 62
     7
370
    13
100
AcDbSpline
210
0.0
220
0.0
230
1.0
 70
    24
 71
     3
 72
    11
 73
     7
 74
     0
 42
0.000000001
 43
0.0000000001
 40
0.0
 40
0.0
 40
0.0
 40
0.0
 40
0.0047891398218284
 40
0.0211697742254116
 40
0.0211697742254116
 40
0.0234747789632343
 40
0.0234747789632343
 40
0.0234747789632343
 40
0.0234747789632343
 10
2293.088680072514
 20
1856.807021892475
 30
0.0
 10
2292.01107804261
 20
1856.807021892475
 30
0.0
 10
2287.235712408768
 20
1856.807021892475
 30
0.0
 10
2282.570257623897
 20
1856.807021892475
 30
0.0
 10
2278.362526691765
 20
1856.807021892475
 30
0.0
 10
2277.803766601413
 20
1856.807021892475
 30
0.0
 10
2277.202800215486
 20
1856.807021892475
 30
0.0
  0
LINE
  5
11949
330
119E1
100
AcDbEntity
  8
springs2 - Level 26
  6
Continuous
 62
     7
370
    13
100
AcDbLine
 10
2346.717553
 20
1856.807022
 30
0.0
 11
2346.717553
 21
1857.700734
 31
0.0
  0
LINE
  5
1194A
330
119E1
100
AcDbEntity
  8
springs2 - Level 26
  6
Continuous
 62
     7
370
    13
100
AcDbLine
 10
2346.717553
 20
1862.807022
 30
0.0
 11
2354.684834
 21
1862.807022
 31
0.0
  0
LINE
  5
1194B
330
119E1
100
AcDbEntity
  8
springs2 - Level 26
  6
Continuous
 62
     7
370
    13
100
AcDbLine
 10
2355.510179
 20
1862.807022
 30
0.0
 11
2325.951689
 21
1862.807022
 31
0.0
  0
LINE
  5
1194C
330
119E1
100
AcDbEntity
  8
springs2 - Level 26
  6
Continuous
 62
     7
370
    13
100
AcDbLine
 10
2384.502898
 20
1863.007022
 30
0.0
 11
2384.502898
 21
1878.007022
 31
0.0
  0
LINE
  5
1194D
330
119E1
100
AcDbEntity
  8
springs2 - Level 26
  6
Continuous
 62
     7
370
    13
100
AcDbLine
 10
2315.094258
 20
1878.407022
 30
0.0
 11
2315.308225
 21
1878.407022
 31
0.0
  0
LINE
  5
1194E
330
119E1
100
AcDbEntity
  8
springs2 - Level 26
  6
Continuous
 62
     7
370
    13
100
AcDbLine
 10
2299.67812
 20
1878.407022
 30
0.0
 11
2309.734264
 21
1878.407022
 31
0.0
  0
LINE
  5
1194F
330
119E1
100
AcDbEntity
  8
springs2 - Level 26
  6
Continuous
 62
     7
370
    13
100
AcDbLine
 10
2315.094258
 20
1878.407022
 30
0.0
 11
2309.734264
 21
1878.407022
 31
0.0
  0
LINE
  5
11950
330
119E1
100
AcDbEntity
  8
springs2 - Level 26
  6
Continuous
 62
     7
370
    13
100
AcDbLine
 10
2377.688966
 20
1862.807022
 30
0.0
 11
2276.131208
 21
1862.807022
 31
0.0
  0
LINE
  5
11951
330
119E1
100
AcDbEntity
  8
springs2 - Level 26
  6
Continuous
 62
     7
370
    13
100
AcDbLine
 10
2299.67812
 20
1878.407022
 30
0.0
 11
2276.131208
 21
1878.407022
 31
0.0
  0
LINE
  5
11952
330
119E1
100
AcDbEntity
  8
springs2 - Level 26
  6
Continuous
 62
     7
370
    13
100
AcDbLine
 10
2291.308225
 20
1862.807022
 30
0.0
 11
2278.983256
 21
1862.807022
 31
0.0
  0
LINE
  5
11953
330
119E1
100
AcDbEntity
  8
springs2 - Level 26
  6
Continuous
 62
     7
370
    13
100
AcDbLine
 10
2345.433456
 20
1862.807022
 30
0.0
 11
2313.308225
 21
1862.807022
 31
0.0
  0
LINE
  5
11954
330
119E1
100
AcDbEntity
  8
springs2 - Level 26
  6
Continuous
 62
     7
370
    13
100
AcDbLine
 10
2298.59574
 20
1878.007022
 30
0.0
 11
2298.59574
 21
2060.618068
 31
0.0
  0
ARC
  5
11955
330
119E1
100
AcDbEntity
  8
springs2 - Level 26
  6
Continuous
 62
     7
370
    13
100
AcDbCircle
 10
2317.193613
 20
1856.807022
 30
0.0
 40
11.0
100
AcDbArc
 50
33.055731
 51
34.307651
  0
ARC
  5
11956
330
119E1
100
AcDbEntity
  8
springs2 - Level 26
  6
Continuous
 62
     7
370
    13
100
AcDbCircle
 10
2302.308225
 20
1862.807022
 30
0.0
 40
11.0
100
AcDbArc
 50
0.0
 51
1.041799
  0
ARC
  5
11957
330
119E1
100
AcDbEntity
  8
springs2 - Level 26
  6
Continuous
 62
     7
370
    13
100
AcDbCircle
 10
2302.308225
 20
1862.807022
 30
0.0
 40
11.0
100
AcDbArc
 50
178.958201
 51
207.699754
  0
ARC
  5
11958
330
119E1
100
AcDbEntity
  8
springs2 - Level 26
  6
Continuous
 62
     7
370
    13
100
AcDbCircle
 10
2302.308225
 20
1862.807022
 30
0.0
 40
11.0
100
AcDbArc
 50
332.300246
 51
0.0
  0
ARC
  5
11959
330
119E1
100
AcDbEntity
  8
springs2 - Level 26
  6
Continuous
 62
     7
370
    13
100
AcDbCircle
 10
2267.983256
 20
1862.807022
 30
0.0
 40
11.0
100
AcDbArc
 50
0.0
 51
1.041799
  0
ARC
  5
1195A
330
119E1
100
AcDbEntity
  8
springs2 - Level 26
  6
Continuous
 62
     7
370
    13
100
AcDbCircle
 10
2267.983256
 20
1862.807022
 30
0.0
 40
11.0
100
AcDbArc
 50
332.300246
 51
0.0
  0
LINE
  5
1195B
330
119E1
100
AcDbEntity
  8
springs2 - Level 26
  6
Continuous
 62
     7
370
    13
100
AcDbLine
 10
2276.131208
 20
1878.207022
 30
0.0
 11
2384.502898
 21
1878.207022
 31
0.0
  0
LINE
  5
1195C
330
119E1
100
AcDbEntity
  8
springs2 - Level 26
  6
Continuous
 62
     7
370
    13
100
AcDbLine
 10
2354.684834
 20
1857.693801
 30
0.0
 11
2354.684834
 21
1862.807022
 31
0.0
  0
SPLINE
  5
1195D
330
119E1
100
AcDbEntity
  8
springs2 - Level 26
  6
Continuous
 62
     7
370
    13
100
AcDbSpline
210
0.0
220
0.0
230
1.0
 70
    24
 71
     3
 72
    22
 73
    18
 74
     0
 42
0.000000001
 43
0.0000000001
 40
0.0
 40
0.0
 40
0.0
 40
0.0
 40
0.0036382653020443
 40
0.0036382653020443
 40
0.0089734988902208
 40
0.0089734988902208
 40
0.0122211478215728
 40
0.0122211478215728
 40
0.0164403322561049
 40
0.0164403322561049
 40
0.0287400234074742
 40
0.0287400234074742
 40
0.041896934114976
 40
0.041896934114976
 40
0.0470376336116465
 40
0.0470376336116465
 40
0.04919258928563
 40
0.04919258928563
 40
0.04919258928563
 40
0.04919258928563
 10
2346.717553305028
 20
1862.807021892477
 30
0.0
 10
2345.764261704626
 20
1862.807021892475
 30
0.0
 10
2344.815702745589
 20
1862.807021892475
 30
0.0
 10
2342.378903382449
 20
1862.807021892475
 30
0.0
 10
2340.718844052645
 20
1862.807021892475
 30
0.0
 10
2337.973353105317
 20
1862.807021892475
 30
0.0
 10
2336.423007543028
 20
1862.807021892475
 30
0.0
 10
2333.96320240983
 20
1862.807021892475
 30
0.0
 10
2332.701755782828
 20
1862.807021892475
 30
0.0
 10
2329.660440132256
 20
1862.807021892475
 30
0.0
 10
2327.522864565083
 20
1862.807021892475
 30
0.0
 10
2323.195462844846
 20
1862.807021892475
 30
0.0
 10
2321.129070086817
 20
1862.807021892475
 30
0.0
 10
2317.994071642223
 20
1862.807021892475
 30
0.0
 10
2316.866451993688
 20
1862.807021892475
 30
0.0
 10
2314.737534755413
 20
1862.807021892475
 30
0.0
 10
2314.043885731083
 20
1862.807021892475
 30
0.0
 10
2313.308224502426
 20
1862.807021892475
 30
0.0
  0
SPLINE
  5
11960
330
119E1
100
AcDbEntity
  8
springs2 - Level 26
  6
Continuous
 62
     7
370
    13
100
AcDbSpline
210
0.0
220
0.0
230
1.0
 70
    24
 71
     3
 72
     9
 73
     5
 74
     0
 42
0.000000001
 43
0.0000000001
 40
0.0
 40
0.0
 40
0.0
 40
0.0
 40
0.0021495808086702
 40
0.0183796787803837
 40
0.0183796787803837
 40
0.0183796787803837
 40
0.0183796787803837
 10
2291.308224502426
 20
1862.807021892475
 30
0.0
 10
2290.825195113276
 20
1862.807021892475
 30
0.0
 10
2286.687894435301
 20
1862.807021892475
 30
0.0
 10
2282.63661476219
 20
1862.807021892475
 30
0.0
 10
2278.983255785574
 20
1862.807021892475
 30
0.0
  0
LINE
  5
11963
330
119E1
100
AcDbEntity
  8
springs2 - Level 26
  6
Continuous
 62
     7
370
    13
100
AcDbLine
 10
2346.717553
 20
1857.693801
 30
0.0
 11
2346.717553
 21
1862.807022
 31
0.0
  0
LINE
  5
11964
330
119E1
100
AcDbEntity
  8
springs2 - Level 26
  6
Continuous
 62
     7
370
    13
100
AcDbLine
 10
2325.951689
 20
1862.807022
 30
0.0
 11
2313.308225
 21
1862.807022
 31
0.0
  0
LINE
  5
11966
330
119E1
100
AcDbEntity
  8
springs2 - Level 26
  6
Continuous
 62
     7
370
    13
100
AcDbLine
 10
2276.131208
 20
1863.007022
 30
0.0
 11
2384.502898
 21
1863.007022
 31
0.0
  0
LINE
  5
11967
330
119E1
100
AcDbEntity
  8
springs2 - Level 26
  6
Continuous
 62
     7
370
    13
100
AcDbLine
 10
2276.131208
 20
1878.007022
 30
0.0
 11
2384.502898
 21
1878.007022
 31
0.0
  0
ARC
  5
11968
330
119E1
100
AcDbEntity
  8
Level 14
  6
DGN Style 2
 62
     7
370
    13
100
AcDbCircle
 10
-2384.502898
 20
1845.330129
 30
0.0
 40
1200.0
210
0.0
220
0.0
230
-1.0
100
AcDbArc
 50
236.634592
 51
243.174824
  0
ARC
  5
11969
330
119E1
100
AcDbEntity
  8
Level 14
  6
DGN Style 2
 62
     7
370
    13
100
AcDbCircle
 10
-2384.502898
 20
1845.330129
 30
0.0
 40
1200.0
210
0.0
220
0.0
230
-1.0
100
AcDbArc
 50
230.816807
 51
236.635193
  0
ARC
  5
1196A
330
119E1
100
AcDbEntity
  8
Level 14
  6
DGN Style 2
 62
     7
370
    13
100
AcDbCircle
 10
-2384.502898
 20
1845.330129
 30
0.0
 40
1200.0
210
0.0
220
0.0
230
-1.0
100
AcDbArc
 50
221.765408
 51
230.817234
  0
ARC
  5
1196B
330
119E1
100
AcDbEntity
  8
Level 14
  6
DGN Style 2
 62
     7
370
    13
100
AcDbCircle
 10
-2384.502898
 20
1845.330129
 30
0.0
 40
1200.0
210
0.0
220
0.0
230
-1.0
100
AcDbArc
 50
215.675947
 51
221.765852
  0
ARC
  5
1196C
330
119E1
100
AcDbEntity
  8
Level 14
  6
DGN Style 2
 62
     7
370
    13
100
AcDbCircle
 10
-2384.502898
 20
1845.330129
 30
0.0
 40
1200.0
210
0.0
220
0.0
230
-1.0
100
AcDbArc
 50
209.800696
 51
215.676514
  0
ARC
  5
1196D
330
119E1
100
AcDbEntity
  8
Level 14
  6
DGN Style 2
 62
     7
370
    13
100
AcDbCircle
 10
-2384.502898
 20
1845.330129
 30
0.0
 40
1200.0
210
0.0
220
0.0
230
-1.0
100
AcDbArc
 50
199.140558
 51
209.801077
  0
ARC
  5
1196E
330
119E1
100
AcDbEntity
  8
Level 14
  6
DGN Style 2
 62
     7
370
    13
100
AcDbCircle
 10
-2384.502898
 20
1845.330129
 30
0.0
 40
1200.0
210
0.0
220
0.0
230
-1.0
100
AcDbArc
 50
189.136609
 51
199.140908
  0
ARC
  5
1196F
330
119E1
100
AcDbEntity
  8
Level 14
  6
DGN Style 2
 62
     7
370
    13
100
AcDbCircle
 10
-2384.502898
 20
1845.330129
 30
0.0
 40
1200.0
210
0.0
220
0.0
230
-1.0
100
AcDbArc
 50
186.85331
 51
189.136944
  0
LWPOLYLINE
  5
11970
330
119E1
100
AcDbEntity
  8
Level 14
  6
DGN Style 2
 62
     7
370
    13
100
AcDbPolyline
 90
        3
 70
   128
 43
0.0
 10
3584.502898
 20
1857.700734
 10
3584.502898
 20
1845.330129
 42
-0.029924
 10
3575.92186
 20
1702.079097
  0
LINE
  5
11973
330
119E1
100
AcDbEntity
  8
Level 14
  6
DGN Style 2
 62
     7
370
    13
100
AcDbLine
 10
3584.502898
 20
2060.618068
 30
0.0
 11
3584.502898
 21
1857.693801
 31
0.0
  0
LINE
  5
11974
330
119E1
100
AcDbEntity
  8
springs2 - Level 26
  6
Continuous
 62
     7
370
    13
100
AcDbLine
 10
2247.516007
 20
2258.899075
 30
0.0
 11
2208.380733
 21
2258.899075
 31
0.0
  0
LINE
  5
11975
330
119E1
100
AcDbEntity
  8
springs2 - Level 26
  6
Continuous
 62
     7
370
    13
100
AcDbLine
 10
2258.079652
 20
2243.299075
 30
0.0
 11
2266.204652
 21
2243.299075
 31
0.0
  0
LINE
  5
11976
330
119E1
100
AcDbEntity
  8
springs2 - Level 26
  6
Continuous
 62
     7
370
    13
100
AcDbLine
 10
2258.079652
 20
2243.299075
 30
0.0
 11
2230.579652
 21
2243.299075
 31
0.0
  0
LINE
  5
11977
330
119E1
100
AcDbEntity
  8
springs2 - Level 26
  6
Continuous
 62
     7
370
    13
100
AcDbLine
 10
2211.829652
 20
2243.299075
 30
0.0
 11
2230.579652
 21
2243.299075
 31
0.0
  0
LINE
  5
11978
330
119E1
100
AcDbEntity
  8
springs2 - Level 26
  6
Continuous
 62
     7
370
    13
100
AcDbLine
 10
2211.829652
 20
2243.299075
 30
0.0
 11
2184.329652
 21
2243.299075
 31
0.0
  0
LINE
  5
11979
330
119E1
100
AcDbEntity
  8
springs2 - Level 26
  6
Continuous
 62
     7
370
    13
100
AcDbLine
 10
2176.204652
 20
2243.299075
 30
0.0
 11
2184.329652
 21
2243.299075
 31
0.0
  0
LINE
  5
1197A
330
119E1
100
AcDbEntity
  8
springs2 - Level 26
  6
Continuous
 62
     7
370
    13
100
AcDbLine
 10
2210.855745
 20
2258.899075
 30
0.0
 11
2232.584885
 21
2258.899075
 31
0.0
  0
LINE
  5
1197B
330
119E1
100
AcDbEntity
  8
springs2 - Level 26
  6
Continuous
 62
     7
370
    13
100
AcDbLine
 10
2254.983255
 20
2243.299075
 30
0.0
 11
2275.540094
 21
2243.299075
 31
0.0
  0
LINE
  5
1197C
330
119E1
100
AcDbEntity
  8
springs2 - Level 26
  6
Continuous
 62
     7
370
    13
100
AcDbLine
 10
2227.98333
 20
2258.899075
 30
0.0
 11
2059.499432
 21
2258.899075
 31
0.0
  0
ARC
  5
1197D
330
119E1
100
AcDbEntity
  8
springs2 - Level 26
  6
Continuous
 62
     7
370
    13
100
AcDbCircle
 10
2072.756795
 20
2258.899075
 30
0.0
 40
11.0
100
AcDbArc
 50
0.0
 51
24.928336
  0
ARC
  5
1197E
330
119E1
100
AcDbEntity
  8
springs2 - Level 26
  6
Continuous
 62
     7
370
    13
100
AcDbCircle
 10
2072.756795
 20
2258.899075
 30
0.0
 40
11.0
100
AcDbArc
 50
155.071664
 51
181.041799
  0
ARC
  5
1197F
330
119E1
100
AcDbEntity
  8
springs2 - Level 26
  6
Continuous
 62
     7
370
    13
100
AcDbCircle
 10
2072.756795
 20
2258.899075
 30
0.0
 40
11.0
100
AcDbArc
 50
358.958201
 51
0.0
  0
ARC
  5
11980
330
119E1
100
AcDbEntity
  8
springs2 - Level 26
  6
Continuous
 62
     7
370
    13
100
AcDbCircle
 10
2253.204652
 20
2264.899075
 30
0.0
 40
11.0
100
AcDbArc
 50
213.055731
 51
214.307651
  0
ARC
  5
11981
330
119E1
100
AcDbEntity
  8
springs2 - Level 26
  6
Continuous
 62
     7
370
    13
100
AcDbCircle
 10
2267.983256
 20
2258.899075
 30
0.0
 40
11.0
100
AcDbArc
 50
155.071664
 51
181.041799
  0
LINE
  5
11982
330
119E1
100
AcDbEntity
  8
springs2 - Level 26
  6
Continuous
 62
     7
370
    13
100
AcDbLine
 10
2276.13814
 20
2243.299075
 30
0.0
 11
2275.540094
 21
2243.299075
 31
0.0
  0
LINE
  5
11983
330
119E1
100
AcDbEntity
  8
springs2 - Level 26
  6
Continuous
 62
     7
370
    13
100
AcDbLine
 10
2256.983256
 20
2258.899075
 30
0.0
 11
2251.043959
 21
2258.899075
 31
0.0
  0
LINE
  5
11984
330
119E1
100
AcDbEntity
  8
springs2 - Level 26
  6
Continuous
 62
     7
370
    13
100
AcDbLine
 10
2276.13814
 20
2258.899075
 30
0.0
 11
2232.584885
 21
2258.899075
 31
0.0
  0
ARC
  5
11985
330
119E1
100
AcDbEntity
  8
springs2 - Level 26
  6
Continuous
 62
     7
370
    13
100
AcDbCircle
 10
2189.204653
 20
2264.899075
 30
0.0
 40
11.0
100
AcDbArc
 50
213.055731
 51
214.307651
  0
ARC
  5
11986
330
119E1
100
AcDbEntity
  8
springs2 - Level 26
  6
Continuous
 62
     7
370
    13
100
AcDbCircle
 10
2189.204653
 20
2264.899075
 30
0.0
 40
11.0
100
AcDbArc
 50
325.692349
 51
326.944269
  0
LINE
  5
11987
330
119E1
100
AcDbEntity
  8
springs2 - Level 26
  6
Continuous
 62
     7
370
    13
100
AcDbLine
 10
2271.69574
 20
2243.699075
 30
0.0
 11
2271.69574
 21
2060.611136
 31
0.0
  0
LINE
  5
11988
330
119E1
100
AcDbEntity
  8
springs2 - Level 26
  6
Continuous
 62
     7
370
    13
100
AcDbLine
 10
2207.754652
 20
2243.699075
 30
0.0
 11
2207.754652
 21
2060.611136
 31
0.0
  0
LINE
  5
11989
330
119E1
100
AcDbEntity
  8
springs2 - Level 26
  6
Continuous
 62
     7
370
    13
100
AcDbLine
 10
2234.654652
 20
2060.611136
 30
0.0
 11
2234.654652
 21
2243.699075
 31
0.0
  0
LINE
  5
1198A
330
119E1
100
AcDbEntity
  8
springs2 - Level 26
  6
Continuous
 62
     7
370
    13
100
AcDbLine
 10
2256.983256
 20
2258.899075
 30
0.0
 11
2247.516007
 21
2258.899075
 31
0.0
  0
LINE
  5
1198B
330
119E1
100
AcDbEntity
  8
springs2 - Level 26
  6
Continuous
 62
     7
370
    13
100
AcDbLine
 10
2105.256795
 20
2241.271032
 30
0.0
 11
2059.499432
 21
2241.271032
 31
0.0
  0
LINE
  5
1198C
330
119E1
100
AcDbEntity
  8
springs2 - Level 26
  6
Continuous
 62
     7
370
    13
100
AcDbLine
 10
2105.256795
 20
2060.611136
 30
0.0
 11
2105.256795
 21
2241.271032
 31
0.0
  0
SPLINE
  5
1198D
330
119E1
100
AcDbEntity
  8
springs2 - Level 26
  6
Continuous
 62
     7
370
    13
100
AcDbSpline
210
0.0
220
0.0
230
1.0
 70
    24
 71
     3
 72
    81
 73
    77
 74
     0
 42
0.000000001
 43
0.0000000001
 40
0.0
 40
0.0
 40
0.0
 40
0.0
 40
0.0112473399853867
 40
0.0112473399853867
 40
0.0252558998341742
 40
0.0252558998341742
 40
0.0306383989663279
 40
0.0306383989663279
 40
0.0346087432628164
 40
0.0346087432628164
 40
0.0373708801145389
 40
0.0373708801145389
 40
0.0408050597027138
 40
0.0408050597027138
 40
0.050600444039262
 40
0.050600444039262
 40
0.0774997991818475
 40
0.0774997991818475
 40
0.1011977009692039
 40
0.1011977009692039
 40
0.1070328712381113
 40
0.1070328712381113
 40
0.108627766075738
 40
0.108627766075738
 40
0.1097667284588691
 40
0.1097667284588691
 40
0.1113461719367208
 40
0.1113461719367208
 40
0.1209801345071064
 40
0.1209801345071064
 40
0.1427907262736816
 40
0.1427907262736816
 40
0.1534700414889092
 40
0.1623239730591405
 40
0.1623239730591405
 40
0.1720453930263381
 40
0.1720453930263381
 40
0.1802992714824641
 40
0.1802992714824641
 40
0.1833242863505797
 40
0.1833242863505797
 40
0.1845671469949381
 40
0.1857169294106457
 40
0.1857169294106457
 40
0.1926623921490566
 40
0.1926623921490566
 40
0.203171273873588
 40
0.203171273873588
 40
0.2153355015925302
 40
0.2153355015925302
 40
0.226769559564119
 40
0.226769559564119
 40
0.236652451993903
 40
0.2464110532586326
 40
0.2464110532586326
 40
0.2557745107497206
 40
0.2557745107497206
 40
0.2644916427820021
 40
0.2644916427820021
 40
0.2661835521898086
 40
0.2661835521898086
 40
0.2675370155993495
 40
0.2675370155993495
 40
0.2709481869956014
 40
0.2709481869956014
 40
0.2824426389755836
 40
0.2824426389755836
 40
0.2956265666131885
 40
0.2956265666131885
 40
0.3027626664122819
 40
0.3027626664122819
 40
0.3043217604963657
 40
0.3043217604963657
 40
0.3080098433666792
 40
0.3080098433666792
 40
0.3105885969046513
 40
0.3105885969046513
 40
0.3105885969046513
 40
0.3105885969046513
 10
2256.983255785574
 20
2258.89907470446
 30
0.0
 10
2254.555457489072
 20
2258.89907470446
 30
0.0
 10
2252.169736458739
 20
2258.89907470446
 30
0.0
 10
2246.820563308573
 20
2258.89907470446
 30
0.0
 10
2243.945085864383
 20
2258.89907470446
 30
0.0
 10
2239.826589670558
 20
2258.89907470446
 30
0.0
 10
2238.574562580985
 20
2258.89907470446
 30
0.0
 10
2235.285219507099
 20
2258.89907470446
 30
0.0
 10
2233.88872980121
 20
2258.89907470446
 30
0.0
 10
2231.520878466506
 20
2258.89907470446
 30
0.0
 10
2230.549422421407
 20
2258.89907470446
 30
0.0
 10
2228.370241603654
 20
2258.89907470446
 30
0.0
 10
2227.687061652587
 20
2258.89907470446
 30
0.0
 10
2225.347929786983
 20
2258.89907470446
 30
0.0
 10
2223.776847724479
 20
2258.89907470446
 30
0.0
 10
2221.335745588138
 20
2258.89907470446
 30
0.0
 10
2219.626556637081
 20
2258.89907470446
 30
0.0
 10
2216.443172902253
 20
2258.89907470446
 30
0.0
 10
2215.090233838401
 20
2258.89907470446
 30
0.0
 10
2213.243834322196
 20
2258.89907470446
 30
0.0
 10
2212.388767964777
 20
2258.89907470446
 30
0.0
 10
2210.28418689052
 20
2258.89907470446
 30
0.0
 10
2209.442193426539
 20
2258.89907470446
 30
0.0
 10
2208.583187801381
 20
2258.89907470446
 30
0.0
 10
2208.216017326471
 20
2258.89907470446
 30
0.0
 10
2207.535923429504
 20
2258.89907470446
 30
0.0
 10
2207.154875559595
 20
2258.89907470446
 30
0.0
 10
2204.907172831357
 20
2258.89907470446
 30
0.0
 10
2202.981339845003
 20
2258.89907470446
 30
0.0
 10
2196.974526752387
 20
2258.89907470446
 30
0.0
 10
2192.957155440996
 20
2258.89907470446
 30
0.0
 10
2186.324596319112
 20
2258.89907470446
 30
0.0
 10
2182.024004005263
 20
2258.89907470446
 30
0.0
 10
2177.610306083336
 20
2258.89907470446
 30
0.0
 10
2173.392400064452
 20
2258.89907470446
 30
0.0
 10
2171.102672001644
 20
2258.89907470446
 30
0.0
 10
2166.83165828446
 20
2258.89907470446
 30
0.0
 10
2164.581453160828
 20
2258.89907470446
 30
0.0
 10
2161.169384911529
 20
2258.89907470446
 30
0.0
 10
2160.175542906671
 20
2258.89907470446
 30
0.0
 10
2158.593226828889
 20
2258.89907470446
 30
0.0
 10
2157.70362336984
 20
2258.89907470446
 30
0.0
 10
2156.817124649667
 20
2258.89907470446
 30
0.0
 10
2153.825276058786
 20
2258.89907470446
 30
0.0
 10
2152.275965698954
 20
2258.89907470446
 30
0.0
 10
2150.320268084991
 20
2258.89907470446
 30
0.0
 10
2149.285558717008
 20
2258.89907470446
 30
0.0
 10
2147.185905189692
 20
2258.89907470446
 30
0.0
 10
2146.2722176236
 20
2258.89907470446
 30
0.0
 10
2143.936828284505
 20
2258.89907470446
 30
0.0
 10
2142.319490551789
 20
2258.89907470446
 30
0.0
 10
2137.991659649589
 20
2258.89907470446
 30
0.0
 10
2133.906700484411
 20
2258.89907470446
 30
0.0
 10
2129.775952549751
 20
2258.89907470446
 30
0.0
 10
2125.712234438083
 20
2258.89907470446
 30
0.0
 10
2123.593564277929
 20
2258.89907470446
 30
0.0
 10
2119.562446061107
 20
2258.89907470446
 30
0.0
 10
2117.461458499148
 20
2258.89907470446
 30
0.0
 10
2114.86866150728
 20
2258.89907470446
 30
0.0
 10
2114.334104679406
 20
2258.89907470446
 30
0.0
 10
2113.320600402132
 20
2258.89907470446
 30
0.0
 10
2112.717092690454
 20
2258.89907470446
 30
0.0
 10
2111.073149848639
 20
2258.89907470446
 30
0.0
 10
2109.898658126929
 20
2258.89907470446
 30
0.0
 10
2106.856233494307
 20
2258.89907470446
 30
0.0
 10
2104.955895232142
 20
2258.89907470446
 30
0.0
 10
2100.931953814621
 20
2258.89907470446
 30
0.0
 10
2099.104853401619
 20
2258.89907470446
 30
0.0
 10
2095.742941835922
 20
2258.89907470446
 30
0.0
 10
2094.308331612666
 20
2258.89907470446
 30
0.0
 10
2091.834356206986
 20
2258.89907470446
 30
0.0
 10
2091.300139470634
 20
2258.89907470446
 30
0.0
 10
2089.360739762915
 20
2258.89907470446
 30
0.0
 10
2087.907056664289
 20
2258.89907470446
 30
0.0
 10
2085.631947396063
 20
2258.89907470446
 30
0.0
 10
2084.685049384741
 20
2258.89907470446
 30
0.0
 10
2083.756795243564
 20
2258.89907470446
 30
0.0
  0
SPLINE
  5
11990
330
119E1
100
AcDbEntity
  8
springs2 - Level 26
  6
Continuous
 62
     7
370
    13
100
AcDbSpline
210
0.0
220
0.0
230
1.0
 70
    24
 71
     3
 72
     8
 73
     4
 74
     0
 42
0.000000001
 43
0.0000000001
 40
0.0
 40
0.0
 40
0.0
 40
0.0
 40
0.0022388214863509
 40
0.0022388214863509
 40
0.0022388214863509
 40
0.0022388214863509
 10
2061.756795243564
 20
2258.89907470446
 30
0.0
 10
2061.004824579402
 20
2258.89907470446
 30
0.0
 10
2060.252452416774
 20
2258.89907470446
 30
0.0
 10
2059.499432176619
 20
2258.89907470446
 30
0.0
  0
LINE
  5
11993
330
119E1
100
AcDbEntity
  8
springs2 - Level 26
  6
Continuous
 62
     7
370
    13
100
AcDbLine
 10
2059.499432
 20
2243.699075
 30
0.0
 11
2276.13814
 21
2243.699075
 31
0.0
  0
LINE
  5
11994
330
119E1
100
AcDbEntity
  8
springs2 - Level 26
  6
Continuous
 62
     7
370
    13
100
AcDbLine
 10
2059.499432
 20
2258.699075
 30
0.0
 11
2276.13814
 21
2258.699075
 31
0.0
  0
LINE
  5
11995
330
119E1
100
AcDbEntity
  8
springs2 - Level 26
  6
Continuous
 62
     7
370
    13
100
AcDbLine
 10
2075.91745
 20
2258.899075
 30
0.0
 11
2059.499432
 21
2258.899075
 31
0.0
  0
LINE
  5
11996
330
119E1
100
AcDbEntity
  8
springs2 - Level 26
  6
Continuous
 62
     7
370
    13
100
AcDbLine
 10
2059.499432
 20
2243.499075
 30
0.0
 11
2276.13814
 21
2243.499075
 31
0.0
  0
ARC
  5
11997
330
119E1
100
AcDbEntity
  8
springs2 - Level 26
  6
Continuous
 62
     7
370
    13
100
AcDbCircle
 10
2072.756795
 20
2258.899075
 30
0.0
 40
11.0
100
AcDbArc
 50
24.888525
 51
155.111475
  0
ARC
  5
11998
330
119E1
100
AcDbEntity
  8
springs2 - Level 26
  6
Continuous
 62
     7
370
    13
100
AcDbCircle
 10
2253.204652
 20
2264.899075
 30
0.0
 40
11.0
100
AcDbArc
 50
21.433827
 51
180.0
  0
ARC
  5
11999
330
119E1
100
AcDbEntity
  8
springs2 - Level 26
  6
Continuous
 62
     7
370
    13
100
AcDbCircle
 10
2267.983256
 20
2258.899075
 30
0.0
 40
11.0
100
AcDbArc
 50
42.153194
 51
155.111475
  0
ARC
  5
1199A
330
119E1
100
AcDbEntity
  8
springs2 - Level 26
  6
Continuous
 62
     7
370
    13
100
AcDbCircle
 10
2189.204653
 20
2264.899075
 30
0.0
 40
11.0
100
AcDbArc
 50
0.0
 51
180.0
  0
SPLINE
  5
1199B
330
119E1
100
AcDbEntity
  8
springs2 - Level 26
  6
Continuous
 62
     7
370
    13
100
AcDbSpline
210
0.0
220
0.0
230
1.0
 70
    24
 71
     3
 72
    81
 73
    77
 74
     0
 42
0.000000001
 43
0.0000000001
 40
0.0
 40
0.0
 40
0.0
 40
0.0
 40
0.0139843966992159
 40
0.0139843966992159
 40
0.0279929565480034
 40
0.0279929565480034
 40
0.0333754556801571
 40
0.0333754556801571
 40
0.0373457999766457
 40
0.0373457999766457
 40
0.0401079368283681
 40
0.0401079368283681
 40
0.0435421164165431
 40
0.0435421164165431
 40
0.0533375007530912
 40
0.0533375007530912
 40
0.0802368558956768
 40
0.0802368558956768
 40
0.1039347576830332
 40
0.1039347576830332
 40
0.1097699279519405
 40
0.1097699279519405
 40
0.1113648227895673
 40
0.1113648227895673
 40
0.1125037851726983
 40
0.1125037851726983
 40
0.1140832286505501
 40
0.1140832286505501
 40
0.1237171912209356
 40
0.1237171912209356
 40
0.1455277829875108
 40
0.1455277829875108
 40
0.1562070982027385
 40
0.1650610297729698
 40
0.1650610297729698
 40
0.1747824497401673
 40
0.1747824497401673
 40
0.1830363281962933
 40
0.1830363281962933
 40
0.1860613430644089
 40
0.1860613430644089
 40
0.1873042037087673
 40
0.188453986124475
 40
0.188453986124475
 40
0.1953994488628858
 40
0.1953994488628858
 40
0.2059083305874172
 40
0.2059083305874172
 40
0.2180725583063594
 40
0.2180725583063594
 40
0.2295066162779482
 40
0.2295066162779482
 40
0.2393895087077322
 40
0.2491481099724618
 40
0.2491481099724618
 40
0.2585115674635499
 40
0.2585115674635499
 40
0.2672286994958313
 40
0.2672286994958313
 40
0.2689206089036378
 40
0.2689206089036378
 40
0.2702740723131787
 40
0.2702740723131787
 40
0.2736852437094306
 40
0.2736852437094306
 40
0.2851796956894128
 40
0.2851796956894128
 40
0.2983636233270177
 40
0.2983636233270177
 40
0.3054997231261112
 40
0.3054997231261112
 40
0.3070588172101949
 40
0.3070588172101949
 40
0.3107469000805084
 40
0.3107469000805084
 40
0.3150038217781441
 40
0.3150038217781441
 40
0.3150038217781441
 40
0.3150038217781441
 10
2258.763711355662
 20
2264.899074704461
 30
0.0
 10
2255.716804931719
 20
2264.899074704461
 30
0.0
 10
2252.74944220592
 20
2264.899074704461
 30
0.0
 10
2246.820563308573
 20
2264.899074704461
 30
0.0
 10
2243.945085864383
 20
2264.899074704461
 30
0.0
 10
2239.826589670558
 20
2264.899074704461
 30
0.0
 10
2238.574562580985
 20
2264.899074704461
 30
0.0
 10
2235.285219507099
 20
2264.899074704461
 30
0.0
 10
2233.88872980121
 20
2264.899074704461
 30
0.0
 10
2231.520878466506
 20
2264.899074704461
 30
0.0
 10
2230.549422421407
 20
2264.899074704461
 30
0.0
 10
2228.370241603654
 20
2264.899074704461
 30
0.0
 10
2227.687061652587
 20
2264.899074704461
 30
0.0
 10
2225.347929786983
 20
2264.899074704461
 30
0.0
 10
2223.776847724479
 20
2264.899074704461
 30
0.0
 10
2221.335745588138
 20
2264.899074704461
 30
0.0
 10
2219.626556637081
 20
2264.899074704461
 30
0.0
 10
2216.443172902253
 20
2264.899074704461
 30
0.0
 10
2215.090233838401
 20
2264.899074704461
 30
0.0
 10
2213.243834322196
 20
2264.899074704461
 30
0.0
 10
2212.388767964777
 20
2264.899074704461
 30
0.0
 10
2210.28418689052
 20
2264.899074704461
 30
0.0
 10
2209.442193426539
 20
2264.899074704461
 30
0.0
 10
2208.583187801381
 20
2264.899074704461
 30
0.0
 10
2208.216017326471
 20
2264.899074704461
 30
0.0
 10
2207.535923429504
 20
2264.899074704461
 30
0.0
 10
2207.154875559595
 20
2264.899074704461
 30
0.0
 10
2204.907172831357
 20
2264.899074704461
 30
0.0
 10
2202.981339845003
 20
2264.899074704461
 30
0.0
 10
2196.974526752387
 20
2264.899074704461
 30
0.0
 10
2192.957155440996
 20
2264.899074704461
 30
0.0
 10
2186.324596319112
 20
2264.899074704461
 30
0.0
 10
2182.024004005263
 20
2264.899074704461
 30
0.0
 10
2177.610306083336
 20
2264.899074704461
 30
0.0
 10
2173.392400064452
 20
2264.899074704461
 30
0.0
 10
2171.102672001644
 20
2264.899074704461
 30
0.0
 10
2166.83165828446
 20
2264.899074704461
 30
0.0
 10
2164.581453160828
 20
2264.899074704461
 30
0.0
 10
2161.169384911529
 20
2264.899074704461
 30
0.0
 10
2160.175542906671
 20
2264.899074704461
 30
0.0
 10
2158.593226828889
 20
2264.899074704461
 30
0.0
 10
2157.70362336984
 20
2264.899074704461
 30
0.0
 10
2156.817124649667
 20
2264.899074704461
 30
0.0
 10
2153.825276058786
 20
2264.899074704461
 30
0.0
 10
2152.275965698954
 20
2264.899074704461
 30
0.0
 10
2150.320268084991
 20
2264.899074704461
 30
0.0
 10
2149.285558717008
 20
2264.899074704461
 30
0.0
 10
2147.185905189692
 20
2264.899074704461
 30
0.0
 10
2146.2722176236
 20
2264.899074704461
 30
0.0
 10
2143.936828284505
 20
2264.899074704461
 30
0.0
 10
2142.319490551789
 20
2264.899074704461
 30
0.0
 10
2137.991659649589
 20
2264.899074704461
 30
0.0
 10
2133.906700484411
 20
2264.899074704461
 30
0.0
 10
2129.775952549751
 20
2264.899074704461
 30
0.0
 10
2125.712234438083
 20
2264.899074704461
 30
0.0
 10
2123.593564277929
 20
2264.899074704461
 30
0.0
 10
2119.562446061107
 20
2264.899074704461
 30
0.0
 10
2117.461458499148
 20
2264.899074704461
 30
0.0
 10
2114.86866150728
 20
2264.899074704461
 30
0.0
 10
2114.334104679406
 20
2264.899074704461
 30
0.0
 10
2113.320600402132
 20
2264.899074704461
 30
0.0
 10
2112.717092690454
 20
2264.899074704461
 30
0.0
 10
2111.073149848639
 20
2264.899074704461
 30
0.0
 10
2109.898658126929
 20
2264.899074704461
 30
0.0
 10
2106.856233494307
 20
2264.899074704461
 30
0.0
 10
2104.955895232142
 20
2264.899074704461
 30
0.0
 10
2100.931953814621
 20
2264.899074704461
 30
0.0
 10
2099.104853401619
 20
2264.899074704461
 30
0.0
 10
2095.742941835922
 20
2264.899074704461
 30
0.0
 10
2094.308331612666
 20
2264.899074704461
 30
0.0
 10
2091.834356206986
 20
2264.899074704461
 30
0.0
 10
2091.300139470634
 20
2264.899074704461
 30
0.0
 10
2089.360739762915
 20
2264.899074704461
 30
0.0
 10
2087.907056664289
 20
2264.899074704461
 30
0.0
 10
2085.022706036475
 20
2264.899074704461
 30
0.0
 10
2083.448094036394
 20
2264.899074704461
 30
0.0
 10
2081.976339673479
 20
2264.899074704461
 30
0.0
  0
SPLINE
  5
1199E
330
119E1
100
AcDbEntity
  8
springs2 - Level 26
  6
Continuous
 62
     7
370
    13
100
AcDbSpline
210
0.0
220
0.0
230
1.0
 70
    24
 71
     3
 72
     8
 73
     4
 74
     0
 42
0.000000001
 43
0.0000000001
 40
0.0
 40
0.0
 40
0.0
 40
0.0
 40
0.0040064132388518
 40
0.0040064132388518
 40
0.0040064132388518
 40
0.0040064132388518
 10
2063.53725081365
 20
2264.899074704461
 30
0.0
 10
2062.192444607394
 20
2264.899074704461
 30
0.0
 10
2060.846976086519
 20
2264.899074704461
 30
0.0
 10
2059.499432176619
 20
2264.899074704461
 30
0.0
  0
LINE
  5
119A1
330
119E1
100
AcDbEntity
  8
springs2 - Level 26
  6
Continuous
 62
     7
370
    13
100
AcDbLine
 10
2355.510179
 20
2258.899075
 30
0.0
 11
2325.951689
 21
2258.899075
 31
0.0
  0
LINE
  5
119A2
330
119E1
100
AcDbEntity
  8
springs2 - Level 26
  6
Continuous
 62
     7
370
    13
100
AcDbLine
 10
2346.717553
 20
2258.899075
 30
0.0
 11
2354.684834
 21
2258.899075
 31
0.0
  0
LINE
  5
119A3
330
119E1
100
AcDbEntity
  8
springs2 - Level 26
  6
Continuous
 62
     7
370
    13
100
AcDbLine
 10
2384.502898
 20
2243.699075
 30
0.0
 11
2384.502898
 21
2258.699075
 31
0.0
  0
LINE
  5
119A4
330
119E1
100
AcDbEntity
  8
springs2 - Level 26
  6
Continuous
 62
     7
370
    13
100
AcDbLine
 10
2315.094258
 20
2243.299075
 30
0.0
 11
2315.308225
 21
2243.299075
 31
0.0
  0
ARC
  5
119A5
330
119E1
100
AcDbEntity
  8
springs2 - Level 26
  6
Continuous
 62
     7
370
    13
100
AcDbCircle
 10
2267.983256
 20
2258.899075
 30
0.0
 40
11.0
100
AcDbArc
 50
0.0
 51
24.928336
  0
ARC
  5
119A6
330
119E1
100
AcDbEntity
  8
springs2 - Level 26
  6
Continuous
 62
     7
370
    13
100
AcDbCircle
 10
2267.983256
 20
2258.899075
 30
0.0
 40
11.0
100
AcDbArc
 50
358.958201
 51
0.0
  0
LINE
  5
119A7
330
119E1
100
AcDbEntity
  8
springs2 - Level 26
  6
Continuous
 62
     7
370
    13
100
AcDbLine
 10
2291.308225
 20
2258.899075
 30
0.0
 11
2278.983256
 21
2258.899075
 31
0.0
  0
LINE
  5
119A8
330
119E1
100
AcDbEntity
  8
springs2 - Level 26
  6
Continuous
 62
     7
370
    13
100
AcDbLine
 10
2345.433456
 20
2258.899075
 30
0.0
 11
2313.308225
 21
2258.899075
 31
0.0
  0
LINE
  5
119A9
330
119E1
100
AcDbEntity
  8
springs2 - Level 26
  6
Continuous
 62
     7
370
    13
100
AcDbLine
 10
2377.688966
 20
2258.899075
 30
0.0
 11
2276.131208
 21
2258.899075
 31
0.0
  0
LINE
  5
119AA
330
119E1
100
AcDbEntity
  8
springs2 - Level 26
  6
Continuous
 62
     7
370
    13
100
AcDbLine
 10
2298.59574
 20
2060.611136
 30
0.0
 11
2298.59574
 21
2243.699075
 31
0.0
  0
ARC
  5
119AB
330
119E1
100
AcDbEntity
  8
springs2 - Level 26
  6
Continuous
 62
     7
370
    13
100
AcDbCircle
 10
2317.193613
 20
2264.899075
 30
0.0
 40
11.0
100
AcDbArc
 50
325.692349
 51
326.944269
  0
ARC
  5
119AC
330
119E1
100
AcDbEntity
  8
springs2 - Level 26
  6
Continuous
 62
     7
370
    13
100
AcDbCircle
 10
2302.308225
 20
2258.899075
 30
0.0
 40
11.0
100
AcDbArc
 50
0.0
 51
24.928336
  0
ARC
  5
119AD
330
119E1
100
AcDbEntity
  8
springs2 - Level 26
  6
Continuous
 62
     7
370
    13
100
AcDbCircle
 10
2302.308225
 20
2258.899075
 30
0.0
 40
11.0
100
AcDbArc
 50
155.071664
 51
181.041799
  0
ARC
  5
119AE
330
119E1
100
AcDbEntity
  8
springs2 - Level 26
  6
Continuous
 62
     7
370
    13
100
AcDbCircle
 10
2302.308225
 20
2258.899075
 30
0.0
 40
11.0
100
AcDbArc
 50
358.958201
 51
0.0
  0
LINE
  5
119AF
330
119E1
100
AcDbEntity
  8
springs2 - Level 26
  6
Continuous
 62
     7
370
    13
100
AcDbLine
 10
2325.951689
 20
2258.899075
 30
0.0
 11
2313.308225
 21
2258.899075
 31
0.0
  0
LINE
  5
119B1
330
119E1
100
AcDbEntity
  8
springs2 - Level 26
  6
Continuous
 62
     7
370
    13
100
AcDbLine
 10
2354.684834
 20
2258.899075
 30
0.0
 11
2354.684834
 21
2263.535403
 31
0.0
  0
SPLINE
  5
119B2
330
119E1
100
AcDbEntity
  8
springs2 - Level 26
  6
Continuous
 62
     7
370
    13
100
AcDbSpline
210
0.0
220
0.0
230
1.0
 70
    24
 71
     3
 72
    22
 73
    18
 74
     0
 42
0.000000001
 43
0.0000000001
 40
0.0
 40
0.0
 40
0.0
 40
0.0
 40
0.0036382653020443
 40
0.0036382653020443
 40
0.0089734988902208
 40
0.0089734988902208
 40
0.0122211478215728
 40
0.0122211478215728
 40
0.0164403322561049
 40
0.0164403322561049
 40
0.0287400234074742
 40
0.0287400234074742
 40
0.041896934114976
 40
0.041896934114976
 40
0.0470376336116465
 40
0.0470376336116465
 40
0.04919258928563
 40
0.04919258928563
 40
0.04919258928563
 40
0.04919258928563
 10
2346.717553305028
 20
2258.899074704459
 30
0.0
 10
2345.764261704626
 20
2258.89907470446
 30
0.0
 10
2344.815702745589
 20
2258.89907470446
 30
0.0
 10
2342.378903382449
 20
2258.89907470446
 30
0.0
 10
2340.718844052645
 20
2258.89907470446
 30
0.0
 10
2337.973353105317
 20
2258.89907470446
 30
0.0
 10
2336.423007543028
 20
2258.89907470446
 30
0.0
 10
2333.96320240983
 20
2258.89907470446
 30
0.0
 10
2332.701755782828
 20
2258.89907470446
 30
0.0
 10
2329.660440132256
 20
2258.89907470446
 30
0.0
 10
2327.522864565083
 20
2258.89907470446
 30
0.0
 10
2323.195462844846
 20
2258.89907470446
 30
0.0
 10
2321.129070086817
 20
2258.89907470446
 30
0.0
 10
2317.994071642223
 20
2258.89907470446
 30
0.0
 10
2316.866451993688
 20
2258.89907470446
 30
0.0
 10
2314.737534755413
 20
2258.89907470446
 30
0.0
 10
2314.043885731083
 20
2258.89907470446
 30
0.0
 10
2313.308224502426
 20
2258.89907470446
 30
0.0
  0
SPLINE
  5
119B5
330
119E1
100
AcDbEntity
  8
springs2 - Level 26
  6
Continuous
 62
     7
370
    13
100
AcDbSpline
210
0.0
220
0.0
230
1.0
 70
    24
 71
     3
 72
     9
 73
     5
 74
     0
 42
0.000000001
 43
0.0000000001
 40
0.0
 40
0.0
 40
0.0
 40
0.0
 40
0.0021495808086702
 40
0.0183796787803837
 40
0.0183796787803837
 40
0.0183796787803837
 40
0.0183796787803837
 10
2291.308224502426
 20
2258.89907470446
 30
0.0
 10
2290.825195113276
 20
2258.89907470446
 30
0.0
 10
2286.687894435301
 20
2258.89907470446
 30
0.0
 10
2282.63661476219
 20
2258.89907470446
 30
0.0
 10
2278.983255785574
 20
2258.89907470446
 30
0.0
  0
LINE
  5
119B8
330
119E1
100
AcDbEntity
  8
springs2 - Level 26
  6
Continuous
 62
     7
370
    13
100
AcDbLine
 10
2346.717553
 20
2263.535403
 30
0.0
 11
2346.717553
 21
2258.899075
 31
0.0
  0
LINE
  5
119B9
330
119E1
100
AcDbEntity
  8
springs2 - Level 26
  6
Continuous
 62
     7
370
    13
100
AcDbLine
 10
2276.131208
 20
2243.699075
 30
0.0
 11
2384.502898
 21
2243.699075
 31
0.0
  0
LINE
  5
119BA
330
119E1
100
AcDbEntity
  8
springs2 - Level 26
  6
Continuous
 62
     7
370
    13
100
AcDbLine
 10
2276.131208
 20
2258.699075
 30
0.0
 11
2384.502898
 21
2258.699075
 31
0.0
  0
LINE
  5
119BB
330
119E1
100
AcDbEntity
  8
springs2 - Level 26
  6
Continuous
 62
     7
370
    13
100
AcDbLine
 10
2276.131208
 20
2243.499075
 30
0.0
 11
2384.502898
 21
2243.499075
 31
0.0
  0
LINE
  5
119BC
330
119E1
100
AcDbEntity
  8
springs2 - Level 26
  6
Continuous
 62
     7
370
    13
100
AcDbLine
 10
2315.094258
 20
2243.299075
 30
0.0
 11
2309.734264
 21
2243.299075
 31
0.0
  0
LINE
  5
119BD
330
119E1
100
AcDbEntity
  8
springs2 - Level 26
  6
Continuous
 62
     7
370
    13
100
AcDbLine
 10
2299.67812
 20
2243.299075
 30
0.0
 11
2309.734264
 21
2243.299075
 31
0.0
  0
LINE
  5
119BE
330
119E1
100
AcDbEntity
  8
springs2 - Level 26
  6
Continuous
 62
     7
370
    13
100
AcDbLine
 10
2299.67812
 20
2243.299075
 30
0.0
 11
2276.131208
 21
2243.299075
 31
0.0
  0
LINE
  5
119BF
330
119E1
100
AcDbEntity
  8
springs2 - Level 26
  6
Continuous
 62
     7
370
    13
100
AcDbLine
 10
2346.717553
 20
2264.899075
 30
0.0
 11
2354.684834
 21
2264.899075
 31
0.0
  0
ARC
  5
119C0
330
119E1
100
AcDbEntity
  8
springs2 - Level 26
  6
Continuous
 62
     7
370
    13
100
AcDbCircle
 10
2267.983256
 20
2258.899075
 30
0.0
 40
11.0
100
AcDbArc
 50
24.888525
 51
42.206969
  0
ARC
  5
119C1
330
119E1
100
AcDbEntity
  8
springs2 - Level 26
  6
Continuous
 62
     7
370
    13
100
AcDbCircle
 10
2317.193613
 20
2264.899075
 30
0.0
 40
11.0
100
AcDbArc
 50
0.0
 51
158.798385
  0
LINE
  5
119C2
330
119E1
100
AcDbEntity
  8
springs2 - Level 26
  6
Continuous
 62
     7
370
    13
100
AcDbLine
 10
2354.684834
 20
2263.52847
 30
0.0
 11
2354.684834
 21
2264.899075
 31
0.0
  0
SPLINE
  5
119C3
330
119E1
100
AcDbEntity
  8
springs2 - Level 26
  6
Continuous
 62
     7
370
    13
100
AcDbSpline
210
0.0
220
0.0
230
1.0
 70
    24
 71
     3
 72
    24
 73
    20
 74
     0
 42
0.000000001
 43
0.0000000001
 40
0.0
 40
0.0
 40
0.0
 40
0.0
 40
0.0036382653020443
 40
0.0036382653020443
 40
0.0089734988902208
 40
0.0089734988902208
 40
0.0122211478215728
 40
0.0122211478215728
 40
0.0164403322561049
 40
0.0164403322561049
 40
0.0287400234074742
 40
0.0287400234074742
 40
0.041896934114976
 40
0.041896934114976
 40
0.0470376336116465
 40
0.0470376336116465
 40
0.0508059324024818
 40
0.0508059324024818
 40
0.0508671324289972
 40
0.0508671324289972
 40
0.0508671324289972
 40
0.0508671324289972
 10
2346.717553305028
 20
2264.899074704459
 30
0.0
 10
2345.764261704626
 20
2264.899074704461
 30
0.0
 10
2344.815702745589
 20
2264.899074704461
 30
0.0
 10
2342.378903382449
 20
2264.899074704461
 30
0.0
 10
2340.718844052645
 20
2264.899074704461
 30
0.0
 10
2337.973353105317
 20
2264.899074704461
 30
0.0
 10
2336.423007543028
 20
2264.899074704461
 30
0.0
 10
2333.96320240983
 20
2264.899074704461
 30
0.0
 10
2332.701755782828
 20
2264.899074704461
 30
0.0
 10
2329.660440132256
 20
2264.899074704461
 30
0.0
 10
2327.522864565083
 20
2264.899074704461
 30
0.0
 10
2323.195462844846
 20
2264.899074704461
 30
0.0
 10
2321.129070086817
 20
2264.899074704461
 30
0.0
 10
2317.994071642223
 20
2264.899074704461
 30
0.0
 10
2316.866451993688
 20
2264.899074704461
 30
0.0
 10
2314.266751269574
 20
2264.899074704461
 30
0.0
 10
2312.968930647711
 20
2264.899074704461
 30
0.0
 10
2311.572540699446
 20
2264.899074704461
 30
0.0
 10
2311.550177250605
 20
2264.899074704461
 30
0.0
 10
2311.527768932338
 20
2264.899074704461
 30
0.0
  0
SPLINE
  5
119C6
330
119E1
100
AcDbEntity
  8
springs2 - Level 26
  6
Continuous
 62
     7
370
    13
100
AcDbSpline
210
0.0
220
0.0
230
1.0
 70
    24
 71
     3
 72
    11
 73
     7
 74
     0
 42
0.000000001
 43
0.0000000001
 40
0.0
 40
0.0
 40
0.0
 40
0.0
 40
0.0047891398218284
 40
0.0211697742254116
 40
0.0211697742254116
 40
0.0234747789632343
 40
0.0234747789632343
 40
0.0234747789632343
 40
0.0234747789632343
 10
2293.088680072514
 20
2264.899074704461
 30
0.0
 10
2292.01107804261
 20
2264.899074704461
 30
0.0
 10
2287.235712408768
 20
2264.899074704461
 30
0.0
 10
2282.570257623897
 20
2264.899074704461
 30
0.0
 10
2278.362526691765
 20
2264.899074704461
 30
0.0
 10
2277.803766601413
 20
2264.899074704461
 30
0.0
 10
2277.202800215486
 20
2264.899074704461
 30
0.0
  0
LINE
  5
119C9
330
119E1
100
AcDbEntity
  8
springs2 - Level 26
  6
Continuous
 62
     7
370
    13
100
AcDbLine
 10
2346.717553
 20
2264.899075
 30
0.0
 11
2346.717553
 21
2263.52847
 31
0.0
  0
ARC
  5
119CA
330
119E1
100
AcDbEntity
  8
springs2 - Level 26
  6
Continuous
 62
     7
370
    13
100
AcDbCircle
 10
2302.308225
 20
2258.899075
 30
0.0
 40
11.0
100
AcDbArc
 50
24.888525
 51
155.111475
  0
LINE
  5
119CB
330
119E1
100
AcDbEntity
  8
Level 14
  6
DGN Style 2
 62
     7
370
    13
100
AcDbLine
 10
2059.499432
 20
3475.899075
 30
0.0
 11
2276.13814
 21
3475.899075
 31
0.0
  0
LWPOLYLINE
  5
119CC
330
119E1
100
AcDbEntity
  8
Level 14
  6
DGN Style 2
 62
     7
370
    13
100
AcDbPolyline
 90
        3
 70
   128
 43
0.0
 10
2276.131208
 20
3475.899075
 10
2384.502898
 20
3475.899075
 42
-0.02259
 10
2492.769915
 20
3471.005034
  0
ARC
  5
119CF
330
119E1
100
AcDbEntity
  8
Level 14
  6
DGN Style 2
 62
     7
370
    13
100
AcDbCircle
 10
-2384.502898
 20
2275.899075
 30
0.0
 40
1200.0
210
0.0
220
0.0
230
-1.0
100
AcDbArc
 50
95.176076
 51
105.708841
  0
ARC
  5
119D0
330
119E1
100
AcDbEntity
  8
Level 14
  6
DGN Style 2
 62
     7
370
    13
100
AcDbCircle
 10
-2384.502898
 20
2275.899075
 30
0.0
 40
1200.0
210
0.0
220
0.0
230
-1.0
100
AcDbArc
 50
105.708497
 51
116.825546
  0
ARC
  5
119D1
330
119E1
100
AcDbEntity
  8
Level 14
  6
DGN Style 2
 62
     7
370
    13
100
AcDbCircle
 10
-2384.502898
 20
2275.899075
 30
0.0
 40
1200.0
210
0.0
220
0.0
230
-1.0
100
AcDbArc
 50
170.863056
 51
173.14669
  0
LINE
  5
119D2
330
119E1
100
AcDbEntity
  8
Level 14
  6
DGN Style 2
 62
     7
370
    13
100
AcDbLine
 10
3584.502898
 20
2263.535403
 30
0.0
 11
3584.502898
 21
2060.611136
 31
0.0
  0
LWPOLYLINE
  5
119D3
330
119E1
100
AcDbEntity
  8
Level 14
  6
DGN Style 2
 62
     7
370
    13
100
AcDbPolyline
 90
        3
 70
   128
 43
0.0
 10
3575.92186
 20
2419.150107
 42
-0.029924
 10
3584.502898
 20
2275.899075
 10
3584.502898
 20
2263.52847
  0
ARC
  5
119D6
330
119E1
100
AcDbEntity
  8
Level 14
  6
DGN Style 2
 62
     7
370
    13
100
AcDbCircle
 10
-2384.502898
 20
2275.899075
 30
0.0
 40
1200.0
210
0.0
220
0.0
230
-1.0
100
AcDbArc
 50
160.859092
 51
170.863391
  0
ARC
  5
119D7
330
119E1
100
AcDbEntity
  8
Level 14
  6
DGN Style 2
 62
     7
370
    13
100
AcDbCircle
 10
-2384.502898
 20
2275.899075
 30
0.0
 40
1200.0
210
0.0
220
0.0
230
-1.0
100
AcDbArc
 50
150.198923
 51
160.859442
  0
ARC
  5
119D8
330
119E1
100
AcDbEntity
  8
Level 14
  6
DGN Style 2
 62
     7
370
    13
100
AcDbCircle
 10
-2384.502898
 20
2275.899075
 30
0.0
 40
1200.0
210
0.0
220
0.0
230
-1.0
100
AcDbArc
 50
123.364807
 51
129.183193
  0
ARC
  5
119D9
330
119E1
100
AcDbEntity
  8
Level 14
  6
DGN Style 2
 62
     7
370
    13
100
AcDbCircle
 10
-2384.502898
 20
2275.899075
 30
0.0
 40
1200.0
210
0.0
220
0.0
230
-1.0
100
AcDbArc
 50
138.234148
 51
144.324053
  0
ARC
  5
119DA
330
119E1
100
AcDbEntity
  8
Level 14
  6
DGN Style 2
 62
     7
370
    13
100
AcDbCircle
 10
-2384.502898
 20
2275.899075
 30
0.0
 40
1200.0
210
0.0
220
0.0
230
-1.0
100
AcDbArc
 50
129.182766
 51
138.234592
  0
ARC
  5
119DB
330
119E1
100
AcDbEntity
  8
Level 14
  6
DGN Style 2
 62
     7
370
    13
100
AcDbCircle
 10
-2384.502898
 20
2275.899075
 30
0.0
 40
1200.0
210
0.0
220
0.0
230
-1.0
100
AcDbArc
 50
116.825176
 51
123.365408
  0
ARC
  5
119DC
330
119E1
100
AcDbEntity
  8
Level 14
  6
DGN Style 2
 62
     7
370
    13
100
AcDbCircle
 10
-2384.502898
 20
2275.899075
 30
0.0
 40
1200.0
210
0.0
220
0.0
230
-1.0
100
AcDbArc
 50
144.323486
 51
150.199304
  0
ENDSEC
  0
SECTION
  2
OBJECTS
  0
DICTIONARY
  5
119EA
330
0
100
AcDbDictionary
281
     1
  3
ACAD_COLOR
350
11A45
  3
ACAD_DETAILVIEWSTYLE
350
11BEB
  3
ACAD_GROUP
350
11A32
  3
ACAD_LAYOUT
350
11A14
  3
ACAD_MATERIAL
350
119EC
  3
ACAD_MLEADERSTYLE
350
11A48
  3
ACAD_MLINESTYLE
350
11A33
  3
ACAD_PLOTSETTINGS
350
11A34
  3
ACAD_PLOTSTYLENAME
350
119E9
  3
ACAD_SCALELIST
350
11A46
  3
ACAD_SECTIONVIEWSTYLE
350
11BE9
  3
ACAD_TABLESTYLE
350
11A47
  3
ACAD_VISUALSTYLE
350
11A2C
  3
AcadDim
350
11BC6
  3
ACDB_RECOMPOSE_DATA
350
120CC
  3
AcDbVariableDictionary
350
11A49
  3
AcDsDecomposeData
350
120D2
  3
MicroStation
350
11BC5
  0
DICTIONARY
  5
11A1D
330
11A1C
100
AcDbDictionary
280
     1
281
     1
  3
ACAD_LAYERFILTERS
360
11A1E
  3
ACAD_LAYERSTATES
360
11A1F
  3
ACLYDICTIONARY
360
11A20
  0
DICTIONARY
  5
119E6
330
119E5
100
AcDbDictionary
280
     1
281
     1
  3
ADSK_XREC_LAYER_RECONCILED
360
119E7
  0
DICTIONARY
  5
119E2
330
119E1
100
AcDbDictionary
280
     1
281
     1
  3
ACAD_SORTENTS
360
11BBE
  0
DICTIONARY
  5
11A45
102
{ACAD_REACTORS
330
119EA
102
}
330
119EA
100
AcDbDictionary
281
     1
  0
DICTIONARY
  5
11BEB
102
{ACAD_REACTORS
330
119EA
102
}
330
119EA
100
AcDbDictionary
281
     1
  3
Imperial24
350
11BEC
  0
DICTIONARY
  5
11A32
102
{ACAD_REACTORS
330
119EA
102
}
330
119EA
100
AcDbDictionary
281
     1
  0
DICTIONARY
  5
11A14
102
{ACAD_REACTORS
330
119EA
102
}
330
119EA
100
AcDbDictionary
281
     1
  3
Layout1
350
11A19
  3
Model
350
11A13
  0
DICTIONARY
  5
119EC
102
{ACAD_REACTORS
330
119EA
102
}
330
119EA
100
AcDbDictionary
281
     1
  3
ByBlock
350
11A3D
  3
ByLayer
350
11A35
  3
Chrome
350
8DC
  3
Global
350
119EB
  0
DICTIONARY
  5
11A48
102
{ACAD_REACTORS
330
119EA
102
}
330
119EA
100
AcDbDictionary
281
     1
  3
Standard
350
11BC7
  0
DICTIONARY
  5
11A33
102
{ACAD_REACTORS
330
119EA
102
}
330
119EA
100
AcDbDictionary
281
     1
  3
Standard
350
11A5A
  0
DICTIONARY
  5
11A34
102
{ACAD_REACTORS
330
119EA
102
}
330
119EA
100
AcDbDictionary
281
     1
  0
ACDBDICTIONARYWDFLT
  5
119E9
102
{ACAD_REACTORS
330
119EA
102
}
330
119EA
100
AcDbDictionary
281
     1
  3
Normal
350
119E8
100
AcDbDictionaryWithDefault
340
119E8
  0
DICTIONARY
  5
11A46
102
{ACAD_REACTORS
330
119EA
102
}
330
119EA
100
AcDbDictionary
281
     1
  3
A0
350
11A5F
  3
A1
350
11A60
  3
A2
350
11A61
  3
A3
350
11A62
  3
A4
350
11A63
  3
A5
350
11A64
  3
A6
350
11A65
  3
A7
350
11A66
  3
A8
350
11A67
  3
A9
350
11A68
  3
B0
350
11A69
  3
B1
350
11A6A
  3
B2
350
11A6B
  3
B3
350
11A6C
  3
B4
350
11A6D
  3
B5
350
11A6E
  3
B6
350
11A6F
  3
B7
350
11A70
  3
B8
350
11A71
  3
B9
350
11A72
  3
C0
350
11A73
  3
C1
350
11A74
  3
C2
350
11A75
  3
C3
350
11A76
  3
C4
350
11A77
  3
C5
350
11A78
  3
C6
350
11A79
  3
C7
350
11A7A
  3
C8
350
11A7B
  3
C9
350
11A7C
  3
D0
350
11A7D
  3
D1
350
11A7E
  3
D2
350
11A7F
  0
DICTIONARY
  5
11BE9
102
{ACAD_REACTORS
330
119EA
102
}
330
119EA
100
AcDbDictionary
281
     1
  3
Imperial24
350
11BEA
  0
DICTIONARY
  5
11A47
102
{ACAD_REACTORS
330
119EA
102
}
330
119EA
100
AcDbDictionary
281
     1
  3
Standard
350
11A5B
  0
DICTIONARY
  5
11A2C
102
{ACAD_REACTORS
330
119EA
102
}
330
119EA
100
AcDbDictionary
281
     1
  3
2dWireframe
350
11A2B
  3
Basic
350
11BD8
  3
Brighten
350
11BDC
  3
ColorChange
350
11BE0
  3
Conceptual
350
11BDA
  3
Dim
350
11BDB
  3
EdgeColorOff
350
11BE8
  3
Facepattern
350
11BDF
  3
Flat
350
11BD4
  3
FlatWithEdges
350
11BD5
  3
Gouraud
350
11BD6
  3
GouraudWithEdges
350
11BD7
  3
Hidden
350
11BD9
  3
JitterOff
350
11BE6
  3
Linepattern
350
11BDE
  3
OverhangOff
350
11BE7
  3
Realistic
350
11A5D
  3
Shaded
350
11BE5
  3
Shaded with edges
350
11BE4
  3
Shades of Gray
350
11BE1
  3
Sketchy
350
11BE2
  3
Thicken
350
11BDD
  3
Wireframe
350
11A5E
  3
X-Ray
350
11BE3
  0
XRECORD
  5
11BC6
102
{ACAD_REACTORS
330
119EA
102
}
330
119EA
100
AcDbXrecord
280
     1
 90
   990106
  3
 
 60
     0
 61
     0
 62
     1
 63
     1
 64
     0
 65
     0
 66
     0
 67
     3
 68
     1
 69
     1
 70
     0
 71
     0
 72
     0
 40
0.0
170
     0
  0
XRECORD
  5
120CC
102
{ACAD_REACTORS
330
119EA
102
}
330
119EA
100
AcDbXrecord
280
     1
 90
        1
330
11A5B
  0
DICTIONARY
  5
11A49
102
{ACAD_REACTORS
330
119EA
102
}
330
119EA
100
AcDbDictionary
281
     1
  3
CANNOSCALE
350
11A4A
  3
CMLEADERSTYLE
350
11A4B
  3
CTABLESTYLE
350
11A4C
  3
CVIEWDETAILSTYLE
350
11A4D
  3
CVIEWSECTIONSTYLE
350
11A4E
  3
LAYEREVAL
350
11A4F
  3
LAYERNOTIFY
350
11A50
  3
MSLTSCALE
350
11A51
  3
PDFFRAME
350
11A52
  0
DICTIONARY
  5
120D2
102
{ACAD_REACTORS
330
119EA
102
}
330
119EA
100
AcDbDictionary
281
     1
  3
AcDsRecords
350
120D4
  3
AcDsSchemas
350
120D3
1001
ACAD
1070
     2
  0
DICTIONARY
  5
11BC5
102
{ACAD_REACTORS
330
119EA
102
}
330
119EA
100
AcDbDictionary
281
     1
  0
DICTIONARY
  5
11A1E
102
{ACAD_REACTORS
330
11A1D
102
}
330
11A1D
100
AcDbDictionary
281
     1
  0
DICTIONARY
  5
11A1F
102
{ACAD_REACTORS
330
11A1D
102
}
330
11A1D
100
AcDbDictionary
281
     1
  0
DICTIONARY
  5
11A20
102
{ACAD_REACTORS
330
11A1D
102
}
330
11A1D
100
AcDbDictionary
281
     1
  0
XRECORD
  5
119E7
102
{ACAD_REACTORS
330
119E6
102
}
330
119E6
100
AcDbXrecord
280
     1
290
     1
  0
SORTENTSTABLE
  5
11BBE
102
{ACAD_REACTORS
330
119E2
102
}
330
119E2
100
AcDbSortentsTable
330
119E1
  0
ACDBDETAILVIEWSTYLE
  5
11BEC
102
{ACAD_XDICTIONARY
360
120D7
102
}
102
{ACAD_REACTORS
330
11BEB
102
}
330
11BEB
100
AcDbModelDocViewStyle
 70
     0
  3
Imperial24
290
     0
100
AcDbDetailViewStyle
 70
     0
 71
     0
 90
        3
 71
     1
340
11A22
 62
   256
 40
0.24
340
0
 62
   256
 40
0.24
300

 40
0.36
280
     3
 71
     2
340
119F4
 90
       25
 62
   256
 71
     3
340
11A22
 62
   256
 40
0.24
 90
        1
 40
0.75
 90
        1
300
%<\AcVar ViewType \f "%tc1">% %<\AcVar ViewDetailId>%\PSCALE %<\AcVar ViewScale \f "%sn">%
 71
     4
340
119F4
 90
       25
 62
   256
340
119F4
 90
       25
 62
   256
280
     0
  0
LAYOUT
  5
11A19
102
{ACAD_XDICTIONARY
360
11A1A
102
}
102
{ACAD_REACTORS
330
11A14
102
}
330
11A14
100
AcDbPlotSettings
  1

  2
none_device
  4
Letter_(8.50_x_11.00_Inches)
  6

 40
6.35
 41
6.35
 42
6.350006
 43
6.350006
 44
215.899994
 45
279.399994
 46
0.0
 47
0.0
 48
0.0
 49
0.0
140
0.0
141
0.0
142
1.0
143
1.0
 70
   688
 72
     0
 73
     1
 74
     5
  7

 75
    16
147
1.0
 76
     0
 77
     2
 78
   300
148
0.0
149
0.0
100
AcDbLayout
  1
Layout1
 70
     1
 71
     1
 10
-0.25
 20
-0.25
 11
10.75
 21
8.25
 12
0.0
 22
0.0
 32
0.0
 14
1.05
 24
0.8
 34
0.0
 15
9.45
 25
7.2
 35
0.0
146
0.0
 13
0.0
 23
0.0
 33
0.0
 16
1.0
 26
0.0
 36
0.0
 17
0.0
 27
1.0
 37
0.0
 76
     0
330
11A16
1001
ACAD_PSEXT
1000
None
1000
None
1000
Not applicable
1000
The layout will not be plotted unless a new plotter configuration name is selected.
1070
     0
  0
LAYOUT
  5
11A13
102
{ACAD_XDICTIONARY
360
11A15
102
}
102
{ACAD_REACTORS
330
11A14
102
}
330
11A14
100
AcDbPlotSettings
  1

  2
none_device
  4
ANSI_A_(8.50_x_11.00_Inches)
  6

 40
6.35
 41
19.049999
 42
6.350006
 43
19.049988
 44
215.899994
 45
279.399994
 46
0.0
 47
0.0
 48
0.0
 49
0.0
140
0.0
141
0.0
142
1.0
143
2.584895
 70
 11952
 72
     0
 73
     1
 74
     0
  7

 75
     0
147
0.386863
 76
     0
 77
     2
 78
   300
148
0.0
149
0.0
100
AcDbLayout
  1
Model
 70
     1
 71
     0
 10
0.0
 20
0.0
 11
12.0
 21
9.0
 12
0.0
 22
0.0
 32
0.0
 14
0.0
 24
0.0
 34
0.0
 15
0.0
 25
0.0
 35
0.0
146
0.0
 13
0.0
 23
0.0
 33
0.0
 16
1.0
 26
0.0
 36
0.0
 17
0.0
 27
1.0
 37
0.0
 76
     0
330
119E1
  0
MATERIAL
  5
11A3D
102
{ACAD_XDICTIONARY
360
11A3E
102
}
102
{ACAD_REACTORS
330
119EC
102
}
330
119EC
100
AcDbMaterial
  1
ByBlock
 72
     0
 43
0.020833
 43
0.0
 43
0.0
 43
0.0
 43
0.0
 43
0.020833
 43
0.0
 43
0.0
 43
0.0
 43
0.0
 43
1.0
 43
0.0
 43
0.0
 43
0.0
 43
0.0
 43
1.0
 77
     0
 47
0.020833
 47
0.0
 47
0.0
 47
0.0
 47
0.0
 47
0.020833
 47
0.0
 47
0.0
 47
0.0
 47
0.0
 47
1.0
 47
0.0
 47
0.0
 47
0.0
 47
0.0
 47
1.0
171
     0
 49
0.020833
 49
0.0
 49
0.0
 49
0.0
 49
0.0
 49
0.020833
 49
0.0
 49
0.0
 49
0.0
 49
0.0
 49
1.0
 49
0.0
 49
0.0
 49
0.0
 49
0.0
 49
1.0
175
     0
142
0.020833
142
0.0
142
0.0
142
0.0
142
0.0
142
0.020833
142
0.0
142
0.0
142
0.0
142
0.0
142
1.0
142
0.0
142
0.0
142
0.0
142
0.0
142
1.0
179
     0
144
0.020833
144
0.0
144
0.0
144
0.0
144
0.0
144
0.020833
144
0.0
144
0.0
144
0.0
144
0.0
144
1.0
144
0.0
144
0.0
144
0.0
144
0.0
144
1.0
147
0.020833
147
0.0
147
0.0
147
0.0
147
0.0
147
0.020833
147
0.0
147
0.0
147
0.0
147
0.0
147
1.0
147
0.0
147
0.0
147
0.0
147
0.0
147
1.0
  0
MATERIAL
  5
11A35
102
{ACAD_XDICTIONARY
360
11A36
102
}
102
{ACAD_REACTORS
330
119EC
102
}
330
119EC
100
AcDbMaterial
  1
ByLayer
 72
     0
 43
0.020833
 43
0.0
 43
0.0
 43
0.0
 43
0.0
 43
0.020833
 43
0.0
 43
0.0
 43
0.0
 43
0.0
 43
1.0
 43
0.0
 43
0.0
 43
0.0
 43
0.0
 43
1.0
 77
     0
 47
0.020833
 47
0.0
 47
0.0
 47
0.0
 47
0.0
 47
0.020833
 47
0.0
 47
0.0
 47
0.0
 47
0.0
 47
1.0
 47
0.0
 47
0.0
 47
0.0
 47
0.0
 47
1.0
171
     0
 49
0.020833
 49
0.0
 49
0.0
 49
0.0
 49
0.0
 49
0.020833
 49
0.0
 49
0.0
 49
0.0
 49
0.0
 49
1.0
 49
0.0
 49
0.0
 49
0.0
 49
0.0
 49
1.0
175
     0
142
0.020833
142
0.0
142
0.0
142
0.0
142
0.0
142
0.020833
142
0.0
142
0.0
142
0.0
142
0.0
142
1.0
142
0.0
142
0.0
142
0.0
142
0.0
142
1.0
179
     0
144
0.020833
144
0.0
144
0.0
144
0.0
144
0.0
144
0.020833
144
0.0
144
0.0
144
0.0
144
0.0
144
1.0
144
0.0
144
0.0
144
0.0
144
0.0
144
1.0
147
0.020833
147
0.0
147
0.0
147
0.0
147
0.0
147
0.020833
147
0.0
147
0.0
147
0.0
147
0.0
147
1.0
147
0.0
147
0.0
147
0.0
147
0.0
147
1.0
  0
MATERIAL
  5
8DC
102
{ACAD_XDICTIONARY
360
11BC0
102
}
102
{ACAD_REACTORS
330
119EC
102
}
330
119EC
100
AcDbMaterial
  1
Chrome
 71
     1
 41
0.2
 91
-1026370853
 72
     0
 44
10.0
 76
     1
 45
0.76
 92
-1026299413
 77
     0
175
     0
468
0.5
 93
        1
 94
       39
  0
MATERIAL
  5
119EB
102
{ACAD_XDICTIONARY
360
119ED
102
}
102
{ACAD_REACTORS
330
119EC
102
}
330
119EC
100
AcDbMaterial
  1
Global
 72
     0
 43
0.020833
 43
0.0
 43
0.0
 43
0.0
 43
0.0
 43
0.020833
 43
0.0
 43
0.0
 43
0.0
 43
0.0
 43
1.0
 43
0.0
 43
0.0
 43
0.0
 43
0.0
 43
1.0
 77
     0
 47
0.020833
 47
0.0
 47
0.0
 47
0.0
 47
0.0
 47
0.020833
 47
0.0
 47
0.0
 47
0.0
 47
0.0
 47
1.0
 47
0.0
 47
0.0
 47
0.0
 47
0.0
 47
1.0
171
     0
 49
0.020833
 49
0.0
 49
0.0
 49
0.0
 49
0.0
 49
0.020833
 49
0.0
 49
0.0
 49
0.0
 49
0.0
 49
1.0
 49
0.0
 49
0.0
 49
0.0
 49
0.0
 49
1.0
175
     0
142
0.020833
142
0.0
142
0.0
142
0.0
142
0.0
142
0.020833
142
0.0
142
0.0
142
0.0
142
0.0
142
1.0
142
0.0
142
0.0
142
0.0
142
0.0
142
1.0
179
     0
144
0.020833
144
0.0
144
0.0
144
0.0
144
0.0
144
0.020833
144
0.0
144
0.0
144
0.0
144
0.0
144
1.0
144
0.0
144
0.0
144
0.0
144
0.0
144
1.0
147
0.020833
147
0.0
147
0.0
147
0.0
147
0.0
147
0.020833
147
0.0
147
0.0
147
0.0
147
0.0
147
1.0
147
0.0
147
0.0
147
0.0
147
0.0
147
1.0
  0
MLEADERSTYLE
  5
11BC7
102
{ACAD_REACTORS
330
11A48
102
}
330
11A48
100
AcDbMLeaderStyle
179
     2
170
     2
171
     1
172
     0
 90
        2
 40
0.0
 41
0.0
173
     1
 91
-1073741824
 92
       -2
290
     1
 42
1.5
291
     1
 43
3.0
  3

 44
3.0
300

342
313
174
     1
178
     1
175
     1
176
     0
 93
-1073741824
 45
3.0
292
     0
297
     1
 46
5.0
 94
-1073741824
 47
1.0
 49
1.0
140
1.0
293
     1
141
0.0
294
     1
177
     0
142
1.0
295
     0
296
     0
143
0.125
271
     0
272
     9
273
     9
298
     0
  0
MLINESTYLE
  5
11A5A
102
{ACAD_REACTORS
330
11A33
102
}
330
11A33
100
AcDbMlineStyle
  2
STANDARD
 70
     0
  3

 62
   256
 51
90.0
 52
90.0
 71
     2
 49
0.5
 62
   256
  6
BYLAYER
 49
-0.5
 62
   256
  6
BYLAYER
  0
ACDBPLACEHOLDER
  5
119E8
102
{ACAD_REACTORS
330
119E9
102
}
330
119E9
  0
SCALE
  5
11A5F
102
{ACAD_REACTORS
330
11A46
102
}
330
11A46
100
AcDbScale
 70
     0
300
1:1
140
1.0
141
1.0
290
     1
  0
SCALE
  5
11A60
102
{ACAD_REACTORS
330
11A46
102
}
330
11A46
100
AcDbScale
 70
     0
300
1:2
140
1.0
141
2.0
290
     0
  0
SCALE
  5
11A61
102
{ACAD_REACTORS
330
11A46
102
}
330
11A46
100
AcDbScale
 70
     0
300
1:4
140
1.0
141
4.0
290
     0
  0
SCALE
  5
11A62
102
{ACAD_REACTORS
330
11A46
102
}
330
11A46
100
AcDbScale
 70
     0
300
1:5
140
1.0
141
5.0
290
     0
  0
SCALE
  5
11A63
102
{ACAD_REACTORS
330
11A46
102
}
330
11A46
100
AcDbScale
 70
     0
300
1:8
140
1.0
141
8.0
290
     0
  0
SCALE
  5
11A64
102
{ACAD_REACTORS
330
11A46
102
}
330
11A46
100
AcDbScale
 70
     0
300
1:10
140
1.0
141
10.0
290
     0
  0
SCALE
  5
11A65
102
{ACAD_REACTORS
330
11A46
102
}
330
11A46
100
AcDbScale
 70
     0
300
1:16
140
1.0
141
16.0
290
     0
  0
SCALE
  5
11A66
102
{ACAD_REACTORS
330
11A46
102
}
330
11A46
100
AcDbScale
 70
     0
300
1:20
140
1.0
141
20.0
290
     0
  0
SCALE
  5
11A67
102
{ACAD_REACTORS
330
11A46
102
}
330
11A46
100
AcDbScale
 70
     0
300
1:30
140
1.0
141
30.0
290
     0
  0
SCALE
  5
11A68
102
{ACAD_REACTORS
330
11A46
102
}
330
11A46
100
AcDbScale
 70
     0
300
1:40
140
1.0
141
40.0
290
     0
  0
SCALE
  5
11A69
102
{ACAD_REACTORS
330
11A46
102
}
330
11A46
100
AcDbScale
 70
     0
300
1:50
140
1.0
141
50.0
290
     0
  0
SCALE
  5
11A6A
102
{ACAD_REACTORS
330
11A46
102
}
330
11A46
100
AcDbScale
 70
     0
300
1:100
140
1.0
141
100.0
290
     0
  0
SCALE
  5
11A6B
102
{ACAD_REACTORS
330
11A46
102
}
330
11A46
100
AcDbScale
 70
     0
300
2:1
140
2.0
141
1.0
290
     0
  0
SCALE
  5
11A6C
102
{ACAD_REACTORS
330
11A46
102
}
330
11A46
100
AcDbScale
 70
     0
300
4:1
140
4.0
141
1.0
290
     0
  0
SCALE
  5
11A6D
102
{ACAD_REACTORS
330
11A46
102
}
330
11A46
100
AcDbScale
 70
     0
300
8:1
140
8.0
141
1.0
290
     0
  0
SCALE
  5
11A6E
102
{ACAD_REACTORS
330
11A46
102
}
330
11A46
100
AcDbScale
 70
     0
300
10:1
140
10.0
141
1.0
290
     0
  0
SCALE
  5
11A6F
102
{ACAD_REACTORS
330
11A46
102
}
330
11A46
100
AcDbScale
 70
     0
300
100:1
140
100.0
141
1.0
290
     0
  0
SCALE
  5
11A70
102
{ACAD_REACTORS
330
11A46
102
}
330
11A46
100
AcDbScale
 70
     0
300
1/128" = 1'-0"
140
0.007813
141
12.0
290
     0
  0
SCALE
  5
11A71
102
{ACAD_REACTORS
330
11A46
102
}
330
11A46
100
AcDbScale
 70
     0
300
1/64" = 1'-0"
140
0.015625
141
12.0
290
     0
  0
SCALE
  5
11A72
102
{ACAD_REACTORS
330
11A46
102
}
330
11A46
100
AcDbScale
 70
     0
300
1/32" = 1'-0"
140
0.03125
141
12.0
290
     0
  0
SCALE
  5
11A73
102
{ACAD_REACTORS
330
11A46
102
}
330
11A46
100
AcDbScale
 70
     0
300
1/16" = 1'-0"
140
0.0625
141
12.0
290
     0
  0
SCALE
  5
11A74
102
{ACAD_REACTORS
330
11A46
102
}
330
11A46
100
AcDbScale
 70
     0
300
3/32" = 1'-0"
140
0.09375
141
12.0
290
     0
  0
SCALE
  5
11A75
102
{ACAD_REACTORS
330
11A46
102
}
330
11A46
100
AcDbScale
 70
     0
300
1/8" = 1'-0"
140
0.125
141
12.0
290
     0
  0
SCALE
  5
11A76
102
{ACAD_REACTORS
330
11A46
102
}
330
11A46
100
AcDbScale
 70
     0
300
3/16" = 1'-0"
140
0.1875
141
12.0
290
     0
  0
SCALE
  5
11A77
102
{ACAD_REACTORS
330
11A46
102
}
330
11A46
100
AcDbScale
 70
     0
300
1/4" = 1'-0"
140
0.25
141
12.0
290
     0
  0
SCALE
  5
11A78
102
{ACAD_REACTORS
330
11A46
102
}
330
11A46
100
AcDbScale
 70
     0
300
3/8" = 1'-0"
140
0.375
141
12.0
290
     0
  0
SCALE
  5
11A79
102
{ACAD_REACTORS
330
11A46
102
}
330
11A46
100
AcDbScale
 70
     0
300
1/2" = 1'-0"
140
0.5
141
12.0
290
     0
  0
SCALE
  5
11A7A
102
{ACAD_REACTORS
330
11A46
102
}
330
11A46
100
AcDbScale
 70
     0
300
3/4" = 1'-0"
140
0.75
141
12.0
290
     0
  0
SCALE
  5
11A7B
102
{ACAD_REACTORS
330
11A46
102
}
330
11A46
100
AcDbScale
 70
     0
300
1" = 1'-0"
140
1.0
141
12.0
290
     0
  0
SCALE
  5
11A7C
102
{ACAD_REACTORS
330
11A46
102
}
330
11A46
100
AcDbScale
 70
     0
300
1-1/2" = 1'-0"
140
1.5
141
12.0
290
     0
  0
SCALE
  5
11A7D
102
{ACAD_REACTORS
330
11A46
102
}
330
11A46
100
AcDbScale
 70
     0
300
3" = 1'-0"
140
3.0
141
12.0
290
     0
  0
SCALE
  5
11A7E
102
{ACAD_REACTORS
330
11A46
102
}
330
11A46
100
AcDbScale
 70
     0
300
6" = 1'-0"
140
6.0
141
12.0
290
     0
  0
SCALE
  5
11A7F
102
{ACAD_REACTORS
330
11A46
102
}
330
11A46
100
AcDbScale
 70
     0
300
1'-0" = 1'-0"
140
12.0
141
12.0
290
     0
  0
ACDBSECTIONVIEWSTYLE
  5
11BEA
102
{ACAD_XDICTIONARY
360
120D5
102
}
102
{ACAD_REACTORS
330
11BE9
102
}
330
11BE9
100
AcDbModelDocViewStyle
 70
     0
  3
Imperial24
290
     0
100
AcDbSectionViewStyle
 70
     0
 71
     0
 90
       78
 71
     1
340
11A22
 62
   256
 40
0.24
340
0
340
0
 62
   256
 40
0.24
300
I, O, Q, S, X, Z
 40
0.48
 90
        3
 40
0.18
 90
        1
 71
     2
340
119F4
 90
       25
 62
   256
340
119F4
 90
       50
 62
   256
 40
0.24
 40
0.0
 40
0.24
 71
     3
340
11A22
 62
   256
 40
0.24
 90
        1
 40
0.75
 90
        1
300
%<\AcVar ViewType \f "%tc1">% %<\AcVar ViewSectionStartId>%-%<\AcVar ViewSectionEndId>%\PSCALE %<\AcVar ViewScale \f "%sn">%
 71
     4
 62
   256
 62
   257
300
ANSI31
 40
1.0
 90
        0
290
     0
290
     0
 90
        6
 40
0.0
 40
1.570796
 40
0.261799
 40
1.308997
 40
-0.261799
 40
1.832596
  0
TABLESTYLE
  5
11A5B
102
{ACAD_XDICTIONARY
360
11A5C
102
}
102
{ACAD_REACTORS
330
11A47
102
}
330
11A47
100
AcDbTableStyle
280
     0
  3
Standard
 70
     0
 71
     0
 40
0.06
 41
0.06
280
     0
281
     0
  7
Standard
140
0.18
170
     2
 62
     0
 63
     7
283
     0
 90
        4
 91
        0
  1

274
    -2
284
     1
 64
     0
275
    -2
285
     1
 65
     0
276
    -2
286
     1
 66
     0
277
    -2
287
     1
 67
     0
278
    -2
288
     1
 68
     0
279
    -2
289
     1
 69
     0
  7
Standard
140
0.25
170
     5
 62
     0
 63
     7
283
     0
 90
        4
 91
        0
  1

274
    -2
284
     1
 64
     0
275
    -2
285
     1
 65
     0
276
    -2
286
     1
 66
     0
277
    -2
287
     1
 67
     0
278
    -2
288
     1
 68
     0
279
    -2
289
     1
 69
     0
  7
Standard
140
0.18
170
     5
 62
     0
 63
     7
283
     0
 90
        4
 91
        0
  1

274
    -2
284
     1
 64
     0
275
    -2
285
     1
 65
     0
276
    -2
286
     1
 66
     0
277
    -2
287
     1
 67
     0
278
    -2
288
     1
 68
     0
279
    -2
289
     1
 69
     0
  0
VISUALSTYLE
  5
11A2B
102
{ACAD_REACTORS
330
11A2C
102
}
330
11A2C
100
AcDbVisualStyle
  2
2dWireframe
 70
     4
177
     3
291
     0
 70
    58
 90
        0
176
     1
 90
        2
176
     1
 90
        0
176
     1
 90
        0
176
     1
 40
0.6
176
     1
 40
30.0
176
     1
 62
     7
420
 16777215
176
     1
 90
        1
176
     1
 90
        4
176
     1
 62
     7
176
     1
 62
   257
176
     1
 90
        1
176
     1
 90
        1
176
     1
 40
1.0
176
     1
 90
        0
176
     1
 62
   257
176
     1
 40
1.0
176
     1
 90
        1
176
     1
 90
        6
176
     1
 90
        2
176
     1
 62
     7
176
     1
 90
        5
176
     1
 90
        0
176
     1
 90
        0
176
     1
290
     0
176
     1
 90
        1
176
     1
 40
0.0
176
     1
 90
        0
176
     1
290
     1
176
     1
290
     1
176
     1
290
     0
176
     1
290
     0
176
     1
290
     0
176
     1
290
     0
176
     1
290
     0
176
     1
290
     0
176
     1
290
     0
176
     1
 90
       50
176
     1
 40
0.0
176
     1
 40
1.0
176
     1
 90
        0
176
     1
 62
    18
420
        0
176
     1
 90
       50
176
     1
 90
        3
176
     1
 62
     5
420
      255
176
     1
290
     0
176
     1
 90
       50
176
     1
 90
       50
176
     1
 90
       50
176
     1
290
     0
176
     1
 90
       50
176
     1
 62
   256
176
     0
 40
1.0
176
     0
 90
        2
176
     1
  1
strokes_ogs.tif
176
     1
290
     0
176
     1
 40
1.0
176
     1
 40
1.0
176
     1
1001
ACAD
1000
AcDbSavedByObjectVersion
1070
     0
  0
VISUALSTYLE
  5
11BD8
102
{ACAD_REACTORS
330
11A2C
102
}
330
11A2C
100
AcDbVisualStyle
  2
Basic
 70
     7
177
     3
291
     1
 70
    58
 90
        1
176
     1
 90
        0
176
     1
 90
        1
176
     1
 90
        0
176
     1
 40
0.6
176
     1
 40
30.0
176
     1
 62
     7
420
 16777215
176
     1
 90
        0
176
     1
 90
        4
176
     1
 62
     7
176
     1
 62
   257
176
     1
 90
        1
176
     1
 90
        1
176
     1
 40
1.0
176
     1
 90
        8
176
     1
 62
     7
176
     1
 40
1.0
176
     1
 90
        1
176
     1
 90
        6
176
     1
 90
        2
176
     1
 62
     7
176
     1
 90
        5
176
     1
 90
        0
176
     1
 90
        0
176
     1
290
     0
176
     1
 90
        1
176
     1
 40
0.0
176
     1
 90
        0
176
     1
290
     0
176
     1
290
     1
176
     1
290
     1
176
     1
290
     0
176
     1
290
     0
176
     1
290
     0
176
     1
290
     0
176
     1
290
     0
176
     1
290
     0
176
     1
 90
       50
176
     1
 40
0.0
176
     1
 40
1.0
176
     1
 90
        0
176
     1
 62
    18
420
        0
176
     1
 90
       50
176
     1
 90
        3
176
     1
 62
     5
420
      255
176
     1
290
     0
176
     1
 90
       50
176
     1
 90
       50
176
     1
 90
       50
176
     1
290
     0
176
     1
 90
       50
176
     1
 62
   256
176
     0
 40
1.0
176
     0
 90
        2
176
     1
  1
strokes_ogs.tif
176
     1
290
     0
176
     1
 40
1.0
176
     1
 40
1.0
176
     1
1001
ACAD
1000
AcDbSavedByObjectVersion
1070
     0
  0
VISUALSTYLE
  5
11BDC
102
{ACAD_REACTORS
330
11A2C
102
}
330
11A2C
100
AcDbVisualStyle
  2
Brighten
 70
    12
177
     3
291
     1
 70
    58
 90
        2
176
     1
 90
        2
176
     1
 90
        0
176
     1
 90
        0
176
     1
 40
0.6
176
     1
 40
30.0
176
     1
 62
     7
420
 16777215
176
     1
 90
        1
176
     1
 90
        4
176
     1
 62
     7
176
     1
 62
   257
176
     1
 90
        1
176
     1
 90
        1
176
     1
 40
1.0
176
     1
 90
        8
176
     1
 62
     7
176
     1
 40
1.0
176
     1
 90
        1
176
     1
 90
        6
176
     1
 90
        2
176
     1
 62
     7
176
     1
 90
        5
176
     1
 90
        0
176
     1
 90
        0
176
     1
290
     0
176
     1
 90
        1
176
     1
 40
50.0
176
     1
 90
        0
176
     1
290
     0
176
     1
290
     1
176
     1
290
     1
176
     1
290
     0
176
     1
290
     0
176
     1
290
     0
176
     1
290
     0
176
     1
290
     0
176
     1
290
     0
176
     1
 90
       50
176
     1
 40
0.0
176
     1
 40
1.0
176
     1
 90
        0
176
     1
 62
    18
420
        0
176
     1
 90
       50
176
     1
 90
        3
176
     1
 62
     5
420
      255
176
     1
290
     0
176
     1
 90
       50
176
     1
 90
       50
176
     1
 90
       50
176
     1
290
     0
176
     1
 90
       50
176
     1
 62
   256
176
     0
 40
1.0
176
     0
 90
        2
176
     1
  1
strokes_ogs.tif
176
     1
290
     0
176
     1
 40
1.0
176
     1
 40
1.0
176
     1
1001
ACAD
1000
AcDbSavedByObjectVersion
1070
     0
  0
VISUALSTYLE
  5
11BE0
102
{ACAD_REACTORS
330
11A2C
102
}
330
11A2C
100
AcDbVisualStyle
  2
ColorChange
 70
    16
177
     3
291
     1
 70
    58
 90
        2
176
     1
 90
        2
176
     1
 90
        3
176
     1
 90
        0
176
     1
 40
0.6
176
     1
 40
30.0
176
     1
 62
     8
420
  8421504
176
     1
 90
        1
176
     1
 90
        4
176
     1
 62
     7
176
     1
 62
   257
176
     1
 90
        1
176
     1
 90
        1
176
     1
 40
1.0
176
     1
 90
        8
176
     1
 62
     8
420
  8421504
176
     1
 40
1.0
176
     1
 90
        1
176
     1
 90
        6
176
     1
 90
        2
176
     1
 62
     7
176
     1
 90
        5
176
     1
 90
        0
176
     1
 90
        0
176
     1
290
     0
176
     1
 90
        1
176
     1
 40
0.0
176
     1
 90
        0
176
     1
290
     0
176
     1
290
     1
176
     1
290
     1
176
     1
290
     0
176
     1
290
     0
176
     1
290
     0
176
     1
290
     0
176
     1
290
     0
176
     1
290
     0
176
     1
 90
       50
176
     1
 40
0.0
176
     1
 40
1.0
176
     1
 90
        0
176
     1
 62
    18
420
        0
176
     1
 90
       50
176
     1
 90
        3
176
     1
 62
     5
420
      255
176
     1
290
     0
176
     1
 90
       50
176
     1
 90
       50
176
     1
 90
       50
176
     1
290
     0
176
     1
 90
       50
176
     1
 62
   256
176
     0
 40
1.0
176
     0
 90
        2
176
     1
  1
strokes_ogs.tif
176
     1
290
     0
176
     1
 40
1.0
176
     1
 40
1.0
176
     1
1001
ACAD
1000
AcDbSavedByObjectVersion
1070
     0
  0
VISUALSTYLE
  5
11BDA
102
{ACAD_REACTORS
330
11A2C
102
}
330
11A2C
100
AcDbVisualStyle
  2
Conceptual
 70
     9
177
     3
291
     0
 70
    58
 90
        3
176
     1
 90
        2
176
     1
 90
        0
176
     1
 90
        0
176
     1
 40
0.6
176
     1
 40
30.0
176
     1
 62
     7
420
 16777215
176
     1
 90
        2
176
     1
 90
        2
176
     1
 62
     7
176
     1
 62
   257
176
     1
 90
        1
176
     1
 90
        1
176
     1
 40
179.0
176
     1
 90
        8
176
     1
 62
     7
176
     1
 40
1.0
176
     1
 90
        1
176
     1
 90
        6
176
     1
 90
        2
176
     1
 62
     7
176
     1
 90
        3
176
     1
 90
        0
176
     1
 90
        0
176
     1
290
     0
176
     1
 90
        1
176
     1
 40
0.0
176
     1
 90
        0
176
     1
290
     0
176
     1
290
     1
176
     1
290
     1
176
     1
290
     0
176
     1
290
     0
176
     1
290
     0
176
     1
290
     0
176
     1
290
     0
176
     1
290
     0
176
     1
 90
       50
176
     1
 40
0.0
176
     1
 40
1.0
176
     1
 90
        0
176
     1
 62
    18
420
        0
176
     1
 90
       50
176
     1
 90
        3
176
     1
 62
     5
420
      255
176
     1
290
     0
176
     1
 90
       50
176
     1
 90
       50
176
     1
 90
       50
176
     1
290
     0
176
     1
 90
       50
176
     1
 62
   256
176
     0
 40
1.0
176
     0
 90
        2
176
     1
  1
strokes_ogs.tif
176
     1
290
     0
176
     1
 40
1.0
176
     1
 40
1.0
176
     1
1001
ACAD
1000
AcDbSavedByObjectVersion
1070
     0
  0
VISUALSTYLE
  5
11BDB
102
{ACAD_REACTORS
330
11A2C
102
}
330
11A2C
100
AcDbVisualStyle
  2
Dim
 70
    11
177
     3
291
     1
 70
    58
 90
        2
176
     1
 90
        2
176
     1
 90
        0
176
     1
 90
        0
176
     1
 40
0.6
176
     1
 40
30.0
176
     1
 62
     7
420
 16777215
176
     1
 90
        1
176
     1
 90
        4
176
     1
 62
     7
176
     1
 62
   257
176
     1
 90
        1
176
     1
 90
        1
176
     1
 40
1.0
176
     1
 90
        8
176
     1
 62
     7
176
     1
 40
1.0
176
     1
 90
        1
176
     1
 90
        6
176
     1
 90
        2
176
     1
 62
     7
176
     1
 90
        5
176
     1
 90
        0
176
     1
 90
        0
176
     1
290
     0
176
     1
 90
        1
176
     1
 40
-50.0
176
     1
 90
        0
176
     1
290
     0
176
     1
290
     1
176
     1
290
     1
176
     1
290
     0
176
     1
290
     0
176
     1
290
     0
176
     1
290
     0
176
     1
290
     0
176
     1
290
     0
176
     1
 90
       50
176
     1
 40
0.0
176
     1
 40
1.0
176
     1
 90
        0
176
     1
 62
    18
420
        0
176
     1
 90
       50
176
     1
 90
        3
176
     1
 62
     5
420
      255
176
     1
290
     0
176
     1
 90
       50
176
     1
 90
       50
176
     1
 90
       50
176
     1
290
     0
176
     1
 90
       50
176
     1
 62
   256
176
     0
 40
1.0
176
     0
 90
        2
176
     1
  1
strokes_ogs.tif
176
     1
290
     0
176
     1
 40
1.0
176
     1
 40
1.0
176
     1
1001
ACAD
1000
AcDbSavedByObjectVersion
1070
     0
  0
VISUALSTYLE
  5
11BE8
102
{ACAD_REACTORS
330
11A2C
102
}
330
11A2C
100
AcDbVisualStyle
  2
EdgeColorOff
 70
    22
177
     3
291
     1
 70
    58
 90
        2
176
     0
 90
        2
176
     0
 90
        0
176
     0
 90
        0
176
     0
 40
0.6
176
     0
 40
30.0
176
     0
 62
     7
420
 16777215
176
     0
 90
        1
176
     0
 90
        4
176
     0
 62
     7
176
     0
 62
   257
176
     0
 90
        1
176
     0
 90
        1
176
     0
 40
1.0
176
     0
 90
        8
176
     2
 62
     7
176
     0
 40
1.0
176
     0
 90
        1
176
     0
 90
        6
176
     0
 90
        2
176
     0
 62
     7
176
     0
 90
        5
176
     0
 90
        0
176
     0
 90
        0
176
     0
290
     0
176
     0
 90
        1
176
     0
 40
0.0
176
     0
 90
        0
176
     0
290
     0
176
     0
290
     1
176
     0
290
     1
176
     0
290
     0
176
     0
290
     0
176
     0
290
     0
176
     0
290
     0
176
     0
290
     0
176
     0
290
     0
176
     0
 90
       50
176
     0
 40
0.0
176
     0
 40
1.0
176
     0
 90
        0
176
     0
 62
    18
420
        0
176
     0
 90
       50
176
     0
 90
        3
176
     0
 62
     5
420
      255
176
     0
290
     0
176
     0
 90
       50
176
     0
 90
       50
176
     0
 90
       50
176
     0
290
     0
176
     0
 90
       50
176
     0
 62
   256
176
     0
 40
1.0
176
     0
 90
        2
176
     0
  1
strokes_ogs.tif
176
     0
290
     0
176
     0
 40
1.0
176
     0
 40
1.0
176
     0
1001
ACAD
1000
AcDbSavedByObjectVersion
1070
     0
  0
VISUALSTYLE
  5
11BDF
102
{ACAD_REACTORS
330
11A2C
102
}
330
11A2C
100
AcDbVisualStyle
  2
Facepattern
 70
    15
177
     3
291
     1
 70
    58
 90
        2
176
     1
 90
        2
176
     1
 90
        0
176
     1
 90
        0
176
     1
 40
0.6
176
     1
 40
30.0
176
     1
 62
     7
420
 16777215
176
     1
 90
        1
176
     1
 90
        4
176
     1
 62
     7
176
     1
 62
   257
176
     1
 90
        1
176
     1
 90
        1
176
     1
 40
1.0
176
     1
 90
        8
176
     1
 62
     7
176
     1
 40
1.0
176
     1
 90
        1
176
     1
 90
        6
176
     1
 90
        2
176
     1
 62
     7
176
     1
 90
        5
176
     1
 90
        0
176
     1
 90
        0
176
     1
290
     0
176
     1
 90
        1
176
     1
 40
0.0
176
     1
 90
        0
176
     1
290
     0
176
     1
290
     1
176
     1
290
     1
176
     1
290
     0
176
     1
290
     0
176
     1
290
     0
176
     1
290
     0
176
     1
290
     0
176
     1
290
     0
176
     1
 90
       50
176
     1
 40
0.0
176
     1
 40
1.0
176
     1
 90
        0
176
     1
 62
    18
420
        0
176
     1
 90
       50
176
     1
 90
        3
176
     1
 62
     5
420
      255
176
     1
290
     0
176
     1
 90
       50
176
     1
 90
       50
176
     1
 90
       50
176
     1
290
     0
176
     1
 90
       50
176
     1
 62
   256
176
     0
 40
1.0
176
     0
 90
        2
176
     1
  1
strokes_ogs.tif
176
     1
290
     0
176
     1
 40
1.0
176
     1
 40
1.0
176
     1
1001
ACAD
1000
AcDbSavedByObjectVersion
1070
     0
  0
VISUALSTYLE
  5
11BD4
102
{ACAD_REACTORS
330
11A2C
102
}
330
11A2C
100
AcDbVisualStyle
  2
Flat
 70
     0
177
     3
291
     1
 70
    58
 90
        2
176
     1
 90
        1
176
     1
 90
        1
176
     1
 90
        2
176
     1
 40
0.6
176
     1
 40
30.0
176
     1
 62
     7
420
 16777215
176
     1
 90
        0
176
     1
 90
        0
176
     1
 62
     7
176
     1
 62
   257
176
     1
 90
        1
176
     1
 90
        1
176
     1
 40
1.0
176
     1
 90
        8
176
     1
 62
     7
176
     1
 40
1.0
176
     1
 90
        1
176
     1
 90
        6
176
     1
 90
        2
176
     1
 62
     7
176
     1
 90
        5
176
     1
 90
        0
176
     1
 90
        0
176
     1
290
     0
176
     1
 90
       13
176
     1
 40
0.0
176
     1
 90
        0
176
     1
290
     0
176
     1
290
     1
176
     1
290
     1
176
     1
290
     0
176
     1
290
     0
176
     1
290
     0
176
     1
290
     0
176
     1
290
     0
176
     1
290
     0
176
     1
 90
       50
176
     1
 40
0.0
176
     1
 40
1.0
176
     1
 90
        0
176
     1
 62
    18
420
        0
176
     1
 90
       50
176
     1
 90
        3
176
     1
 62
     5
420
      255
176
     1
290
     0
176
     1
 90
       50
176
     1
 90
       50
176
     1
 90
       50
176
     1
290
     0
176
     1
 90
       50
176
     1
 62
   256
176
     0
 40
1.0
176
     0
 90
        2
176
     1
  1
strokes_ogs.tif
176
     1
290
     0
176
     1
 40
1.0
176
     1
 40
1.0
176
     1
1001
ACAD
1000
AcDbSavedByObjectVersion
1070
     0
  0
VISUALSTYLE
  5
11BD5
102
{ACAD_REACTORS
330
11A2C
102
}
330
11A2C
100
AcDbVisualStyle
  2
FlatWithEdges
 70
     1
177
     3
291
     1
 70
    58
 90
        2
176
     1
 90
        1
176
     1
 90
        1
176
     1
 90
        2
176
     1
 40
0.6
176
     1
 40
30.0
176
     1
 62
     7
420
 16777215
176
     1
 90
        1
176
     1
 90
        0
176
     1
 62
     7
176
     1
 62
   257
176
     1
 90
        1
176
     1
 90
        1
176
     1
 40
1.0
176
     1
 90
        0
176
     1
 62
   257
176
     1
 40
1.0
176
     1
 90
        1
176
     1
 90
        6
176
     1
 90
        2
176
     1
 62
     7
176
     1
 90
        5
176
     1
 90
        0
176
     1
 90
        0
176
     1
290
     0
176
     1
 90
       13
176
     1
 40
0.0
176
     1
 90
        0
176
     1
290
     0
176
     1
290
     1
176
     1
290
     1
176
     1
290
     0
176
     1
290
     0
176
     1
290
     0
176
     1
290
     0
176
     1
290
     0
176
     1
290
     0
176
     1
 90
       50
176
     1
 40
0.0
176
     1
 40
1.0
176
     1
 90
        0
176
     1
 62
    18
420
        0
176
     1
 90
       50
176
     1
 90
        3
176
     1
 62
     5
420
      255
176
     1
290
     0
176
     1
 90
       50
176
     1
 90
       50
176
     1
 90
       50
176
     1
290
     0
176
     1
 90
       50
176
     1
 62
   256
176
     0
 40
1.0
176
     0
 90
        2
176
     1
  1
strokes_ogs.tif
176
     1
290
     0
176
     1
 40
1.0
176
     1
 40
1.0
176
     1
1001
ACAD
1000
AcDbSavedByObjectVersion
1070
     0
  0
VISUALSTYLE
  5
11BD6
102
{ACAD_REACTORS
330
11A2C
102
}
330
11A2C
100
AcDbVisualStyle
  2
Gouraud
 70
     2
177
     3
291
     1
 70
    58
 90
        2
176
     1
 90
        2
176
     1
 90
        1
176
     1
 90
        2
176
     1
 40
0.6
176
     1
 40
30.0
176
     1
 62
     7
420
 16777215
176
     1
 90
        0
176
     1
 90
        0
176
     1
 62
     7
176
     1
 62
   257
176
     1
 90
        1
176
     1
 90
        1
176
     1
 40
1.0
176
     1
 90
        0
176
     1
 62
     7
176
     1
 40
1.0
176
     1
 90
        1
176
     1
 90
        6
176
     1
 90
        2
176
     1
 62
     7
176
     1
 90
        5
176
     1
 90
        0
176
     1
 90
        0
176
     1
290
     0
176
     1
 90
       13
176
     1
 40
0.0
176
     1
 90
        0
176
     1
290
     0
176
     1
290
     1
176
     1
290
     1
176
     1
290
     0
176
     1
290
     0
176
     1
290
     0
176
     1
290
     0
176
     1
290
     0
176
     1
290
     0
176
     1
 90
       50
176
     1
 40
0.0
176
     1
 40
1.0
176
     1
 90
        0
176
     1
 62
    18
420
        0
176
     1
 90
       50
176
     1
 90
        3
176
     1
 62
     5
420
      255
176
     1
290
     0
176
     1
 90
       50
176
     1
 90
       50
176
     1
 90
       50
176
     1
290
     0
176
     1
 90
       50
176
     1
 62
   256
176
     0
 40
1.0
176
     0
 90
        2
176
     1
  1
strokes_ogs.tif
176
     1
290
     0
176
     1
 40
1.0
176
     1
 40
1.0
176
     1
1001
ACAD
1000
AcDbSavedByObjectVersion
1070
     0
  0
VISUALSTYLE
  5
11BD7
102
{ACAD_REACTORS
330
11A2C
102
}
330
11A2C
100
AcDbVisualStyle
  2
GouraudWithEdges
 70
     3
177
     3
291
     1
 70
    58
 90
        2
176
     1
 90
        2
176
     1
 90
        1
176
     1
 90
        2
176
     1
 40
0.6
176
     1
 40
30.0
176
     1
 62
     7
420
 16777215
176
     1
 90
        1
176
     1
 90
        0
176
     1
 62
     7
176
     1
 62
   257
176
     1
 90
        1
176
     1
 90
        1
176
     1
 40
1.0
176
     1
 90
        0
176
     1
 62
   257
176
     1
 40
1.0
176
     1
 90
        1
176
     1
 90
        6
176
     1
 90
        2
176
     1
 62
     7
176
     1
 90
        5
176
     1
 90
        0
176
     1
 90
        0
176
     1
290
     0
176
     1
 90
       13
176
     1
 40
0.0
176
     1
 90
        0
176
     1
290
     0
176
     1
290
     1
176
     1
290
     1
176
     1
290
     0
176
     1
290
     0
176
     1
290
     0
176
     1
290
     0
176
     1
290
     0
176
     1
290
     0
176
     1
 90
       50
176
     1
 40
0.0
176
     1
 40
1.0
176
     1
 90
        0
176
     1
 62
    18
420
        0
176
     1
 90
       50
176
     1
 90
        3
176
     1
 62
     5
420
      255
176
     1
290
     0
176
     1
 90
       50
176
     1
 90
       50
176
     1
 90
       50
176
     1
290
     0
176
     1
 90
       50
176
     1
 62
   256
176
     0
 40
1.0
176
     0
 90
        2
176
     1
  1
strokes_ogs.tif
176
     1
290
     0
176
     1
 40
1.0
176
     1
 40
1.0
176
     1
1001
ACAD
1000
AcDbSavedByObjectVersion
1070
     0
  0
VISUALSTYLE
  5
11BD9
102
{ACAD_REACTORS
330
11A2C
102
}
330
11A2C
100
AcDbVisualStyle
  2
Hidden
 70
     6
177
     3
291
     0
 70
    58
 90
        1
176
     1
 90
        2
176
     1
 90
        2
176
     1
 90
        0
176
     1
 40
0.6
176
     1
 40
30.0
176
     1
 62
     7
420
 16777215
176
     1
 90
        2
176
     1
 90
        2
176
     1
 62
     7
176
     1
 62
   257
176
     1
 90
        2
176
     1
 90
        1
176
     1
 40
40.0
176
     1
 90
        0
176
     1
 62
   257
176
     1
 40
1.0
176
     1
 90
        1
176
     1
 90
        6
176
     1
 90
        2
176
     1
 62
     7
176
     1
 90
        3
176
     1
 90
        0
176
     1
 90
        0
176
     1
290
     0
176
     1
 90
        1
176
     1
 40
0.0
176
     1
 90
        0
176
     1
290
     0
176
     1
290
     1
176
     1
290
     1
176
     1
290
     0
176
     1
290
     0
176
     1
290
     0
176
     1
290
     0
176
     1
290
     0
176
     1
290
     0
176
     1
 90
       50
176
     1
 40
0.0
176
     1
 40
1.0
176
     1
 90
        0
176
     1
 62
    18
420
        0
176
     1
 90
       50
176
     1
 90
        3
176
     1
 62
     5
420
      255
176
     1
290
     0
176
     1
 90
       50
176
     1
 90
       50
176
     1
 90
       50
176
     1
290
     0
176
     1
 90
       50
176
     1
 62
   256
176
     0
 40
1.0
176
     0
 90
        2
176
     1
  1
strokes_ogs.tif
176
     1
290
     0
176
     1
 40
1.0
176
     1
 40
1.0
176
     1
1001
ACAD
1000
AcDbSavedByObjectVersion
1070
     0
  0
VISUALSTYLE
  5
11BE6
102
{ACAD_REACTORS
330
11A2C
102
}
330
11A2C
100
AcDbVisualStyle
  2
JitterOff
 70
    20
177
     3
291
     1
 70
    58
 90
        2
176
     0
 90
        2
176
     0
 90
        0
176
     0
 90
        0
176
     0
 40
0.6
176
     0
 40
30.0
176
     0
 62
     7
420
 16777215
176
     0
 90
        1
176
     0
 90
        4
176
     0
 62
     7
176
     0
 62
   257
176
     0
 90
        1
176
     0
 90
        1
176
     0
 40
1.0
176
     0
 90
       10
176
     2
 62
     7
176
     0
 40
1.0
176
     0
 90
        1
176
     0
 90
        6
176
     0
 90
        2
176
     0
 62
     7
176
     0
 90
        5
176
     0
 90
        0
176
     0
 90
        0
176
     0
290
     0
176
     0
 90
        1
176
     0
 40
0.0
176
     0
 90
        0
176
     0
290
     0
176
     0
290
     1
176
     0
290
     1
176
     0
290
     0
176
     0
290
     0
176
     0
290
     0
176
     0
290
     0
176
     0
290
     0
176
     0
290
     0
176
     0
 90
       50
176
     0
 40
0.0
176
     0
 40
1.0
176
     0
 90
        0
176
     0
 62
    18
420
        0
176
     0
 90
       50
176
     0
 90
        3
176
     0
 62
     5
420
      255
176
     0
290
     0
176
     0
 90
       50
176
     0
 90
       50
176
     0
 90
       50
176
     0
290
     0
176
     0
 90
       50
176
     0
 62
   256
176
     0
 40
1.0
176
     0
 90
        2
176
     0
  1
strokes_ogs.tif
176
     0
290
     0
176
     0
 40
1.0
176
     0
 40
1.0
176
     0
1001
ACAD
1000
AcDbSavedByObjectVersion
1070
     0
  0
VISUALSTYLE
  5
11BDE
102
{ACAD_REACTORS
330
11A2C
102
}
330
11A2C
100
AcDbVisualStyle
  2
Linepattern
 70
    14
177
     3
291
     1
 70
    58
 90
        2
176
     1
 90
        2
176
     1
 90
        0
176
     1
 90
        0
176
     1
 40
0.6
176
     1
 40
30.0
176
     1
 62
     7
420
 16777215
176
     1
 90
        1
176
     1
 90
        4
176
     1
 62
     7
176
     1
 62
   257
176
     1
 90
        7
176
     1
 90
        7
176
     1
 40
1.0
176
     1
 90
        8
176
     1
 62
     7
176
     1
 40
1.0
176
     1
 90
        1
176
     1
 90
        6
176
     1
 90
        2
176
     1
 62
     7
176
     1
 90
        5
176
     1
 90
        0
176
     1
 90
        0
176
     1
290
     0
176
     1
 90
        1
176
     1
 40
0.0
176
     1
 90
        0
176
     1
290
     0
176
     1
290
     1
176
     1
290
     1
176
     1
290
     0
176
     1
290
     0
176
     1
290
     0
176
     1
290
     0
176
     1
290
     0
176
     1
290
     0
176
     1
 90
       50
176
     1
 40
0.0
176
     1
 40
1.0
176
     1
 90
        0
176
     1
 62
    18
420
        0
176
     1
 90
       50
176
     1
 90
        3
176
     1
 62
     5
420
      255
176
     1
290
     0
176
     1
 90
       50
176
     1
 90
       50
176
     1
 90
       50
176
     1
290
     0
176
     1
 90
       50
176
     1
 62
   256
176
     0
 40
1.0
176
     0
 90
        2
176
     1
  1
strokes_ogs.tif
176
     1
290
     0
176
     1
 40
1.0
176
     1
 40
1.0
176
     1
1001
ACAD
1000
AcDbSavedByObjectVersion
1070
     0
  0
VISUALSTYLE
  5
11BE7
102
{ACAD_REACTORS
330
11A2C
102
}
330
11A2C
100
AcDbVisualStyle
  2
OverhangOff
 70
    21
177
     3
291
     1
 70
    58
 90
        2
176
     0
 90
        2
176
     0
 90
        0
176
     0
 90
        0
176
     0
 40
0.6
176
     0
 40
30.0
176
     0
 62
     7
420
 16777215
176
     0
 90
        1
176
     0
 90
        4
176
     0
 62
     7
176
     0
 62
   257
176
     0
 90
        1
176
     0
 90
        1
176
     0
 40
1.0
176
     0
 90
        9
176
     2
 62
     7
176
     0
 40
1.0
176
     0
 90
        1
176
     0
 90
        6
176
     0
 90
        2
176
     0
 62
     7
176
     0
 90
        5
176
     0
 90
        0
176
     0
 90
        0
176
     0
290
     0
176
     0
 90
        1
176
     0
 40
0.0
176
     0
 90
        0
176
     0
290
     0
176
     0
290
     1
176
     0
290
     1
176
     0
290
     0
176
     0
290
     0
176
     0
290
     0
176
     0
290
     0
176
     0
290
     0
176
     0
290
     0
176
     0
 90
       50
176
     0
 40
0.0
176
     0
 40
1.0
176
     0
 90
        0
176
     0
 62
    18
420
        0
176
     0
 90
       50
176
     0
 90
        3
176
     0
 62
     5
420
      255
176
     0
290
     0
176
     0
 90
       50
176
     0
 90
       50
176
     0
 90
       50
176
     0
290
     0
176
     0
 90
       50
176
     0
 62
   256
176
     0
 40
1.0
176
     0
 90
        2
176
     0
  1
strokes_ogs.tif
176
     0
290
     0
176
     0
 40
1.0
176
     0
 40
1.0
176
     0
1001
ACAD
1000
AcDbSavedByObjectVersion
1070
     0
  0
VISUALSTYLE
  5
11A5D
102
{ACAD_REACTORS
330
11A2C
102
}
330
11A2C
100
AcDbVisualStyle
  2
Realistic
 70
     8
177
     3
291
     0
 70
    58
 90
        2
176
     1
 90
        2
176
     1
 90
        0
176
     1
 90
        0
176
     1
 40
0.6
176
     1
 40
30.0
176
     1
 62
     7
420
 16777215
176
     1
 90
        1
176
     1
 90
        0
176
     1
 62
     7
176
     1
 62
   257
176
     1
 90
        1
176
     1
 90
        1
176
     1
 40
1.0
176
     1
 90
        8
176
     1
 62
     8
420
  7895160
176
     1
 40
1.0
176
     1
 90
        1
176
     1
 90
        6
176
     1
 90
        2
176
     1
 62
     7
176
     1
 90
        5
176
     1
 90
        0
176
     1
 90
        0
176
     1
290
     0
176
     1
 90
       13
176
     1
 40
0.0
176
     1
 90
        0
176
     1
290
     0
176
     1
290
     1
176
     1
290
     1
176
     1
290
     0
176
     1
290
     0
176
     1
290
     0
176
     1
290
     0
176
     1
290
     0
176
     1
290
     0
176
     1
 90
       50
176
     1
 40
0.0
176
     1
 40
1.0
176
     1
 90
        0
176
     1
 62
    18
420
        0
176
     1
 90
       50
176
     1
 90
        3
176
     1
 62
     5
420
      255
176
     1
290
     0
176
     1
 90
       50
176
     1
 90
       50
176
     1
 90
       50
176
     1
290
     0
176
     1
 90
       50
176
     1
 62
   256
176
     0
 40
1.0
176
     0
 90
        2
176
     1
  1
strokes_ogs.tif
176
     1
290
     0
176
     1
 40
1.0
176
     1
 40
1.0
176
     1
1001
ACAD
1000
AcDbSavedByObjectVersion
1070
     0
  0
VISUALSTYLE
  5
11BE5
102
{ACAD_REACTORS
330
11A2C
102
}
330
11A2C
100
AcDbVisualStyle
  2
Shaded
 70
    27
177
     3
291
     0
 70
    58
 90
        2
176
     1
 90
        2
176
     1
 90
        1
176
     1
 90
        2
176
     1
 40
0.6
176
     1
 40
30.0
176
     1
 62
     7
420
 16777215
176
     1
 90
        0
176
     1
 90
        4
176
     1
 62
     7
176
     1
 62
   257
176
     1
 90
        1
176
     1
 90
        1
176
     1
 40
1.0
176
     1
 90
        8
176
     1
 62
   257
176
     1
 40
1.0
176
     1
 90
        1
176
     1
 90
        6
176
     1
 90
        2
176
     1
 62
     8
420
  7895160
176
     1
 90
        3
176
     1
 90
        0
176
     1
 90
        0
176
     1
290
     0
176
     1
 90
        5
176
     1
 40
0.0
176
     1
 90
        0
176
     1
290
     0
176
     1
290
     1
176
     1
290
     1
176
     1
290
     0
176
     1
290
     0
176
     1
290
     0
176
     1
290
     0
176
     1
290
     0
176
     1
290
     0
176
     1
 90
       50
176
     1
 40
0.0
176
     1
 40
1.0
176
     1
 90
        0
176
     1
 62
    18
420
        0
176
     1
 90
       50
176
     1
 90
        3
176
     1
 62
     5
420
      255
176
     1
290
     0
176
     1
 90
       50
176
     1
 90
       50
176
     1
 90
       50
176
     1
290
     0
176
     1
 90
       50
176
     1
 62
   256
176
     0
 40
1.0
176
     0
 90
        2
176
     1
  1
strokes_ogs.tif
176
     1
290
     0
176
     1
 40
1.0
176
     1
 40
1.0
176
     1
1001
ACAD
1000
AcDbSavedByObjectVersion
1070
     0
  0
VISUALSTYLE
  5
11BE4
102
{ACAD_REACTORS
330
11A2C
102
}
330
11A2C
100
AcDbVisualStyle
  2
Shaded with edges
 70
    26
177
     3
291
     0
 70
    58
 90
        2
176
     1
 90
        2
176
     1
 90
        1
176
     1
 90
        2
176
     1
 40
0.6
176
     1
 40
30.0
176
     1
 62
     7
420
 16777215
176
     1
 90
        1
176
     1
 90
        2
176
     1
 62
     7
176
     1
 62
   257
176
     1
 90
        2
176
     1
 90
        1
176
     1
 40
1.0
176
     1
 90
        8
176
     1
 62
   257
176
     1
 40
1.0
176
     1
 90
        1
176
     1
 90
        6
176
     1
 90
        2
176
     1
 62
     7
176
     1
 90
        3
176
     1
 90
        0
176
     1
 90
        0
176
     1
290
     0
176
     1
 90
        5
176
     1
 40
0.0
176
     1
 90
        0
176
     1
290
     0
176
     1
290
     1
176
     1
290
     1
176
     1
290
     0
176
     1
290
     0
176
     1
290
     0
176
     1
290
     0
176
     1
290
     0
176
     1
290
     0
176
     1
 90
       50
176
     1
 40
0.0
176
     1
 40
1.0
176
     1
 90
        0
176
     1
 62
    18
420
        0
176
     1
 90
       50
176
     1
 90
        3
176
     1
 62
     5
420
      255
176
     1
290
     0
176
     1
 90
       50
176
     1
 90
       50
176
     1
 90
       50
176
     1
290
     0
176
     1
 90
       50
176
     1
 62
   256
176
     0
 40
1.0
176
     0
 90
        2
176
     1
  1
strokes_ogs.tif
176
     1
290
     0
176
     1
 40
1.0
176
     1
 40
1.0
176
     1
1001
ACAD
1000
AcDbSavedByObjectVersion
1070
     0
  0
VISUALSTYLE
  5
11BE1
102
{ACAD_REACTORS
330
11A2C
102
}
330
11A2C
100
AcDbVisualStyle
  2
Shades of Gray
 70
    23
177
     3
291
     0
 70
    58
 90
        2
176
     1
 90
        2
176
     1
 90
        3
176
     1
 90
        0
176
     1
 40
0.6
176
     1
 40
30.0
176
     1
 62
     7
420
 16777215
176
     1
 90
        2
176
     1
 90
        2
176
     1
 62
     7
176
     1
 62
     7
176
     1
 90
        1
176
     1
 90
        1
176
     1
 40
40.0
176
     1
 90
        8
176
     1
 62
     7
176
     1
 40
1.0
176
     1
 90
        1
176
     1
 90
        6
176
     1
 90
        2
176
     1
 62
     7
176
     1
 90
        3
176
     1
 90
        0
176
     1
 90
        0
176
     1
290
     0
176
     1
 90
        1
176
     1
 40
0.0
176
     1
 90
        0
176
     1
290
     0
176
     1
290
     1
176
     1
290
     1
176
     1
290
     0
176
     1
290
     0
176
     1
290
     0
176
     1
290
     0
176
     1
290
     0
176
     1
290
     0
176
     1
 90
       50
176
     1
 40
0.0
176
     1
 40
1.0
176
     1
 90
        0
176
     1
 62
    18
420
        0
176
     1
 90
       50
176
     1
 90
        3
176
     1
 62
     5
420
      255
176
     1
290
     0
176
     1
 90
       50
176
     1
 90
       50
176
     1
 90
       50
176
     1
290
     0
176
     1
 90
       50
176
     1
 62
   256
176
     0
 40
1.0
176
     0
 90
        2
176
     1
  1
strokes_ogs.tif
176
     1
290
     0
176
     1
 40
1.0
176
     1
 40
1.0
176
     1
1001
ACAD
1000
AcDbSavedByObjectVersion
1070
     0
  0
VISUALSTYLE
  5
11BE2
102
{ACAD_REACTORS
330
11A2C
102
}
330
11A2C
100
AcDbVisualStyle
  2
Sketchy
 70
    24
177
     3
291
     0
 70
    58
 90
        1
176
     1
 90
        2
176
     1
 90
        2
176
     1
 90
        0
176
     1
 40
0.6
176
     1
 40
30.0
176
     1
 62
     7
420
 16777215
176
     1
 90
        2
176
     1
 90
        2
176
     1
 62
     7
176
     1
 62
     7
176
     1
 90
        1
176
     1
 90
        1
176
     1
 40
40.0
176
     1
 90
       11
176
     1
 62
     7
176
     1
 40
1.0
176
     1
 90
        1
176
     1
 90
        6
176
     1
 90
        2
176
     1
 62
     7
176
     1
 90
        6
176
     1
 90
        0
176
     1
 90
        0
176
     1
290
     0
176
     1
 90
        1
176
     1
 40
0.0
176
     1
 90
        0
176
     1
290
     0
176
     1
290
     1
176
     1
290
     1
176
     1
290
     0
176
     1
290
     0
176
     1
290
     0
176
     1
290
     0
176
     1
290
     0
176
     1
290
     0
176
     1
 90
       50
176
     1
 40
0.0
176
     1
 40
1.0
176
     1
 90
        0
176
     1
 62
    18
420
        0
176
     1
 90
       50
176
     1
 90
        3
176
     1
 62
     5
420
      255
176
     1
290
     0
176
     1
 90
       50
176
     1
 90
       50
176
     1
 90
       50
176
     1
290
     0
176
     1
 90
       50
176
     1
 62
   256
176
     0
 40
1.0
176
     0
 90
        2
176
     1
  1
strokes_ogs.tif
176
     1
290
     0
176
     1
 40
1.0
176
     1
 40
1.0
176
     1
1001
ACAD
1000
AcDbSavedByObjectVersion
1070
     0
  0
VISUALSTYLE
  5
11BDD
102
{ACAD_REACTORS
330
11A2C
102
}
330
11A2C
100
AcDbVisualStyle
  2
Thicken
 70
    13
177
     3
291
     1
 70
    58
 90
        2
176
     1
 90
        2
176
     1
 90
        0
176
     1
 90
        0
176
     1
 40
0.6
176
     1
 40
30.0
176
     1
 62
     7
420
 16777215
176
     1
 90
        1
176
     1
 90
        4
176
     1
 62
     7
176
     1
 62
   257
176
     1
 90
        1
176
     1
 90
        1
176
     1
 40
1.0
176
     1
 90
       12
176
     1
 62
     7
176
     1
 40
1.0
176
     1
 90
        1
176
     1
 90
        6
176
     1
 90
        2
176
     1
 62
     7
176
     1
 90
        5
176
     1
 90
        0
176
     1
 90
        0
176
     1
290
     0
176
     1
 90
        1
176
     1
 40
0.0
176
     1
 90
        0
176
     1
290
     0
176
     1
290
     1
176
     1
290
     1
176
     1
290
     0
176
     1
290
     0
176
     1
290
     0
176
     1
290
     0
176
     1
290
     0
176
     1
290
     0
176
     1
 90
       50
176
     1
 40
0.0
176
     1
 40
1.0
176
     1
 90
        0
176
     1
 62
    18
420
        0
176
     1
 90
       50
176
     1
 90
        3
176
     1
 62
     5
420
      255
176
     1
290
     0
176
     1
 90
       50
176
     1
 90
       50
176
     1
 90
       50
176
     1
290
     0
176
     1
 90
       50
176
     1
 62
   256
176
     0
 40
1.0
176
     0
 90
        2
176
     1
  1
strokes_ogs.tif
176
     1
290
     0
176
     1
 40
1.0
176
     1
 40
1.0
176
     1
1001
ACAD
1000
AcDbSavedByObjectVersion
1070
     0
  0
VISUALSTYLE
  5
11A5E
102
{ACAD_REACTORS
330
11A2C
102
}
330
11A2C
100
AcDbVisualStyle
  2
Wireframe
 70
     5
177
     3
291
     0
 70
    58
 90
        0
176
     1
 90
        2
176
     1
 90
        0
176
     1
 90
        0
176
     1
 40
0.6
176
     1
 40
30.0
176
     1
 62
     7
420
 16777215
176
     1
 90
        1
176
     1
 90
        4
176
     1
 62
     7
176
     1
 62
   257
176
     1
 90
        1
176
     1
 90
        1
176
     1
 40
1.0
176
     1
 90
        0
176
     1
 62
   257
176
     1
 40
1.0
176
     1
 90
        1
176
     1
 90
        6
176
     1
 90
        2
176
     1
 62
     7
176
     1
 90
        3
176
     1
 90
        0
176
     1
 90
        0
176
     1
290
     0
176
     1
 90
        1
176
     1
 40
0.0
176
     1
 90
        0
176
     1
290
     0
176
     1
290
     1
176
     1
290
     1
176
     1
290
     0
176
     1
290
     0
176
     1
290
     0
176
     1
290
     0
176
     1
290
     0
176
     1
290
     0
176
     1
 90
       50
176
     1
 40
0.0
176
     1
 40
1.0
176
     1
 90
        0
176
     1
 62
    18
420
        0
176
     1
 90
       50
176
     1
 90
        3
176
     1
 62
     5
420
      255
176
     1
290
     0
176
     1
 90
       50
176
     1
 90
       50
176
     1
 90
       50
176
     1
290
     0
176
     1
 90
       50
176
     1
 62
   256
176
     0
 40
1.0
176
     0
 90
        2
176
     1
  1
strokes_ogs.tif
176
     1
290
     0
176
     1
 40
1.0
176
     1
 40
1.0
176
     1
1001
ACAD
1000
AcDbSavedByObjectVersion
1070
     0
  0
VISUALSTYLE
  5
11BE3
102
{ACAD_REACTORS
330
11A2C
102
}
330
11A2C
100
AcDbVisualStyle
  2
X-Ray
 70
    25
177
     3
291
     0
 70
    58
 90
        2
176
     1
 90
        2
176
     1
 90
        1
176
     1
 90
        1
176
     1
 40
0.5
176
     1
 40
30.0
176
     1
 62
     7
420
 16777215
176
     1
 90
        1
176
     1
 90
        0
176
     1
 62
     7
176
     1
 62
   257
176
     1
 90
        1
176
     1
 90
        1
176
     1
 40
1.0
176
     1
 90
        8
176
     1
 62
     7
176
     1
 40
1.0
176
     1
 90
        1
176
     1
 90
        6
176
     1
 90
        2
176
     1
 62
     7
176
     1
 90
        3
176
     1
 90
        0
176
     1
 90
        0
176
     1
290
     0
176
     1
 90
       13
176
     1
 40
0.0
176
     1
 90
        0
176
     1
290
     0
176
     1
290
     1
176
     1
290
     1
176
     1
290
     0
176
     1
290
     0
176
     1
290
     0
176
     1
290
     0
176
     1
290
     0
176
     1
290
     0
176
     1
 90
       50
176
     1
 40
0.0
176
     1
 40
1.0
176
     1
 90
        0
176
     1
 62
    18
420
        0
176
     1
 90
       50
176
     1
 90
        3
176
     1
 62
     5
420
      255
176
     1
290
     0
176
     1
 90
       50
176
     1
 90
       50
176
     1
 90
       50
176
     1
290
     0
176
     1
 90
       50
176
     1
 62
   256
176
     0
 40
1.0
176
     0
 90
        2
176
     1
  1
strokes_ogs.tif
176
     1
290
     0
176
     1
 40
1.0
176
     1
 40
1.0
176
     1
1001
ACAD
1000
AcDbSavedByObjectVersion
1070
     0
  0
DICTIONARYVAR
  5
11A4A
102
{ACAD_REACTORS
330
11A49
102
}
330
11A49
100
DictionaryVariables
280
     0
  1
1:1
  0
DICTIONARYVAR
  5
11A4B
102
{ACAD_REACTORS
330
11A49
102
}
330
11A49
100
DictionaryVariables
280
     0
  1
STANDARD
  0
DICTIONARYVAR
  5
11A4C
102
{ACAD_REACTORS
330
11A49
102
}
330
11A49
100
DictionaryVariables
280
     0
  1
STANDARD
  0
DICTIONARYVAR
  5
11A4D
102
{ACAD_REACTORS
330
11A49
102
}
330
11A49
100
DictionaryVariables
280
     0
  1
Imperial24
  0
DICTIONARYVAR
  5
11A4E
102
{ACAD_REACTORS
330
11A49
102
}
330
11A49
100
DictionaryVariables
280
     0
  1
Imperial24
  0
DICTIONARYVAR
  5
11A4F
102
{ACAD_REACTORS
330
11A49
102
}
330
11A49
100
DictionaryVariables
280
     0
  1
1
  0
DICTIONARYVAR
  5
11A50
102
{ACAD_REACTORS
330
11A49
102
}
330
11A49
100
DictionaryVariables
280
     0
  1
15
  0
DICTIONARYVAR
  5
11A51
102
{ACAD_REACTORS
330
11A49
102
}
330
11A49
100
DictionaryVariables
280
     0
  1
0
  0
DICTIONARYVAR
  5
11A52
102
{ACAD_REACTORS
330
11A49
102
}
330
11A49
100
DictionaryVariables
280
     0
  1
0
  0
DICTIONARY
  5
120D4
102
{ACAD_REACTORS
330
120D2
102
}
330
120D2
100
AcDbDictionary
281
     1
  0
DICTIONARY
  5
120D3
102
{ACAD_REACTORS
330
120D2
102
}
330
120D2
100
AcDbDictionary
281
     1
  3
1398732189520
350
120CD
  3
1398732189536
350
120CE
  3
1398732189552
350
120CF
  3
1398732199936
350
120D0
  3
1398732199952
350
120D1
  0
DICTIONARY
  5
120D7
330
11BEC
100
AcDbDictionary
280
     1
281
     1
  3
ACAD_XREC_ROUNDTRIP
360
120D8
  0
DICTIONARY
  5
11A1A
330
11A19
100
AcDbDictionary
280
     1
281
     1
  0
DICTIONARY
  5
11A15
330
11A13
100
AcDbDictionary
280
     1
281
     1
  0
DICTIONARY
  5
11A3E
330
11A3D
100
AcDbDictionary
280
     1
281
     1
  3
BUMPTILE
360
11A3F
  3
DIFFUSETILE
360
11A40
  3
OPACITYTILE
360
11A41
  3
REFLECTIONTILE
360
11A42
  3
REFRACTIONTILE
360
11A43
  3
SPECULARTILE
360
11A44
  0
DICTIONARY
  5
11A36
330
11A35
100
AcDbDictionary
280
     1
281
     1
  3
BUMPTILE
360
11A37
  3
DIFFUSETILE
360
11A38
  3
OPACITYTILE
360
11A39
  3
REFLECTIONTILE
360
11A3A
  3
REFRACTIONTILE
360
11A3B
  3
SPECULARTILE
360
11A3C
  0
DICTIONARY
  5
11BC0
330
8DC
100
AcDbDictionary
280
     1
281
     1
  3
ADVMATERIAL
360
11BC3
  3
DIFFUSETILE
360
11BC1
  3
OPACITYTILE
360
11BC4
  3
SPECULARTILE
360
11BC2
  0
DICTIONARY
  5
119ED
330
119EB
100
AcDbDictionary
280
     1
281
     1
  3
BUMPTILE
360
119EE
  3
DIFFUSETILE
360
119EF
  3
OPACITYTILE
360
119F0
  3
REFLECTIONTILE
360
119F1
  3
REFRACTIONTILE
360
119F2
  3
SPECULARTILE
360
119F3
  0
DICTIONARY
  5
120D5
330
11BEA
100
AcDbDictionary
280
     1
281
     1
  3
ACAD_XREC_ROUNDTRIP
360
120D6
  0
DICTIONARY
  5
11A5C
330
11A5B
100
AcDbDictionary
280
     1
281
     1
  3
ACAD_ROUNDTRIP_2008_TABLESTYLE_CELLSTYLEMAP
360
120CB
  0
XRECORD
  5
120CD
102
{ACAD_REACTORS
330
120D3
102
}
330
120D3
100
AcDbXrecord
280
     1
  1
AcDb_Thumbnail_Schema
102
{ATTRRECORD
341
120CE
  2
AcDbDs::TreatedAsObjectData
280
     1
291
     1
102
ATTRRECORD}
102
{ATTRRECORD
341
120CF
  2
AcDbDs::Legacy
280
     1
291
     1
102
ATTRRECORD}
  2
AcDbDs::ID
280
    10
 91
        8
102
{ATTRRECORD
341
120D0
  2
AcDs:Indexable
280
     1
291
     1
102
ATTRRECORD}
102
{ATTRRECORD
341
120D1
  2
AcDbDs::HandleAttribute
280
     7
282
     1
102
ATTRRECORD}
  2
Thumbnail_Data
280
    15
 91
        0
  0
XRECORD
  5
120CE
102
{ACAD_REACTORS
330
120D3
102
}
330
120D3
100
AcDbXrecord
280
     1
  1
AcDbDs::TreatedAsObjectDataSchema
  2
AcDbDs::TreatedAsObjectData
280
     1
 91
        0
  0
XRECORD
  5
120CF
102
{ACAD_REACTORS
330
120D3
102
}
330
120D3
100
AcDbXrecord
280
     1
  1
AcDbDs::LegacySchema
  2
AcDbDs::Legacy
280
     1
 91
        0
  0
XRECORD
  5
120D0
102
{ACAD_REACTORS
330
120D3
102
}
330
120D3
100
AcDbXrecord
280
     1
  1
AcDbDs::IndexedPropertySchema
  2
AcDs:Indexable
280
     1
 91
        0
  0
XRECORD
  5
120D1
102
{ACAD_REACTORS
330
120D3
102
}
330
120D3
100
AcDbXrecord
280
     1
  1
AcDbDs::HandleAttributeSchema
  2
AcDbDs::HandleAttribute
280
     7
 91
        1
284
     1
  0
XRECORD
  5
120D8
102
{ACAD_REACTORS
330
120D7
102
}
330
120D7
100
AcDbXrecord
280
     1
102
DISPLAYNAME
  1
Imperial24
102
FLAGS
 90
        0
  0
XRECORD
  5
11A3F
102
{ACAD_REACTORS
330
11A3E
102
}
330
11A3E
100
AcDbXrecord
280
     1
270
     1
271
     1
  0
XRECORD
  5
11A40
102
{ACAD_REACTORS
330
11A3E
102
}
330
11A3E
100
AcDbXrecord
280
     1
270
     1
271
     1
  0
XRECORD
  5
11A41
102
{ACAD_REACTORS
330
11A3E
102
}
330
11A3E
100
AcDbXrecord
280
     1
270
     1
271
     1
  0
XRECORD
  5
11A42
102
{ACAD_REACTORS
330
11A3E
102
}
330
11A3E
100
AcDbXrecord
280
     1
270
     1
271
     1
  0
XRECORD
  5
11A43
102
{ACAD_REACTORS
330
11A3E
102
}
330
11A3E
100
AcDbXrecord
280
     1
270
     1
271
     1
  0
XRECORD
  5
11A44
102
{ACAD_REACTORS
330
11A3E
102
}
330
11A3E
100
AcDbXrecord
280
     1
270
     1
271
     1
  0
XRECORD
  5
11A37
102
{ACAD_REACTORS
330
11A36
102
}
330
11A36
100
AcDbXrecord
280
     1
270
     1
271
     1
  0
XRECORD
  5
11A38
102
{ACAD_REACTORS
330
11A36
102
}
330
11A36
100
AcDbXrecord
280
     1
270
     1
271
     1
  0
XRECORD
  5
11A39
102
{ACAD_REACTORS
330
11A36
102
}
330
11A36
100
AcDbXrecord
280
     1
270
     1
271
     1
  0
XRECORD
  5
11A3A
102
{ACAD_REACTORS
330
11A36
102
}
330
11A36
100
AcDbXrecord
280
     1
270
     1
271
     1
  0
XRECORD
  5
11A3B
102
{ACAD_REACTORS
330
11A36
102
}
330
11A36
100
AcDbXrecord
280
     1
270
     1
271
     1
  0
XRECORD
  5
11A3C
102
{ACAD_REACTORS
330
11A36
102
}
330
11A36
100
AcDbXrecord
280
     1
270
     1
271
     1
  0
XRECORD
  5
11BC3
102
{ACAD_REACTORS
330
11BC0
102
}
330
11BC0
100
AcDbXrecord
280
     1
460
100.0
461
100.0
462
100.0
463
100.0
290
     0
270
     0
464
0.0
293
     0
272
     3
273
     3
  0
XRECORD
  5
11BC1
102
{ACAD_REACTORS
330
11BC0
102
}
330
11BC0
100
AcDbXrecord
280
     1
270
     1
271
     1
  0
XRECORD
  5
11BC4
102
{ACAD_REACTORS
330
11BC0
102
}
330
11BC0
100
AcDbXrecord
280
     1
270
     1
271
     1
  0
XRECORD
  5
11BC2
102
{ACAD_REACTORS
330
11BC0
102
}
330
11BC0
100
AcDbXrecord
280
     1
270
     1
271
     1
  0
XRECORD
  5
119EE
102
{ACAD_REACTORS
330
119ED
102
}
330
119ED
100
AcDbXrecord
280
     1
270
     1
271
     1
  0
XRECORD
  5
119EF
102
{ACAD_REACTORS
330
119ED
102
}
330
119ED
100
AcDbXrecord
280
     1
270
     1
271
     1
  0
XRECORD
  5
119F0
102
{ACAD_REACTORS
330
119ED
102
}
330
119ED
100
AcDbXrecord
280
     1
270
     1
271
     1
  0
XRECORD
  5
119F1
102
{ACAD_REACTORS
330
119ED
102
}
330
119ED
100
AcDbXrecord
280
     1
270
     1
271
     1
  0
XRECORD
  5
119F2
102
{ACAD_REACTORS
330
119ED
102
}
330
119ED
100
AcDbXrecord
280
     1
270
     1
271
     1
  0
XRECORD
  5
119F3
102
{ACAD_REACTORS
330
119ED
102
}
330
119ED
100
AcDbXrecord
280
     1
270
     1
271
     1
  0
XRECORD
  5
120D6
102
{ACAD_REACTORS
330
120D5
102
}
330
120D5
100
AcDbXrecord
280
     1
102
DISPLAYNAME
  1
Imperial24
102
FLAGS
 90
        0
  0
CELLSTYLEMAP
  5
120CB
102
{ACAD_REACTORS
330
11A5C
102
}
330
11A5C
100
AcDbCellStyleMap
 90
        3
300
CELLSTYLE
  1
TABLEFORMAT_BEGIN
 90
        5
170
     1
 91
        0
 92
    32768
 62
   257
 93
        1
300
CONTENTFORMAT
  1
CONTENTFORMAT_BEGIN
 90
        0
 91
        0
 92
        4
 93
        0
300

 40
0.0
140
1.0
 94
        5
 62
     0
340
11A22
144
0.25
309
CONTENTFORMAT_END
171
     0
 94
        6
 95
        1
302
GRIDFORMAT
  1
GRIDFORMAT_BEGIN
 90
        0
 91
        1
 62
     0
 92
       -2
340
0
 93
        0
 40
0.045
309
GRIDFORMAT_END
 95
        2
302
GRIDFORMAT
  1
GRIDFORMAT_BEGIN
 90
        0
 91
        1
 62
     0
 92
       -2
340
0
 93
        0
 40
0.045
309
GRIDFORMAT_END
 95
        4
302
GRIDFORMAT
  1
GRIDFORMAT_BEGIN
 90
        0
 91
        1
 62
     0
 92
       -2
340
0
 93
        0
 40
0.045
309
GRIDFORMAT_END
 95
        8
302
GRIDFORMAT
  1
GRIDFORMAT_BEGIN
 90
        0
 91
        1
 62
     0
 92
       -2
340
0
 93
        0
 40
0.045
309
GRIDFORMAT_END
 95
       16
302
GRIDFORMAT
  1
GRIDFORMAT_BEGIN
 90
        0
 91
        1
 62
     0
 92
       -2
340
0
 93
        0
 40
0.045
309
GRIDFORMAT_END
 95
       32
302
GRIDFORMAT
  1
GRIDFORMAT_BEGIN
 90
        0
 91
        1
 62
     0
 92
       -2
340
0
 93
        0
 40
0.045
309
GRIDFORMAT_END
309
TABLEFORMAT_END
  1
CELLSTYLE_BEGIN
 90
        1
 91
        1
300
_TITLE
309
CELLSTYLE_END
300
CELLSTYLE
  1
TABLEFORMAT_BEGIN
 90
        5
170
     1
 91
        0
 92
        0
 62
   257
 93
        1
300
CONTENTFORMAT
  1
CONTENTFORMAT_BEGIN
 90
        0
 91
        0
 92
        4
 93
        0
300

 40
0.0
140
1.0
 94
        5
 62
     0
340
11A22
144
0.18
309
CONTENTFORMAT_END
171
     0
 94
        6
 95
        1
302
GRIDFORMAT
  1
GRIDFORMAT_BEGIN
 90
        0
 91
        1
 62
     0
 92
       -2
340
0
 93
        0
 40
0.045
309
GRIDFORMAT_END
 95
        2
302
GRIDFORMAT
  1
GRIDFORMAT_BEGIN
 90
        0
 91
        1
 62
     0
 92
       -2
340
0
 93
        0
 40
0.045
309
GRIDFORMAT_END
 95
        4
302
GRIDFORMAT
  1
GRIDFORMAT_BEGIN
 90
        0
 91
        1
 62
     0
 92
       -2
340
0
 93
        0
 40
0.045
309
GRIDFORMAT_END
 95
        8
302
GRIDFORMAT
  1
GRIDFORMAT_BEGIN
 90
        0
 91
        1
 62
     0
 92
       -2
340
0
 93
        0
 40
0.045
309
GRIDFORMAT_END
 95
       16
302
GRIDFORMAT
  1
GRIDFORMAT_BEGIN
 90
        0
 91
        1
 62
     0
 92
       -2
340
0
 93
        0
 40
0.045
309
GRIDFORMAT_END
 95
       32
302
GRIDFORMAT
  1
GRIDFORMAT_BEGIN
 90
        0
 91
        1
 62
     0
 92
       -2
340
0
 93
        0
 40
0.045
309
GRIDFORMAT_END
309
TABLEFORMAT_END
  1
CELLSTYLE_BEGIN
 90
        2
 91
        1
300
_HEADER
309
CELLSTYLE_END
300
CELLSTYLE
  1
TABLEFORMAT_BEGIN
 90
        5
170
     1
 91
        0
 92
        0
 62
   257
 93
        1
300
CONTENTFORMAT
  1
CONTENTFORMAT_BEGIN
 90
        0
 91
        0
 92
        4
 93
        0
300

 40
0.0
140
1.0
 94
        2
 62
     0
340
11A22
144
0.18
309
CONTENTFORMAT_END
171
     0
 94
        6
 95
        1
302
GRIDFORMAT
  1
GRIDFORMAT_BEGIN
 90
        0
 91
        1
 62
     0
 92
       -2
340
0
 93
        0
 40
0.045
309
GRIDFORMAT_END
 95
        2
302
GRIDFORMAT
  1
GRIDFORMAT_BEGIN
 90
        0
 91
        1
 62
     0
 92
       -2
340
0
 93
        0
 40
0.045
309
GRIDFORMAT_END
 95
        4
302
GRIDFORMAT
  1
GRIDFORMAT_BEGIN
 90
        0
 91
        1
 62
     0
 92
       -2
340
0
 93
        0
 40
0.045
309
GRIDFORMAT_END
 95
        8
302
GRIDFORMAT
  1
GRIDFORMAT_BEGIN
 90
        0
 91
        1
 62
     0
 92
       -2
340
0
 93
        0
 40
0.045
309
GRIDFORMAT_END
 95
       16
302
GRIDFORMAT
  1
GRIDFORMAT_BEGIN
 90
        0
 91
        1
 62
     0
 92
       -2
340
0
 93
        0
 40
0.045
309
GRIDFORMAT_END
 95
       32
302
GRIDFORMAT
  1
GRIDFORMAT_BEGIN
 90
        0
 91
        1
 62
     0
 92
       -2
340
0
 93
        0
 40
0.045
309
GRIDFORMAT_END
309
TABLEFORMAT_END
  1
CELLSTYLE_BEGIN
 90
        3
 91
        2
300
_DATA
309
CELLSTYLE_END
  0
ENDSEC
  0
SECTION
  2
ACDSDATA
 70
     2
 71
     8
  0
ACDSSCHEMA
 90
        0
  1
AcDb_Thumbnail_Schema
  2
AcDbDs::ID
280
    10
 91
        8
  2
Thumbnail_Data
280
    15
 91
        0
101
ACDSRECORD
 95
        0
 90
        1
  2
AcDbDs::TreatedAsObjectData
280
     1
291
     1
101
ACDSRECORD
 95
        0
 90
        2
  2
AcDbDs::Legacy
280
     1
291
     1
101
ACDSRECORD
  1
AcDbDs::ID
 90
        3
  2
AcDs:Indexable
280
     1
291
     1
101
ACDSRECORD
  1
AcDbDs::ID
 90
        4
  2
AcDbDs::HandleAttribute
280
     7
282
     1
  0
ACDSSCHEMA
 90
        1
  1
AcDbDs::TreatedAsObjectDataSchema
  2
AcDbDs::TreatedAsObjectData
280
     1
 91
        0
  0
ACDSSCHEMA
 90
        2
  1
AcDbDs::LegacySchema
  2
AcDbDs::Legacy
280
     1
 91
        0
  0
ACDSSCHEMA
 90
        3
  1
AcDbDs::IndexedPropertySchema
  2
AcDs:Indexable
280
     1
 91
        0
  0
ACDSSCHEMA
 90
        4
  1
AcDbDs::HandleAttributeSchema
  2
AcDbDs::HandleAttribute
280
     7
 91
        1
284
     1
  0
ACDSRECORD
 90
        0
  2
AcDbDs::ID
280
    10
320
11A19
  2
Thumbnail_Data
280
    15
 94
     1183
310
89504E470D0A1A0A0000000D4948445200000100000000C508030000008CFEDCE700000300504C5445FFFFFF000000FFFFFF0000000000000000000000000000000000000000000000000000330000660000990000CC0000FF0033000033330033660033990033CC0033FF0066000066330066660066990066CC0066FF0099
310
000099330099660099990099CC0099FF00CC0000CC3300CC6600CC9900CCCC00CCFF00FF0000FF3300FF6600FF9900FFCC00FFFF3300003300333300663300993300CC3300FF3333003333333333663333993333CC3333FF3366003366333366663366993366CC3366FF3399003399333399663399993399CC3399FF33CC00
310
33CC3333CC6633CC9933CCCC33CCFF33FF0033FF3333FF6633FF9933FFCC33FFFF6600006600336600666600996600CC6600FF6633006633336633666633996633CC6633FF6666006666336666666666996666CC6666FF6699006699336699666699996699CC6699FF66CC0066CC3366CC6666CC9966CCCC66CCFF66FF0066
310
FF3366FF6666FF9966FFCC66FFFF9900009900339900669900999900CC9900FF9933009933339933669933999933CC9933FF9966009966339966669966999966CC9966FF9999009999339999669999999999CC9999FF99CC0099CC3399CC6699CC9999CCCC99CCFF99FF0099FF3399FF6699FF9999FFCC99FFFFCC0000CC00
310
33CC0066CC0099CC00CCCC00FFCC3300CC3333CC3366CC3399CC33CCCC33FFCC6600CC6633CC6666CC6699CC66CCCC66FFCC9900CC9933CC9966CC9999CC99CCCC99FFCCCC00CCCC33CCCC66CCCC99CCCCCCCCCCFFCCFF00CCFF33CCFF66CCFF99CCFFCCCCFFFFFF0000FF0033FF0066FF0099FF00CCFF00FFFF3300FF3333
310
FF3366FF3399FF33CCFF33FFFF6600FF6633FF6666FF6699FF66CCFF66FFFF9900FF9933FF9966FF9999FF99CCFF99FFFFCC00FFCC33FFCC66FFCC99FFCCCCFFCCFFFFFF00FFFF33FFFF66FFFF99FFFFCCFFFFFF0000000D0D0D1A1A1A2828283535354343435050505D5D5D6B6B6B787878868686939393A1A1A1AEAEAEBB
310
BBBBC9C9C9D6D6D6E4E4E4F1F1F1FFFFFF000000000000000000000000000000000000000000000000000000000000790CAC0F0000015A4944415478DAEDD8410A8340100440FFFFCCF9C09EE61E104224896014844D579F64F420A587DE592A3A632CD5C101100F500500C0F36ACDF6D636BFCEEBAEF9E9177D0788FBF600
310
000000000000004D1000000000000000100F50FB4F4C9E8B5578FAFF0300000000000000000000000000000000B00BD069000D0000000000000000A009020000000000000000000000000000000052013A0DA001000000000000000000A8C2000000000000000000000000000000402A40FC420400000000000000002016C0
310
5900000000000000000000000000000000C803885F88000000000000000000C402380B0000000000000000000000000000000000E2003A0DA0010000000000000000344100000000000000000000000000000000C0E7C660F21C04080D0000000000000000C01F54DE73151900000000000000D0AFCDCFB6227CDDAB1C9CD7
310
5DF3D32FAA0902000000C00A109E658C110DF0000E6CC6FBCCF8EC2E0000000049454E44AE426082
  0
ACDSRECORD
 90
        0
  2
AcDbDs::ID
280
    10
320
11A13
  2
Thumbnail_Data
280
    15
 94
     1017
310
89504E470D0A1A0A0000000D4948445200000100000000890803000000F46416F000000300504C5445FEFCF0000000FFFFFF0000000000000000000000000000000000000000000000000000330000660000990000CC0000FF0033000033330033660033990033CC0033FF0066000066330066660066990066CC0066FF0099
310
000099330099660099990099CC0099FF00CC0000CC3300CC6600CC9900CCCC00CCFF00FF0000FF3300FF6600FF9900FFCC00FFFF3300003300333300663300993300CC3300FF3333003333333333663333993333CC3333FF3366003366333366663366993366CC3366FF3399003399333399663399993399CC3399FF33CC00
310
33CC3333CC6633CC9933CCCC33CCFF33FF0033FF3333FF6633FF9933FFCC33FFFF6600006600336600666600996600CC6600FF6633006633336633666633996633CC6633FF6666006666336666666666996666CC6666FF6699006699336699666699996699CC6699FF66CC0066CC3366CC6666CC9966CCCC66CCFF66FF0066
310
FF3366FF6666FF9966FFCC66FFFF9900009900339900669900999900CC9900FF9933009933339933669933999933CC9933FF9966009966339966669966999966CC9966FF9999009999339999669999999999CC9999FF99CC0099CC3399CC6699CC9999CCCC99CCFF99FF0099FF3399FF6699FF9999FFCC99FFFFCC0000CC00
310
33CC0066CC0099CC00CCCC00FFCC3300CC3333CC3366CC3399CC33CCCC33FFCC6600CC6633CC6666CC6699CC66CCCC66FFCC9900CC9933CC9966CC9999CC99CCCC99FFCCCC00CCCC33CCCC66CCCC99CCCCCCCCCCFFCCFF00CCFF33CCFF66CCFF99CCFFCCCCFFFFFF0000FF0033FF0066FF0099FF00CCFF00FFFF3300FF3333
310
FF3366FF3399FF33CCFF33FFFF6600FF6633FF6666FF6699FF66CCFF66FFFF9900FF9933FF9966FF9999FF99CCFF99FFFFCC00FFCC33FFCC66FFCC99FFCCCCFFCCFFFFFF00FFFF33FFFF66FFFF99FFFFCCFFFFFF0000000D0D0D1A1A1A2828283535354343435050505D5D5D6B6B6B787878868686939393A1A1A1AEAEAEBB
310
BBBBC9C9C9D6D6D6E4E4E4F1F1F1FFFFFF0000000000000000000000000000000000000000000000000000000000007C77BAA7000000B44944415478DAEDD0310100000C0220FBB7B48931760C22903E1701020408102040800001020408102040800001020408102040800001020408102040800001020408102040800001
310
020408102040800001020408102040800001020408102040800001020408102040800001020408102040800001020408102040800001020408102040800001020408102040800001020408102040800001020408102040800001020408102040800001020408102040C099016B33700943E05F3C0000000049454E44AE4260
310
82
  0
ENDSEC
  0
SECTION
  2
THUMBNAILIMAGE
 90
    14496
310
28000000B80000004900000001000800000000007834000001000000010000000001000000000000FFFFFF005858586E30303074F8F8F82F505050774848482E9090902F4040402F888888387070706DFFFFFF61FFFFFF4DFFFFFF6CFFFFFF4DFFFFFF6BFFFFFF46FFFFFF65FFFFFF6DFFFFFF75FFFFFF61FFFFFF00FFFFFF
310
00FFFFFF00FFFFFF00FFFFFF00FFFFFF00FFFFFF00FFFFFF00FFFFFF00FFFFFF00FFFFFF00FFFFFF00FFFFFF00FFFFFF00FFFFFF00FFFFFF00FFFFFF00FFFFFF00FFFFFF00FFFFFF00FFFFFF00FFFFFF00FFFFFF00FFFFFF00FFFFFF00FFFFFF00FFFFFF00FFFFFF00FFFFFF00FFFFFF00FFFFFF00FFFFFF00FFFFFF00FFFF
310
FF00FFFFFF00FFFFFF00FFFFFF00FFFFFF00FFFFFF00FFFFFF00FFFFFF00FFFFFF00FFFFFF00FFFFFF00FFFFFF00FFFFFF00FFFFFF00FFFFFF00FFFFFF00FFFFFF00FFFFFF00FFFFFF00FFFFFF00FFFFFF00FFFFFF00FFFFFF00FFFFFF00FFFFFF00FFFFFF00FFFFFF00FFFFFF00FFFFFF00FFFFFF00FFFFFF00FFFFFF00FF
310
FFFF00FFFFFF00FFFFFF00FFFFFF00FFFFFF00FFFFFF00FFFFFF00FFFFFF00FFFFFF00FFFFFF00FFFFFF00FFFFFF00FFFFFF00FFFFFF00FFFFFF00FFFFFF00FFFFFF00FFFFFF00FFFFFF00FFFFFF00FFFFFF00FFFFFF00FFFFFF00FFFFFF00FFFFFF00FFFFFF00FFFFFF00FFFFFF00FFFFFF00FFFFFF00FFFFFF00FFFFFF00
310
FFFFFF28FFFFFF11FFFFFFC0FFFFFFD0FFFFFF00FFFFFF00FFFFFF00FFFFFF00FFFFFF00FFFFFF00FFFFFF00FFFFFF00FFFFFF00FFFFFF00FFFFFF00FFFFFF00FFFFFF00FFFFFF00FFFFFF00FFFFFF00FFFFFF00FFFFFF00FFFFFF00FFFFFF00FFFFFF00FFFFFF00FFFFFF00FFFFFF00FFFFFF00FFFFFF00FFFFFF00FFFFFF
310
00FFFFFF00FFFFFF00FFFFFF00FFFFFF00FFFFFF00FFFFFF00FFFFFF00FFFFFF00FFFFFF00FFFFFF00FFFFFF00FFFFFF00FFFFFF00FFFFFF00FFFFFF00FFFFFF00FFFFFF00FFFFFF00FFFFFF00FFFFFF00FFFFFF00FFFFFF00FFFFFF00FFFFFF00FFFFFF00FFFFFF00FFFFFF00FFFFFF00FFFFFF00FFFFFF00FFFFFF00FFFF
310
FF00FFFFFF00FFFFFF00FFFFFF00FFFFFF00FFFFFF00FFFFFF00FFFFFF00FFFFFF00FFFFFF00FFFFFF00FFFFFF00FFFFFF00FFFFFF00FFFFFF00FFFFFF00FFFFFF00FFFFFF00FFFFFF00FFFFFF00FFFFFF00FFFFFF00FFFFFF00FFFFFF00FFFFFF00FFFFFF00FFFFFF00FFFFFF00FFFFFF00FFFFFF00FFFFFF00FFFFFF00FF
310
FFFF00FFFFFF00FFFFFF00FFFFFF77FFFFFF43FFFFFF63FFFFFF6DFFFFFF00FFFFFF00FFFFFF00FFFFFF00FFFFFF00FFFFFF00FFFFFF00FFFFFF00FFFFFF00FFFFFF00FFFFFF00FFFFFF00FFFFFF00FFFFFF00FFFFFF00FFFFFF00FFFFFF00FFFFFF00FFFFFF00FFFFFF00FFFFFF00FFFFFF00FFFFFF00FFFFFF00FFFFFF00
310
FFFFFF00FFFFFF00FFFFFF00FFFFFF00FFFFFF00FFFFFF00FFFFFF00FFFFFF00FFFFFF00FFFFFF00FFFFFF00FFFFFF0000000000000000000000000000000000000000000000000000000000000000000000000000000000000000000000000000000000000000000000000000000000000000000000000000000000000000
310
00000000000000000000000000000000000000000000000000000000000000000000000000000000000000000000000000000000000000000000000000000000000000000000000000000000000000000000000000000000000000000000000000000000000000000000000000000000000000000000000000000000000000
310
00000000000000000000000000000000000000000000000000000000000000000000000000000000000000000000000000000002000803030003030303000303030303000303030303030300030303030303080002000000000000000000000000000000000000000000000000000000000000000000000000000000000000
310
00000000000000000000000000000000000000000000000000000000000000000000000000000000000000000000000000000000000000000000000000000000000000000000000000000000000000000000000000000000000000000000000000000000000000000000080303030308000000000000000000000000000000
310
00000000000000000000000803000303080000000000000000000000000000000000000000000000000000000000000000000000000000000000000000000000000000000000000000000000000000000000000000000000000000000000000000000000000000000000000000000000000000000000000000000000000000
310
00000000000000000000000000000000000000000000000000000000000000000001030303080200000000000000000000000000000000000000000000000000000000000000000208030303040000000000000000000000000000000000000000000000000000000000000000000000000000000000000000000000000000
310
00000000000000000000000000000000000000000000000000000000000000000000000000000000000000000000000000000000000000000000000000000000000000000000000000000000000000000000000000000000000103030000000000000000000000000000000000000000000000000000000000000000000000
310
00000000000003060000000000000000000000000000000000000000000000000000000000000000000000000000000000000000000000000000000000000000000000000000000000000000000000000000000000000000000000000000000000000000000000000000000000000000000000000000000000000000000000
310
00000000000000000000000000000000000003030104000000000000000000000000000000000000000000000000000000000000000000000000000000000004030300000000000000000000000000000000000000000000000000000000000000000000000000000000000000000000000000000000000000000000000000
310
00000000000000000000000000000000000000000000000000000000000000000000000000000000000000000000000000000000000000000000000000000000000000000000000000030300010000000000000000000000000000000000000000000000000000000000000000000000000000000000000000060003030000
310
00000000000000000000000000000000000000000000000000000000000000000000000000000000000000000000000000000000000000000000000000000000000000000000000000000000000000000000000000000000000000000000000000000000000000000000000000000000000000000000000000000000000000
310
00000303000000000000000000000000000000000000000000000000000000000000000000000000000000000000000000000000000000030000000000000000000000000000000000000000000000000000000000000000000000000000000000000000000000000000000000000000000000000000000000000000000000
310
00000000000000000000000000000000000000000000000000000000000000000000000000000000000000000000000000000000000000000000030300000000000000000000000000000000000000000000000000000000000000000000000000000000000000000000000000000000030300000000000000000000000000
310
00000000000000000000000000000000000000000000000000000000000000000000000000000000000000000000000000000000000000000000000000000000000000000000000000000000000000000000000000000000000000000000000000000000000000000000000000000000000003000000000000000000000000
310
00000000000000000000000000000000000000000000000000000000000000000000000000000000000000000300000000000000000000000000000000000000000000000000000000000000000000000000000000000000000000000000000000000000000000000000000000000000000000000000000000000000000000
310
00000000000000000000000000000000000000000000000000000000000000000000000000000000000008030000000000000000000000000000000000000000000000000000000000000000000000000000000000000000000000000000000000000000000003080000000000000000000000000000000000000000000000
310
00000000000000000000000000000000000000000000000000000000000000000000000000000000000000000000000000000000000000000000000000000000000000000000000000000000000000000000000000000000000000000000000000000003080000000000000000000000000000000000000000000000000000
310
00000000000000000000000000000000000000000000000000000000000000000803000000000000000000000000000000000000000000000000000000000000000000000000000000000000000000000000000000000000000000000000000000000000000000000000000000000000000000000000000000000000000000
310
00000000000000000000000000000000000000000000000000000000030000000000000000000000000000000000000000000000000000000000000000000000000000000000000000000000000000000000000000000000000000030000000000000000000000000000000000000000000000000000000000000000000000
310
00000000000000000000000000000000000000000000000000000000000000000000000000000000000000000000000000000000000000000000000000000000000000000000000000000000000000000000000003030000000000000000000000000000000000000000000000000000000000000000000000000000000000
310
00000000000000000000000000000000000000000003030000000000000000000000000000000000000000000000000000000000000000000000000000000000000000000000000000000000000000000000000000000000000000000000000000000000000000000000000000000000000000000000000000000000000000
310
00000000000000000000000000000300000000000000000000000000000000000000000000000000000000000000000000000000000000000000000000000000000000000000000000000000000000030000000000000000000000000000000000000000000000000000000000000000000000000000000000000000000000
310
00000000000000000000000000000000000000000000000000000000000000000000000000000000000000000000000000000000000000000000000000000000000000000000030000000000000000000000000000000000000000000000000000000000000000000000000000000000000000000000000000000000000000
310
00000000000000000000030000000000000000000000000000000000000000000000000000000000000000000000000000000000000000000000000000000000000000000000000000000000000000000000000000000000000000000000000000000000000000000000000000000000000000000000000000000000000001
310
03010000000000000000000000000000000000000000000000000000000000000000000000000000000000000000000000000000000000000000000000000000000000030301000000000000000000000000000000000000000000000000000000000000000000000000000000000000000000000000000000000000000000
310
00000000000000000000000000000000000000000000000000000000000000000000000000000000000000000000000000000000000000010301000000000000000000000000000000000000000000000000000000000000000000000000000000000000000000000000000000000000000000000000000000000000010301
310
00000000000000000000000000000000000000000000000000000000000000000000000000000000000000000000000000000000000000000000000000000000000000000000000000000000000000000000000000000000000000000000000000000000000000000000000000000000000300000000000000000000000000
310
00000000000000000000000000000000000000000000000000000000000000000000000000000000000000000000000000000000000000030000000000000000000000000000000000000000000000000000000000000000000000000000000000000000000000000000000000000000000000000000000000000000000000
310
00000000000000000000000000000000000000000000000000000000000000000000000000000000000003000000000000000000000000000000000000000000000000000000000000000000000000000000000000000000000000000000000000000000000000000000000000000000000300000000000000000000000000
310
00000000000000000000000000000000000000000000000000000000000000000000000000000000000000000000000000000000000000000000000000000000000000000000000000000000000000000000000000000000000000000000000000000903090000000000000000000000000000000000000000000000000000
310
00000000000000000000000000000000000000000000000000000000000000000000000000000000000007030700000000000000000000000000000000000000000000000000000000000000000000000000000000000000000000000000000000000000000000000000000000000000000000000000000000000000000000
310
00000000000000000000000000000000000000000000000000000000030000000000000000000000000000000000000000000000000000000000000000000000000000000000000000000000000000000000000000000000000000000000000000000000070307000000000000000000000000000000000000000000000000
310
00000000000000000000000000000000000000000000000000000000000000000000000000000000000000000000000000000000000000000000000000000000000000000000000000000000000000000000000000030000000000000000000000000000000000000000000000000000000000000000000000000000000000
310
00000000000000000000000000000000000000000000000000000000000000030000000000000000000000000000000000000000000000000000000000000000000000000000000000000000000000000000000000000000000000000000000000000000000000000000000000000000000000000000000000000000000000
310
00000000000000000000000000000003000000000000000000000000000000000000000000000000000000000000000000000000000000000000000000000000000000000000000000000000000000000000000000000000030000000000000000000000000000000000000000000000000000000000000000000000000000
310
00000000000000000000000000000000000000000000000000000000000000000000000000000000000000000000000000000000000000000000000000000000000000000000000000000000000000000000000000000000000000000000000000000000000000000000000000000000000000000000000000000000000000
310
00000000000000000000000000000000000000030000000000000000000000000000000000000000000000000000000000000000000000000000000000000000000000000000000000000000000000000000000000000000000000000000000000000000000000000000000000000000000000000000000000000000000000
310
00030000000000000000000000000000000000000000000000000000000000000000000000000000000000000000000000000000000000000000000000000000000000000000000000000000030000000000000000000000000000000000000000000000000000000000000000000000000000000000000000000000000000
310
00000000000000000000000000000000000000000000000000000000000000000000000000000000000000000000000000000000000000000000030000000000000000000000000000000000000000000000000000000000000000000000000000000000000000000000000000000000000000000000000000000000000000
310
00000000000003000000000000000000000000000000000000000000000000000000000000000000000000000000000000000000000000000000000000000000000000000000000000000000000000000000000000000000000000000000000000000000000000000000000000000000000000030000000000000000000000
310
00000000000000000000000000000000000000000000000000000000000000000000000000000000000000000000000000000000000000000000000000000003000000000000000000000000000000000000000000000000000000000000000000000000000000000000000000000000000000000000000000000000000000
310
00000000000000000000000000000000000000000000000000000000000000000000000000000000000000000003000000000000000000000000000000000000000000000000000000000000000000000000000000000000000000000000000000000000000000000000000000000000000000000000000003000000000000
310
00000000000000000000000000000000000000000000000000000000000000000000000000000000000000000000000000000000000000000000000000000000000000000000000000000000000000000000000000000000000000000000000000000000000003000000000000000000000000000000000000000000000000
310
00000000000000000000000000000000000000000000000000000000000000000000000000000000000000000000000000000300000000000000000000000000000000000000000000000000000000000000000000000000000000000000000000000000000000000000000000000000000000000000000000000000000000
310
00000000000000000000000000000000000000000000000000000000000000000300000000000000000000000000000000000000000000000000000000000000000000000000000000000000000000000000000000000000000000000000000000000000000000000000000300000000000000000000000000000000000000
310
00000000000000000000000000000000000000000000000000000000000000000000000000000000000000000000000000000000000000000000000000000000000000000000000000000000000000000000000000000000000300000000000000000000000000000000000000000000000000000000030303030303030303
310
03030303030303030300000000000000000000000000000000000000000000000000000000030000000000000000000000000000000000000000000000000000000000000000000000000000000000000000000000000000000000000000000000000000000000000000000000000000000000000000000000000000000000
310
00000000000000000000000000000000000000030000000000000000000000000000000000000000000000000000000000030300000303030303030003030300000000000000000000000000000000000000000000000000000000000000030000000000000000000000000000000000000000000000000000000000000000
310
00000000000000000000000000000000000000000000000000000000000000000000000000000000000000000000000000000000000000000000000000000000000000000000000000000000030000000000000000000000000000000000000000000000000000000000030300000300000000030003030300000000000000
310
00000000000000000000000000000000000000000000000003000000000000000000000000000000000000000000000000000000000000000000000000000000000000000000000000000000000000000000000000000000000000000000000000000000000000000000000000000000000000000000000000000000000000
310
00000000000003000000000000000000000000000000000000000000000000000000000003030000030000000003000303030000000000000000000000000000000000000000000000000000000000000003000000000000000000000000000000000000000000000000000000000000000000000000000000000000000000
310
00000000000000000000000000000000000000000000000000000000000000000000000000000000000000000000000000000000000000000000000000000003000000000000000000000000000000000000000000000000000000000003030000030000000003000303030000000000000000000000000000000000000000
310
00000000000000000000000300000000000000000000000000000000000000000000000000000000000000000000000000000000000000000000000000000000000000000000000000000000000000000000000000000000000000000000000000000000000000000000000000000000000000000000000003000000000000
310
00000000000000000000000000000000000000000000000303000003000000000300030303000000000000000000000000000000000000000000000000000000000000000300000000000000000000000000000000000000000000000000000000000000000000000000000000000000000000000000000000000000000000
310
00000000000000000000000000000000000000000000000000000000000000000000000000000000000000000000000000000300000000000000000000000000000000000000000000000000000000000303000003000000000300030303000000000000000000000000000000000000000000000000000000000000000300
310
00000000000000000000000000000000000000000000000000000000000000000000000000000000000000000000000000000000000000000000000000000000000000000000000000000000000000000000000000000000000000000000000000000000000000000000000300000000000000000000000000000000000000
310
00000000000000000000030300000300000000030003030300000000000000000000000000000000000000000000000000000000000000030000000000000000000000000000000000000000000000000000000000000000000000000000000000000000000000000000000000000000000000000000000000000000000000
310
00000000000000000000000000000000000000000000000000000000000000000000000000030000000000000000000000000000000000000000000000000000000000030300000300000000030003030300000000000000000000000000000000000000000000000000000000000000030000000000000000000000000000
310
00000000000000000000000000000000000000000000000000000000000000000000000000000000000000000000000000000000000000000000000000000000000000000000000000000000000000000000000000000000000000000000030000000000000000000000000000000000000000000000000000000000030300
310
00030303030303000303030000000000000000000000000000000000000000000000000000000000000003000000000000000000000000000000000000000000000000000000000000000000000000000000000000000000000000000000000000000000000000000000000000000000000000000000000000000000000000
310
00000000000000000000000000000000000000000000000003000000000000000000000000000000000000000000000000000000000303030303030303030303030303030303030000000000000000000000000000000000000000000000000000000003000000000000000000000000000000000000000000000000000000
310
00000000000000000000000000000000000000000000000000000000000000000000000000000000000000000000000000000000000000000000000000000000000000000000000000000000000000000003000000000000000000000000000000000000000000000000000000000000000000000000000000000000000000
310
00000000000000000000000000000000000000000000000000000000000300000000000000000000000000000000000000000000000000000000000000000000000000000000000000000000000000000000000000000000000000000000000000000000000000000000000000000000000000000000000000000000000000
310
00000000000000000000000300000000000000000000000000000000000000000000000000000000000000000000000000000000000000000000000000000000000000000000000000000000000000000000000000000300000000000000000000000000000000000000000000000000000000000000000000000000000000
310
00000000000000000000000000000000000000000000000000000000000000000000000000000000000000000000000000000000000000000000000000000000000000000300000000000000000000000000000000000000000000000000000000000000000000000000000000000000000000000000000000000000000000
310
00000000000000000000000000000000030000000000000000000000000000000000000000000000000000000000000000000000000000000000000000000000000000000000000000000000000000000000000000000000000000000000000000000000000000000000000000000000000000000000000000000000000300
310
00000000000000000000000000000000000000000000000000000000000000000000000000000000000000000000000000000000000000000000000000000000000000000000000000030000000000000000000000000000000000000000000000000000000000000000000000000000000000000000000000000000000000
310
00000000000000000000000000000000000000000000000000000000000000000000000000000000000000000000000000000000000000030000000000000000000000000000000000000000000000000000000000000000000000000000000000000000000000000000000000000000000000000000000000000000000000
310
00000003000000000000000000000000000000000000000000000000000000000000000000000000000000000000000000000000000000000000000000000000000000000000000000000000000000000000000000000000000000000000000000000000000000000000000000000000030000000000000000000000000000
310
00000000000000000000000000000000000000000000000000000000000000000000000000000000000000000000000000000000000000000000000003000000000000000000000000000000000000000000000000000000000000000000000000000000000000000000000000000000000000000000000000000000000000
310
00000000000000000000000000000000000000000000000000000000000000000000000000000000000003000000000000000000000000000000000000000000000000000000000000000000000000000000000000000000000000000000000000000000000000000000000000000000000000000000000000000000000000
310
00000000000000000000000000000000000000000000000000000000000000000000000000000000000000000000000000000000000000000000000000000000000000000000000000000000000000000000000000000000000000000000000000000000030000000000000000000000000000000000000000000000000000
310
00000000000000000000000000000000000000000000000000000000000000000000000000000000000000000000030000000000000000000000000000000000000000000000000000000000000000000000000000000000000000000000000000000000000000000000000000000000000000000000000000000000000000
310
00000000000000000000000000000000000000000000000000000000000003000000000000000000000000000000000000000000000000000000000000000000000000000000000000000000000000000000000000000000000000000000000000000000000000030000000000000000000000000000000000000000000000
310
00000000000000000000000000000000000000000000000000000000000000000000000000000000000000000000000000000000000000000000000000000000000000000000000000000000000000000000000000000703070000000000000000000000000000000000000000000000000000000000000000000000000000
310
00000000000000000000000000000000000000000000000000000000000000000003000000000000000000000000000000000000000000000000000000000000000000000000000000000000000000000000000000000000000000000000000000000000000000000000000000000000000000000000000000000000000000
310
00000000000000000000000000000000000703070000000000000000000000000000000000000000000000000000000000000000000000000000000000000000000000000000000000000000000000000000000000000000090309000000000000000000000000000000000000000000000000000000000000000000000000
310
00000000000000000000000000000000000000000000000000000000000000000000000000000000000000000000000000000000000000000000000000000000000000000000000000000003000000000000000000000000000000000000000000000000000000000000000000000000000000000000000000000000000000
310
00000000000000000000000000000000000000030000000000000000000000000000000000000000000000000000000000000000000000000000000000000000000000000000000000000000000000000000000000000000000000000000000000000000000000000000000000000000000000000000000000000000000000
310
00000000000003000000000000000000000000000000000000000000000000000000000000000000000000000000000000000000000000000000000000000000000000000000000000000003000000000000000000000000000000000000000000000000000000000000000000000000000000000000000000000000000000
310
00000000000000000000000000000000000000000000000000000000000000000000000000000000000000000000000000000000000000000000000000000103010000000000000000000000000000000000000000000000000000000000000000000000000000000000000000000000000000000000000000000000000000
310
00000000010301000000000000000000000000000000000000000000000000000000000000000000000000000000000000000000000000000000000000000000000000000000000000000000000000000000000000000000000000000000000000000000000000000000000000000000000000000000000103030000000000
310
00000000000000000000000000000000000000000000000000000000000000000000000000000000000000000000000000000000000000000000000001030100000000000000000000000000000000000000000000000000000000000000000000000000000000000000000000000000000000000000000000000000000000
310
00000000000000000000000000000000000000000000000000000000000000000000000000000000000000000000000000000003000000000000000000000000000000000000000000000000000000000000000000000000000000000000000000000000000000000000000000000000000000000000030000000000000000
310
00000000000000000000000000000000000000000000000000000000000000000000000000000000000000000000000000000000000000000000000000000000000000000000000000000000000000000000000000000000000000000000000000000000000000000000000000030000000000000000000000000000000000
310
00000000000000000000000000000000000000000000000000000000000000000000000000000000000000000000000300000000000000000000000000000000000000000000000000000000000000000000000000000000000000000000000000000000000000000000000000000000000000000000000000000000000000
310
00000000000000000000000000000000000000000000000000000000000000000000000000000003030000000000000000000000000000000000000000000000000000000000000000000000000000000000000000000000000000000000000000000000000000030300000000000000000000000000000000000000000000
310
00000000000000000000000000000000000000000000000000000000000000000000000000000000000000000000000000000000000000000000000000000000000000000000000000000000000000000000000000000000000000000000000000030000000000000000000000000000000000000000000000000000000000
310
00000000000000000000000000000000000000000000000000000000000000000003000000000000000000000000000000000000000000000000000000000000000000000000000000000000000000000000000000000000000000000000000000000000000000000000000000000000000000000000000000000000000000
310
00000000000000000000000000000000000000000000000000000000030800000000000000000000000000000000000000000000000000000000000000000000000000000000000000000000000000000000000000000000080300000000000000000000000000000000000000000000000000000000000000000000000000
310
00000000000000000000000000000000000000000000000000000000000000000000000000000000000000000000000000000000000000000000000000000000000000000000000000000000000000000000000000080300000000000000000000000000000000000000000000000000000000000000000000000000000000
310
00000000000000000000000000000000000003080000000000000000000000000000000000000000000000000000000000000000000000000000000000000000000000000000000000000000000000000000000000000000000000000000000000000000000000000000000000000000000000000000000000000000000000
310
00000000000000000000000000000000000300000000000000000000000000000000000000000000000000000000000000000000000000000000000000000000000000000000000000000300000000000000000000000000000000000000000000000000000000000000000000000000000000000000000000000000000000
310
00000000000000000000000000000000000000000000000000000000000000000000000000000000000000000000000000000000000000000000000000000000000000000000000000000003030000000000000000000000000000000000000000000000000000000000000000000000000000000000000000000000000000
310
00000303000000000000000000000000000000000000000000000000000000000000000000000000000000000000000000000000000000000000000000000000000000000000000000000000000000000000000000000000000000000000000000000000000000000000000000000000000000000000000000000000000000
310
00000000000003000000000000000000000000000000000000000000000000000000000000000000000000000000000000000000000000000000030300000000000000000000000000000000000000000000000000000000000000000000000000000000000000000000000000000000000000000000000000000000000000
310
00000000000000000000000000000000000000000000000000000000000000000000000000000000000000000000000000000000000000000000000000000000030300060000000000000000000000000000000000000000000000000000000000000000000000000000000000000000010003030000000000000000000000
310
00000000000000000000000000000000000000000000000000000000000000000000000000000000000000000000000000000000000000000000000000000000000000000000000000000000000000000000000000000000000000000000000000000000000000000000000000000000000000000000000000000003030400
310
00000000000000000000000000000000000000000000000000000000000000000000000000000000040103030000000000000000000000000000000000000000000000000000000000000000000000000000000000000000000000000000000000000000000000000000000000000000000000000000000000000000000000
310
00000000000000000000000000000000000000000000000000000000000000000000000000000000000000000000000000000000000006030000000000000000000000000000000000000000000000000000000000000000000000000000000000030301000000000000000000000000000000000000000000000000000000
310
00000000000000000000000000000000000000000000000000000000000000000000000000000000000000000000000000000000000000000000000000000000000000000000000000000000000000000000000000000000000000000000000000000000000000000000000000000000040303030802000000000000000000
310
00000000000000000000000000000000000000000000000208030303010000000000000000000000000000000000000000000000000000000000000000000000000000000000000000000000000000000000000000000000000000000000000000000000000000000000000000000000000000000000000000000000000000
310
00000000000000000000000000000000000000000000000000000000000000000000000000000000000000000008030300030800000000000000000000000000000000000000000000000000000803030303080000000000000000000000000000000000000000000000000000000000000000000000000000000000000000
310
00000000000000000000000000000000000000000000000000000000000000000000000000000000000000000000000000000000000000000000000000000000000000000000000000000000000000000000000000000000000000000000000000000000000000000200080303030303030003030303030303000303030303
310
00030303030003030800020000000000000000000000000000000000000000000000000000000000000000000000000000000000000000000000000000000000000000000000000000000000000000000000000000000000000000000000000000000000000000000000000000000000000000000000000000000000000000
310
00000000000000000000000000000000000000000000000000000000000000000000000000000000000000000000000000000000000000000000000000000000000000000000000000000000000000000000000000000000000000000000000000000000000000000000000000000000000000000000000000000000000000
310
000000000000000000000000000000000000
  0
ENDSEC
  0
EOF
