  0
SECTION
  2
HEADER
  9
$ACADVER
  1
AC1027
  9
$ACADMAINTVER
 70
   125
  9
$DWGCODEPAGE
  3
ANSI_1252
  9
$SUBJECT
  1
MicroStation
  9
$AUTHOR
  1
WAEngineering2
  9
$LASTSAVEDBY
  1
WAEngineering2
  9
$CUSTOMPROPERTYTAG
  1
BentleyWorkSetProperties
  9
$CUSTOMPROPERTY
  1
02050000000B000000540200000000000000000200000057006F0072006B005300650074004E0061006D00650000000000000001000109040000000200000000000000000000000100000057006F0072006B005300650074004400650073006300720069007000740069006F006E0000000000000001000109080000000000000000000000000000000200000057006F0072006B00530070006100630065004E0061006D006500000000000000010001090C0000000200000000000000000000000400000043006F006E006E00650063007400500072006F006A006500630074004700550049004400000000000000010001091000000000000000000000000000000008000000500072006F006A00650063007400410073007300650074005400790070006500000000000000010001091400000000000000000000000000000010000000500072006F006A0065006300740049006E00640075007300740072007900000000000000010001091800000000000000000000000000000020000000500072006F006A006500630074004C006F0063006100740069006F006E00000000000000010001091C00000000000000000000000000000040000000500072006F006A006500630074004E0075006D00620065007200000000000000010001092000000000000000000000000000000080000000500072006F006A00650063007400530074006100740075007300000000000000010001092400000000000000000000000000000000010000500072006F006A006500630074004E0061006D00650000000000000001000109280000000000000000000000000000000002000031010000000000050002FCFFFF300000004A0000004A0000005A000000A4000000D2000000F4000000F600000004010000120100002C0100004D006500740072006F00530074006100740069006F006E0000004500780061006D0070006C0065000000350039003800370063003200620065002D0066003000660064002D0034003300660038002D0039006100610031002D00620039003100360035006200350030003400650032003300000050006C006100740066006F0072006D007300200061006E0064002000530074006100740069006F006E00730000005200610069006C00200061006E00640020005400720061006E0073006900740000000000310030003000310030003000000041006300740069007600650000004D006500740072006F00530074006100740069006F006E000000
  9
$REQUIREDVERSIONS
160
                 0
  9
$INSBASE
 10
0.0
 20
0.0
 30
0.0
  9
$EXTMIN
 10
758.9
 20
439.7
 30
0.0
  9
$EXTMAX
 10
3809.0
 20
3270.3
 30
0.0
  9
$LIMMIN
 10
-6038.406967
 20
-6467.356967
  9
$LIMMAX
 10
10606.306967
 20
10177.356967
  9
$ORTHOMODE
 70
     0
  9
$REGENMODE
 70
     1
  9
$FILLMODE
 70
     1
  9
$QTEXTMODE
 70
     0
  9
$MIRRTEXT
 70
     0
  9
$LTSCALE
 40
1.0
  9
$ATTMODE
 70
     1
  9
$TEXTSIZE
 40
3.0
  9
$TRACEWID
 40
0.05
  9
$TEXTSTYLE
  7
Standard
  9
$CLAYER
  8
0
  9
$CELTYPE
  6
Continuous
  9
$CECOLOR
 62
     3
  9
$CELTSCALE
 40
1.0
  9
$DISPSILH
 70
     0
  9
$DIMSCALE
 40
1.0
  9
$DIMASZ
 40
3.0
  9
$DIMEXO
 40
1.5
  9
$DIMDLI
 40
0.0
  9
$DIMRND
 40
0.0
  9
$DIMDLE
 40
0.0
  9
$DIMEXE
 40
1.5
  9
$DIMTP
 40
0.0
  9
$DIMTM
 40
0.0
  9
$DIMTXT
 40
3.0
  9
$DIMCEN
 40
2.0
  9
$DIMTSZ
 40
0.0
  9
$DIMTOL
 70
     0
  9
$DIMLIM
 70
     0
  9
$DIMTIH
 70
     0
  9
$DIMTOH
 70
     0
  9
$DIMSE1
 70
     0
  9
$DIMSE2
 70
     0
  9
$DIMTAD
 70
     1
  9
$DIMZIN
 70
     8
  9
$DIMBLK
  1

  9
$DIMASO
 70
     1
  9
$DIMSHO
 70
     1
  9
$DIMPOST
  1

  9
$DIMAPOST
  1

  9
$DIMALT
 70
     0
  9
$DIMALTD
 70
     4
  9
$DIMALTF
 40
0.000001
  9
$DIMLFAC
 40
1.0
  9
$DIMTOFL
 70
     0
  9
$DIMTVP
 40
0.0
  9
$DIMTIX
 70
     0
  9
$DIMSOXD
 70
     0
  9
$DIMSAH
 70
     0
  9
$DIMBLK1
  1

  9
$DIMBLK2
  1

  9
$DIMSTYLE
  2
Standard
  9
$DIMCLRD
 70
     0
  9
$DIMCLRE
 70
     0
  9
$DIMCLRT
 70
     0
  9
$DIMTFAC
 40
1.0
  9
$DIMGAP
 40
1.5
  9
$DIMJUST
 70
     0
  9
$DIMSD1
 70
     0
  9
$DIMSD2
 70
     0
  9
$DIMTOLJ
 70
     1
  9
$DIMTZIN
 70
     8
  9
$DIMALTZ
 70
    12
  9
$DIMALTTZ
 70
    12
  9
$DIMUPT
 70
     0
  9
$DIMDEC
 70
     1
  9
$DIMTDEC
 70
     0
  9
$DIMALTU
 70
     2
  9
$DIMALTTD
 70
     0
  9
$DIMTXSTY
  7
Style-INTL_ISO
  9
$DIMAUNIT
 70
     0
  9
$DIMADEC
 70
     0
  9
$DIMALTRND
 40
0.0
  9
$DIMAZIN
 70
     3
  9
$DIMDSEP
 70
     0
  9
$DIMATFIT
 70
     1
  9
$DIMFRAC
 70
     2
  9
$DIMLDRBLK
  1

  9
$DIMLUNIT
 70
     2
  9
$DIMLWD
 70
    -2
  9
$DIMLWE
 70
    -2
  9
$DIMTMOVE
 70
     0
  9
$DIMFXL
 40
1.0
  9
$DIMFXLON
 70
     0
  9
$DIMJOGANG
 40
0.785398
  9
$DIMTFILL
 70
     0
  9
$DIMTFILLCLR
 70
     0
  9
$DIMARCSYM
 70
     0
  9
$DIMLTYPE
  6
ByBlock
  9
$DIMLTEX1
  6
ByBlock
  9
$DIMLTEX2
  6
ByBlock
  9
$DIMTXTDIRECTION
 70
     0
  9
$LUNITS
 70
     2
  9
$LUPREC
 70
     1
  9
$SKETCHINC
 40
0.1
  9
$FILLETRAD
 40
0.0
  9
$AUNITS
 70
     0
  9
$AUPREC
 70
     0
  9
$MENU
  1
.
  9
$ELEVATION
 40
0.0
  9
$PELEVATION
 40
0.0
  9
$THICKNESS
 40
0.0
  9
$LIMCHECK
 70
     0
  9
$CHAMFERA
 40
0.0
  9
$CHAMFERB
 40
0.0
  9
$CHAMFERC
 40
0.0
  9
$CHAMFERD
 40
0.0
  9
$SKPOLY
 70
     0
  9
$TDCREATE
 40
2454145.111354167
  9
$TDUCREATE
 40
2454144.778024017
  9
$TDUPDATE
 40
2459716.423668981
  9
$TDUUPDATE
 40
2459716.090335648
  9
$TDINDWG
 40
0.0056654514
  9
$TDUSRTIMER
 40
0.0056652662
  9
$USRTIMER
 70
     1
  9
$ANGBASE
 50
0.0
  9
$ANGDIR
 70
     0
  9
$PDMODE
 70
     0
  9
$PDSIZE
 40
0.0
  9
$PLINEWID
 40
0.0
  9
$SPLFRAME
 70
     0
  9
$SPLINETYPE
 70
     6
  9
$SPLINESEGS
 70
     8
  9
$HANDSEED
  5
12014
  9
$SURFTAB1
 70
     6
  9
$SURFTAB2
 70
     6
  9
$SURFTYPE
 70
     6
  9
$SURFU
 70
     6
  9
$SURFV
 70
     6
  9
$UCSBASE
  2

  9
$UCSNAME
  2

  9
$UCSORG
 10
0.0
 20
0.0
 30
0.0
  9
$UCSXDIR
 10
1.0
 20
0.0
 30
0.0
  9
$UCSYDIR
 10
0.0
 20
1.0
 30
0.0
  9
$UCSORTHOREF
  2

  9
$UCSORTHOVIEW
 70
     0
  9
$UCSORGTOP
 10
0.0
 20
0.0
 30
0.0
  9
$UCSORGBOTTOM
 10
0.0
 20
0.0
 30
0.0
  9
$UCSORGLEFT
 10
0.0
 20
0.0
 30
0.0
  9
$UCSORGRIGHT
 10
0.0
 20
0.0
 30
0.0
  9
$UCSORGFRONT
 10
0.0
 20
0.0
 30
0.0
  9
$UCSORGBACK
 10
0.0
 20
0.0
 30
0.0
  9
$PUCSBASE
  2

  9
$PUCSNAME
  2

  9
$PUCSORG
 10
0.0
 20
0.0
 30
0.0
  9
$PUCSXDIR
 10
1.0
 20
0.0
 30
0.0
  9
$PUCSYDIR
 10
0.0
 20
1.0
 30
0.0
  9
$PUCSORTHOREF
  2

  9
$PUCSORTHOVIEW
 70
     0
  9
$PUCSORGTOP
 10
0.0
 20
0.0
 30
0.0
  9
$PUCSORGBOTTOM
 10
0.0
 20
0.0
 30
0.0
  9
$PUCSORGLEFT
 10
0.0
 20
0.0
 30
0.0
  9
$PUCSORGRIGHT
 10
0.0
 20
0.0
 30
0.0
  9
$PUCSORGFRONT
 10
0.0
 20
0.0
 30
0.0
  9
$PUCSORGBACK
 10
0.0
 20
0.0
 30
0.0
  9
$USERI1
 70
     0
  9
$USERI2
 70
     0
  9
$USERI3
 70
     0
  9
$USERI4
 70
     0
  9
$USERI5
 70
     0
  9
$USERR1
 40
0.0
  9
$USERR2
 40
0.0
  9
$USERR3
 40
0.0
  9
$USERR4
 40
0.0
  9
$USERR5
 40
0.0
  9
$WORLDVIEW
 70
     1
  9
$SHADEDGE
 70
     3
  9
$SHADEDIF
 70
    70
  9
$TILEMODE
 70
     1
  9
$MAXACTVP
 70
    64
  9
$PINSBASE
 10
0.0
 20
0.0
 30
0.0
  9
$PLIMCHECK
 70
     0
  9
$PEXTMIN
 10
1.05
 20
0.8
 30
0.0
  9
$PEXTMAX
 10
9.45
 20
7.2
 30
0.0
  9
$PLIMMIN
 10
-0.25
 20
-0.25
  9
$PLIMMAX
 10
10.75
 20
8.25
  9
$UNITMODE
 70
     0
  9
$VISRETAIN
 70
     1
  9
$PLINEGEN
 70
     0
  9
$PSLTSCALE
 70
     0
  9
$TREEDEPTH
 70
  3020
  9
$CMLSTYLE
  2
Standard
  9
$CMLJUST
 70
     0
  9
$CMLSCALE
 40
1.0
  9
$PROXYGRAPHICS
 70
     1
  9
$MEASUREMENT
 70
     0
  9
$CELWEIGHT
370
     0
  9
$ENDCAPS
280
     0
  9
$JOINSTYLE
280
     0
  9
$LWDISPLAY
290
     1
  9
$INSUNITS
 70
     4
  9
$HYPERLINKBASE
  1

  9
$STYLESHEET
  1

  9
$XEDIT
290
     1
  9
$CEPSNTYPE
380
     0
  9
$PSTYLEMODE
290
     1
  9
$FINGERPRINTGUID
  2
{9A95D085-BDCC-D843-B4E4-88D43EEAF867}
  9
$VERSIONGUID
  2
{38E7CD85-556C-4D6E-9C4C-B935CE7E055D}
  9
$EXTNAMES
290
     1
  9
$PSVPSCALE
 40
0.0
  9
$OLESTARTUP
290
     0
  9
$SORTENTS
280
   127
  9
$INDEXCTL
280
     0
  9
$HIDETEXT
280
     1
  9
$XCLIPFRAME
280
     0
  9
$HALOGAP
280
     0
  9
$OBSCOLOR
 70
   257
  9
$OBSLTYPE
280
     0
  9
$INTERSECTIONDISPLAY
280
     0
  9
$INTERSECTIONCOLOR
 70
   257
  9
$DIMASSOC
280
     2
  9
$PROJECTNAME
  1

  9
$CAMERADISPLAY
290
     0
  9
$LENSLENGTH
 40
50.0
  9
$CAMERAHEIGHT
 40
0.0
  9
$STEPSPERSEC
 40
2.0
  9
$STEPSIZE
 40
6.0
  9
$3DDWFPREC
 40
2.0
  9
$PSOLWIDTH
 40
0.25
  9
$PSOLHEIGHT
 40
4.0
  9
$LOFTANG1
 40
1.570796
  9
$LOFTANG2
 40
1.570796
  9
$LOFTMAG1
 40
0.0
  9
$LOFTMAG2
 40
0.0
  9
$LOFTPARAM
 70
     7
  9
$LOFTNORMALS
280
     1
  9
$LATITUDE
 40
37.795
  9
$LONGITUDE
 40
-122.394
  9
$NORTHDIRECTION
 40
0.0
  9
$TIMEZONE
 70
 -8000
  9
$LIGHTGLYPHDISPLAY
280
     1
  9
$TILEMODELIGHTSYNCH
280
     1
  9
$CMATERIAL
347
11995
  9
$SOLIDHIST
280
     1
  9
$SHOWHIST
280
     1
  9
$DWFFRAME
280
     2
  9
$DGNFRAME
280
     0
  9
$REALWORLDSCALE
290
     1
  9
$INTERFERECOLOR
 62
     1
  9
$INTERFEREOBJVS
345
119BD
  9
$INTERFEREVPVS
346
119BE
  9
$CSHADOW
280
     0
  9
$SHADOWPLANELOCATION
 40
0.0
  0
ENDSEC
  0
SECTION
  2
CLASSES
  0
CLASS
  1
ACDBDICTIONARYWDFLT
  2
AcDbDictionaryWithDefault
  3
ObjectDBX Classes
 90
        0
 91
        1
280
     0
281
     0
  0
CLASS
  1
DICTIONARYVAR
  2
AcDbDictionaryVar
  3
ObjectDBX Classes
 90
        0
 91
        9
280
     0
281
     0
  0
CLASS
  1
TABLESTYLE
  2
AcDbTableStyle
  3
ObjectDBX Classes
 90
     4095
 91
        1
280
     0
281
     0
  0
CLASS
  1
MATERIAL
  2
AcDbMaterial
  3
ObjectDBX Classes
 90
     1153
 91
        4
280
     0
281
     0
  0
CLASS
  1
VISUALSTYLE
  2
AcDbVisualStyle
  3
ObjectDBX Classes
 90
     4095
 91
       24
280
     0
281
     0
  0
CLASS
  1
SCALE
  2
AcDbScale
  3
ObjectDBX Classes
 90
     1153
 91
       33
280
     0
281
     0
  0
CLASS
  1
MLEADERSTYLE
  2
AcDbMLeaderStyle
  3
ACDB_MLEADERSTYLE_CLASS
 90
     4095
 91
        1
280
     0
281
     0
  0
CLASS
  1
EXACXREFPANELOBJECT
  2
ExAcXREFPanelObject
  3
EXAC_ESW
 90
     1025
 91
        0
280
     1
281
     0
  0
CLASS
  1
NPOCOLLECTION
  2
AcDbImpNonPersistentObjectsCollection
  3
ObjectDBX Classes
 90
     1153
 91
        0
280
     0
281
     0
  0
CLASS
  1
CELLSTYLEMAP
  2
AcDbCellStyleMap
  3
ObjectDBX Classes
 90
     1152
 91
        1
280
     0
281
     0
  0
CLASS
  1
ACDBSECTIONVIEWSTYLE
  2
AcDbSectionViewStyle
  3
ObjectDBX Classes
 90
     1025
 91
        1
280
     0
281
     0
  0
CLASS
  1
ACDBDETAILVIEWSTYLE
  2
AcDbDetailViewStyle
  3
ObjectDBX Classes
 90
     1025
 91
        1
280
     0
281
     0
  0
CLASS
  1
SORTENTSTABLE
  2
AcDbSortentsTable
  3
ObjectDBX Classes
 90
        0
 91
        1
280
     0
281
     0
  0
ENDSEC
  0
SECTION
  2
TABLES
  0
TABLE
  2
VPORT
  5
11989
330
0
100
AcDbSymbolTable
 70
     1
1001
ACAD
1000
DbSaveVer
1071
      224
  0
VPORT
  5
4B
330
11989
100
AcDbSymbolTableRecord
100
AcDbViewportTableRecord
  2
*ACTIVE
 70
     0
 10
0.0
 20
0.0
 11
1.0
 21
1.0
 12
4557.398486
 22
833.434179
 13
0.0
 23
0.0
 14
100000.0
 24
100000.0
 15
100000.0
 25
100000.0
 16
0.0
 26
0.0
 36
1.0
 17
0.0
 27
0.0
 37
0.0
 40
5848.367792
 41
2.442283
 42
50.0
 43
0.0
 44
0.0
 50
0.0
 51
0.0
 71
     0
 72
 20000
 73
     1
 74
     1
 75
     0
 76
     0
 77
     0
 78
     1
281
     0
 65
     1
110
0.0
120
0.0
130
0.0
111
1.0
121
0.0
131
0.0
112
0.0
122
1.0
132
0.0
 79
     0
146
0.0
348
1198B
 60
     3
 61
     1
292
     0
282
     1
141
0.0
142
0.0
 63
     7
421
 16777215
  0
ENDTAB
  0
TABLE
  2
LTYPE
  5
11984
330
0
100
AcDbSymbolTable
 70
     2
  0
LTYPE
  5
11985
330
11984
100
AcDbSymbolTableRecord
100
AcDbLinetypeTableRecord
  2
ByBlock
 70
     0
  3

 72
    65
 73
     0
 40
0.0
  0
LTYPE
  5
11986
330
11984
100
AcDbSymbolTableRecord
100
AcDbLinetypeTableRecord
  2
ByLayer
 70
     0
  3

 72
    65
 73
     0
 40
0.0
  0
LTYPE
  5
11954
330
11984
100
AcDbSymbolTableRecord
100
AcDbLinetypeTableRecord
  2
Continuous
 70
     0
  3
Solid line
 72
    65
 73
     0
 40
0.0
  0
LTYPE
  5
11B28
330
11984
100
AcDbSymbolTableRecord
100
AcDbLinetypeTableRecord
  2
DGN Style 2
 70
     0
  3
Dgn Style 2
 72
    65
 73
     2
 40
142.833678
 49
85.700207
 74
     0
 49
-57.133471
 74
     0
  0
ENDTAB
  0
TABLE
  2
LAYER
  5
1197C
102
{ACAD_XDICTIONARY
360
1197D
102
}
330
0
100
AcDbSymbolTable
 70
   324
  0
LAYER
  5
11945
102
{ACAD_XDICTIONARY
360
11946
102
}
330
1197C
100
AcDbSymbolTableRecord
100
AcDbLayerTableRecord
  2
0
 70
     0
 62
     3
  6
Continuous
370
    -3
390
11948
347
1194B
348
0
1001
AcCmTransparency
1071
 33554687
  0
LAYER
  5
119B3
330
1197C
100
AcDbSymbolTableRecord
100
AcDbLayerTableRecord
  2
Level 1
 70
     0
 62
     7
  6
Continuous
370
     0
390
11948
347
1194B
348
0
1001
AcCmTransparency
1071
 33554687
  0
LAYER
  5
11957
330
1197C
100
AcDbSymbolTableRecord
100
AcDbLayerTableRecord
  2
Level 2
 70
     0
 62
     7
  6
Continuous
370
     0
390
11948
347
1194B
348
0
1001
AcCmTransparency
1071
 33554687
  0
LAYER
  5
1193D
330
1197C
100
AcDbSymbolTableRecord
100
AcDbLayerTableRecord
  2
Level 14
 70
     0
 62
     7
  6
Continuous
370
     0
390
11948
347
1194B
348
0
1001
AcAecLayerStandard
1000

1000
Fall Zone Individual
1001
AcCmTransparency
1071
 33554687
  0
LAYER
  5
1193E
330
1197C
100
AcDbSymbolTableRecord
100
AcDbLayerTableRecord
  2
springs2 - Level 26
 70
     0
 62
     7
  6
Continuous
370
     0
390
11948
347
1194B
348
0
1001
AcAecLayerStandard
1000

1000
Assemblies - Colour Locked
1001
AcCmTransparency
1071
 33554687
  0
LAYER
  5
1193F
330
1197C
100
AcDbSymbolTableRecord
100
AcDbLayerTableRecord
  2
springs2 - Level 25
 70
     0
 62
     7
  6
Continuous
370
     0
390
11948
347
1194B
348
0
1001
AcAecLayerStandard
1000

1000
Assemblies - Base
1001
AcCmTransparency
1071
 33554687
  0
ENDTAB
  0
TABLE
  2
STYLE
  5
11981
330
0
100
AcDbSymbolTable
 70
     3
  0
STYLE
  5
11982
330
11981
100
AcDbSymbolTableRecord
100
AcDbTextStyleTableRecord
  2
Standard
 70
     0
 40
3.0
 41
1.0
 50
0.0
 71
     0
 42
3.0
  3
INTL_ISO.shx
  4

1001
AcadAnnotative
1000
AnnotativeData
1002
{
1070
     1
1070
     0
1002
}
  0
STYLE
  5
11958
330
11981
100
AcDbSymbolTableRecord
100
AcDbTextStyleTableRecord
  2
Style-STANDARD
 70
     0
 40
0.0
 41
1.0
 50
0.0
 71
     0
 42
3.5
  3
STANDARD.shx
  4

1001
AcadAnnotative
1000
AnnotativeData
1002
{
1070
     1
1070
     1
1002
}
  0
STYLE
  5
313
330
11981
100
AcDbSymbolTableRecord
100
AcDbTextStyleTableRecord
  2
Style-INTL_ISO
 70
     0
 40
0.0
 41
1.0
 50
0.0
 71
     0
 42
3.5
  3
INTL_ISO.shx
  4

  0
ENDTAB
  0
TABLE
  2
VIEW
  5
11987
330
0
100
AcDbSymbolTable
 70
     0
  0
ENDTAB
  0
TABLE
  2
UCS
  5
11988
330
0
100
AcDbSymbolTable
 70
     0
  0
ENDTAB
  0
TABLE
  2
APPID
  5
1198D
330
0
100
AcDbSymbolTable
 70
     6
  0
APPID
  5
1198E
330
1198D
100
AcDbSymbolTableRecord
100
AcDbRegAppTableRecord
  2
ACAD
 70
     0
  0
APPID
  5
1197B
330
1198D
100
AcDbSymbolTableRecord
100
AcDbRegAppTableRecord
  2
ACAD_PSEXT
 70
     0
  0
APPID
  5
11955
330
1198D
100
AcDbSymbolTableRecord
100
AcDbRegAppTableRecord
  2
AcCmTransparency
 70
     0
  0
APPID
  5
11959
330
1198D
100
AcDbSymbolTableRecord
100
AcDbRegAppTableRecord
  2
AcadAnnotative
 70
     0
  0
APPID
  5
11961
330
1198D
100
AcDbSymbolTableRecord
100
AcDbRegAppTableRecord
  2
MStation
 70
     0
  0
APPID
  5
11B1F
330
1198D
100
AcDbSymbolTableRecord
100
AcDbRegAppTableRecord
  2
AcAecLayerStandard
 70
     0
  0
ENDTAB
  0
TABLE
  2
DIMSTYLE
  5
1198F
330
0
100
AcDbSymbolTable
 70
     1
100
AcDbDimStyleTable
 71
     1
340
11990
  0
DIMSTYLE
105
11990
330
1198F
100
AcDbSymbolTableRecord
100
AcDbDimStyleTableRecord
  2
Standard
 70
     0
 42
0.0625
 44
0.18
 78
     3
272
     0
274
     0
278
     0
284
     3
285
     3
286
     3
289
     1
340
11982
345
11954
346
11954
347
11954
  0
ENDTAB
  0
TABLE
  2
BLOCK_RECORD
  5
11940
330
0
100
AcDbSymbolTable
 70
     6
  0
BLOCK_RECORD
  5
11941
102
{ACAD_XDICTIONARY
360
11942
102
}
330
11940
100
AcDbSymbolTableRecord
100
AcDbBlockTableRecord
  2
*Model_Space
340
11973
 70
     0
280
     1
281
     0
  0
BLOCK_RECORD
  5
11976
330
11940
100
AcDbSymbolTableRecord
100
AcDbBlockTableRecord
  2
*Paper_Space
340
11979
 70
     0
280
     1
281
     0
  0
ENDTAB
  0
ENDSEC
  0
SECTION
  2
BLOCKS
  0
BLOCK
  5
11944
330
11941
100
AcDbEntity
  8
0
100
AcDbBlockBegin
  2
*Model_Space
 70
     0
 10
0.0
 20
0.0
 30
0.0
  3
*Model_Space
  1

  0
ENDBLK
  5
11972
330
11941
100
AcDbEntity
  8
0
100
AcDbBlockEnd
  0
BLOCK
  5
11977
330
11976
100
AcDbEntity
 67
     1
  8
0
100
AcDbBlockBegin
  2
*Paper_Space
 70
     0
 10
0.0
 20
0.0
 30
0.0
  3
*Paper_Space
  1

  0
ENDBLK
  5
11978
330
11976
100
AcDbEntity
 67
     1
  8
0
100
AcDbBlockEnd
  0
ENDSEC
  0
SECTION
  2
ENTITIES
  0
MTEXT
  5
11956
330
11941
100
AcDbEntity
  8
Level 2
  6
Continuous
 62
     7
370
    30
100
AcDbMText
 10
454.0
 20
47.166667
 30
0.0
 40
4.999998
 41
0.0
 46
0.0
 71
     5
 72
     1
  1
ENERGEX DRAWING NUMBER,\PDRAWING TITLE\PAND LOGO\P
  7
Style-STANDARD
 73
     2
 44
0.897
  0
TEXT
  5
1195A
330
11941
100
AcDbEntity
  8
Level 2
  6
Continuous
 62
     7
370
    30
100
AcDbText
 10
681.0
 20
24.5
 30
0.0
 40
4.999998
  1
DRAWING NUMBER
  7
Style-STANDARD
 11
681.0
 21
26.999999
 31
0.0
100
AcDbText
 73
     2
  0
MTEXT
  5
1195B
330
11941
100
AcDbEntity
  8
Level 2
  6
Continuous
 62
     7
370
    30
100
AcDbMText
 10
710.0
 20
43.166667
 30
0.0
 40
4.999998
 41
0.0
 46
0.0
 71
     5
 72
     1
  1
ElectraNet SA \PDRAWING TITLE\P
  7
Style-STANDARD
 73
     2
 44
0.897
  0
TEXT
  5
1195C
330
11941
100
AcDbEntity
  8
Level 2
  6
Continuous
 62
     7
370
    30
100
AcDbText
 10
704.0
 20
68.0
 30
0.0
 40
4.999998
  1
ElectraNet SA SUB TITLE
  7
Style-STANDARD
100
AcDbText
  0
LWPOLYLINE
  5
11852
330
11941
100
AcDbEntity
  8
Level 14
  6
DGN Style 2
 62
     7
370
    13
100
AcDbPolyline
 90
        9
 70
   128
 43
0.0
 10
2608.934441
 20
3270.283918
 10
1958.934441
 20
3270.283918
 42
0.414214
 10
758.934441
 20
2070.283918
 10
758.934441
 20
1639.714972
 42
0.414214
 10
1958.934441
 20
439.714972
 10
2608.934441
 20
439.714972
 42
0.414214
 10
3808.934441
 20
1639.714972
 10
3808.934441
 20
2070.283918
 42
0.414214
 10
2608.934441
 20
3270.283918
  0
LINE
  5
1185B
330
11941
100
AcDbEntity
  8
springs2 - Level 26
  6
Continuous
 62
     7
370
    13
100
AcDbLine
 10
2608.934441
 20
1657.291865
 30
0.0
 11
1958.934441
 21
1657.291865
 31
0.0
  0
LINE
  5
1185C
330
11941
100
AcDbEntity
  8
springs2 - Level 26
  6
Continuous
 62
     7
370
    13
100
AcDbLine
 10
2608.934441
 20
1672.491865
 30
0.0
 11
1958.934441
 21
1672.491865
 31
0.0
  0
LINE
  5
1185D
330
11941
100
AcDbEntity
  8
springs2 - Level 26
  6
Continuous
 62
     7
370
    13
100
AcDbLine
 10
2608.934441
 20
1657.491865
 30
0.0
 11
1958.934441
 21
1657.491865
 31
0.0
  0
LINE
  5
1185E
330
11941
100
AcDbEntity
  8
springs2 - Level 26
  6
Continuous
 62
     7
370
    13
100
AcDbLine
 10
2608.934441
 20
1657.491865
 30
0.0
 11
2608.934441
 21
1672.491865
 31
0.0
  0
LINE
  5
1185F
330
11941
100
AcDbEntity
  8
springs2 - Level 26
  6
Continuous
 62
     7
370
    13
100
AcDbLine
 10
1958.934441
 20
1672.491865
 30
0.0
 11
1958.934441
 21
1657.491865
 31
0.0
  0
LINE
  5
11860
330
11941
100
AcDbEntity
  8
springs2 - Level 26
  6
Continuous
 62
     7
370
    13
100
AcDbLine
 10
2608.934441
 20
1672.591865
 30
0.0
 11
1958.934441
 21
1672.591865
 31
0.0
  0
LINE
  5
11861
330
11941
100
AcDbEntity
  8
springs2 - Level 26
  6
Continuous
 62
     7
370
    13
100
AcDbLine
 10
2608.934441
 20
2037.883918
 30
0.0
 11
1958.934441
 21
2037.883918
 31
0.0
  0
LINE
  5
11862
330
11941
100
AcDbEntity
  8
springs2 - Level 26
  6
Continuous
 62
     7
370
    13
100
AcDbLine
 10
2608.934441
 20
2037.983918
 30
0.0
 11
1958.934441
 21
2037.983918
 31
0.0
  0
LINE
  5
11863
330
11941
100
AcDbEntity
  8
springs2 - Level 26
  6
Continuous
 62
     7
370
    13
100
AcDbLine
 10
2608.934441
 20
2052.983918
 30
0.0
 11
1958.934441
 21
2052.983918
 31
0.0
  0
LINE
  5
11864
330
11941
100
AcDbEntity
  8
springs2 - Level 26
  6
Continuous
 62
     7
370
    13
100
AcDbLine
 10
1958.934441
 20
2052.983918
 30
0.0
 11
1958.934441
 21
2037.983918
 31
0.0
  0
LINE
  5
11865
330
11941
100
AcDbEntity
  8
springs2 - Level 26
  6
Continuous
 62
     7
370
    13
100
AcDbLine
 10
2608.934441
 20
2037.983918
 30
0.0
 11
2608.934441
 21
2052.983918
 31
0.0
  0
LINE
  5
11866
330
11941
100
AcDbEntity
  8
springs2 - Level 25
  6
Continuous
 62
     7
370
    13
100
AcDbLine
 10
2033.292829
 20
1672.791865
 30
0.0
 11
2033.078861
 21
1672.791865
 31
0.0
  0
LINE
  5
11867
330
11941
100
AcDbEntity
  8
springs2 - Level 25
  6
Continuous
 62
     7
370
    13
100
AcDbLine
 10
2033.292829
 20
1672.791865
 30
0.0
 11
2038.652823
 21
1672.791865
 31
0.0
  0
LINE
  5
11868
330
11941
100
AcDbEntity
  8
springs2 - Level 25
  6
Continuous
 62
     7
370
    13
100
AcDbLine
 10
2048.708966
 20
1672.791865
 30
0.0
 11
2038.652823
 21
1672.791865
 31
0.0
  0
LINE
  5
11869
330
11941
100
AcDbEntity
  8
springs2 - Level 25
  6
Continuous
 62
     7
370
    13
100
AcDbLine
 10
2048.708966
 20
1672.791865
 30
0.0
 11
2072.846993
 21
1672.791865
 31
0.0
  0
LINE
  5
1186A
330
11941
100
AcDbEntity
  8
springs2 - Level 25
  6
Continuous
 62
     7
370
    13
100
AcDbLine
 10
2093.403831
 20
1672.791865
 30
0.0
 11
2072.846993
 21
1672.791865
 31
0.0
  0
LINE
  5
1186B
330
11941
100
AcDbEntity
  8
springs2 - Level 25
  6
Continuous
 62
     7
370
    13
100
AcDbLine
 10
2033.292829
 20
2037.683918
 30
0.0
 11
2033.078861
 21
2037.683918
 31
0.0
  0
LINE
  5
1186C
330
11941
100
AcDbEntity
  8
springs2 - Level 25
  6
Continuous
 62
     7
370
    13
100
AcDbLine
 10
2093.403831
 20
2037.683918
 30
0.0
 11
2072.846993
 21
2037.683918
 31
0.0
  0
LINE
  5
1186D
330
11941
100
AcDbEntity
  8
springs2 - Level 25
  6
Continuous
 62
     7
370
    13
100
AcDbLine
 10
2048.708966
 20
2037.683918
 30
0.0
 11
2072.846993
 21
2037.683918
 31
0.0
  0
LINE
  5
1186E
330
11941
100
AcDbEntity
  8
springs2 - Level 25
  6
Continuous
 62
     7
370
    13
100
AcDbLine
 10
2048.708966
 20
2037.683918
 30
0.0
 11
2038.652823
 21
2037.683918
 31
0.0
  0
LINE
  5
1186F
330
11941
100
AcDbEntity
  8
springs2 - Level 25
  6
Continuous
 62
     7
370
    13
100
AcDbLine
 10
2033.292829
 20
2037.683918
 30
0.0
 11
2038.652823
 21
2037.683918
 31
0.0
  0
ARC
  5
11870
330
11941
100
AcDbEntity
  8
springs2 - Level 26
  6
Continuous
 62
     7
370
    13
100
AcDbCircle
 10
2046.078862
 20
1657.191865
 30
0.0
 40
11.0
100
AcDbArc
 50
0.0
 51
1.562806
  0
ARC
  5
11871
330
11941
100
AcDbEntity
  8
springs2 - Level 26
  6
Continuous
 62
     7
370
    13
100
AcDbCircle
 10
2046.078862
 20
1657.191865
 30
0.0
 40
11.0
100
AcDbArc
 50
178.437194
 51
0.0
  0
ARC
  5
11872
330
11941
100
AcDbEntity
  8
springs2 - Level 26
  6
Continuous
 62
     7
370
    13
100
AcDbCircle
 10
2046.078862
 20
2053.283918
 30
0.0
 40
11.0
100
AcDbArc
 50
0.0
 51
181.562806
  0
ARC
  5
11873
330
11941
100
AcDbEntity
  8
springs2 - Level 26
  6
Continuous
 62
     7
370
    13
100
AcDbCircle
 10
2046.078862
 20
2053.283918
 30
0.0
 40
11.0
100
AcDbArc
 50
358.437194
 51
0.0
  0
LINE
  5
11874
330
11941
100
AcDbEntity
  8
springs2 - Level 25
  6
Continuous
 62
     7
370
    13
100
AcDbLine
 10
2076.691346
 20
1672.491865
 30
0.0
 11
2076.691346
 21
2037.983918
 31
0.0
  0
LINE
  5
11875
330
11941
100
AcDbEntity
  8
springs2 - Level 25
  6
Continuous
 62
     7
370
    13
100
AcDbLine
 10
2049.791346
 20
2037.983918
 30
0.0
 11
2049.791346
 21
1672.491865
 31
0.0
  0
ARC
  5
11876
330
11941
100
AcDbEntity
  8
springs2 - Level 26
  6
Continuous
 62
     7
370
    13
100
AcDbCircle
 10
2080.403831
 20
1657.191865
 30
0.0
 40
11.0
100
AcDbArc
 50
0.0
 51
1.562806
  0
ARC
  5
11877
330
11941
100
AcDbEntity
  8
springs2 - Level 26
  6
Continuous
 62
     7
370
    13
100
AcDbCircle
 10
2080.403831
 20
1657.191865
 30
0.0
 40
11.0
100
AcDbArc
 50
178.437194
 51
0.0
  0
ARC
  5
11878
330
11941
100
AcDbEntity
  8
springs2 - Level 26
  6
Continuous
 62
     7
370
    13
100
AcDbCircle
 10
2080.403831
 20
2053.283918
 30
0.0
 40
11.0
100
AcDbArc
 50
0.0
 51
181.562806
  0
ARC
  5
11879
330
11941
100
AcDbEntity
  8
springs2 - Level 26
  6
Continuous
 62
     7
370
    13
100
AcDbCircle
 10
2080.403831
 20
2053.283918
 30
0.0
 40
11.0
100
AcDbArc
 50
358.437194
 51
0.0
  0
SPLINE
  5
1187A
330
11941
100
AcDbEntity
  8
springs2 - Level 26
  6
Continuous
 62
     7
370
    13
100
AcDbSpline
210
0.0
220
0.0
230
1.0
 70
    24
 71
     3
 72
    26
 73
    22
 74
     0
 42
0.000000001
 43
0.0000000001
 40
0.0
 40
0.0
 40
0.0
 40
0.0
 40
0.0036382653020443
 40
0.0036382653020443
 40
0.0089734988902208
 40
0.0089734988902208
 40
0.0122211478215728
 40
0.0122211478215728
 40
0.0164403322561049
 40
0.0164403322561049
 40
0.0287400234074742
 40
0.0287400234074742
 40
0.041896934114976
 40
0.041896934114976
 40
0.0470376336116465
 40
0.0470376336116465
 40
0.0508059324024818
 40
0.0508059324024818
 40
0.0531935342129714
 40
0.0531935342129714
 40
0.0554508926498379
 40
0.0554508926498379
 40
0.0554508926498379
 40
0.0554508926498379
 10
1996.719785562129
 20
1651.191864841367
 30
0.0
 10
1997.673077162531
 20
1651.191864841366
 30
0.0
 10
1998.621636121568
 20
1651.191864841366
 30
0.0
 10
2001.058435484708
 20
1651.191864841366
 30
0.0
 10
2002.718494814512
 20
1651.191864841366
 30
0.0
 10
2005.46398576184
 20
1651.191864841366
 30
0.0
 10
2007.01433132413
 20
1651.191864841366
 30
0.0
 10
2009.474136457327
 20
1651.191864841366
 30
0.0
 10
2010.735583084329
 20
1651.191864841366
 30
0.0
 10
2013.776898734902
 20
1651.191864841366
 30
0.0
 10
2015.914474302075
 20
1651.191864841366
 30
0.0
 10
2020.241876022311
 20
1651.191864841366
 30
0.0
 10
2022.30826878034
 20
1651.191864841366
 30
0.0
 10
2025.443267224935
 20
1651.191864841366
 30
0.0
 10
2026.57088687347
 20
1651.191864841366
 30
0.0
 10
2029.170587597583
 20
1651.191864841366
 30
0.0
 10
2030.468408219446
 20
1651.191864841366
 30
0.0
 10
2032.713098225162
 20
1651.191864841366
 30
0.0
 10
2033.655929921324
 20
1651.191864841366
 30
0.0
 10
2035.33287262152
 20
1651.191864841366
 30
0.0
 10
2036.115504274492
 20
1651.191864841366
 30
0.0
 10
2036.85931740227
 20
1651.191864841366
 30
0.0
  0
SPLINE
  5
1187D
330
11941
100
AcDbEntity
  8
springs2 - Level 26
  6
Continuous
 62
     7
370
    13
100
AcDbSpline
210
0.0
220
0.0
230
1.0
 70
    24
 71
     3
 72
    12
 73
     8
 74
     0
 42
0.000000001
 43
0.0000000001
 40
0.0
 40
0.0
 40
0.0
 40
0.0
 40
0.0138204920472433
 40
0.0138204920472433
 40
0.0203875405807964
 40
0.0203875405807964
 40
0.0215396670148633
 40
0.0215396670148633
 40
0.0215396670148633
 40
0.0215396670148633
 10
2055.298406262094
 20
1651.191864841366
 30
0.0
 10
2058.387415084181
 20
1651.191864841366
 30
0.0
 10
2061.443587623476
 20
1651.191864841366
 30
0.0
 10
2066.034561712333
 20
1651.191864841366
 30
0.0
 10
2067.835666616504
 20
1651.191864841366
 30
0.0
 10
2070.399544961487
 20
1651.191864841366
 30
0.0
 10
2070.789069432608
 20
1651.191864841366
 30
0.0
 10
2071.184286119122
 20
1651.191864841366
 30
0.0
  0
SPLINE
  5
11880
330
11941
100
AcDbEntity
  8
springs2 - Level 26
  6
Continuous
 62
     7
370
    13
100
AcDbSpline
210
0.0
220
0.0
230
1.0
 70
    24
 71
     3
 72
    80
 73
    76
 74
     0
 42
0.000000001
 43
0.0000000001
 40
0.0
 40
0.0
 40
0.0
 40
0.0
 40
0.0063207798548755
 40
0.0203293397036629
 40
0.0203293397036629
 40
0.0257118388358166
 40
0.0257118388358166
 40
0.0296821831323052
 40
0.0296821831323052
 40
0.0324443199840277
 40
0.0324443199840277
 40
0.0358784995722026
 40
0.0358784995722026
 40
0.0456738839087507
 40
0.0456738839087507
 40
0.0725732390513363
 40
0.0725732390513363
 40
0.0962711408386927
 40
0.0962711408386927
 40
0.1021063111076001
 40
0.1021063111076001
 40
0.1037012059452268
 40
0.1037012059452268
 40
0.1048401683283579
 40
0.1048401683283579
 40
0.1064196118062096
 40
0.1064196118062096
 40
0.1160535743765952
 40
0.1160535743765952
 40
0.1378641661431703
 40
0.1378641661431703
 40
0.148543481358398
 40
0.1573974129286293
 40
0.1573974129286293
 40
0.1671188328958268
 40
0.1671188328958268
 40
0.1753727113519529
 40
0.1753727113519529
 40
0.1783977262200684
 40
0.1783977262200684
 40
0.1796405868644268
 40
0.1807903692801345
 40
0.1807903692801345
 40
0.1877358320185454
 40
0.1877358320185454
 40
0.1982447137430767
 40
0.1982447137430767
 40
0.2104089414620189
 40
0.2104089414620189
 40
0.2218429994336077
 40
0.2218429994336077
 40
0.2317258918633918
 40
0.2414844931281213
 40
0.2414844931281213
 40
0.2508479506192094
 40
0.2508479506192094
 40
0.2595650826514908
 40
0.2595650826514908
 40
0.2612569920592973
 40
0.2612569920592973
 40
0.2626104554688382
 40
0.2626104554688382
 40
0.2660216268650901
 40
0.2660216268650901
 40
0.2775160788450723
 40
0.2775160788450723
 40
0.2907000064826772
 40
0.2907000064826772
 40
0.2978361062817707
 40
0.2978361062817707
 40
0.2993952003658544
 40
0.2993952003658544
 40
0.3030832832361679
 40
0.3030832832361679
 40
0.3073402049338037
 40
0.3073402049338037
 40
0.3073402049338037
 40
0.3073402049338037
 10
2089.623374978947
 20
1651.191864841366
 30
0.0
 10
2090.971188165891
 20
1651.191864841366
 30
0.0
 10
2095.319335986025
 20
1651.191864841366
 30
0.0
 10
2099.492253002774
 20
1651.191864841366
 30
0.0
 10
2103.610749196599
 20
1651.191864841366
 30
0.0
 10
2104.862776286172
 20
1651.191864841366
 30
0.0
 10
2108.152119360058
 20
1651.191864841366
 30
0.0
 10
2109.548609065947
 20
1651.191864841366
 30
0.0
 10
2111.916460400651
 20
1651.191864841366
 30
0.0
 10
2112.88791644575
 20
1651.191864841366
 30
0.0
 10
2115.067097263503
 20
1651.191864841366
 30
0.0
 10
2115.750277214571
 20
1651.191864841366
 30
0.0
 10
2118.089409080175
 20
1651.191864841366
 30
0.0
 10
2119.660491142678
 20
1651.191864841366
 30
0.0
 10
2122.10159327902
 20
1651.191864841366
 30
0.0
 10
2123.810782230076
 20
1651.191864841366
 30
0.0
 10
2126.994165964904
 20
1651.191864841366
 30
0.0
 10
2128.347105028757
 20
1651.191864841366
 30
0.0
 10
2130.193504544961
 20
1651.191864841366
 30
0.0
 10
2131.04857090238
 20
1651.191864841366
 30
0.0
 10
2133.153151976639
 20
1651.191864841366
 30
0.0
 10
2133.995145440618
 20
1651.191864841366
 30
0.0
 10
2134.854151065777
 20
1651.191864841366
 30
0.0
 10
2135.221321540686
 20
1651.191864841366
 30
0.0
 10
2135.901415437654
 20
1651.191864841366
 30
0.0
 10
2136.282463307562
 20
1651.191864841366
 30
0.0
 10
2138.530166035801
 20
1651.191864841366
 30
0.0
 10
2140.455999022154
 20
1651.191864841366
 30
0.0
 10
2146.462812114771
 20
1651.191864841366
 30
0.0
 10
2150.480183426161
 20
1651.191864841366
 30
0.0
 10
2157.112742548046
 20
1651.191864841366
 30
0.0
 10
2161.413334861894
 20
1651.191864841366
 30
0.0
 10
2165.827032783822
 20
1651.191864841366
 30
0.0
 10
2170.044938802705
 20
1651.191864841366
 30
0.0
 10
2172.334666865514
 20
1651.191864841366
 30
0.0
 10
2176.605680582697
 20
1651.191864841366
 30
0.0
 10
2178.855885706329
 20
1651.191864841366
 30
0.0
 10
2182.267953955628
 20
1651.191864841366
 30
0.0
 10
2183.261795960486
 20
1651.191864841366
 30
0.0
 10
2184.844112038268
 20
1651.191864841366
 30
0.0
 10
2185.733715497318
 20
1651.191864841366
 30
0.0
 10
2186.62021421749
 20
1651.191864841366
 30
0.0
 10
2189.612062808371
 20
1651.191864841366
 30
0.0
 10
2191.161373168203
 20
1651.191864841366
 30
0.0
 10
2193.117070782167
 20
1651.191864841366
 30
0.0
 10
2194.15178015015
 20
1651.191864841366
 30
0.0
 10
2196.251433677465
 20
1651.191864841366
 30
0.0
 10
2197.165121243558
 20
1651.191864841366
 30
0.0
 10
2199.500510582653
 20
1651.191864841366
 30
0.0
 10
2201.117848315368
 20
1651.191864841366
 30
0.0
 10
2205.445679217568
 20
1651.191864841366
 30
0.0
 10
2209.530638382747
 20
1651.191864841366
 30
0.0
 10
2213.661386317407
 20
1651.191864841366
 30
0.0
 10
2217.725104429074
 20
1651.191864841366
 30
0.0
 10
2219.843774589228
 20
1651.191864841366
 30
0.0
 10
2223.87489280605
 20
1651.191864841366
 30
0.0
 10
2225.97588036801
 20
1651.191864841366
 30
0.0
 10
2228.568677359878
 20
1651.191864841366
 30
0.0
 10
2229.103234187751
 20
1651.191864841366
 30
0.0
 10
2230.116738465025
 20
1651.191864841366
 30
0.0
 10
2230.720246176704
 20
1651.191864841366
 30
0.0
 10
2232.364189018519
 20
1651.191864841366
 30
0.0
 10
2233.538680740228
 20
1651.191864841366
 30
0.0
 10
2236.581105372851
 20
1651.191864841366
 30
0.0
 10
2238.481443635015
 20
1651.191864841366
 30
0.0
 10
2242.505385052536
 20
1651.191864841366
 30
0.0
 10
2244.332485465538
 20
1651.191864841366
 30
0.0
 10
2247.694397031235
 20
1651.191864841366
 30
0.0
 10
2249.129007254492
 20
1651.191864841366
 30
0.0
 10
2251.602982660172
 20
1651.191864841366
 30
0.0
 10
2252.137199396524
 20
1651.191864841366
 30
0.0
 10
2254.076599104243
 20
1651.191864841366
 30
0.0
 10
2255.530282202869
 20
1651.191864841366
 30
0.0
 10
2258.414632830681
 20
1651.191864841366
 30
0.0
 10
2259.989244830763
 20
1651.191864841366
 30
0.0
 10
2261.460999193679
 20
1651.191864841366
 30
0.0
  0
SPLINE
  5
11883
330
11941
100
AcDbEntity
  8
springs2 - Level 26
  6
Continuous
 62
     7
370
    13
100
AcDbSpline
210
0.0
220
0.0
230
1.0
 70
    24
 71
     3
 72
    60
 73
    56
 74
     0
 42
0.000000001
 43
0.0000000001
 40
0.0
 40
0.0
 40
0.0
 40
0.0
 40
0.0069140166466347
 40
0.0069140166466347
 40
0.0136565041424455
 40
0.0136565041424455
 40
0.0152787763633743
 40
0.0152787763633743
 40
0.0181066386481238
 40
0.0181066386481238
 40
0.0215112238070595
 40
0.0215112238070595
 40
0.0303271517023882
 40
0.0303271517023882
 40
0.0533924264665152
 40
0.0760928056652616
 40
0.0760928056652616
 40
0.0844436002345368
 40
0.0844436002345368
 40
0.0875538470256986
 40
0.0875538470256986
 40
0.0900891987115031
 40
0.0900891987115031
 40
0.0913341532682559
 40
0.0913341532682559
 40
0.0928302786974776
 40
0.0928302786974776
 40
0.0969798783161802
 40
0.0969798783161802
 40
0.1087300673862226
 40
0.1208885860366043
 40
0.1208885860366043
 40
0.1255586757789701
 40
0.1255586757789701
 40
0.1281638263846575
 40
0.1281638263846575
 40
0.1289186706005877
 40
0.1295464103706113
 40
0.1295464103706113
 40
0.131700466295389
 40
0.131700466295389
 40
0.135373772358139
 40
0.135373772358139
 40
0.1539524193144502
 40
0.1539524193144502
 40
0.1591718610538324
 40
0.1591718610538324
 40
0.1605006608973837
 40
0.1618047914812759
 40
0.1618047914812759
 40
0.1633100077107501
 40
0.1633100077107501
 40
0.167107584181531
 40
0.167107584181531
 40
0.1755220847767999
 40
0.1755220847767999
 40
0.1755220847767999
 40
0.1755220847767999
 10
2279.900088053508
 20
1651.191864841366
 30
0.0
 10
2282.220870245016
 20
1651.191864841366
 30
0.0
 10
2284.543624921475
 20
1651.191864841366
 30
0.0
 10
2289.149750241366
 20
1651.191864841366
 30
0.0
 10
2291.725287842639
 20
1651.191864841366
 30
0.0
 10
2294.792692257251
 20
1651.191864841366
 30
0.0
 10
2295.421027638134
 20
1651.191864841366
 30
0.0
 10
2297.05960706566
 20
1651.191864841366
 30
0.0
 10
2297.975980473454
 20
1651.191864841366
 30
0.0
 10
2299.89619585063
 20
1651.191864841366
 30
0.0
 10
2300.76947189026
 20
1651.191864841366
 30
0.0
 10
2303.470687607323
 20
1651.191864841366
 30
0.0
 10
2305.33913942266
 20
1651.191864841366
 30
0.0
 10
2309.499161462397
 20
1651.191864841366
 30
0.0
 10
2315.436097820429
 20
1651.191864841366
 30
0.0
 10
2321.271795329296
 20
1651.191864841366
 30
0.0
 10
2325.286491839283
 20
1651.191864841366
 30
0.0
 10
2327.046204135726
 20
1651.191864841366
 30
0.0
 10
2329.590874757922
 20
1651.191864841366
 30
0.0
 10
2330.384746367863
 20
1651.191864841366
 30
0.0
 10
2332.222191610635
 20
1651.191864841366
 30
0.0
 10
2333.108043568012
 20
1651.191864841366
 30
0.0
 10
2334.468467521258
 20
1651.191864841366
 30
0.0
 10
2334.964902351185
 20
1651.191864841366
 30
0.0
 10
2335.943383475858
 20
1651.191864841366
 30
0.0
 10
2336.399994922775
 20
1651.191864841366
 30
0.0
 10
2337.909719933488
 20
1651.191864841366
 30
0.0
 10
2338.916772105024
 20
1651.191864841366
 30
0.0
 10
2341.520461387456
 20
1651.191864841366
 30
0.0
 10
2345.348786411093
 20
1651.191864841366
 30
0.0
 10
2349.28996797607
 20
1651.191864841366
 30
0.0
 10
2352.082928126051
 20
1651.191864841366
 30
0.0
 10
2353.192135085011
 20
1651.191864841366
 30
0.0
 10
2355.163540691051
 20
1651.191864841366
 30
0.0
 10
2355.957166489255
 20
1651.191864841366
 30
0.0
 10
2357.174289904407
 20
1651.191864841366
 30
0.0
 10
2357.679628951412
 20
1651.191864841366
 30
0.0
 10
2358.205440307262
 20
1651.191864841366
 30
0.0
 10
2359.243844090439
 20
1651.191864841366
 30
0.0
 10
2360.021781920286
 20
1651.191864841366
 30
0.0
 10
2362.059483016493
 20
1651.191864841366
 30
0.0
 10
2363.256183792689
 20
1651.191864841366
 30
0.0
 10
2369.543318072398
 20
1651.191864841366
 30
0.0
 10
2374.769000125036
 20
1651.191864841366
 30
0.0
 10
2381.50904755213
 20
1651.191864841366
 30
0.0
 10
2383.329124201558
 20
1651.191864841366
 30
0.0
 10
2385.71523821801
 20
1651.191864841366
 30
0.0
 10
2386.73602512557
 20
1651.191864841366
 30
0.0
 10
2387.67357383355
 20
1651.191864841366
 30
0.0
 10
2388.654006644685
 20
1651.191864841366
 30
0.0
 10
2389.093392337321
 20
1651.191864841366
 30
0.0
 10
2390.532108942329
 20
1651.191864841366
 30
0.0
 10
2391.490636654501
 20
1651.191864841366
 30
0.0
 10
2393.643059625321
 20
1651.191864841366
 30
0.0
 10
2395.063968436573
 20
1651.191864841366
 30
0.0
 10
2396.460999193675
 20
1651.191864841366
 30
0.0
  0
SPLINE
  5
11886
330
11941
100
AcDbEntity
  8
springs2 - Level 26
  6
Continuous
 62
     7
370
    13
100
AcDbSpline
210
0.0
220
0.0
230
1.0
 70
    24
 71
     3
 72
    73
 73
    69
 74
     0
 42
0.000000001
 43
0.0000000001
 40
0.0
 40
0.0
 40
0.0
 40
0.0
 40
0.0028344919146014
 40
0.0164200261025775
 40
0.0164200261025775
 40
0.0214051250683154
 40
0.0214051250683154
 40
0.0239790329697804
 40
0.0239790329697804
 40
0.0246920107564707
 40
0.0246920107564707
 40
0.0268565133167529
 40
0.0268565133167529
 40
0.0294993813687772
 40
0.0294993813687772
 40
0.0364720580977585
 40
0.0364720580977585
 40
0.0550996442212459
 40
0.073910835323562
 40
0.073910835323562
 40
0.0811249346935263
 40
0.0811249346935263
 40
0.0862038905399738
 40
0.0862038905399738
 40
0.0884553362314179
 40
0.0884553362314179
 40
0.0911642479596238
 40
0.0911642479596238
 40
0.0982878857050148
 40
0.0982878857050148
 40
0.1172482103630752
 40
0.1172482103630752
 40
0.1359130650893141
 40
0.1359130650893141
 40
0.1425478422426399
 40
0.1425478422426399
 40
0.1448311875053689
 40
0.1448311875053689
 40
0.1464670231771538
 40
0.1464670231771538
 40
0.148155599566883
 40
0.148155599566883
 40
0.1505497476961612
 40
0.1505497476961612
 40
0.1579868741123749
 40
0.1579868741123749
 40
0.1799235762922209
 40
0.2021843748941357
 40
0.2021843748941357
 40
0.209999882372998
 40
0.209999882372998
 40
0.2125938701295277
 40
0.2125938701295277
 40
0.2143733001518544
 40
0.2143733001518544
 40
0.2153587532733482
 40
0.2153587532733482
 40
0.2165853057551753
 40
0.2165853057551753
 40
0.2201145506824897
 40
0.2201145506824897
 40
0.2313245538036285
 40
0.2313245538036285
 40
0.2628518364566287
 40
0.2628518364566287
 40
0.2902640571833535
 40
0.2902640571833535
 40
0.293881712452989
 40
0.293881712452989
 40
0.293881712452989
 40
0.293881712452989
 10
2414.900088053504
 20
1651.191864841366
 30
0.0
 10
2415.213874979301
 20
1651.191864841366
 30
0.0
 10
2417.033469016069
 20
1651.191864841366
 30
0.0
 10
2418.875341595913
 20
1651.191864841366
 30
0.0
 10
2420.964870984879
 20
1651.191864841366
 30
0.0
 10
2421.90138720452
 20
1651.191864841366
 30
0.0
 10
2423.561232273976
 20
1651.191864841366
 30
0.0
 10
2424.252810160489
 20
1651.191864841366
 30
0.0
 10
2425.415272899682
 20
1651.191864841366
 30
0.0
 10
2425.672987153464
 20
1651.191864841366
 30
0.0
 10
2426.737560268861
 20
1651.191864841366
 30
0.0
 10
2427.567696131437
 20
1651.191864841366
 30
0.0
 10
2429.332101261544
 20
1651.191864841366
 30
0.0
 10
2430.212750625674
 20
1651.191864841366
 30
0.0
 10
2433.253906412474
 20
1651.191864841366
 30
0.0
 10
2435.359740630631
 20
1651.191864841366
 30
0.0
 10
2441.61293241009
 20
1651.191864841366
 30
0.0
 10
2450.68290528882
 20
1651.191864841366
 30
0.0
 10
2459.843932402515
 20
1651.191864841366
 30
0.0
 10
2466.223879833462
 20
1651.191864841366
 30
0.0
 10
2468.146266295004
 20
1651.191864841366
 30
0.0
 10
2472.523672680217
 20
1651.191864841366
 30
0.0
 10
2474.355561794394
 20
1651.191864841366
 30
0.0
 10
2476.975197326843
 20
1651.191864841366
 30
0.0
 10
2477.779421243317
 20
1651.191864841366
 30
0.0
 10
2479.543479056631
 20
1651.191864841366
 30
0.0
 10
2480.268380673555
 20
1651.191864841366
 30
0.0
 10
2482.773856827555
 20
1651.191864841366
 30
0.0
 10
2484.447883791573
 20
1651.191864841366
 30
0.0
 10
2488.712268895845
 20
1651.191864841366
 30
0.0
 10
2491.626701872456
 20
1651.191864841366
 30
0.0
 10
2497.198805532724
 20
1651.191864841366
 30
0.0
 10
2499.683140633867
 20
1651.191864841366
 30
0.0
 10
2503.461945604028
 20
1651.191864841366
 30
0.0
 10
2504.770822112336
 20
1651.191864841366
 30
0.0
 10
2506.614651510701
 20
1651.191864841366
 30
0.0
 10
2507.138502081736
 20
1651.191864841366
 30
0.0
 10
2508.415776040984
 20
1651.191864841366
 30
0.0
 10
2508.987744927605
 20
1651.191864841366
 30
0.0
 10
2510.141486671916
 20
1651.191864841366
 30
0.0
 10
2510.78171966597
 20
1651.191864841366
 30
0.0
 10
2512.169214888283
 20
1651.191864841366
 30
0.0
 10
2512.653225500324
 20
1651.191864841366
 30
0.0
 10
2514.367401081949
 20
1651.191864841366
 30
0.0
 10
2515.612639668676
 20
1651.191864841366
 30
0.0
 10
2518.297427029115
 20
1651.191864841366
 30
0.0
 10
2522.304363120971
 20
1651.191864841366
 30
0.0
 10
2526.121421969905
 20
1651.191864841366
 30
0.0
 10
2528.80603363886
 20
1651.191864841366
 30
0.0
 10
2530.027435348729
 20
1651.191864841366
 30
0.0
 10
2531.669974708083
 20
1651.191864841366
 30
0.0
 10
2532.18316588959
 20
1651.191864841366
 30
0.0
 10
2533.443308082263
 20
1651.191864841366
 30
0.0
 10
2534.046372215766
 20
1651.191864841366
 30
0.0
 10
2535.028703748551
 20
1651.191864841366
 30
0.0
 10
2535.428748575563
 20
1651.191864841366
 30
0.0
 10
2536.202061170942
 20
1651.191864841366
 30
0.0
 10
2536.579096598525
 20
1651.191864841366
 30
0.0
 10
2537.870636063857
 20
1651.191864841366
 30
0.0
 10
2538.68983039989
 20
1651.191864841366
 30
0.0
 10
2541.281833514302
 20
1651.191864841366
 30
0.0
 10
2543.093487798876
 20
1651.191864841366
 30
0.0
 10
2548.464278062726
 20
1651.191864841366
 30
0.0
 10
2551.901055020596
 20
1651.191864841366
 30
0.0
 10
2559.143438818064
 20
1651.191864841366
 30
0.0
 10
2562.739538201838
 20
1651.191864841366
 30
0.0
 10
2567.467526004782
 20
1651.191864841366
 30
0.0
 10
2568.347093720122
 20
1651.191864841366
 30
0.0
 10
2569.352470293023
 20
1651.191864841366
 30
0.0
  0
LINE
  5
11889
330
11941
100
AcDbEntity
  8
springs2 - Level 26
  6
Continuous
 62
     7
370
    13
100
AcDbLine
 10
1996.719786
 20
1651.191865
 30
0.0
 11
1996.719786
 21
1657.191865
 31
0.0
  0
SPLINE
  5
1188A
330
11941
100
AcDbEntity
  8
springs2 - Level 26
  6
Continuous
 62
     7
370
    13
100
AcDbSpline
210
0.0
220
0.0
230
1.0
 70
    24
 71
     3
 72
    26
 73
    22
 74
     0
 42
0.000000001
 43
0.0000000001
 40
0.0
 40
0.0
 40
0.0
 40
0.0
 40
0.0036382653020443
 40
0.0036382653020443
 40
0.0089734988902208
 40
0.0089734988902208
 40
0.0122211478215728
 40
0.0122211478215728
 40
0.0164403322561049
 40
0.0164403322561049
 40
0.0287400234074742
 40
0.0287400234074742
 40
0.041896934114976
 40
0.041896934114976
 40
0.0470376336116465
 40
0.0470376336116465
 40
0.0508059324024818
 40
0.0508059324024818
 40
0.0531935342129714
 40
0.0531935342129714
 40
0.0537163366878288
 40
0.0537163366878288
 40
0.0537163366878288
 40
0.0537163366878288
 10
1996.719785562129
 20
1657.191864841367
 30
0.0
 10
1997.673077162531
 20
1657.191864841366
 30
0.0
 10
1998.621636121568
 20
1657.191864841366
 30
0.0
 10
2001.058435484708
 20
1657.191864841366
 30
0.0
 10
2002.718494814512
 20
1657.191864841366
 30
0.0
 10
2005.46398576184
 20
1657.191864841366
 30
0.0
 10
2007.01433132413
 20
1657.191864841366
 30
0.0
 10
2009.474136457327
 20
1657.191864841366
 30
0.0
 10
2010.735583084329
 20
1657.191864841366
 30
0.0
 10
2013.776898734902
 20
1657.191864841366
 30
0.0
 10
2015.914474302075
 20
1657.191864841366
 30
0.0
 10
2020.241876022311
 20
1657.191864841366
 30
0.0
 10
2022.30826878034
 20
1657.191864841366
 30
0.0
 10
2025.443267224935
 20
1657.191864841366
 30
0.0
 10
2026.57088687347
 20
1657.191864841366
 30
0.0
 10
2029.170587597583
 20
1657.191864841366
 30
0.0
 10
2030.468408219446
 20
1657.191864841366
 30
0.0
 10
2032.713098225162
 20
1657.191864841366
 30
0.0
 10
2033.655929921324
 20
1657.191864841366
 30
0.0
 10
2034.706656076345
 20
1657.191864841366
 30
0.0
 10
2034.893666301342
 20
1657.191864841366
 30
0.0
 10
2035.078861832182
 20
1657.191864841366
 30
0.0
  0
SPLINE
  5
1188D
330
11941
100
AcDbEntity
  8
springs2 - Level 26
  6
Continuous
 62
     7
370
    13
100
AcDbSpline
210
0.0
220
0.0
230
1.0
 70
    24
 71
     3
 72
    10
 73
     6
 74
     0
 42
0.000000001
 43
0.0000000001
 40
0.0
 40
0.0
 40
0.0
 40
0.0
 40
0.0111606910789296
 40
0.0111606910789296
 40
0.017102167794844
 40
0.017102167794844
 40
0.017102167794844
 40
0.017102167794844
 10
2057.078861832182
 20
1657.191864841366
 30
0.0
 10
2059.565830906183
 20
1657.191864841366
 30
0.0
 10
2062.042535656402
 20
1657.191864841366
 30
0.0
 10
2065.89369214574
 20
1657.191864841366
 30
0.0
 10
2067.495447648811
 20
1657.191864841366
 30
0.0
 10
2069.403830549035
 20
1657.191864841366
 30
0.0
  0
SPLINE
  5
11890
330
11941
100
AcDbEntity
  8
springs2 - Level 26
  6
Continuous
 62
     7
370
    13
100
AcDbSpline
210
0.0
220
0.0
230
1.0
 70
    24
 71
     3
 72
    80
 73
    76
 74
     0
 42
0.000000001
 43
0.0000000001
 40
0.0
 40
0.0
 40
0.0
 40
0.0
 40
0.0035311878185865
 40
0.017539747667374
 40
0.017539747667374
 40
0.0229222467995277
 40
0.0229222467995277
 40
0.0268925910960163
 40
0.0268925910960163
 40
0.0296547279477387
 40
0.0296547279477387
 40
0.0330889075359136
 40
0.0330889075359136
 40
0.0428842918724618
 40
0.0428842918724618
 40
0.0697836470150473
 40
0.0697836470150473
 40
0.0934815488024038
 40
0.0934815488024038
 40
0.0993167190713111
 40
0.0993167190713111
 40
0.1009116139089379
 40
0.1009116139089379
 40
0.1020505762920689
 40
0.1020505762920689
 40
0.1036300197699207
 40
0.1036300197699207
 40
0.1132639823403062
 40
0.1132639823403062
 40
0.1350745741068814
 40
0.1350745741068814
 40
0.1457538893221091
 40
0.1546078208923403
 40
0.1546078208923403
 40
0.1643292408595379
 40
0.1643292408595379
 40
0.1725831193156639
 40
0.1725831193156639
 40
0.1756081341837795
 40
0.1756081341837795
 40
0.1768509948281379
 40
0.1780007772438455
 40
0.1780007772438455
 40
0.1849462399822564
 40
0.1849462399822564
 40
0.1954551217067878
 40
0.1954551217067878
 40
0.20761934942573
 40
0.20761934942573
 40
0.2190534073973188
 40
0.2190534073973188
 40
0.2289362998271028
 40
0.2386949010918324
 40
0.2386949010918324
 40
0.2480583585829204
 40
0.2480583585829204
 40
0.2567754906152019
 40
0.2567754906152019
 40
0.2584674000230084
 40
0.2584674000230084
 40
0.2598208634325493
 40
0.2598208634325493
 40
0.2632320348288012
 40
0.2632320348288012
 40
0.2747264868087834
 40
0.2747264868087834
 40
0.2879104144463883
 40
0.2879104144463883
 40
0.2950465142454818
 40
0.2950465142454818
 40
0.2966056083295655
 40
0.2966056083295655
 40
0.300293691199879
 40
0.300293691199879
 40
0.3028724447378511
 40
0.3028724447378511
 40
0.3028724447378511
 40
0.3028724447378511
 10
2091.403830549035
 20
1657.191864841366
 30
0.0
 10
2092.153623930984
 20
1657.191864841366
 30
0.0
 10
2095.891943667715
 20
1657.191864841366
 30
0.0
 10
2099.492253002774
 20
1657.191864841366
 30
0.0
 10
2103.610749196599
 20
1657.191864841366
 30
0.0
 10
2104.862776286172
 20
1657.191864841366
 30
0.0
 10
2108.152119360058
 20
1657.191864841366
 30
0.0
 10
2109.548609065947
 20
1657.191864841366
 30
0.0
 10
2111.916460400651
 20
1657.191864841366
 30
0.0
 10
2112.88791644575
 20
1657.191864841366
 30
0.0
 10
2115.067097263503
 20
1657.191864841366
 30
0.0
 10
2115.750277214571
 20
1657.191864841366
 30
0.0
 10
2118.089409080175
 20
1657.191864841366
 30
0.0
 10
2119.660491142678
 20
1657.191864841366
 30
0.0
 10
2122.10159327902
 20
1657.191864841366
 30
0.0
 10
2123.810782230076
 20
1657.191864841366
 30
0.0
 10
2126.994165964904
 20
1657.191864841366
 30
0.0
 10
2128.347105028757
 20
1657.191864841366
 30
0.0
 10
2130.193504544961
 20
1657.191864841366
 30
0.0
 10
2131.04857090238
 20
1657.191864841366
 30
0.0
 10
2133.153151976639
 20
1657.191864841366
 30
0.0
 10
2133.995145440618
 20
1657.191864841366
 30
0.0
 10
2134.854151065777
 20
1657.191864841366
 30
0.0
 10
2135.221321540686
 20
1657.191864841366
 30
0.0
 10
2135.901415437654
 20
1657.191864841366
 30
0.0
 10
2136.282463307562
 20
1657.191864841366
 30
0.0
 10
2138.530166035801
 20
1657.191864841366
 30
0.0
 10
2140.455999022154
 20
1657.191864841366
 30
0.0
 10
2146.462812114771
 20
1657.191864841366
 30
0.0
 10
2150.480183426161
 20
1657.191864841366
 30
0.0
 10
2157.112742548046
 20
1657.191864841366
 30
0.0
 10
2161.413334861894
 20
1657.191864841366
 30
0.0
 10
2165.827032783822
 20
1657.191864841366
 30
0.0
 10
2170.044938802705
 20
1657.191864841366
 30
0.0
 10
2172.334666865514
 20
1657.191864841366
 30
0.0
 10
2176.605680582697
 20
1657.191864841366
 30
0.0
 10
2178.855885706329
 20
1657.191864841366
 30
0.0
 10
2182.267953955628
 20
1657.191864841366
 30
0.0
 10
2183.261795960486
 20
1657.191864841366
 30
0.0
 10
2184.844112038268
 20
1657.191864841366
 30
0.0
 10
2185.733715497318
 20
1657.191864841366
 30
0.0
 10
2186.62021421749
 20
1657.191864841366
 30
0.0
 10
2189.612062808371
 20
1657.191864841366
 30
0.0
 10
2191.161373168203
 20
1657.191864841366
 30
0.0
 10
2193.117070782167
 20
1657.191864841366
 30
0.0
 10
2194.15178015015
 20
1657.191864841366
 30
0.0
 10
2196.251433677465
 20
1657.191864841366
 30
0.0
 10
2197.165121243558
 20
1657.191864841366
 30
0.0
 10
2199.500510582653
 20
1657.191864841366
 30
0.0
 10
2201.117848315368
 20
1657.191864841366
 30
0.0
 10
2205.445679217568
 20
1657.191864841366
 30
0.0
 10
2209.530638382747
 20
1657.191864841366
 30
0.0
 10
2213.661386317407
 20
1657.191864841366
 30
0.0
 10
2217.725104429074
 20
1657.191864841366
 30
0.0
 10
2219.843774589228
 20
1657.191864841366
 30
0.0
 10
2223.87489280605
 20
1657.191864841366
 30
0.0
 10
2225.97588036801
 20
1657.191864841366
 30
0.0
 10
2228.568677359878
 20
1657.191864841366
 30
0.0
 10
2229.103234187751
 20
1657.191864841366
 30
0.0
 10
2230.116738465025
 20
1657.191864841366
 30
0.0
 10
2230.720246176704
 20
1657.191864841366
 30
0.0
 10
2232.364189018519
 20
1657.191864841366
 30
0.0
 10
2233.538680740228
 20
1657.191864841366
 30
0.0
 10
2236.581105372851
 20
1657.191864841366
 30
0.0
 10
2238.481443635015
 20
1657.191864841366
 30
0.0
 10
2242.505385052536
 20
1657.191864841366
 30
0.0
 10
2244.332485465538
 20
1657.191864841366
 30
0.0
 10
2247.694397031235
 20
1657.191864841366
 30
0.0
 10
2249.129007254492
 20
1657.191864841366
 30
0.0
 10
2251.602982660172
 20
1657.191864841366
 30
0.0
 10
2252.137199396524
 20
1657.191864841366
 30
0.0
 10
2254.076599104243
 20
1657.191864841366
 30
0.0
 10
2255.530282202869
 20
1657.191864841366
 30
0.0
 10
2257.805391471094
 20
1657.191864841366
 30
0.0
 10
2258.752289482416
 20
1657.191864841366
 30
0.0
 10
2259.680543623593
 20
1657.191864841366
 30
0.0
  0
SPLINE
  5
11893
330
11941
100
AcDbEntity
  8
springs2 - Level 26
  6
Continuous
 62
     7
370
    13
100
AcDbSpline
210
0.0
220
0.0
230
1.0
 70
    24
 71
     3
 72
    60
 73
    56
 74
     0
 42
0.000000001
 43
0.0000000001
 40
0.0
 40
0.0
 40
0.0
 40
0.0
 40
0.0051464248941338
 40
0.0051464248941338
 40
0.0118889123899446
 40
0.0118889123899446
 40
0.0135111846108734
 40
0.0135111846108734
 40
0.0163390468956229
 40
0.0163390468956229
 40
0.0197436320545586
 40
0.0197436320545586
 40
0.0285595599498873
 40
0.0285595599498873
 40
0.0516248347140143
 40
0.0743252139127607
 40
0.0743252139127607
 40
0.0826760084820359
 40
0.0826760084820359
 40
0.0857862552731977
 40
0.0857862552731977
 40
0.0883216069590022
 40
0.0883216069590022
 40
0.089566561515755
 40
0.089566561515755
 40
0.0910626869449767
 40
0.0910626869449767
 40
0.0952122865636793
 40
0.0952122865636793
 40
0.1069624756337217
 40
0.1191209942841034
 40
0.1191209942841034
 40
0.1237910840264691
 40
0.1237910840264691
 40
0.1263962346321566
 40
0.1263962346321566
 40
0.1271510788480868
 40
0.1277788186181104
 40
0.1277788186181104
 40
0.1299328745428881
 40
0.1299328745428881
 40
0.1336061806056381
 40
0.1336061806056381
 40
0.1521848275619493
 40
0.1521848275619493
 40
0.1574042693013315
 40
0.1574042693013315
 40
0.1587330691448828
 40
0.160037199728775
 40
0.160037199728775
 40
0.1615424159582492
 40
0.1615424159582492
 40
0.1653399924290301
 40
0.1653399924290301
 40
0.1702110991769619
 40
0.1702110991769619
 40
0.1702110991769619
 40
0.1702110991769619
 10
2281.680543623593
 20
1657.191864841366
 30
0.0
 10
2283.409114020696
 20
1657.191864841366
 30
0.0
 10
2285.139805982272
 20
1657.191864841366
 30
0.0
 10
2289.149750241366
 20
1657.191864841366
 30
0.0
 10
2291.725287842639
 20
1657.191864841366
 30
0.0
 10
2294.792692257251
 20
1657.191864841366
 30
0.0
 10
2295.421027638134
 20
1657.191864841366
 30
0.0
 10
2297.05960706566
 20
1657.191864841366
 30
0.0
 10
2297.975980473454
 20
1657.191864841366
 30
0.0
 10
2299.89619585063
 20
1657.191864841366
 30
0.0
 10
2300.76947189026
 20
1657.191864841366
 30
0.0
 10
2303.470687607323
 20
1657.191864841366
 30
0.0
 10
2305.33913942266
 20
1657.191864841366
 30
0.0
 10
2309.499161462397
 20
1657.191864841366
 30
0.0
 10
2315.436097820429
 20
1657.191864841366
 30
0.0
 10
2321.271795329296
 20
1657.191864841366
 30
0.0
 10
2325.286491839283
 20
1657.191864841366
 30
0.0
 10
2327.046204135726
 20
1657.191864841366
 30
0.0
 10
2329.590874757922
 20
1657.191864841366
 30
0.0
 10
2330.384746367863
 20
1657.191864841366
 30
0.0
 10
2332.222191610635
 20
1657.191864841366
 30
0.0
 10
2333.108043568012
 20
1657.191864841366
 30
0.0
 10
2334.468467521258
 20
1657.191864841366
 30
0.0
 10
2334.964902351185
 20
1657.191864841366
 30
0.0
 10
2335.943383475858
 20
1657.191864841366
 30
0.0
 10
2336.399994922775
 20
1657.191864841366
 30
0.0
 10
2337.909719933488
 20
1657.191864841366
 30
0.0
 10
2338.916772105024
 20
1657.191864841366
 30
0.0
 10
2341.520461387456
 20
1657.191864841366
 30
0.0
 10
2345.348786411093
 20
1657.191864841366
 30
0.0
 10
2349.28996797607
 20
1657.191864841366
 30
0.0
 10
2352.082928126051
 20
1657.191864841366
 30
0.0
 10
2353.192135085011
 20
1657.191864841366
 30
0.0
 10
2355.163540691051
 20
1657.191864841366
 30
0.0
 10
2355.957166489255
 20
1657.191864841366
 30
0.0
 10
2357.174289904407
 20
1657.191864841366
 30
0.0
 10
2357.679628951412
 20
1657.191864841366
 30
0.0
 10
2358.205440307262
 20
1657.191864841366
 30
0.0
 10
2359.243844090439
 20
1657.191864841366
 30
0.0
 10
2360.021781920286
 20
1657.191864841366
 30
0.0
 10
2362.059483016493
 20
1657.191864841366
 30
0.0
 10
2363.256183792689
 20
1657.191864841366
 30
0.0
 10
2369.543318072398
 20
1657.191864841366
 30
0.0
 10
2374.769000125036
 20
1657.191864841366
 30
0.0
 10
2381.50904755213
 20
1657.191864841366
 30
0.0
 10
2383.329124201558
 20
1657.191864841366
 30
0.0
 10
2385.71523821801
 20
1657.191864841366
 30
0.0
 10
2386.73602512557
 20
1657.191864841366
 30
0.0
 10
2387.67357383355
 20
1657.191864841366
 30
0.0
 10
2388.654006644685
 20
1657.191864841366
 30
0.0
 10
2389.093392337321
 20
1657.191864841366
 30
0.0
 10
2390.532108942329
 20
1657.191864841366
 30
0.0
 10
2391.490636654501
 20
1657.191864841366
 30
0.0
 10
2393.018523580353
 20
1657.191864841366
 30
0.0
 10
2393.856237008737
 20
1657.191864841366
 30
0.0
 10
2394.680543623589
 20
1657.191864841366
 30
0.0
  0
SPLINE
  5
11896
330
11941
100
AcDbEntity
  8
springs2 - Level 26
  6
Continuous
 62
     7
370
    13
100
AcDbSpline
210
0.0
220
0.0
230
1.0
 70
    24
 71
     3
 72
    72
 73
    68
 74
     0
 42
0.000000001
 43
0.0000000001
 40
0.0
 40
0.0
 40
0.0
 40
0.0
 40
0.0110752546406693
 40
0.0110752546406693
 40
0.0160603536064071
 40
0.0160603536064071
 40
0.0186342615078722
 40
0.0186342615078722
 40
0.0193472392945624
 40
0.0193472392945624
 40
0.0215117418548446
 40
0.0215117418548446
 40
0.0241546099068689
 40
0.0241546099068689
 40
0.0311272866358502
 40
0.0311272866358502
 40
0.0497548727593377
 40
0.0685660638616538
 40
0.0685660638616538
 40
0.0757801632316181
 40
0.0757801632316181
 40
0.0808591190780655
 40
0.0808591190780655
 40
0.0831105647695097
 40
0.0831105647695097
 40
0.0858194764977155
 40
0.0858194764977155
 40
0.0929431142431065
 40
0.0929431142431065
 40
0.1119034389011669
 40
0.1119034389011669
 40
0.1305682936274058
 40
0.1305682936274058
 40
0.1372030707807317
 40
0.1372030707807317
 40
0.1394864160434607
 40
0.1394864160434607
 40
0.1411222517152455
 40
0.1411222517152455
 40
0.1428108281049747
 40
0.1428108281049747
 40
0.145204976234253
 40
0.145204976234253
 40
0.1526421026504666
 40
0.1526421026504666
 40
0.1745788048303126
 40
0.1968396034322275
 40
0.1968396034322275
 40
0.2046551109110897
 40
0.2046551109110897
 40
0.2072490986676194
 40
0.2072490986676194
 40
0.2090285286899461
 40
0.2090285286899461
 40
0.2100139818114399
 40
0.2100139818114399
 40
0.2112405342932671
 40
0.2112405342932671
 40
0.2147697792205815
 40
0.2147697792205815
 40
0.2259797823417202
 40
0.2259797823417202
 40
0.2575070649947204
 40
0.2575070649947204
 40
0.2849192857214452
 40
0.2849192857214452
 40
0.2861292667470592
 40
0.2861292667470592
 40
0.2861292667470592
 40
0.2861292667470592
 10
2416.68054362359
 20
1657.191864841366
 30
0.0
 10
2417.914748694525
 20
1657.191864841366
 30
0.0
 10
2419.157793079673
 20
1657.191864841366
 30
0.0
 10
2420.964870984879
 20
1657.191864841366
 30
0.0
 10
2421.90138720452
 20
1657.191864841366
 30
0.0
 10
2423.561232273976
 20
1657.191864841366
 30
0.0
 10
2424.252810160489
 20
1657.191864841366
 30
0.0
 10
2425.415272899682
 20
1657.191864841366
 30
0.0
 10
2425.672987153464
 20
1657.191864841366
 30
0.0
 10
2426.737560268861
 20
1657.191864841366
 30
0.0
 10
2427.567696131437
 20
1657.191864841366
 30
0.0
 10
2429.332101261544
 20
1657.191864841366
 30
0.0
 10
2430.212750625674
 20
1657.191864841366
 30
0.0
 10
2433.253906412474
 20
1657.191864841366
 30
0.0
 10
2435.359740630631
 20
1657.191864841366
 30
0.0
 10
2441.61293241009
 20
1657.191864841366
 30
0.0
 10
2450.68290528882
 20
1657.191864841366
 30
0.0
 10
2459.843932402515
 20
1657.191864841366
 30
0.0
 10
2466.223879833462
 20
1657.191864841366
 30
0.0
 10
2468.146266295004
 20
1657.191864841366
 30
0.0
 10
2472.523672680217
 20
1657.191864841366
 30
0.0
 10
2474.355561794394
 20
1657.191864841366
 30
0.0
 10
2476.975197326843
 20
1657.191864841366
 30
0.0
 10
2477.779421243317
 20
1657.191864841366
 30
0.0
 10
2479.543479056631
 20
1657.191864841366
 30
0.0
 10
2480.268380673555
 20
1657.191864841366
 30
0.0
 10
2482.773856827555
 20
1657.191864841366
 30
0.0
 10
2484.447883791573
 20
1657.191864841366
 30
0.0
 10
2488.712268895845
 20
1657.191864841366
 30
0.0
 10
2491.626701872456
 20
1657.191864841366
 30
0.0
 10
2497.198805532724
 20
1657.191864841366
 30
0.0
 10
2499.683140633867
 20
1657.191864841366
 30
0.0
 10
2503.461945604028
 20
1657.191864841366
 30
0.0
 10
2504.770822112336
 20
1657.191864841366
 30
0.0
 10
2506.614651510701
 20
1657.191864841366
 30
0.0
 10
2507.138502081736
 20
1657.191864841366
 30
0.0
 10
2508.415776040984
 20
1657.191864841366
 30
0.0
 10
2508.987744927605
 20
1657.191864841366
 30
0.0
 10
2510.141486671916
 20
1657.191864841366
 30
0.0
 10
2510.78171966597
 20
1657.191864841366
 30
0.0
 10
2512.169214888283
 20
1657.191864841366
 30
0.0
 10
2512.653225500324
 20
1657.191864841366
 30
0.0
 10
2514.367401081949
 20
1657.191864841366
 30
0.0
 10
2515.612639668676
 20
1657.191864841366
 30
0.0
 10
2518.297427029115
 20
1657.191864841366
 30
0.0
 10
2522.304363120971
 20
1657.191864841366
 30
0.0
 10
2526.121421969905
 20
1657.191864841366
 30
0.0
 10
2528.80603363886
 20
1657.191864841366
 30
0.0
 10
2530.027435348729
 20
1657.191864841366
 30
0.0
 10
2531.669974708083
 20
1657.191864841366
 30
0.0
 10
2532.18316588959
 20
1657.191864841366
 30
0.0
 10
2533.443308082263
 20
1657.191864841366
 30
0.0
 10
2534.046372215766
 20
1657.191864841366
 30
0.0
 10
2535.028703748551
 20
1657.191864841366
 30
0.0
 10
2535.428748575563
 20
1657.191864841366
 30
0.0
 10
2536.202061170942
 20
1657.191864841366
 30
0.0
 10
2536.579096598525
 20
1657.191864841366
 30
0.0
 10
2537.870636063857
 20
1657.191864841366
 30
0.0
 10
2538.68983039989
 20
1657.191864841366
 30
0.0
 10
2541.281833514302
 20
1657.191864841366
 30
0.0
 10
2543.093487798876
 20
1657.191864841366
 30
0.0
 10
2548.464278062726
 20
1657.191864841366
 30
0.0
 10
2551.901055020596
 20
1657.191864841366
 30
0.0
 10
2559.143438818064
 20
1657.191864841366
 30
0.0
 10
2562.739538201838
 20
1657.191864841366
 30
0.0
 10
2567.100671349593
 20
1657.191864841366
 30
0.0
 10
2567.321766365835
 20
1657.191864841366
 30
0.0
 10
2567.572014722938
 20
1657.191864841366
 30
0.0
  0
LINE
  5
11899
330
11941
100
AcDbEntity
  8
springs2 - Level 26
  6
Continuous
 62
     7
370
    13
100
AcDbLine
 10
1996.719786
 20
1651.191865
 30
0.0
 11
1988.752505
 21
1651.191865
 31
0.0
  0
LINE
  5
1189A
330
11941
100
AcDbEntity
  8
springs2 - Level 26
  6
Continuous
 62
     7
370
    13
100
AcDbLine
 10
1996.719786
 20
1657.191865
 30
0.0
 11
1988.752505
 21
1657.191865
 31
0.0
  0
LINE
  5
1189B
330
11941
100
AcDbEntity
  8
springs2 - Level 26
  6
Continuous
 62
     7
370
    13
100
AcDbLine
 10
1988.752505
 20
1657.191865
 30
0.0
 11
1988.752505
 21
1651.191865
 31
0.0
  0
LINE
  5
1189C
330
11941
100
AcDbEntity
  8
springs2 - Level 26
  6
Continuous
 62
     7
370
    13
100
AcDbLine
 10
1996.719786
 20
2059.283918
 30
0.0
 11
1996.719786
 21
2053.283918
 31
0.0
  0
SPLINE
  5
1189D
330
11941
100
AcDbEntity
  8
springs2 - Level 26
  6
Continuous
 62
     7
370
    13
100
AcDbSpline
210
0.0
220
0.0
230
1.0
 70
    24
 71
     3
 72
    26
 73
    22
 74
     0
 42
0.000000001
 43
0.0000000001
 40
0.0
 40
0.0
 40
0.0
 40
0.0
 40
0.0036382653020443
 40
0.0036382653020443
 40
0.0089734988902208
 40
0.0089734988902208
 40
0.0122211478215728
 40
0.0122211478215728
 40
0.0164403322561049
 40
0.0164403322561049
 40
0.0287400234074742
 40
0.0287400234074742
 40
0.041896934114976
 40
0.041896934114976
 40
0.0470376336116465
 40
0.0470376336116465
 40
0.0508059324024818
 40
0.0508059324024818
 40
0.0531935342129714
 40
0.0531935342129714
 40
0.055450892649838
 40
0.055450892649838
 40
0.055450892649838
 40
0.055450892649838
 10
1996.719785562129
 20
2059.28391765335
 30
0.0
 10
1997.673077162531
 20
2059.283917653351
 30
0.0
 10
1998.621636121568
 20
2059.283917653351
 30
0.0
 10
2001.058435484708
 20
2059.283917653351
 30
0.0
 10
2002.718494814512
 20
2059.283917653351
 30
0.0
 10
2005.46398576184
 20
2059.283917653351
 30
0.0
 10
2007.01433132413
 20
2059.283917653351
 30
0.0
 10
2009.474136457327
 20
2059.283917653351
 30
0.0
 10
2010.735583084329
 20
2059.283917653351
 30
0.0
 10
2013.776898734902
 20
2059.283917653351
 30
0.0
 10
2015.914474302075
 20
2059.283917653351
 30
0.0
 10
2020.241876022311
 20
2059.283917653351
 30
0.0
 10
2022.30826878034
 20
2059.283917653351
 30
0.0
 10
2025.443267224935
 20
2059.283917653351
 30
0.0
 10
2026.57088687347
 20
2059.283917653351
 30
0.0
 10
2029.170587597583
 20
2059.283917653351
 30
0.0
 10
2030.468408219446
 20
2059.283917653351
 30
0.0
 10
2032.713098225162
 20
2059.283917653351
 30
0.0
 10
2033.655929921324
 20
2059.283917653351
 30
0.0
 10
2035.33287262152
 20
2059.283917653351
 30
0.0
 10
2036.115504274492
 20
2059.283917653351
 30
0.0
 10
2036.85931740227
 20
2059.283917653351
 30
0.0
  0
SPLINE
  5
118A0
330
11941
100
AcDbEntity
  8
springs2 - Level 26
  6
Continuous
 62
     7
370
    13
100
AcDbSpline
210
0.0
220
0.0
230
1.0
 70
    24
 71
     3
 72
    12
 73
     8
 74
     0
 42
0.000000001
 43
0.0000000001
 40
0.0
 40
0.0
 40
0.0
 40
0.0
 40
0.0138204920472434
 40
0.0138204920472434
 40
0.0203875405807964
 40
0.0203875405807964
 40
0.0215396670148633
 40
0.0215396670148633
 40
0.0215396670148633
 40
0.0215396670148633
 10
2055.298406262094
 20
2059.283917653351
 30
0.0
 10
2058.387415084181
 20
2059.283917653351
 30
0.0
 10
2061.443587623476
 20
2059.283917653351
 30
0.0
 10
2066.034561712333
 20
2059.283917653351
 30
0.0
 10
2067.835666616504
 20
2059.283917653351
 30
0.0
 10
2070.399544961487
 20
2059.283917653351
 30
0.0
 10
2070.789069432608
 20
2059.283917653351
 30
0.0
 10
2071.184286119122
 20
2059.283917653351
 30
0.0
  0
SPLINE
  5
118A3
330
11941
100
AcDbEntity
  8
springs2 - Level 26
  6
Continuous
 62
     7
370
    13
100
AcDbSpline
210
0.0
220
0.0
230
1.0
 70
    24
 71
     3
 72
    80
 73
    76
 74
     0
 42
0.000000001
 43
0.0000000001
 40
0.0
 40
0.0
 40
0.0
 40
0.0
 40
0.0063207798548755
 40
0.0203293397036629
 40
0.0203293397036629
 40
0.0257118388358167
 40
0.0257118388358167
 40
0.0296821831323052
 40
0.0296821831323052
 40
0.0324443199840277
 40
0.0324443199840277
 40
0.0358784995722026
 40
0.0358784995722026
 40
0.0456738839087508
 40
0.0456738839087508
 40
0.0725732390513363
 40
0.0725732390513363
 40
0.0962711408386928
 40
0.0962711408386928
 40
0.1021063111076001
 40
0.1021063111076001
 40
0.1037012059452268
 40
0.1037012059452268
 40
0.1048401683283579
 40
0.1048401683283579
 40
0.1064196118062096
 40
0.1064196118062096
 40
0.1160535743765952
 40
0.1160535743765952
 40
0.1378641661431703
 40
0.1378641661431703
 40
0.148543481358398
 40
0.1573974129286293
 40
0.1573974129286293
 40
0.1671188328958269
 40
0.1671188328958269
 40
0.1753727113519529
 40
0.1753727113519529
 40
0.1783977262200685
 40
0.1783977262200685
 40
0.1796405868644269
 40
0.1807903692801345
 40
0.1807903692801345
 40
0.1877358320185454
 40
0.1877358320185454
 40
0.1982447137430767
 40
0.1982447137430767
 40
0.210408941462019
 40
0.210408941462019
 40
0.2218429994336078
 40
0.2218429994336078
 40
0.2317258918633918
 40
0.2414844931281214
 40
0.2414844931281214
 40
0.2508479506192094
 40
0.2508479506192094
 40
0.2595650826514908
 40
0.2595650826514908
 40
0.2612569920592973
 40
0.2612569920592973
 40
0.2626104554688382
 40
0.2626104554688382
 40
0.2660216268650901
 40
0.2660216268650901
 40
0.2775160788450723
 40
0.2775160788450723
 40
0.2907000064826772
 40
0.2907000064826772
 40
0.2978361062817707
 40
0.2978361062817707
 40
0.2993952003658544
 40
0.2993952003658544
 40
0.3030832832361679
 40
0.3030832832361679
 40
0.3073402049338037
 40
0.3073402049338037
 40
0.3073402049338037
 40
0.3073402049338037
 10
2089.623374978947
 20
2059.283917653351
 30
0.0
 10
2090.971188165891
 20
2059.283917653351
 30
0.0
 10
2095.319335986025
 20
2059.283917653351
 30
0.0
 10
2099.492253002774
 20
2059.283917653351
 30
0.0
 10
2103.610749196599
 20
2059.283917653351
 30
0.0
 10
2104.862776286172
 20
2059.283917653351
 30
0.0
 10
2108.152119360058
 20
2059.283917653351
 30
0.0
 10
2109.548609065947
 20
2059.283917653351
 30
0.0
 10
2111.916460400651
 20
2059.283917653351
 30
0.0
 10
2112.88791644575
 20
2059.283917653351
 30
0.0
 10
2115.067097263503
 20
2059.283917653351
 30
0.0
 10
2115.750277214571
 20
2059.283917653351
 30
0.0
 10
2118.089409080175
 20
2059.283917653351
 30
0.0
 10
2119.660491142678
 20
2059.283917653351
 30
0.0
 10
2122.10159327902
 20
2059.283917653351
 30
0.0
 10
2123.810782230076
 20
2059.283917653351
 30
0.0
 10
2126.994165964904
 20
2059.283917653351
 30
0.0
 10
2128.347105028757
 20
2059.283917653351
 30
0.0
 10
2130.193504544961
 20
2059.283917653351
 30
0.0
 10
2131.04857090238
 20
2059.283917653351
 30
0.0
 10
2133.153151976639
 20
2059.283917653351
 30
0.0
 10
2133.995145440618
 20
2059.283917653351
 30
0.0
 10
2134.854151065777
 20
2059.283917653351
 30
0.0
 10
2135.221321540686
 20
2059.283917653351
 30
0.0
 10
2135.901415437654
 20
2059.283917653351
 30
0.0
 10
2136.282463307562
 20
2059.283917653351
 30
0.0
 10
2138.530166035801
 20
2059.283917653351
 30
0.0
 10
2140.455999022154
 20
2059.283917653351
 30
0.0
 10
2146.462812114771
 20
2059.283917653351
 30
0.0
 10
2150.480183426161
 20
2059.283917653351
 30
0.0
 10
2157.112742548046
 20
2059.283917653351
 30
0.0
 10
2161.413334861894
 20
2059.283917653351
 30
0.0
 10
2165.827032783822
 20
2059.283917653351
 30
0.0
 10
2170.044938802705
 20
2059.283917653351
 30
0.0
 10
2172.334666865514
 20
2059.283917653351
 30
0.0
 10
2176.605680582697
 20
2059.283917653351
 30
0.0
 10
2178.855885706329
 20
2059.283917653351
 30
0.0
 10
2182.267953955628
 20
2059.283917653351
 30
0.0
 10
2183.261795960486
 20
2059.283917653351
 30
0.0
 10
2184.844112038268
 20
2059.283917653351
 30
0.0
 10
2185.733715497318
 20
2059.283917653351
 30
0.0
 10
2186.62021421749
 20
2059.283917653351
 30
0.0
 10
2189.612062808371
 20
2059.283917653351
 30
0.0
 10
2191.161373168203
 20
2059.283917653351
 30
0.0
 10
2193.117070782167
 20
2059.283917653351
 30
0.0
 10
2194.15178015015
 20
2059.283917653351
 30
0.0
 10
2196.251433677465
 20
2059.283917653351
 30
0.0
 10
2197.165121243558
 20
2059.283917653351
 30
0.0
 10
2199.500510582653
 20
2059.283917653351
 30
0.0
 10
2201.117848315368
 20
2059.283917653351
 30
0.0
 10
2205.445679217568
 20
2059.283917653351
 30
0.0
 10
2209.530638382747
 20
2059.283917653351
 30
0.0
 10
2213.661386317407
 20
2059.283917653351
 30
0.0
 10
2217.725104429074
 20
2059.283917653351
 30
0.0
 10
2219.843774589228
 20
2059.283917653351
 30
0.0
 10
2223.87489280605
 20
2059.283917653351
 30
0.0
 10
2225.97588036801
 20
2059.283917653351
 30
0.0
 10
2228.568677359878
 20
2059.283917653351
 30
0.0
 10
2229.103234187751
 20
2059.283917653351
 30
0.0
 10
2230.116738465025
 20
2059.283917653351
 30
0.0
 10
2230.720246176704
 20
2059.283917653351
 30
0.0
 10
2232.364189018519
 20
2059.283917653351
 30
0.0
 10
2233.538680740228
 20
2059.283917653351
 30
0.0
 10
2236.581105372851
 20
2059.283917653351
 30
0.0
 10
2238.481443635015
 20
2059.283917653351
 30
0.0
 10
2242.505385052536
 20
2059.283917653351
 30
0.0
 10
2244.332485465538
 20
2059.283917653351
 30
0.0
 10
2247.694397031235
 20
2059.283917653351
 30
0.0
 10
2249.129007254492
 20
2059.283917653351
 30
0.0
 10
2251.602982660172
 20
2059.283917653351
 30
0.0
 10
2252.137199396524
 20
2059.283917653351
 30
0.0
 10
2254.076599104243
 20
2059.283917653351
 30
0.0
 10
2255.530282202869
 20
2059.283917653351
 30
0.0
 10
2258.414632830681
 20
2059.283917653351
 30
0.0
 10
2259.989244830763
 20
2059.283917653351
 30
0.0
 10
2261.460999193679
 20
2059.283917653351
 30
0.0
  0
SPLINE
  5
118A6
330
11941
100
AcDbEntity
  8
springs2 - Level 26
  6
Continuous
 62
     7
370
    13
100
AcDbSpline
210
0.0
220
0.0
230
1.0
 70
    24
 71
     3
 72
    60
 73
    56
 74
     0
 42
0.000000001
 43
0.0000000001
 40
0.0
 40
0.0
 40
0.0
 40
0.0
 40
0.0069140166466347
 40
0.0069140166466347
 40
0.0136565041424455
 40
0.0136565041424455
 40
0.0152787763633743
 40
0.0152787763633743
 40
0.0181066386481238
 40
0.0181066386481238
 40
0.0215112238070595
 40
0.0215112238070595
 40
0.0303271517023882
 40
0.0303271517023882
 40
0.0533924264665152
 40
0.0760928056652616
 40
0.0760928056652616
 40
0.0844436002345368
 40
0.0844436002345368
 40
0.0875538470256986
 40
0.0875538470256986
 40
0.0900891987115031
 40
0.0900891987115031
 40
0.0913341532682559
 40
0.0913341532682559
 40
0.0928302786974776
 40
0.0928302786974776
 40
0.0969798783161802
 40
0.0969798783161802
 40
0.1087300673862226
 40
0.1208885860366043
 40
0.1208885860366043
 40
0.1255586757789701
 40
0.1255586757789701
 40
0.1281638263846575
 40
0.1281638263846575
 40
0.1289186706005877
 40
0.1295464103706113
 40
0.1295464103706113
 40
0.131700466295389
 40
0.131700466295389
 40
0.135373772358139
 40
0.135373772358139
 40
0.1539524193144502
 40
0.1539524193144502
 40
0.1591718610538324
 40
0.1591718610538324
 40
0.1605006608973837
 40
0.1618047914812759
 40
0.1618047914812759
 40
0.1633100077107501
 40
0.1633100077107501
 40
0.167107584181531
 40
0.167107584181531
 40
0.1755220847767999
 40
0.1755220847767999
 40
0.1755220847767999
 40
0.1755220847767999
 10
2279.900088053508
 20
2059.283917653351
 30
0.0
 10
2282.220870245016
 20
2059.283917653351
 30
0.0
 10
2284.543624921475
 20
2059.283917653351
 30
0.0
 10
2289.149750241366
 20
2059.283917653351
 30
0.0
 10
2291.725287842639
 20
2059.283917653351
 30
0.0
 10
2294.792692257251
 20
2059.283917653351
 30
0.0
 10
2295.421027638134
 20
2059.283917653351
 30
0.0
 10
2297.05960706566
 20
2059.283917653351
 30
0.0
 10
2297.975980473454
 20
2059.283917653351
 30
0.0
 10
2299.89619585063
 20
2059.283917653351
 30
0.0
 10
2300.76947189026
 20
2059.283917653351
 30
0.0
 10
2303.470687607323
 20
2059.283917653351
 30
0.0
 10
2305.33913942266
 20
2059.283917653351
 30
0.0
 10
2309.499161462397
 20
2059.283917653351
 30
0.0
 10
2315.436097820429
 20
2059.283917653351
 30
0.0
 10
2321.271795329296
 20
2059.283917653351
 30
0.0
 10
2325.286491839283
 20
2059.283917653351
 30
0.0
 10
2327.046204135726
 20
2059.283917653351
 30
0.0
 10
2329.590874757922
 20
2059.283917653351
 30
0.0
 10
2330.384746367863
 20
2059.283917653351
 30
0.0
 10
2332.222191610635
 20
2059.283917653351
 30
0.0
 10
2333.108043568012
 20
2059.283917653351
 30
0.0
 10
2334.468467521258
 20
2059.283917653351
 30
0.0
 10
2334.964902351185
 20
2059.283917653351
 30
0.0
 10
2335.943383475858
 20
2059.283917653351
 30
0.0
 10
2336.399994922775
 20
2059.283917653351
 30
0.0
 10
2337.909719933488
 20
2059.283917653351
 30
0.0
 10
2338.916772105024
 20
2059.283917653351
 30
0.0
 10
2341.520461387456
 20
2059.283917653351
 30
0.0
 10
2345.348786411093
 20
2059.283917653351
 30
0.0
 10
2349.28996797607
 20
2059.283917653351
 30
0.0
 10
2352.082928126051
 20
2059.283917653351
 30
0.0
 10
2353.192135085011
 20
2059.283917653351
 30
0.0
 10
2355.163540691051
 20
2059.283917653351
 30
0.0
 10
2355.957166489255
 20
2059.283917653351
 30
0.0
 10
2357.174289904407
 20
2059.283917653351
 30
0.0
 10
2357.679628951412
 20
2059.283917653351
 30
0.0
 10
2358.205440307262
 20
2059.283917653351
 30
0.0
 10
2359.243844090439
 20
2059.283917653351
 30
0.0
 10
2360.021781920286
 20
2059.283917653351
 30
0.0
 10
2362.059483016493
 20
2059.283917653351
 30
0.0
 10
2363.256183792689
 20
2059.283917653351
 30
0.0
 10
2369.543318072398
 20
2059.283917653351
 30
0.0
 10
2374.769000125036
 20
2059.283917653351
 30
0.0
 10
2381.50904755213
 20
2059.283917653351
 30
0.0
 10
2383.329124201558
 20
2059.283917653351
 30
0.0
 10
2385.71523821801
 20
2059.283917653351
 30
0.0
 10
2386.73602512557
 20
2059.283917653351
 30
0.0
 10
2387.67357383355
 20
2059.283917653351
 30
0.0
 10
2388.654006644685
 20
2059.283917653351
 30
0.0
 10
2389.093392337321
 20
2059.283917653351
 30
0.0
 10
2390.532108942329
 20
2059.283917653351
 30
0.0
 10
2391.490636654501
 20
2059.283917653351
 30
0.0
 10
2393.643059625321
 20
2059.283917653351
 30
0.0
 10
2395.063968436573
 20
2059.283917653351
 30
0.0
 10
2396.460999193675
 20
2059.283917653351
 30
0.0
  0
SPLINE
  5
118A9
330
11941
100
AcDbEntity
  8
springs2 - Level 26
  6
Continuous
 62
     7
370
    13
100
AcDbSpline
210
0.0
220
0.0
230
1.0
 70
    24
 71
     3
 72
    73
 73
    69
 74
     0
 42
0.000000001
 43
0.0000000001
 40
0.0
 40
0.0
 40
0.0
 40
0.0
 40
0.0028344919146014
 40
0.0164200261025775
 40
0.0164200261025775
 40
0.0214051250683154
 40
0.0214051250683154
 40
0.0239790329697804
 40
0.0239790329697804
 40
0.0246920107564707
 40
0.0246920107564707
 40
0.0268565133167529
 40
0.0268565133167529
 40
0.0294993813687772
 40
0.0294993813687772
 40
0.0364720580977585
 40
0.0364720580977585
 40
0.0550996442212459
 40
0.073910835323562
 40
0.073910835323562
 40
0.0811249346935263
 40
0.0811249346935263
 40
0.0862038905399738
 40
0.0862038905399738
 40
0.0884553362314179
 40
0.0884553362314179
 40
0.0911642479596238
 40
0.0911642479596238
 40
0.0982878857050148
 40
0.0982878857050148
 40
0.1172482103630752
 40
0.1172482103630752
 40
0.1359130650893141
 40
0.1359130650893141
 40
0.1425478422426399
 40
0.1425478422426399
 40
0.1448311875053689
 40
0.1448311875053689
 40
0.1464670231771538
 40
0.1464670231771538
 40
0.148155599566883
 40
0.148155599566883
 40
0.1505497476961612
 40
0.1505497476961612
 40
0.1579868741123749
 40
0.1579868741123749
 40
0.1799235762922209
 40
0.2021843748941357
 40
0.2021843748941357
 40
0.209999882372998
 40
0.209999882372998
 40
0.2125938701295277
 40
0.2125938701295277
 40
0.2143733001518544
 40
0.2143733001518544
 40
0.2153587532733482
 40
0.2153587532733482
 40
0.2165853057551753
 40
0.2165853057551753
 40
0.2201145506824897
 40
0.2201145506824897
 40
0.2313245538036285
 40
0.2313245538036285
 40
0.2628518364566287
 40
0.2628518364566287
 40
0.2902640571833535
 40
0.2902640571833535
 40
0.293881712452989
 40
0.293881712452989
 40
0.293881712452989
 40
0.293881712452989
 10
2414.900088053504
 20
2059.283917653351
 30
0.0
 10
2415.213874979301
 20
2059.283917653351
 30
0.0
 10
2417.033469016069
 20
2059.283917653351
 30
0.0
 10
2418.875341595913
 20
2059.283917653351
 30
0.0
 10
2420.964870984879
 20
2059.283917653351
 30
0.0
 10
2421.90138720452
 20
2059.283917653351
 30
0.0
 10
2423.561232273976
 20
2059.283917653351
 30
0.0
 10
2424.252810160489
 20
2059.283917653351
 30
0.0
 10
2425.415272899682
 20
2059.283917653351
 30
0.0
 10
2425.672987153464
 20
2059.283917653351
 30
0.0
 10
2426.737560268861
 20
2059.283917653351
 30
0.0
 10
2427.567696131437
 20
2059.283917653351
 30
0.0
 10
2429.332101261544
 20
2059.283917653351
 30
0.0
 10
2430.212750625674
 20
2059.283917653351
 30
0.0
 10
2433.253906412474
 20
2059.283917653351
 30
0.0
 10
2435.359740630631
 20
2059.283917653351
 30
0.0
 10
2441.61293241009
 20
2059.283917653351
 30
0.0
 10
2450.68290528882
 20
2059.283917653351
 30
0.0
 10
2459.843932402515
 20
2059.283917653351
 30
0.0
 10
2466.223879833462
 20
2059.283917653351
 30
0.0
 10
2468.146266295004
 20
2059.283917653351
 30
0.0
 10
2472.523672680217
 20
2059.283917653351
 30
0.0
 10
2474.355561794394
 20
2059.283917653351
 30
0.0
 10
2476.975197326843
 20
2059.283917653351
 30
0.0
 10
2477.779421243317
 20
2059.283917653351
 30
0.0
 10
2479.543479056631
 20
2059.283917653351
 30
0.0
 10
2480.268380673555
 20
2059.283917653351
 30
0.0
 10
2482.773856827555
 20
2059.283917653351
 30
0.0
 10
2484.447883791573
 20
2059.283917653351
 30
0.0
 10
2488.712268895845
 20
2059.283917653351
 30
0.0
 10
2491.626701872456
 20
2059.283917653351
 30
0.0
 10
2497.198805532724
 20
2059.283917653351
 30
0.0
 10
2499.683140633867
 20
2059.283917653351
 30
0.0
 10
2503.461945604028
 20
2059.283917653351
 30
0.0
 10
2504.770822112336
 20
2059.283917653351
 30
0.0
 10
2506.614651510701
 20
2059.283917653351
 30
0.0
 10
2507.138502081736
 20
2059.283917653351
 30
0.0
 10
2508.415776040984
 20
2059.283917653351
 30
0.0
 10
2508.987744927605
 20
2059.283917653351
 30
0.0
 10
2510.141486671916
 20
2059.283917653351
 30
0.0
 10
2510.78171966597
 20
2059.283917653351
 30
0.0
 10
2512.169214888283
 20
2059.283917653351
 30
0.0
 10
2512.653225500324
 20
2059.283917653351
 30
0.0
 10
2514.367401081949
 20
2059.283917653351
 30
0.0
 10
2515.612639668676
 20
2059.283917653351
 30
0.0
 10
2518.297427029115
 20
2059.283917653351
 30
0.0
 10
2522.304363120971
 20
2059.283917653351
 30
0.0
 10
2526.121421969905
 20
2059.283917653351
 30
0.0
 10
2528.80603363886
 20
2059.283917653351
 30
0.0
 10
2530.027435348729
 20
2059.283917653351
 30
0.0
 10
2531.669974708083
 20
2059.283917653351
 30
0.0
 10
2532.18316588959
 20
2059.283917653351
 30
0.0
 10
2533.443308082263
 20
2059.283917653351
 30
0.0
 10
2534.046372215766
 20
2059.283917653351
 30
0.0
 10
2535.028703748551
 20
2059.283917653351
 30
0.0
 10
2535.428748575563
 20
2059.283917653351
 30
0.0
 10
2536.202061170942
 20
2059.283917653351
 30
0.0
 10
2536.579096598525
 20
2059.283917653351
 30
0.0
 10
2537.870636063857
 20
2059.283917653351
 30
0.0
 10
2538.68983039989
 20
2059.283917653351
 30
0.0
 10
2541.281833514302
 20
2059.283917653351
 30
0.0
 10
2543.093487798876
 20
2059.283917653351
 30
0.0
 10
2548.464278062726
 20
2059.283917653351
 30
0.0
 10
2551.901055020596
 20
2059.283917653351
 30
0.0
 10
2559.143438818064
 20
2059.283917653351
 30
0.0
 10
2562.739538201838
 20
2059.283917653351
 30
0.0
 10
2567.467526004782
 20
2059.283917653351
 30
0.0
 10
2568.347093720122
 20
2059.283917653351
 30
0.0
 10
2569.352470293023
 20
2059.283917653351
 30
0.0
  0
SPLINE
  5
118AC
330
11941
100
AcDbEntity
  8
springs2 - Level 26
  6
Continuous
 62
     7
370
    13
100
AcDbSpline
210
0.0
220
0.0
230
1.0
 70
    24
 71
     3
 72
    26
 73
    22
 74
     0
 42
0.000000001
 43
0.0000000001
 40
0.0
 40
0.0
 40
0.0
 40
0.0
 40
0.0036382653020443
 40
0.0036382653020443
 40
0.0089734988902208
 40
0.0089734988902208
 40
0.0122211478215728
 40
0.0122211478215728
 40
0.0164403322561049
 40
0.0164403322561049
 40
0.0287400234074742
 40
0.0287400234074742
 40
0.041896934114976
 40
0.041896934114976
 40
0.0470376336116465
 40
0.0470376336116465
 40
0.0508059324024818
 40
0.0508059324024818
 40
0.0531935342129714
 40
0.0531935342129714
 40
0.0537163366878288
 40
0.0537163366878288
 40
0.0537163366878288
 40
0.0537163366878288
 10
1996.719785562129
 20
2053.28391765335
 30
0.0
 10
1997.673077162531
 20
2053.283917653351
 30
0.0
 10
1998.621636121568
 20
2053.283917653351
 30
0.0
 10
2001.058435484708
 20
2053.283917653351
 30
0.0
 10
2002.718494814512
 20
2053.283917653351
 30
0.0
 10
2005.46398576184
 20
2053.283917653351
 30
0.0
 10
2007.01433132413
 20
2053.283917653351
 30
0.0
 10
2009.474136457327
 20
2053.283917653351
 30
0.0
 10
2010.735583084329
 20
2053.283917653351
 30
0.0
 10
2013.776898734902
 20
2053.283917653351
 30
0.0
 10
2015.914474302075
 20
2053.283917653351
 30
0.0
 10
2020.241876022311
 20
2053.283917653351
 30
0.0
 10
2022.30826878034
 20
2053.283917653351
 30
0.0
 10
2025.443267224935
 20
2053.283917653351
 30
0.0
 10
2026.57088687347
 20
2053.283917653351
 30
0.0
 10
2029.170587597583
 20
2053.283917653351
 30
0.0
 10
2030.468408219446
 20
2053.283917653351
 30
0.0
 10
2032.713098225162
 20
2053.283917653351
 30
0.0
 10
2033.655929921324
 20
2053.283917653351
 30
0.0
 10
2034.706656076345
 20
2053.283917653351
 30
0.0
 10
2034.893666301342
 20
2053.283917653351
 30
0.0
 10
2035.078861832182
 20
2053.283917653351
 30
0.0
  0
SPLINE
  5
118AF
330
11941
100
AcDbEntity
  8
springs2 - Level 26
  6
Continuous
 62
     7
370
    13
100
AcDbSpline
210
0.0
220
0.0
230
1.0
 70
    24
 71
     3
 72
    10
 73
     6
 74
     0
 42
0.000000001
 43
0.0000000001
 40
0.0
 40
0.0
 40
0.0
 40
0.0
 40
0.0111606910789296
 40
0.0111606910789296
 40
0.017102167794844
 40
0.017102167794844
 40
0.017102167794844
 40
0.017102167794844
 10
2057.078861832182
 20
2053.283917653351
 30
0.0
 10
2059.565830906183
 20
2053.283917653351
 30
0.0
 10
2062.042535656402
 20
2053.283917653351
 30
0.0
 10
2065.89369214574
 20
2053.283917653351
 30
0.0
 10
2067.495447648811
 20
2053.283917653351
 30
0.0
 10
2069.403830549035
 20
2053.283917653351
 30
0.0
  0
SPLINE
  5
118B2
330
11941
100
AcDbEntity
  8
springs2 - Level 26
  6
Continuous
 62
     7
370
    13
100
AcDbSpline
210
0.0
220
0.0
230
1.0
 70
    24
 71
     3
 72
    80
 73
    76
 74
     0
 42
0.000000001
 43
0.0000000001
 40
0.0
 40
0.0
 40
0.0
 40
0.0
 40
0.0035311878185865
 40
0.017539747667374
 40
0.017539747667374
 40
0.0229222467995277
 40
0.0229222467995277
 40
0.0268925910960163
 40
0.0268925910960163
 40
0.0296547279477387
 40
0.0296547279477387
 40
0.0330889075359136
 40
0.0330889075359136
 40
0.0428842918724618
 40
0.0428842918724618
 40
0.0697836470150473
 40
0.0697836470150473
 40
0.0934815488024038
 40
0.0934815488024038
 40
0.0993167190713111
 40
0.0993167190713111
 40
0.1009116139089379
 40
0.1009116139089379
 40
0.1020505762920689
 40
0.1020505762920689
 40
0.1036300197699207
 40
0.1036300197699207
 40
0.1132639823403062
 40
0.1132639823403062
 40
0.1350745741068814
 40
0.1350745741068814
 40
0.1457538893221091
 40
0.1546078208923403
 40
0.1546078208923403
 40
0.1643292408595379
 40
0.1643292408595379
 40
0.1725831193156639
 40
0.1725831193156639
 40
0.1756081341837795
 40
0.1756081341837795
 40
0.1768509948281379
 40
0.1780007772438455
 40
0.1780007772438455
 40
0.1849462399822564
 40
0.1849462399822564
 40
0.1954551217067878
 40
0.1954551217067878
 40
0.20761934942573
 40
0.20761934942573
 40
0.2190534073973188
 40
0.2190534073973188
 40
0.2289362998271028
 40
0.2386949010918324
 40
0.2386949010918324
 40
0.2480583585829204
 40
0.2480583585829204
 40
0.2567754906152019
 40
0.2567754906152019
 40
0.2584674000230084
 40
0.2584674000230084
 40
0.2598208634325493
 40
0.2598208634325493
 40
0.2632320348288012
 40
0.2632320348288012
 40
0.2747264868087834
 40
0.2747264868087834
 40
0.2879104144463883
 40
0.2879104144463883
 40
0.2950465142454818
 40
0.2950465142454818
 40
0.2966056083295655
 40
0.2966056083295655
 40
0.300293691199879
 40
0.300293691199879
 40
0.3028724447378511
 40
0.3028724447378511
 40
0.3028724447378511
 40
0.3028724447378511
 10
2091.403830549035
 20
2053.283917653351
 30
0.0
 10
2092.153623930984
 20
2053.283917653351
 30
0.0
 10
2095.891943667715
 20
2053.283917653351
 30
0.0
 10
2099.492253002774
 20
2053.283917653351
 30
0.0
 10
2103.610749196599
 20
2053.283917653351
 30
0.0
 10
2104.862776286172
 20
2053.283917653351
 30
0.0
 10
2108.152119360058
 20
2053.283917653351
 30
0.0
 10
2109.548609065947
 20
2053.283917653351
 30
0.0
 10
2111.916460400651
 20
2053.283917653351
 30
0.0
 10
2112.88791644575
 20
2053.283917653351
 30
0.0
 10
2115.067097263503
 20
2053.283917653351
 30
0.0
 10
2115.750277214571
 20
2053.283917653351
 30
0.0
 10
2118.089409080175
 20
2053.283917653351
 30
0.0
 10
2119.660491142678
 20
2053.283917653351
 30
0.0
 10
2122.10159327902
 20
2053.283917653351
 30
0.0
 10
2123.810782230076
 20
2053.283917653351
 30
0.0
 10
2126.994165964904
 20
2053.283917653351
 30
0.0
 10
2128.347105028757
 20
2053.283917653351
 30
0.0
 10
2130.193504544961
 20
2053.283917653351
 30
0.0
 10
2131.04857090238
 20
2053.283917653351
 30
0.0
 10
2133.153151976639
 20
2053.283917653351
 30
0.0
 10
2133.995145440618
 20
2053.283917653351
 30
0.0
 10
2134.854151065777
 20
2053.283917653351
 30
0.0
 10
2135.221321540686
 20
2053.283917653351
 30
0.0
 10
2135.901415437654
 20
2053.283917653351
 30
0.0
 10
2136.282463307562
 20
2053.283917653351
 30
0.0
 10
2138.530166035801
 20
2053.283917653351
 30
0.0
 10
2140.455999022154
 20
2053.283917653351
 30
0.0
 10
2146.462812114771
 20
2053.283917653351
 30
0.0
 10
2150.480183426161
 20
2053.283917653351
 30
0.0
 10
2157.112742548046
 20
2053.283917653351
 30
0.0
 10
2161.413334861894
 20
2053.283917653351
 30
0.0
 10
2165.827032783822
 20
2053.283917653351
 30
0.0
 10
2170.044938802705
 20
2053.283917653351
 30
0.0
 10
2172.334666865514
 20
2053.283917653351
 30
0.0
 10
2176.605680582697
 20
2053.283917653351
 30
0.0
 10
2178.855885706329
 20
2053.283917653351
 30
0.0
 10
2182.267953955628
 20
2053.283917653351
 30
0.0
 10
2183.261795960486
 20
2053.283917653351
 30
0.0
 10
2184.844112038268
 20
2053.283917653351
 30
0.0
 10
2185.733715497318
 20
2053.283917653351
 30
0.0
 10
2186.62021421749
 20
2053.283917653351
 30
0.0
 10
2189.612062808371
 20
2053.283917653351
 30
0.0
 10
2191.161373168203
 20
2053.283917653351
 30
0.0
 10
2193.117070782167
 20
2053.283917653351
 30
0.0
 10
2194.15178015015
 20
2053.283917653351
 30
0.0
 10
2196.251433677465
 20
2053.283917653351
 30
0.0
 10
2197.165121243558
 20
2053.283917653351
 30
0.0
 10
2199.500510582653
 20
2053.283917653351
 30
0.0
 10
2201.117848315368
 20
2053.283917653351
 30
0.0
 10
2205.445679217568
 20
2053.283917653351
 30
0.0
 10
2209.530638382747
 20
2053.283917653351
 30
0.0
 10
2213.661386317407
 20
2053.283917653351
 30
0.0
 10
2217.725104429074
 20
2053.283917653351
 30
0.0
 10
2219.843774589228
 20
2053.283917653351
 30
0.0
 10
2223.87489280605
 20
2053.283917653351
 30
0.0
 10
2225.97588036801
 20
2053.283917653351
 30
0.0
 10
2228.568677359878
 20
2053.283917653351
 30
0.0
 10
2229.103234187751
 20
2053.283917653351
 30
0.0
 10
2230.116738465025
 20
2053.283917653351
 30
0.0
 10
2230.720246176704
 20
2053.283917653351
 30
0.0
 10
2232.364189018519
 20
2053.283917653351
 30
0.0
 10
2233.538680740228
 20
2053.283917653351
 30
0.0
 10
2236.581105372851
 20
2053.283917653351
 30
0.0
 10
2238.481443635015
 20
2053.283917653351
 30
0.0
 10
2242.505385052536
 20
2053.283917653351
 30
0.0
 10
2244.332485465538
 20
2053.283917653351
 30
0.0
 10
2247.694397031235
 20
2053.283917653351
 30
0.0
 10
2249.129007254492
 20
2053.283917653351
 30
0.0
 10
2251.602982660172
 20
2053.283917653351
 30
0.0
 10
2252.137199396524
 20
2053.283917653351
 30
0.0
 10
2254.076599104243
 20
2053.283917653351
 30
0.0
 10
2255.530282202869
 20
2053.283917653351
 30
0.0
 10
2257.805391471094
 20
2053.283917653351
 30
0.0
 10
2258.752289482416
 20
2053.283917653351
 30
0.0
 10
2259.680543623593
 20
2053.283917653351
 30
0.0
  0
SPLINE
  5
118B5
330
11941
100
AcDbEntity
  8
springs2 - Level 26
  6
Continuous
 62
     7
370
    13
100
AcDbSpline
210
0.0
220
0.0
230
1.0
 70
    24
 71
     3
 72
    60
 73
    56
 74
     0
 42
0.000000001
 43
0.0000000001
 40
0.0
 40
0.0
 40
0.0
 40
0.0
 40
0.0051464248941338
 40
0.0051464248941338
 40
0.0118889123899446
 40
0.0118889123899446
 40
0.0135111846108734
 40
0.0135111846108734
 40
0.0163390468956229
 40
0.0163390468956229
 40
0.0197436320545586
 40
0.0197436320545586
 40
0.0285595599498873
 40
0.0285595599498873
 40
0.0516248347140143
 40
0.0743252139127607
 40
0.0743252139127607
 40
0.0826760084820359
 40
0.0826760084820359
 40
0.0857862552731977
 40
0.0857862552731977
 40
0.0883216069590022
 40
0.0883216069590022
 40
0.089566561515755
 40
0.089566561515755
 40
0.0910626869449767
 40
0.0910626869449767
 40
0.0952122865636793
 40
0.0952122865636793
 40
0.1069624756337217
 40
0.1191209942841034
 40
0.1191209942841034
 40
0.1237910840264691
 40
0.1237910840264691
 40
0.1263962346321566
 40
0.1263962346321566
 40
0.1271510788480868
 40
0.1277788186181104
 40
0.1277788186181104
 40
0.1299328745428881
 40
0.1299328745428881
 40
0.1336061806056381
 40
0.1336061806056381
 40
0.1521848275619493
 40
0.1521848275619493
 40
0.1574042693013315
 40
0.1574042693013315
 40
0.1587330691448828
 40
0.160037199728775
 40
0.160037199728775
 40
0.1615424159582492
 40
0.1615424159582492
 40
0.1653399924290301
 40
0.1653399924290301
 40
0.1702110991769619
 40
0.1702110991769619
 40
0.1702110991769619
 40
0.1702110991769619
 10
2281.680543623593
 20
2053.283917653351
 30
0.0
 10
2283.409114020696
 20
2053.283917653351
 30
0.0
 10
2285.139805982272
 20
2053.283917653351
 30
0.0
 10
2289.149750241366
 20
2053.283917653351
 30
0.0
 10
2291.725287842639
 20
2053.283917653351
 30
0.0
 10
2294.792692257251
 20
2053.283917653351
 30
0.0
 10
2295.421027638134
 20
2053.283917653351
 30
0.0
 10
2297.05960706566
 20
2053.283917653351
 30
0.0
 10
2297.975980473454
 20
2053.283917653351
 30
0.0
 10
2299.89619585063
 20
2053.283917653351
 30
0.0
 10
2300.76947189026
 20
2053.283917653351
 30
0.0
 10
2303.470687607323
 20
2053.283917653351
 30
0.0
 10
2305.33913942266
 20
2053.283917653351
 30
0.0
 10
2309.499161462397
 20
2053.283917653351
 30
0.0
 10
2315.436097820429
 20
2053.283917653351
 30
0.0
 10
2321.271795329296
 20
2053.283917653351
 30
0.0
 10
2325.286491839283
 20
2053.283917653351
 30
0.0
 10
2327.046204135726
 20
2053.283917653351
 30
0.0
 10
2329.590874757922
 20
2053.283917653351
 30
0.0
 10
2330.384746367863
 20
2053.283917653351
 30
0.0
 10
2332.222191610635
 20
2053.283917653351
 30
0.0
 10
2333.108043568012
 20
2053.283917653351
 30
0.0
 10
2334.468467521258
 20
2053.283917653351
 30
0.0
 10
2334.964902351185
 20
2053.283917653351
 30
0.0
 10
2335.943383475858
 20
2053.283917653351
 30
0.0
 10
2336.399994922775
 20
2053.283917653351
 30
0.0
 10
2337.909719933488
 20
2053.283917653351
 30
0.0
 10
2338.916772105024
 20
2053.283917653351
 30
0.0
 10
2341.520461387456
 20
2053.283917653351
 30
0.0
 10
2345.348786411093
 20
2053.283917653351
 30
0.0
 10
2349.28996797607
 20
2053.283917653351
 30
0.0
 10
2352.082928126051
 20
2053.283917653351
 30
0.0
 10
2353.192135085011
 20
2053.283917653351
 30
0.0
 10
2355.163540691051
 20
2053.283917653351
 30
0.0
 10
2355.957166489255
 20
2053.283917653351
 30
0.0
 10
2357.174289904407
 20
2053.283917653351
 30
0.0
 10
2357.679628951412
 20
2053.283917653351
 30
0.0
 10
2358.205440307262
 20
2053.283917653351
 30
0.0
 10
2359.243844090439
 20
2053.283917653351
 30
0.0
 10
2360.021781920286
 20
2053.283917653351
 30
0.0
 10
2362.059483016493
 20
2053.283917653351
 30
0.0
 10
2363.256183792689
 20
2053.283917653351
 30
0.0
 10
2369.543318072398
 20
2053.283917653351
 30
0.0
 10
2374.769000125036
 20
2053.283917653351
 30
0.0
 10
2381.50904755213
 20
2053.283917653351
 30
0.0
 10
2383.329124201558
 20
2053.283917653351
 30
0.0
 10
2385.71523821801
 20
2053.283917653351
 30
0.0
 10
2386.73602512557
 20
2053.283917653351
 30
0.0
 10
2387.67357383355
 20
2053.283917653351
 30
0.0
 10
2388.654006644685
 20
2053.283917653351
 30
0.0
 10
2389.093392337321
 20
2053.283917653351
 30
0.0
 10
2390.532108942329
 20
2053.283917653351
 30
0.0
 10
2391.490636654501
 20
2053.283917653351
 30
0.0
 10
2393.018523580353
 20
2053.283917653351
 30
0.0
 10
2393.856237008737
 20
2053.283917653351
 30
0.0
 10
2394.680543623589
 20
2053.283917653351
 30
0.0
  0
SPLINE
  5
118B8
330
11941
100
AcDbEntity
  8
springs2 - Level 26
  6
Continuous
 62
     7
370
    13
100
AcDbSpline
210
0.0
220
0.0
230
1.0
 70
    24
 71
     3
 72
    72
 73
    68
 74
     0
 42
0.000000001
 43
0.0000000001
 40
0.0
 40
0.0
 40
0.0
 40
0.0
 40
0.0110752546406693
 40
0.0110752546406693
 40
0.0160603536064071
 40
0.0160603536064071
 40
0.0186342615078722
 40
0.0186342615078722
 40
0.0193472392945624
 40
0.0193472392945624
 40
0.0215117418548446
 40
0.0215117418548446
 40
0.0241546099068689
 40
0.0241546099068689
 40
0.0311272866358502
 40
0.0311272866358502
 40
0.0497548727593377
 40
0.0685660638616538
 40
0.0685660638616538
 40
0.0757801632316181
 40
0.0757801632316181
 40
0.0808591190780655
 40
0.0808591190780655
 40
0.0831105647695097
 40
0.0831105647695097
 40
0.0858194764977155
 40
0.0858194764977155
 40
0.0929431142431065
 40
0.0929431142431065
 40
0.1119034389011669
 40
0.1119034389011669
 40
0.1305682936274058
 40
0.1305682936274058
 40
0.1372030707807317
 40
0.1372030707807317
 40
0.1394864160434607
 40
0.1394864160434607
 40
0.1411222517152455
 40
0.1411222517152455
 40
0.1428108281049747
 40
0.1428108281049747
 40
0.145204976234253
 40
0.145204976234253
 40
0.1526421026504666
 40
0.1526421026504666
 40
0.1745788048303126
 40
0.1968396034322275
 40
0.1968396034322275
 40
0.2046551109110897
 40
0.2046551109110897
 40
0.2072490986676194
 40
0.2072490986676194
 40
0.2090285286899461
 40
0.2090285286899461
 40
0.2100139818114399
 40
0.2100139818114399
 40
0.2112405342932671
 40
0.2112405342932671
 40
0.2147697792205815
 40
0.2147697792205815
 40
0.2259797823417202
 40
0.2259797823417202
 40
0.2575070649947204
 40
0.2575070649947204
 40
0.2849192857214452
 40
0.2849192857214452
 40
0.2861292667470592
 40
0.2861292667470592
 40
0.2861292667470592
 40
0.2861292667470592
 10
2416.68054362359
 20
2053.283917653351
 30
0.0
 10
2417.914748694525
 20
2053.283917653351
 30
0.0
 10
2419.157793079673
 20
2053.283917653351
 30
0.0
 10
2420.964870984879
 20
2053.283917653351
 30
0.0
 10
2421.90138720452
 20
2053.283917653351
 30
0.0
 10
2423.561232273976
 20
2053.283917653351
 30
0.0
 10
2424.252810160489
 20
2053.283917653351
 30
0.0
 10
2425.415272899682
 20
2053.283917653351
 30
0.0
 10
2425.672987153464
 20
2053.283917653351
 30
0.0
 10
2426.737560268861
 20
2053.283917653351
 30
0.0
 10
2427.567696131437
 20
2053.283917653351
 30
0.0
 10
2429.332101261544
 20
2053.283917653351
 30
0.0
 10
2430.212750625674
 20
2053.283917653351
 30
0.0
 10
2433.253906412474
 20
2053.283917653351
 30
0.0
 10
2435.359740630631
 20
2053.283917653351
 30
0.0
 10
2441.61293241009
 20
2053.283917653351
 30
0.0
 10
2450.68290528882
 20
2053.283917653351
 30
0.0
 10
2459.843932402515
 20
2053.283917653351
 30
0.0
 10
2466.223879833462
 20
2053.283917653351
 30
0.0
 10
2468.146266295004
 20
2053.283917653351
 30
0.0
 10
2472.523672680217
 20
2053.283917653351
 30
0.0
 10
2474.355561794394
 20
2053.283917653351
 30
0.0
 10
2476.975197326843
 20
2053.283917653351
 30
0.0
 10
2477.779421243317
 20
2053.283917653351
 30
0.0
 10
2479.543479056631
 20
2053.283917653351
 30
0.0
 10
2480.268380673555
 20
2053.283917653351
 30
0.0
 10
2482.773856827555
 20
2053.283917653351
 30
0.0
 10
2484.447883791573
 20
2053.283917653351
 30
0.0
 10
2488.712268895845
 20
2053.283917653351
 30
0.0
 10
2491.626701872456
 20
2053.283917653351
 30
0.0
 10
2497.198805532724
 20
2053.283917653351
 30
0.0
 10
2499.683140633867
 20
2053.283917653351
 30
0.0
 10
2503.461945604028
 20
2053.283917653351
 30
0.0
 10
2504.770822112336
 20
2053.283917653351
 30
0.0
 10
2506.614651510701
 20
2053.283917653351
 30
0.0
 10
2507.138502081736
 20
2053.283917653351
 30
0.0
 10
2508.415776040984
 20
2053.283917653351
 30
0.0
 10
2508.987744927605
 20
2053.283917653351
 30
0.0
 10
2510.141486671916
 20
2053.283917653351
 30
0.0
 10
2510.78171966597
 20
2053.283917653351
 30
0.0
 10
2512.169214888283
 20
2053.283917653351
 30
0.0
 10
2512.653225500324
 20
2053.283917653351
 30
0.0
 10
2514.367401081949
 20
2053.283917653351
 30
0.0
 10
2515.612639668676
 20
2053.283917653351
 30
0.0
 10
2518.297427029115
 20
2053.283917653351
 30
0.0
 10
2522.304363120971
 20
2053.283917653351
 30
0.0
 10
2526.121421969905
 20
2053.283917653351
 30
0.0
 10
2528.80603363886
 20
2053.283917653351
 30
0.0
 10
2530.027435348729
 20
2053.283917653351
 30
0.0
 10
2531.669974708083
 20
2053.283917653351
 30
0.0
 10
2532.18316588959
 20
2053.283917653351
 30
0.0
 10
2533.443308082263
 20
2053.283917653351
 30
0.0
 10
2534.046372215766
 20
2053.283917653351
 30
0.0
 10
2535.028703748551
 20
2053.283917653351
 30
0.0
 10
2535.428748575563
 20
2053.283917653351
 30
0.0
 10
2536.202061170942
 20
2053.283917653351
 30
0.0
 10
2536.579096598525
 20
2053.283917653351
 30
0.0
 10
2537.870636063857
 20
2053.283917653351
 30
0.0
 10
2538.68983039989
 20
2053.283917653351
 30
0.0
 10
2541.281833514302
 20
2053.283917653351
 30
0.0
 10
2543.093487798876
 20
2053.283917653351
 30
0.0
 10
2548.464278062726
 20
2053.283917653351
 30
0.0
 10
2551.901055020596
 20
2053.283917653351
 30
0.0
 10
2559.143438818064
 20
2053.283917653351
 30
0.0
 10
2562.739538201838
 20
2053.283917653351
 30
0.0
 10
2567.100671349593
 20
2053.283917653351
 30
0.0
 10
2567.321766365835
 20
2053.283917653351
 30
0.0
 10
2567.572014722938
 20
2053.283917653351
 30
0.0
  0
LINE
  5
118BB
330
11941
100
AcDbEntity
  8
springs2 - Level 26
  6
Continuous
 62
     7
370
    13
100
AcDbLine
 10
1996.719786
 20
2059.283918
 30
0.0
 11
1988.752505
 21
2059.283918
 31
0.0
  0
LINE
  5
118BC
330
11941
100
AcDbEntity
  8
springs2 - Level 26
  6
Continuous
 62
     7
370
    13
100
AcDbLine
 10
1996.719786
 20
2053.283918
 30
0.0
 11
1988.752505
 21
2053.283918
 31
0.0
  0
LINE
  5
118BD
330
11941
100
AcDbEntity
  8
springs2 - Level 26
  6
Continuous
 62
     7
370
    13
100
AcDbLine
 10
1988.752505
 20
2059.283918
 30
0.0
 11
1988.752505
 21
2053.283918
 31
0.0
  0
LINE
  5
118BE
330
11941
100
AcDbEntity
  8
springs2 - Level 26
  6
Continuous
 62
     7
370
    13
100
AcDbLine
 10
2608.934441
 20
2053.183918
 30
0.0
 11
1958.934441
 21
2053.183918
 31
0.0
  0
LINE
  5
118BF
330
11941
100
AcDbEntity
  8
springs2 - Level 25
  6
Continuous
 62
     7
370
    13
100
AcDbLine
 10
2085.357686
 20
1672.791865
 30
0.0
 11
2077.232686
 21
1672.791865
 31
0.0
  0
LINE
  5
118C0
330
11941
100
AcDbEntity
  8
springs2 - Level 25
  6
Continuous
 62
     7
370
    13
100
AcDbLine
 10
2085.357686
 20
1672.791865
 30
0.0
 11
2112.857686
 21
1672.791865
 31
0.0
  0
LINE
  5
118C1
330
11941
100
AcDbEntity
  8
springs2 - Level 25
  6
Continuous
 62
     7
370
    13
100
AcDbLine
 10
2131.607686
 20
1672.791865
 30
0.0
 11
2112.857686
 21
1672.791865
 31
0.0
  0
LINE
  5
118C2
330
11941
100
AcDbEntity
  8
springs2 - Level 25
  6
Continuous
 62
     7
370
    13
100
AcDbLine
 10
2131.607686
 20
1672.791865
 30
0.0
 11
2159.107686
 21
1672.791865
 31
0.0
  0
LINE
  5
118C3
330
11941
100
AcDbEntity
  8
springs2 - Level 25
  6
Continuous
 62
     7
370
    13
100
AcDbLine
 10
2167.232686
 20
1672.791865
 30
0.0
 11
2159.107686
 21
1672.791865
 31
0.0
  0
LINE
  5
118C4
330
11941
100
AcDbEntity
  8
springs2 - Level 25
  6
Continuous
 62
     7
370
    13
100
AcDbLine
 10
2085.357686
 20
2037.683918
 30
0.0
 11
2077.232686
 21
2037.683918
 31
0.0
  0
LINE
  5
118C5
330
11941
100
AcDbEntity
  8
springs2 - Level 25
  6
Continuous
 62
     7
370
    13
100
AcDbLine
 10
2167.232686
 20
2037.683918
 30
0.0
 11
2159.107686
 21
2037.683918
 31
0.0
  0
LINE
  5
118C6
330
11941
100
AcDbEntity
  8
springs2 - Level 25
  6
Continuous
 62
     7
370
    13
100
AcDbLine
 10
2131.607686
 20
2037.683918
 30
0.0
 11
2159.107686
 21
2037.683918
 31
0.0
  0
LINE
  5
118C7
330
11941
100
AcDbEntity
  8
springs2 - Level 25
  6
Continuous
 62
     7
370
    13
100
AcDbLine
 10
2131.607686
 20
2037.683918
 30
0.0
 11
2112.857686
 21
2037.683918
 31
0.0
  0
LINE
  5
118C8
330
11941
100
AcDbEntity
  8
springs2 - Level 25
  6
Continuous
 62
     7
370
    13
100
AcDbLine
 10
2085.357686
 20
2037.683918
 30
0.0
 11
2112.857686
 21
2037.683918
 31
0.0
  0
LINE
  5
118C9
330
11941
100
AcDbEntity
  8
springs2 - Level 25
  6
Continuous
 62
     7
370
    13
100
AcDbLine
 10
2135.682686
 20
1672.491865
 30
0.0
 11
2135.682686
 21
2037.983918
 31
0.0
  0
LINE
  5
118CA
330
11941
100
AcDbEntity
  8
springs2 - Level 25
  6
Continuous
 62
     7
370
    13
100
AcDbLine
 10
2108.782686
 20
2037.983918
 30
0.0
 11
2108.782686
 21
1672.491865
 31
0.0
  0
ARC
  5
118CB
330
11941
100
AcDbEntity
  8
springs2 - Level 26
  6
Continuous
 62
     7
370
    13
100
AcDbCircle
 10
2090.232687
 20
1651.191865
 30
0.0
 40
11.0
100
AcDbArc
 50
33.055731
 51
34.940627
  0
ARC
  5
118CC
330
11941
100
AcDbEntity
  8
springs2 - Level 26
  6
Continuous
 62
     7
370
    13
100
AcDbCircle
 10
2090.232687
 20
1651.191865
 30
0.0
 40
11.0
100
AcDbArc
 50
207.035438
 51
0.0
  0
ARC
  5
118CD
330
11941
100
AcDbEntity
  8
springs2 - Level 26
  6
Continuous
 62
     7
370
    13
100
AcDbCircle
 10
2090.232687
 20
2059.283918
 30
0.0
 40
11.0
100
AcDbArc
 50
0.0
 51
152.964562
  0
ARC
  5
118CE
330
11941
100
AcDbEntity
  8
springs2 - Level 26
  6
Continuous
 62
     7
370
    13
100
AcDbCircle
 10
2090.232687
 20
2059.283918
 30
0.0
 40
11.0
100
AcDbArc
 50
325.059373
 51
326.944269
  0
ARC
  5
118CF
330
11941
100
AcDbEntity
  8
springs2 - Level 26
  6
Continuous
 62
     7
370
    13
100
AcDbCircle
 10
2154.232686
 20
1651.191865
 30
0.0
 40
11.0
100
AcDbArc
 50
33.055731
 51
34.940627
  0
ARC
  5
118D0
330
11941
100
AcDbEntity
  8
springs2 - Level 26
  6
Continuous
 62
     7
370
    13
100
AcDbCircle
 10
2154.232686
 20
1651.191865
 30
0.0
 40
11.0
100
AcDbArc
 50
145.059373
 51
146.944269
  0
ARC
  5
118D1
330
11941
100
AcDbEntity
  8
springs2 - Level 26
  6
Continuous
 62
     7
370
    13
100
AcDbCircle
 10
2154.232686
 20
1651.191865
 30
0.0
 40
11.0
100
AcDbArc
 50
180.0
 51
0.0
  0
ARC
  5
118D2
330
11941
100
AcDbEntity
  8
springs2 - Level 26
  6
Continuous
 62
     7
370
    13
100
AcDbCircle
 10
2154.232686
 20
2059.283918
 30
0.0
 40
11.0
100
AcDbArc
 50
0.0
 51
180.0
  0
ARC
  5
118D3
330
11941
100
AcDbEntity
  8
springs2 - Level 26
  6
Continuous
 62
     7
370
    13
100
AcDbCircle
 10
2154.232686
 20
2059.283918
 30
0.0
 40
11.0
100
AcDbArc
 50
213.055731
 51
214.940627
  0
ARC
  5
118D4
330
11941
100
AcDbEntity
  8
springs2 - Level 26
  6
Continuous
 62
     7
370
    13
100
AcDbCircle
 10
2154.232686
 20
2059.283918
 30
0.0
 40
11.0
100
AcDbArc
 50
325.059373
 51
326.944269
  0
ARC
  5
118D5
330
11941
100
AcDbEntity
  8
springs2 - Level 26
  6
Continuous
 62
     7
370
    13
100
AcDbCircle
 10
2026.243725
 20
1651.191865
 30
0.0
 40
11.0
100
AcDbArc
 50
145.059373
 51
146.944269
  0
ARC
  5
118D6
330
11941
100
AcDbEntity
  8
springs2 - Level 26
  6
Continuous
 62
     7
370
    13
100
AcDbCircle
 10
2026.243725
 20
1651.191865
 30
0.0
 40
11.0
100
AcDbArc
 50
180.0
 51
357.210767
  0
ARC
  5
118D7
330
11941
100
AcDbEntity
  8
springs2 - Level 26
  6
Continuous
 62
     7
370
    13
100
AcDbCircle
 10
2026.243725
 20
2059.283918
 30
0.0
 40
11.0
100
AcDbArc
 50
2.789233
 51
180.0
  0
ARC
  5
118D8
330
11941
100
AcDbEntity
  8
springs2 - Level 26
  6
Continuous
 62
     7
370
    13
100
AcDbCircle
 10
2026.243725
 20
2059.283918
 30
0.0
 40
11.0
100
AcDbArc
 50
213.055731
 51
214.940627
  0
LINE
  5
118D9
330
11941
100
AcDbEntity
  8
springs2 - Level 25
  6
Continuous
 62
     7
370
    13
100
AcDbLine
 10
2555.396392
 20
1672.791865
 30
0.0
 11
2553.572011
 21
1672.791865
 31
0.0
  0
LINE
  5
118DA
330
11941
100
AcDbEntity
  8
springs2 - Level 25
  6
Continuous
 62
     7
370
    13
100
AcDbLine
 10
2555.396392
 20
1672.791865
 30
0.0
 11
2566.520692
 21
1672.791865
 31
0.0
  0
LINE
  5
118DB
330
11941
100
AcDbEntity
  8
springs2 - Level 25
  6
Continuous
 62
     7
370
    13
100
AcDbLine
 10
2590.623338
 20
1672.791865
 30
0.0
 11
2566.520692
 21
1672.791865
 31
0.0
  0
LINE
  5
118DC
330
11941
100
AcDbEntity
  8
springs2 - Level 25
  6
Continuous
 62
     7
370
    13
100
AcDbLine
 10
2590.623338
 20
1672.791865
 30
0.0
 11
2601.747632
 21
1672.791865
 31
0.0
  0
LINE
  5
118DD
330
11941
100
AcDbEntity
  8
springs2 - Level 25
  6
Continuous
 62
     7
370
    13
100
AcDbLine
 10
2603.572011
 20
1672.791865
 30
0.0
 11
2601.747632
 21
1672.791865
 31
0.0
  0
LINE
  5
118DE
330
11941
100
AcDbEntity
  8
springs2 - Level 25
  6
Continuous
 62
     7
370
    13
100
AcDbLine
 10
2555.396392
 20
2037.683918
 30
0.0
 11
2553.572011
 21
2037.683918
 31
0.0
  0
LINE
  5
118DF
330
11941
100
AcDbEntity
  8
springs2 - Level 25
  6
Continuous
 62
     7
370
    13
100
AcDbLine
 10
2603.572011
 20
2037.683918
 30
0.0
 11
2601.747632
 21
2037.683918
 31
0.0
  0
LINE
  5
118E0
330
11941
100
AcDbEntity
  8
springs2 - Level 25
  6
Continuous
 62
     7
370
    13
100
AcDbLine
 10
2590.623338
 20
2037.683918
 30
0.0
 11
2601.747632
 21
2037.683918
 31
0.0
  0
LINE
  5
118E1
330
11941
100
AcDbEntity
  8
springs2 - Level 25
  6
Continuous
 62
     7
370
    13
100
AcDbLine
 10
2590.623338
 20
2037.683918
 30
0.0
 11
2566.520692
 21
2037.683918
 31
0.0
  0
LINE
  5
118E2
330
11941
100
AcDbEntity
  8
springs2 - Level 25
  6
Continuous
 62
     7
370
    13
100
AcDbLine
 10
2555.396392
 20
2037.683918
 30
0.0
 11
2566.520692
 21
2037.683918
 31
0.0
  0
LINE
  5
118E3
330
11941
100
AcDbEntity
  8
springs2 - Level 25
  6
Continuous
 62
     7
370
    13
100
AcDbLine
 10
2592.022011
 20
1672.491865
 30
0.0
 11
2592.022011
 21
2037.983918
 31
0.0
  0
LINE
  5
118E4
330
11941
100
AcDbEntity
  8
springs2 - Level 25
  6
Continuous
 62
     7
370
    13
100
AcDbLine
 10
2565.122011
 20
2037.983918
 30
0.0
 11
2565.122011
 21
1672.491865
 31
0.0
  0
ARC
  5
118E5
330
11941
100
AcDbEntity
  8
springs2 - Level 26
  6
Continuous
 62
     7
370
    13
100
AcDbCircle
 10
2578.572015
 20
1657.191865
 30
0.0
 40
11.0
100
AcDbArc
 50
0.0
 51
1.562806
  0
ARC
  5
118E6
330
11941
100
AcDbEntity
  8
springs2 - Level 26
  6
Continuous
 62
     7
370
    13
100
AcDbCircle
 10
2578.572015
 20
1657.191865
 30
0.0
 40
11.0
100
AcDbArc
 50
178.437194
 51
0.0
  0
ARC
  5
118E7
330
11941
100
AcDbEntity
  8
springs2 - Level 26
  6
Continuous
 62
     7
370
    13
100
AcDbCircle
 10
2578.572015
 20
2053.283918
 30
0.0
 40
11.0
100
AcDbArc
 50
0.0
 51
181.562806
  0
ARC
  5
118E8
330
11941
100
AcDbEntity
  8
springs2 - Level 26
  6
Continuous
 62
     7
370
    13
100
AcDbCircle
 10
2578.572015
 20
2053.283918
 30
0.0
 40
11.0
100
AcDbArc
 50
358.437194
 51
0.0
  0
ARC
  5
118E9
330
11941
100
AcDbEntity
  8
springs2 - Level 26
  6
Continuous
 62
     7
370
    13
100
AcDbCircle
 10
2437.596188
 20
1651.191865
 30
0.0
 40
11.0
100
AcDbArc
 50
33.055731
 51
34.940627
  0
ARC
  5
118EA
330
11941
100
AcDbEntity
  8
springs2 - Level 26
  6
Continuous
 62
     7
370
    13
100
AcDbCircle
 10
2437.596188
 20
1651.191865
 30
0.0
 40
11.0
100
AcDbArc
 50
145.059373
 51
146.944269
  0
ARC
  5
118EB
330
11941
100
AcDbEntity
  8
springs2 - Level 26
  6
Continuous
 62
     7
370
    13
100
AcDbCircle
 10
2437.596188
 20
1651.191865
 30
0.0
 40
11.0
100
AcDbArc
 50
180.0
 51
0.0
  0
ARC
  5
118EC
330
11941
100
AcDbEntity
  8
springs2 - Level 26
  6
Continuous
 62
     7
370
    13
100
AcDbCircle
 10
2437.596188
 20
2059.283918
 30
0.0
 40
11.0
100
AcDbArc
 50
0.0
 51
180.0
  0
ARC
  5
118ED
330
11941
100
AcDbEntity
  8
springs2 - Level 26
  6
Continuous
 62
     7
370
    13
100
AcDbCircle
 10
2437.596188
 20
2059.283918
 30
0.0
 40
11.0
100
AcDbArc
 50
213.055731
 51
214.940627
  0
ARC
  5
118EE
330
11941
100
AcDbEntity
  8
springs2 - Level 26
  6
Continuous
 62
     7
370
    13
100
AcDbCircle
 10
2437.596188
 20
2059.283918
 30
0.0
 40
11.0
100
AcDbArc
 50
325.059373
 51
326.944269
  0
ARC
  5
118EF
330
11941
100
AcDbEntity
  8
springs2 - Level 26
  6
Continuous
 62
     7
370
    13
100
AcDbCircle
 10
2569.112773
 20
1651.191865
 30
0.0
 40
11.0
100
AcDbArc
 50
145.059373
 51
146.944269
  0
ARC
  5
118F0
330
11941
100
AcDbEntity
  8
springs2 - Level 26
  6
Continuous
 62
     7
370
    13
100
AcDbCircle
 10
2569.112773
 20
1651.191865
 30
0.0
 40
11.0
100
AcDbArc
 50
180.0
 51
332.995296
  0
ARC
  5
118F1
330
11941
100
AcDbEntity
  8
springs2 - Level 26
  6
Continuous
 62
     7
370
    13
100
AcDbCircle
 10
2569.112773
 20
2059.283918
 30
0.0
 40
11.0
100
AcDbArc
 50
27.004704
 51
180.0
  0
ARC
  5
118F2
330
11941
100
AcDbEntity
  8
springs2 - Level 26
  6
Continuous
 62
     7
370
    13
100
AcDbCircle
 10
2569.112773
 20
2059.283918
 30
0.0
 40
11.0
100
AcDbArc
 50
213.055731
 51
214.940627
  0
LINE
  5
118F3
330
11941
100
AcDbEntity
  8
springs2 - Level 26
  6
Continuous
 62
     7
370
    13
100
AcDbLine
 10
2438.180544
 20
1674.819907
 30
0.0
 11
2438.180544
 21
2034.819907
 31
0.0
  0
LINE
  5
118F4
330
11941
100
AcDbEntity
  8
springs2 - Level 26
  6
Continuous
 62
     7
370
    13
100
AcDbLine
 10
2238.180544
 20
1674.819907
 30
0.0
 11
2438.180544
 21
1674.819907
 31
0.0
  0
LINE
  5
118F5
330
11941
100
AcDbEntity
  8
springs2 - Level 26
  6
Continuous
 62
     7
370
    13
100
AcDbLine
 10
2238.180544
 20
2034.819907
 30
0.0
 11
2238.180544
 21
1674.819907
 31
0.0
  0
LINE
  5
118F6
330
11941
100
AcDbEntity
  8
springs2 - Level 26
  6
Continuous
 62
     7
370
    13
100
AcDbLine
 10
2438.180544
 20
2034.819907
 30
0.0
 11
2238.180544
 21
2034.819907
 31
0.0
  0
ARC
  5
118F7
330
11941
100
AcDbEntity
  8
springs2 - Level 26
  6
Continuous
 62
     7
370
    13
100
AcDbCircle
 10
2270.680544
 20
1657.191865
 30
0.0
 40
11.0
100
AcDbArc
 50
0.0
 51
1.562806
  0
ARC
  5
118F8
330
11941
100
AcDbEntity
  8
springs2 - Level 26
  6
Continuous
 62
     7
370
    13
100
AcDbCircle
 10
2270.680544
 20
1657.191865
 30
0.0
 40
11.0
100
AcDbArc
 50
178.437194
 51
0.0
  0
ARC
  5
118F9
330
11941
100
AcDbEntity
  8
springs2 - Level 26
  6
Continuous
 62
     7
370
    13
100
AcDbCircle
 10
2405.680544
 20
1657.191865
 30
0.0
 40
11.0
100
AcDbArc
 50
0.0
 51
1.562806
  0
ARC
  5
118FA
330
11941
100
AcDbEntity
  8
springs2 - Level 26
  6
Continuous
 62
     7
370
    13
100
AcDbCircle
 10
2405.680544
 20
1657.191865
 30
0.0
 40
11.0
100
AcDbArc
 50
178.437194
 51
0.0
  0
ARC
  5
118FB
330
11941
100
AcDbEntity
  8
springs2 - Level 26
  6
Continuous
 62
     7
370
    13
100
AcDbCircle
 10
2270.680544
 20
2053.283918
 30
0.0
 40
11.0
100
AcDbArc
 50
0.0
 51
181.562806
  0
ARC
  5
118FC
330
11941
100
AcDbEntity
  8
springs2 - Level 26
  6
Continuous
 62
     7
370
    13
100
AcDbCircle
 10
2270.680544
 20
2053.283918
 30
0.0
 40
11.0
100
AcDbArc
 50
358.437194
 51
0.0
  0
ARC
  5
118FD
330
11941
100
AcDbEntity
  8
springs2 - Level 26
  6
Continuous
 62
     7
370
    13
100
AcDbCircle
 10
2405.680544
 20
2053.283918
 30
0.0
 40
11.0
100
AcDbArc
 50
0.0
 51
181.562806
  0
ARC
  5
118FE
330
11941
100
AcDbEntity
  8
springs2 - Level 26
  6
Continuous
 62
     7
370
    13
100
AcDbCircle
 10
2405.680544
 20
2053.283918
 30
0.0
 40
11.0
100
AcDbArc
 50
358.437194
 51
0.0
  0
LINE
  5
118FF
330
11941
100
AcDbEntity
  8
springs2 - Level 26
  6
Continuous
 62
     7
370
    13
100
AcDbLine
 10
2394.680998
 20
2053.183918
 30
0.0
 11
2416.680089
 21
2053.183918
 31
0.0
  0
LINE
  5
11900
330
11941
100
AcDbEntity
  8
springs2 - Level 26
  6
Continuous
 62
     7
370
    13
100
AcDbLine
 10
2559.959085
 20
2053.183918
 30
0.0
 11
2567.572469
 21
2053.183918
 31
0.0
  0
LINE
  5
11901
330
11941
100
AcDbEntity
  8
springs2 - Level 26
  6
Continuous
 62
     7
370
    13
100
AcDbLine
 10
2558.112773
 20
2059.283918
 30
0.0
 11
2569.35247
 21
2059.283918
 31
0.0
  0
LINE
  5
11902
330
11941
100
AcDbEntity
  8
springs2 - Level 26
  6
Continuous
 62
     7
370
    13
100
AcDbLine
 10
2567.572469
 20
2053.183918
 30
0.0
 11
2589.57156
 21
2053.183918
 31
0.0
  0
LINE
  5
11903
330
11941
100
AcDbEntity
  8
springs2 - Level 26
  6
Continuous
 62
     7
370
    13
100
AcDbLine
 10
2046.078862
 20
1657.291865
 30
0.0
 11
2057.078407
 21
1657.291865
 31
0.0
  0
LINE
  5
11904
330
11941
100
AcDbEntity
  8
springs2 - Level 26
  6
Continuous
 62
     7
370
    13
100
AcDbLine
 10
2035.079316
 20
1657.291865
 30
0.0
 11
2046.078862
 21
1657.291865
 31
0.0
  0
LINE
  5
11905
330
11941
100
AcDbEntity
  8
springs2 - Level 26
  6
Continuous
 62
     7
370
    13
100
AcDbLine
 10
2035.079316
 20
2053.183918
 30
0.0
 11
2057.078407
 21
2053.183918
 31
0.0
  0
LINE
  5
11906
330
11941
100
AcDbEntity
  8
springs2 - Level 26
  6
Continuous
 62
     7
370
    13
100
AcDbLine
 10
2069.404285
 20
2053.183918
 30
0.0
 11
2070.585573
 21
2053.183918
 31
0.0
  0
LINE
  5
11907
330
11941
100
AcDbEntity
  8
springs2 - Level 26
  6
Continuous
 62
     7
370
    13
100
AcDbLine
 10
2085.859553
 20
2053.183918
 30
0.0
 11
2091.403376
 21
2053.183918
 31
0.0
  0
LINE
  5
11908
330
11941
100
AcDbEntity
  8
springs2 - Level 26
  6
Continuous
 62
     7
370
    13
100
AcDbLine
 10
2099.452232
 20
1657.191865
 30
0.0
 11
2091.403831
 21
1657.191865
 31
0.0
  0
LINE
  5
11909
330
11941
100
AcDbEntity
  8
springs2 - Level 26
  6
Continuous
 62
     7
370
    13
100
AcDbLine
 10
2091.403376
 20
1657.291865
 30
0.0
 11
2099.386375
 21
1657.291865
 31
0.0
  0
LINE
  5
1190A
330
11941
100
AcDbEntity
  8
springs2 - Level 25
  6
Continuous
 62
     7
370
    13
100
AcDbLine
 10
2122.232686
 20
1672.591865
 30
0.0
 11
2135.682686
 21
1672.591865
 31
0.0
  0
LINE
  5
1190B
330
11941
100
AcDbEntity
  8
springs2 - Level 25
  6
Continuous
 62
     7
370
    13
100
AcDbLine
 10
2108.782686
 20
1672.591865
 30
0.0
 11
2122.232686
 21
1672.591865
 31
0.0
  0
LINE
  5
1190C
330
11941
100
AcDbEntity
  8
springs2 - Level 25
  6
Continuous
 62
     7
370
    13
100
AcDbLine
 10
2108.782686
 20
2037.883918
 30
0.0
 11
2135.682686
 21
2037.883918
 31
0.0
  0
LINE
  5
1190D
330
11941
100
AcDbEntity
  8
springs2 - Level 25
  6
Continuous
 62
     7
370
    13
100
AcDbLine
 10
2108.782686
 20
1672.791865
 30
0.0
 11
2135.682686
 21
1672.791865
 31
0.0
  0
LINE
  5
1190E
330
11941
100
AcDbEntity
  8
springs2 - Level 25
  6
Continuous
 62
     7
370
    13
100
AcDbLine
 10
2135.682686
 20
2037.683918
 30
0.0
 11
2108.782686
 21
2037.683918
 31
0.0
  0
LINE
  5
1190F
330
11941
100
AcDbEntity
  8
springs2 - Level 25
  6
Continuous
 62
     7
370
    13
100
AcDbLine
 10
2122.232686
 20
1672.491865
 30
0.0
 11
2135.682686
 21
1672.491865
 31
0.0
  0
LINE
  5
11910
330
11941
100
AcDbEntity
  8
springs2 - Level 25
  6
Continuous
 62
     7
370
    13
100
AcDbLine
 10
2108.782686
 20
1672.491865
 30
0.0
 11
2122.232686
 21
1672.491865
 31
0.0
  0
LINE
  5
11911
330
11941
100
AcDbEntity
  8
springs2 - Level 26
  6
Continuous
 62
     7
370
    13
100
AcDbLine
 10
2085.859553
 20
1657.291865
 30
0.0
 11
2091.403376
 21
1657.291865
 31
0.0
  0
LINE
  5
11912
330
11941
100
AcDbEntity
  8
springs2 - Level 26
  6
Continuous
 62
     7
370
    13
100
AcDbLine
 10
2069.404285
 20
1657.291865
 30
0.0
 11
2070.585573
 21
1657.291865
 31
0.0
  0
LINE
  5
11913
330
11941
100
AcDbEntity
  8
springs2 - Level 25
  6
Continuous
 62
     7
370
    13
100
AcDbLine
 10
2063.241346
 20
1672.591865
 30
0.0
 11
2076.691346
 21
1672.591865
 31
0.0
  0
LINE
  5
11914
330
11941
100
AcDbEntity
  8
springs2 - Level 25
  6
Continuous
 62
     7
370
    13
100
AcDbLine
 10
2049.791346
 20
1672.591865
 30
0.0
 11
2063.241346
 21
1672.591865
 31
0.0
  0
LINE
  5
11915
330
11941
100
AcDbEntity
  8
springs2 - Level 25
  6
Continuous
 62
     7
370
    13
100
AcDbLine
 10
2049.791346
 20
1672.791865
 30
0.0
 11
2076.691346
 21
1672.791865
 31
0.0
  0
LINE
  5
11916
330
11941
100
AcDbEntity
  8
springs2 - Level 25
  6
Continuous
 62
     7
370
    13
100
AcDbLine
 10
2076.691346
 20
2037.683918
 30
0.0
 11
2049.791346
 21
2037.683918
 31
0.0
  0
LINE
  5
11917
330
11941
100
AcDbEntity
  8
springs2 - Level 25
  6
Continuous
 62
     7
370
    13
100
AcDbLine
 10
2049.791346
 20
2037.883918
 30
0.0
 11
2076.691346
 21
2037.883918
 31
0.0
  0
LINE
  5
11918
330
11941
100
AcDbEntity
  8
springs2 - Level 25
  6
Continuous
 62
     7
370
    13
100
AcDbLine
 10
2063.241346
 20
1672.491865
 30
0.0
 11
2076.691346
 21
1672.491865
 31
0.0
  0
LINE
  5
11919
330
11941
100
AcDbEntity
  8
springs2 - Level 25
  6
Continuous
 62
     7
370
    13
100
AcDbLine
 10
2049.791346
 20
1672.491865
 30
0.0
 11
2063.241346
 21
1672.491865
 31
0.0
  0
LINE
  5
1191A
330
11941
100
AcDbEntity
  8
springs2 - Level 26
  6
Continuous
 62
     7
370
    13
100
AcDbLine
 10
2145.078998
 20
2053.183918
 30
0.0
 11
2163.386374
 21
2053.183918
 31
0.0
  0
LINE
  5
1191B
330
11941
100
AcDbEntity
  8
springs2 - Level 26
  6
Continuous
 62
     7
370
    13
100
AcDbLine
 10
2145.013141
 20
2053.283918
 30
0.0
 11
2163.45223
 21
2053.283918
 31
0.0
  0
LINE
  5
1191C
330
11941
100
AcDbEntity
  8
springs2 - Level 26
  6
Continuous
 62
     7
370
    13
100
AcDbLine
 10
2163.45223
 20
1657.191865
 30
0.0
 11
2145.013141
 21
1657.191865
 31
0.0
  0
LINE
  5
1191D
330
11941
100
AcDbEntity
  8
springs2 - Level 26
  6
Continuous
 62
     7
370
    13
100
AcDbLine
 10
2154.232686
 20
1657.291865
 30
0.0
 11
2163.386374
 21
1657.291865
 31
0.0
  0
LINE
  5
1191E
330
11941
100
AcDbEntity
  8
springs2 - Level 26
  6
Continuous
 62
     7
370
    13
100
AcDbLine
 10
2145.078998
 20
1657.291865
 30
0.0
 11
2154.232686
 21
1657.291865
 31
0.0
  0
LINE
  5
1191F
330
11941
100
AcDbEntity
  8
springs2 - Level 26
  6
Continuous
 62
     7
370
    13
100
AcDbLine
 10
2091.403376
 20
2053.183918
 30
0.0
 11
2099.386375
 21
2053.183918
 31
0.0
  0
LINE
  5
11920
330
11941
100
AcDbEntity
  8
springs2 - Level 26
  6
Continuous
 62
     7
370
    13
100
AcDbLine
 10
2091.403831
 20
2053.283918
 30
0.0
 11
2099.452232
 21
2053.283918
 31
0.0
  0
LINE
  5
11921
330
11941
100
AcDbEntity
  8
springs2 - Level 26
  6
Continuous
 62
     7
370
    13
100
AcDbLine
 10
2035.078862
 20
1657.191865
 30
0.0
 11
2017.024181
 21
1657.191865
 31
0.0
  0
LINE
  5
11922
330
11941
100
AcDbEntity
  8
springs2 - Level 26
  6
Continuous
 62
     7
370
    13
100
AcDbLine
 10
2026.243725
 20
1657.291865
 30
0.0
 11
2035.079316
 21
1657.291865
 31
0.0
  0
LINE
  5
11923
330
11941
100
AcDbEntity
  8
springs2 - Level 26
  6
Continuous
 62
     7
370
    13
100
AcDbLine
 10
2017.090038
 20
1657.291865
 30
0.0
 11
2026.243725
 21
1657.291865
 31
0.0
  0
LINE
  5
11924
330
11941
100
AcDbEntity
  8
springs2 - Level 26
  6
Continuous
 62
     7
370
    13
100
AcDbLine
 10
2405.680544
 20
1657.291865
 30
0.0
 11
2416.680089
 21
1657.291865
 31
0.0
  0
LINE
  5
11925
330
11941
100
AcDbEntity
  8
springs2 - Level 26
  6
Continuous
 62
     7
370
    13
100
AcDbLine
 10
2394.680998
 20
1657.291865
 30
0.0
 11
2405.680544
 21
1657.291865
 31
0.0
  0
LINE
  5
11926
330
11941
100
AcDbEntity
  8
springs2 - Level 26
  6
Continuous
 62
     7
370
    13
100
AcDbLine
 10
2270.680544
 20
1657.291865
 30
0.0
 11
2281.680089
 21
1657.291865
 31
0.0
  0
LINE
  5
11927
330
11941
100
AcDbEntity
  8
springs2 - Level 26
  6
Continuous
 62
     7
370
    13
100
AcDbLine
 10
2259.680998
 20
1657.291865
 30
0.0
 11
2270.680544
 21
1657.291865
 31
0.0
  0
LINE
  5
11928
330
11941
100
AcDbEntity
  8
springs2 - Level 26
  6
Continuous
 62
     7
370
    13
100
AcDbLine
 10
2259.680998
 20
2053.183918
 30
0.0
 11
2281.680089
 21
2053.183918
 31
0.0
  0
LINE
  5
11929
330
11941
100
AcDbEntity
  8
springs2 - Level 26
  6
Continuous
 62
     7
370
    13
100
AcDbLine
 10
2448.596188
 20
1651.191865
 30
0.0
 11
2426.596188
 21
1651.191865
 31
0.0
  0
LINE
  5
1192A
330
11941
100
AcDbEntity
  8
springs2 - Level 26
  6
Continuous
 62
     7
370
    13
100
AcDbLine
 10
2437.596188
 20
1657.291865
 30
0.0
 11
2446.749875
 21
1657.291865
 31
0.0
  0
LINE
  5
1192B
330
11941
100
AcDbEntity
  8
springs2 - Level 26
  6
Continuous
 62
     7
370
    13
100
AcDbLine
 10
2428.4425
 20
1657.291865
 30
0.0
 11
2437.596188
 21
1657.291865
 31
0.0
  0
LINE
  5
1192C
330
11941
100
AcDbEntity
  8
springs2 - Level 26
  6
Continuous
 62
     7
370
    13
100
AcDbLine
 10
2578.572015
 20
1657.291865
 30
0.0
 11
2589.57156
 21
1657.291865
 31
0.0
  0
LINE
  5
1192D
330
11941
100
AcDbEntity
  8
springs2 - Level 26
  6
Continuous
 62
     7
370
    13
100
AcDbLine
 10
2567.572469
 20
1657.291865
 30
0.0
 11
2578.572015
 21
1657.291865
 31
0.0
  0
LINE
  5
1192E
330
11941
100
AcDbEntity
  8
springs2 - Level 25
  6
Continuous
 62
     7
370
    13
100
AcDbLine
 10
2578.572011
 20
1672.591865
 30
0.0
 11
2592.022011
 21
1672.591865
 31
0.0
  0
LINE
  5
1192F
330
11941
100
AcDbEntity
  8
springs2 - Level 25
  6
Continuous
 62
     7
370
    13
100
AcDbLine
 10
2565.122011
 20
1672.591865
 30
0.0
 11
2578.572011
 21
1672.591865
 31
0.0
  0
LINE
  5
11930
330
11941
100
AcDbEntity
  8
springs2 - Level 25
  6
Continuous
 62
     7
370
    13
100
AcDbLine
 10
2565.122011
 20
2037.883918
 30
0.0
 11
2592.022011
 21
2037.883918
 31
0.0
  0
LINE
  5
11931
330
11941
100
AcDbEntity
  8
springs2 - Level 25
  6
Continuous
 62
     7
370
    13
100
AcDbLine
 10
2565.122011
 20
1672.791865
 30
0.0
 11
2592.022011
 21
1672.791865
 31
0.0
  0
LINE
  5
11932
330
11941
100
AcDbEntity
  8
springs2 - Level 25
  6
Continuous
 62
     7
370
    13
100
AcDbLine
 10
2592.022011
 20
2037.683918
 30
0.0
 11
2565.122011
 21
2037.683918
 31
0.0
  0
LINE
  5
11933
330
11941
100
AcDbEntity
  8
springs2 - Level 25
  6
Continuous
 62
     7
370
    13
100
AcDbLine
 10
2578.572011
 20
1672.491865
 30
0.0
 11
2592.022011
 21
1672.491865
 31
0.0
  0
LINE
  5
11934
330
11941
100
AcDbEntity
  8
springs2 - Level 25
  6
Continuous
 62
     7
370
    13
100
AcDbLine
 10
2565.122011
 20
1672.491865
 30
0.0
 11
2578.572011
 21
1672.491865
 31
0.0
  0
LINE
  5
11935
330
11941
100
AcDbEntity
  8
springs2 - Level 26
  6
Continuous
 62
     7
370
    13
100
AcDbLine
 10
2428.4425
 20
2053.183918
 30
0.0
 11
2446.749875
 21
2053.183918
 31
0.0
  0
LINE
  5
11936
330
11941
100
AcDbEntity
  8
springs2 - Level 26
  6
Continuous
 62
     7
370
    13
100
AcDbLine
 10
2426.596188
 20
2059.283918
 30
0.0
 11
2448.596188
 21
2059.283918
 31
0.0
  0
LINE
  5
11937
330
11941
100
AcDbEntity
  8
springs2 - Level 26
  6
Continuous
 62
     7
370
    13
100
AcDbLine
 10
2569.35247
 20
1651.191865
 30
0.0
 11
2558.112773
 21
1651.191865
 31
0.0
  0
LINE
  5
11938
330
11941
100
AcDbEntity
  8
springs2 - Level 26
  6
Continuous
 62
     7
370
    13
100
AcDbLine
 10
2559.959085
 20
1657.291865
 30
0.0
 11
2567.572469
 21
1657.291865
 31
0.0
  0
LINE
  5
11939
330
11941
100
AcDbEntity
  8
springs2 - Level 26
  6
Continuous
 62
     7
370
    13
100
AcDbLine
 10
2017.090038
 20
2053.183918
 30
0.0
 11
2035.079316
 21
2053.183918
 31
0.0
  0
LINE
  5
1193A
330
11941
100
AcDbEntity
  8
springs2 - Level 26
  6
Continuous
 62
     7
370
    13
100
AcDbLine
 10
2017.024181
 20
2053.283918
 30
0.0
 11
2035.078862
 21
2053.283918
 31
0.0
  0
ENDSEC
  0
SECTION
  2
OBJECTS
  0
DICTIONARY
  5
1194A
330
0
100
AcDbDictionary
281
     1
  3
ACAD_COLOR
350
119A5
  3
ACAD_DETAILVIEWSTYLE
350
11B4B
  3
ACAD_GROUP
350
11992
  3
ACAD_LAYOUT
350
11974
  3
ACAD_MATERIAL
350
1194C
  3
ACAD_MLEADERSTYLE
350
119A8
  3
ACAD_MLINESTYLE
350
11993
  3
ACAD_PLOTSETTINGS
350
11994
  3
ACAD_PLOTSTYLENAME
350
11949
  3
ACAD_SCALELIST
350
119A6
  3
ACAD_SECTIONVIEWSTYLE
350
11B49
  3
ACAD_TABLESTYLE
350
119A7
  3
ACAD_VISUALSTYLE
350
1198C
  3
AcadDim
350
11B26
  3
ACDB_RECOMPOSE_DATA
350
12007
  3
AcDbVariableDictionary
350
119A9
  3
AcDsDecomposeData
350
1200D
  3
MicroStation
350
11B25
  0
DICTIONARY
  5
1197D
330
1197C
100
AcDbDictionary
280
     1
281
     1
  3
ACAD_LAYERFILTERS
360
1197E
  3
ACAD_LAYERSTATES
360
1197F
  3
ACLYDICTIONARY
360
11980
  0
DICTIONARY
  5
11946
330
11945
100
AcDbDictionary
280
     1
281
     1
  3
ADSK_XREC_LAYER_RECONCILED
360
11947
  0
DICTIONARY
  5
11942
330
11941
100
AcDbDictionary
280
     1
281
     1
  3
ACAD_SORTENTS
360
11B1E
  0
DICTIONARY
  5
119A5
102
{ACAD_REACTORS
330
1194A
102
}
330
1194A
100
AcDbDictionary
281
     1
  0
DICTIONARY
  5
11B4B
102
{ACAD_REACTORS
330
1194A
102
}
330
1194A
100
AcDbDictionary
281
     1
  3
Imperial24
350
11B4C
  0
DICTIONARY
  5
11992
102
{ACAD_REACTORS
330
1194A
102
}
330
1194A
100
AcDbDictionary
281
     1
  0
DICTIONARY
  5
11974
102
{ACAD_REACTORS
330
1194A
102
}
330
1194A
100
AcDbDictionary
281
     1
  3
Layout1
350
11979
  3
Model
350
11973
  0
DICTIONARY
  5
1194C
102
{ACAD_REACTORS
330
1194A
102
}
330
1194A
100
AcDbDictionary
281
     1
  3
ByBlock
350
1199D
  3
ByLayer
350
11995
  3
Chrome
350
8DC
  3
Global
350
1194B
  0
DICTIONARY
  5
119A8
102
{ACAD_REACTORS
330
1194A
102
}
330
1194A
100
AcDbDictionary
281
     1
  3
Standard
350
11B27
  0
DICTIONARY
  5
11993
102
{ACAD_REACTORS
330
1194A
102
}
330
1194A
100
AcDbDictionary
281
     1
  3
Standard
350
119BA
  0
DICTIONARY
  5
11994
102
{ACAD_REACTORS
330
1194A
102
}
330
1194A
100
AcDbDictionary
281
     1
  0
ACDBDICTIONARYWDFLT
  5
11949
102
{ACAD_REACTORS
330
1194A
102
}
330
1194A
100
AcDbDictionary
281
     1
  3
Normal
350
11948
100
AcDbDictionaryWithDefault
340
11948
  0
DICTIONARY
  5
119A6
102
{ACAD_REACTORS
330
1194A
102
}
330
1194A
100
AcDbDictionary
281
     1
  3
A0
350
119BF
  3
A1
350
119C0
  3
A2
350
119C1
  3
A3
350
119C2
  3
A4
350
119C3
  3
A5
350
119C4
  3
A6
350
119C5
  3
A7
350
119C6
  3
A8
350
119C7
  3
A9
350
119C8
  3
B0
350
119C9
  3
B1
350
119CA
  3
B2
350
119CB
  3
B3
350
119CC
  3
B4
350
119CD
  3
B5
350
119CE
  3
B6
350
119CF
  3
B7
350
119D0
  3
B8
350
119D1
  3
B9
350
119D2
  3
C0
350
119D3
  3
C1
350
119D4
  3
C2
350
119D5
  3
C3
350
119D6
  3
C4
350
119D7
  3
C5
350
119D8
  3
C6
350
119D9
  3
C7
350
119DA
  3
C8
350
119DB
  3
C9
350
119DC
  3
D0
350
119DD
  3
D1
350
119DE
  3
D2
350
119DF
  0
DICTIONARY
  5
11B49
102
{ACAD_REACTORS
330
1194A
102
}
330
1194A
100
AcDbDictionary
281
     1
  3
Imperial24
350
11B4A
  0
DICTIONARY
  5
119A7
102
{ACAD_REACTORS
330
1194A
102
}
330
1194A
100
AcDbDictionary
281
     1
  3
Standard
350
119BB
  0
DICTIONARY
  5
1198C
102
{ACAD_REACTORS
330
1194A
102
}
330
1194A
100
AcDbDictionary
281
     1
  3
2dWireframe
350
1198B
  3
Basic
350
11B38
  3
Brighten
350
11B3C
  3
ColorChange
350
11B40
  3
Conceptual
350
11B3A
  3
Dim
350
11B3B
  3
EdgeColorOff
350
11B48
  3
Facepattern
350
11B3F
  3
Flat
350
11B34
  3
FlatWithEdges
350
11B35
  3
Gouraud
350
11B36
  3
GouraudWithEdges
350
11B37
  3
Hidden
350
11B39
  3
JitterOff
350
11B46
  3
Linepattern
350
11B3E
  3
OverhangOff
350
11B47
  3
Realistic
350
119BD
  3
Shaded
350
11B45
  3
Shaded with edges
350
11B44
  3
Shades of Gray
350
11B41
  3
Sketchy
350
11B42
  3
Thicken
350
11B3D
  3
Wireframe
350
119BE
  3
X-Ray
350
11B43
  0
XRECORD
  5
11B26
102
{ACAD_REACTORS
330
1194A
102
}
330
1194A
100
AcDbXrecord
280
     1
 90
   990106
  3
 
 60
     0
 61
     0
 62
     1
 63
     1
 64
     0
 65
     0
 66
     0
 67
     3
 68
     1
 69
     1
 70
     0
 71
     0
 72
     0
 40
0.0
170
     0
  0
XRECORD
  5
12007
102
{ACAD_REACTORS
330
1194A
102
}
330
1194A
100
AcDbXrecord
280
     1
 90
        1
330
119BB
  0
DICTIONARY
  5
119A9
102
{ACAD_REACTORS
330
1194A
102
}
330
1194A
100
AcDbDictionary
281
     1
  3
CANNOSCALE
350
119AA
  3
CMLEADERSTYLE
350
119AB
  3
CTABLESTYLE
350
119AC
  3
CVIEWDETAILSTYLE
350
119AD
  3
CVIEWSECTIONSTYLE
350
119AE
  3
LAYEREVAL
350
119AF
  3
LAYERNOTIFY
350
119B0
  3
MSLTSCALE
350
119B1
  3
PDFFRAME
350
119B2
  0
DICTIONARY
  5
1200D
102
{ACAD_REACTORS
330
1194A
102
}
330
1194A
100
AcDbDictionary
281
     1
  3
AcDsRecords
350
1200F
  3
AcDsSchemas
350
1200E
1001
ACAD
1070
     2
  0
DICTIONARY
  5
11B25
102
{ACAD_REACTORS
330
1194A
102
}
330
1194A
100
AcDbDictionary
281
     1
  0
DICTIONARY
  5
1197E
102
{ACAD_REACTORS
330
1197D
102
}
330
1197D
100
AcDbDictionary
281
     1
  0
DICTIONARY
  5
1197F
102
{ACAD_REACTORS
330
1197D
102
}
330
1197D
100
AcDbDictionary
281
     1
  0
DICTIONARY
  5
11980
102
{ACAD_REACTORS
330
1197D
102
}
330
1197D
100
AcDbDictionary
281
     1
  0
XRECORD
  5
11947
102
{ACAD_REACTORS
330
11946
102
}
330
11946
100
AcDbXrecord
280
     1
290
     1
  0
SORTENTSTABLE
  5
11B1E
102
{ACAD_REACTORS
330
11942
102
}
330
11942
100
AcDbSortentsTable
330
11941
  0
ACDBDETAILVIEWSTYLE
  5
11B4C
102
{ACAD_XDICTIONARY
360
12012
102
}
102
{ACAD_REACTORS
330
11B4B
102
}
330
11B4B
100
AcDbModelDocViewStyle
 70
     0
  3
Imperial24
290
     0
100
AcDbDetailViewStyle
 70
     0
 71
     0
 90
        3
 71
     1
340
11982
 62
   256
 40
0.24
340
0
 62
   256
 40
0.24
300

 40
0.36
280
     3
 71
     2
340
11954
 90
       25
 62
   256
 71
     3
340
11982
 62
   256
 40
0.24
 90
        1
 40
0.75
 90
        1
300
%<\AcVar ViewType \f "%tc1">% %<\AcVar ViewDetailId>%\PSCALE %<\AcVar ViewScale \f "%sn">%
 71
     4
340
11954
 90
       25
 62
   256
340
11954
 90
       25
 62
   256
280
     0
  0
LAYOUT
  5
11979
102
{ACAD_XDICTIONARY
360
1197A
102
}
102
{ACAD_REACTORS
330
11974
102
}
330
11974
100
AcDbPlotSettings
  1

  2
none_device
  4
Letter_(8.50_x_11.00_Inches)
  6

 40
6.35
 41
6.35
 42
6.350006
 43
6.350006
 44
215.899994
 45
279.399994
 46
0.0
 47
0.0
 48
0.0
 49
0.0
140
0.0
141
0.0
142
1.0
143
1.0
 70
   688
 72
     0
 73
     1
 74
     5
  7

 75
    16
147
1.0
 76
     0
 77
     2
 78
   300
148
0.0
149
0.0
100
AcDbLayout
  1
Layout1
 70
     1
 71
     1
 10
-0.25
 20
-0.25
 11
10.75
 21
8.25
 12
0.0
 22
0.0
 32
0.0
 14
1.05
 24
0.8
 34
0.0
 15
9.45
 25
7.2
 35
0.0
146
0.0
 13
0.0
 23
0.0
 33
0.0
 16
1.0
 26
0.0
 36
0.0
 17
0.0
 27
1.0
 37
0.0
 76
     0
330
11976
1001
ACAD_PSEXT
1000
None
1000
None
1000
Not applicable
1000
The layout will not be plotted unless a new plotter configuration name is selected.
1070
     0
  0
LAYOUT
  5
11973
102
{ACAD_XDICTIONARY
360
11975
102
}
102
{ACAD_REACTORS
330
11974
102
}
330
11974
100
AcDbPlotSettings
  1

  2
none_device
  4
ANSI_A_(8.50_x_11.00_Inches)
  6

 40
6.35
 41
19.049999
 42
6.350006
 43
19.049988
 44
215.899994
 45
279.399994
 46
0.0
 47
0.0
 48
0.0
 49
0.0
140
0.0
141
0.0
142
1.0
143
2.584895
 70
 11952
 72
     0
 73
     1
 74
     0
  7

 75
     0
147
0.386863
 76
     0
 77
     2
 78
   300
148
0.0
149
0.0
100
AcDbLayout
  1
Model
 70
     1
 71
     0
 10
0.0
 20
0.0
 11
12.0
 21
9.0
 12
0.0
 22
0.0
 32
0.0
 14
0.0
 24
0.0
 34
0.0
 15
0.0
 25
0.0
 35
0.0
146
0.0
 13
0.0
 23
0.0
 33
0.0
 16
1.0
 26
0.0
 36
0.0
 17
0.0
 27
1.0
 37
0.0
 76
     0
330
11941
  0
MATERIAL
  5
1199D
102
{ACAD_XDICTIONARY
360
1199E
102
}
102
{ACAD_REACTORS
330
1194C
102
}
330
1194C
100
AcDbMaterial
  1
ByBlock
 72
     0
 43
0.020833
 43
0.0
 43
0.0
 43
0.0
 43
0.0
 43
0.020833
 43
0.0
 43
0.0
 43
0.0
 43
0.0
 43
1.0
 43
0.0
 43
0.0
 43
0.0
 43
0.0
 43
1.0
 77
     0
 47
0.020833
 47
0.0
 47
0.0
 47
0.0
 47
0.0
 47
0.020833
 47
0.0
 47
0.0
 47
0.0
 47
0.0
 47
1.0
 47
0.0
 47
0.0
 47
0.0
 47
0.0
 47
1.0
171
     0
 49
0.020833
 49
0.0
 49
0.0
 49
0.0
 49
0.0
 49
0.020833
 49
0.0
 49
0.0
 49
0.0
 49
0.0
 49
1.0
 49
0.0
 49
0.0
 49
0.0
 49
0.0
 49
1.0
175
     0
142
0.020833
142
0.0
142
0.0
142
0.0
142
0.0
142
0.020833
142
0.0
142
0.0
142
0.0
142
0.0
142
1.0
142
0.0
142
0.0
142
0.0
142
0.0
142
1.0
179
     0
144
0.020833
144
0.0
144
0.0
144
0.0
144
0.0
144
0.020833
144
0.0
144
0.0
144
0.0
144
0.0
144
1.0
144
0.0
144
0.0
144
0.0
144
0.0
144
1.0
147
0.020833
147
0.0
147
0.0
147
0.0
147
0.0
147
0.020833
147
0.0
147
0.0
147
0.0
147
0.0
147
1.0
147
0.0
147
0.0
147
0.0
147
0.0
147
1.0
  0
MATERIAL
  5
11995
102
{ACAD_XDICTIONARY
360
11996
102
}
102
{ACAD_REACTORS
330
1194C
102
}
330
1194C
100
AcDbMaterial
  1
ByLayer
 72
     0
 43
0.020833
 43
0.0
 43
0.0
 43
0.0
 43
0.0
 43
0.020833
 43
0.0
 43
0.0
 43
0.0
 43
0.0
 43
1.0
 43
0.0
 43
0.0
 43
0.0
 43
0.0
 43
1.0
 77
     0
 47
0.020833
 47
0.0
 47
0.0
 47
0.0
 47
0.0
 47
0.020833
 47
0.0
 47
0.0
 47
0.0
 47
0.0
 47
1.0
 47
0.0
 47
0.0
 47
0.0
 47
0.0
 47
1.0
171
     0
 49
0.020833
 49
0.0
 49
0.0
 49
0.0
 49
0.0
 49
0.020833
 49
0.0
 49
0.0
 49
0.0
 49
0.0
 49
1.0
 49
0.0
 49
0.0
 49
0.0
 49
0.0
 49
1.0
175
     0
142
0.020833
142
0.0
142
0.0
142
0.0
142
0.0
142
0.020833
142
0.0
142
0.0
142
0.0
142
0.0
142
1.0
142
0.0
142
0.0
142
0.0
142
0.0
142
1.0
179
     0
144
0.020833
144
0.0
144
0.0
144
0.0
144
0.0
144
0.020833
144
0.0
144
0.0
144
0.0
144
0.0
144
1.0
144
0.0
144
0.0
144
0.0
144
0.0
144
1.0
147
0.020833
147
0.0
147
0.0
147
0.0
147
0.0
147
0.020833
147
0.0
147
0.0
147
0.0
147
0.0
147
1.0
147
0.0
147
0.0
147
0.0
147
0.0
147
1.0
  0
MATERIAL
  5
8DC
102
{ACAD_XDICTIONARY
360
11B20
102
}
102
{ACAD_REACTORS
330
1194C
102
}
330
1194C
100
AcDbMaterial
  1
Chrome
 71
     1
 41
0.2
 91
-1026370853
 72
     0
 44
10.0
 76
     1
 45
0.76
 92
-1026299413
 77
     0
175
     0
468
0.5
 93
        1
 94
       39
  0
MATERIAL
  5
1194B
102
{ACAD_XDICTIONARY
360
1194D
102
}
102
{ACAD_REACTORS
330
1194C
102
}
330
1194C
100
AcDbMaterial
  1
Global
 72
     0
 43
0.020833
 43
0.0
 43
0.0
 43
0.0
 43
0.0
 43
0.020833
 43
0.0
 43
0.0
 43
0.0
 43
0.0
 43
1.0
 43
0.0
 43
0.0
 43
0.0
 43
0.0
 43
1.0
 77
     0
 47
0.020833
 47
0.0
 47
0.0
 47
0.0
 47
0.0
 47
0.020833
 47
0.0
 47
0.0
 47
0.0
 47
0.0
 47
1.0
 47
0.0
 47
0.0
 47
0.0
 47
0.0
 47
1.0
171
     0
 49
0.020833
 49
0.0
 49
0.0
 49
0.0
 49
0.0
 49
0.020833
 49
0.0
 49
0.0
 49
0.0
 49
0.0
 49
1.0
 49
0.0
 49
0.0
 49
0.0
 49
0.0
 49
1.0
175
     0
142
0.020833
142
0.0
142
0.0
142
0.0
142
0.0
142
0.020833
142
0.0
142
0.0
142
0.0
142
0.0
142
1.0
142
0.0
142
0.0
142
0.0
142
0.0
142
1.0
179
     0
144
0.020833
144
0.0
144
0.0
144
0.0
144
0.0
144
0.020833
144
0.0
144
0.0
144
0.0
144
0.0
144
1.0
144
0.0
144
0.0
144
0.0
144
0.0
144
1.0
147
0.020833
147
0.0
147
0.0
147
0.0
147
0.0
147
0.020833
147
0.0
147
0.0
147
0.0
147
0.0
147
1.0
147
0.0
147
0.0
147
0.0
147
0.0
147
1.0
  0
MLEADERSTYLE
  5
11B27
102
{ACAD_REACTORS
330
119A8
102
}
330
119A8
100
AcDbMLeaderStyle
179
     2
170
     2
171
     1
172
     0
 90
        2
 40
0.0
 41
0.0
173
     1
 91
-1073741824
 92
       -2
290
     1
 42
1.5
291
     1
 43
3.0
  3

 44
3.0
300

342
313
174
     1
178
     1
175
     1
176
     0
 93
-1073741824
 45
3.0
292
     0
297
     1
 46
5.0
 94
-1073741824
 47
1.0
 49
1.0
140
1.0
293
     1
141
0.0
294
     1
177
     0
142
1.0
295
     0
296
     0
143
0.125
271
     0
272
     9
273
     9
298
     0
  0
MLINESTYLE
  5
119BA
102
{ACAD_REACTORS
330
11993
102
}
330
11993
100
AcDbMlineStyle
  2
STANDARD
 70
     0
  3

 62
   256
 51
90.0
 52
90.0
 71
     2
 49
0.5
 62
   256
  6
BYLAYER
 49
-0.5
 62
   256
  6
BYLAYER
  0
ACDBPLACEHOLDER
  5
11948
102
{ACAD_REACTORS
330
11949
102
}
330
11949
  0
SCALE
  5
119BF
102
{ACAD_REACTORS
330
119A6
102
}
330
119A6
100
AcDbScale
 70
     0
300
1:1
140
1.0
141
1.0
290
     1
  0
SCALE
  5
119C0
102
{ACAD_REACTORS
330
119A6
102
}
330
119A6
100
AcDbScale
 70
     0
300
1:2
140
1.0
141
2.0
290
     0
  0
SCALE
  5
119C1
102
{ACAD_REACTORS
330
119A6
102
}
330
119A6
100
AcDbScale
 70
     0
300
1:4
140
1.0
141
4.0
290
     0
  0
SCALE
  5
119C2
102
{ACAD_REACTORS
330
119A6
102
}
330
119A6
100
AcDbScale
 70
     0
300
1:5
140
1.0
141
5.0
290
     0
  0
SCALE
  5
119C3
102
{ACAD_REACTORS
330
119A6
102
}
330
119A6
100
AcDbScale
 70
     0
300
1:8
140
1.0
141
8.0
290
     0
  0
SCALE
  5
119C4
102
{ACAD_REACTORS
330
119A6
102
}
330
119A6
100
AcDbScale
 70
     0
300
1:10
140
1.0
141
10.0
290
     0
  0
SCALE
  5
119C5
102
{ACAD_REACTORS
330
119A6
102
}
330
119A6
100
AcDbScale
 70
     0
300
1:16
140
1.0
141
16.0
290
     0
  0
SCALE
  5
119C6
102
{ACAD_REACTORS
330
119A6
102
}
330
119A6
100
AcDbScale
 70
     0
300
1:20
140
1.0
141
20.0
290
     0
  0
SCALE
  5
119C7
102
{ACAD_REACTORS
330
119A6
102
}
330
119A6
100
AcDbScale
 70
     0
300
1:30
140
1.0
141
30.0
290
     0
  0
SCALE
  5
119C8
102
{ACAD_REACTORS
330
119A6
102
}
330
119A6
100
AcDbScale
 70
     0
300
1:40
140
1.0
141
40.0
290
     0
  0
SCALE
  5
119C9
102
{ACAD_REACTORS
330
119A6
102
}
330
119A6
100
AcDbScale
 70
     0
300
1:50
140
1.0
141
50.0
290
     0
  0
SCALE
  5
119CA
102
{ACAD_REACTORS
330
119A6
102
}
330
119A6
100
AcDbScale
 70
     0
300
1:100
140
1.0
141
100.0
290
     0
  0
SCALE
  5
119CB
102
{ACAD_REACTORS
330
119A6
102
}
330
119A6
100
AcDbScale
 70
     0
300
2:1
140
2.0
141
1.0
290
     0
  0
SCALE
  5
119CC
102
{ACAD_REACTORS
330
119A6
102
}
330
119A6
100
AcDbScale
 70
     0
300
4:1
140
4.0
141
1.0
290
     0
  0
SCALE
  5
119CD
102
{ACAD_REACTORS
330
119A6
102
}
330
119A6
100
AcDbScale
 70
     0
300
8:1
140
8.0
141
1.0
290
     0
  0
SCALE
  5
119CE
102
{ACAD_REACTORS
330
119A6
102
}
330
119A6
100
AcDbScale
 70
     0
300
10:1
140
10.0
141
1.0
290
     0
  0
SCALE
  5
119CF
102
{ACAD_REACTORS
330
119A6
102
}
330
119A6
100
AcDbScale
 70
     0
300
100:1
140
100.0
141
1.0
290
     0
  0
SCALE
  5
119D0
102
{ACAD_REACTORS
330
119A6
102
}
330
119A6
100
AcDbScale
 70
     0
300
1/128" = 1'-0"
140
0.007813
141
12.0
290
     0
  0
SCALE
  5
119D1
102
{ACAD_REACTORS
330
119A6
102
}
330
119A6
100
AcDbScale
 70
     0
300
1/64" = 1'-0"
140
0.015625
141
12.0
290
     0
  0
SCALE
  5
119D2
102
{ACAD_REACTORS
330
119A6
102
}
330
119A6
100
AcDbScale
 70
     0
300
1/32" = 1'-0"
140
0.03125
141
12.0
290
     0
  0
SCALE
  5
119D3
102
{ACAD_REACTORS
330
119A6
102
}
330
119A6
100
AcDbScale
 70
     0
300
1/16" = 1'-0"
140
0.0625
141
12.0
290
     0
  0
SCALE
  5
119D4
102
{ACAD_REACTORS
330
119A6
102
}
330
119A6
100
AcDbScale
 70
     0
300
3/32" = 1'-0"
140
0.09375
141
12.0
290
     0
  0
SCALE
  5
119D5
102
{ACAD_REACTORS
330
119A6
102
}
330
119A6
100
AcDbScale
 70
     0
300
1/8" = 1'-0"
140
0.125
141
12.0
290
     0
  0
SCALE
  5
119D6
102
{ACAD_REACTORS
330
119A6
102
}
330
119A6
100
AcDbScale
 70
     0
300
3/16" = 1'-0"
140
0.1875
141
12.0
290
     0
  0
SCALE
  5
119D7
102
{ACAD_REACTORS
330
119A6
102
}
330
119A6
100
AcDbScale
 70
     0
300
1/4" = 1'-0"
140
0.25
141
12.0
290
     0
  0
SCALE
  5
119D8
102
{ACAD_REACTORS
330
119A6
102
}
330
119A6
100
AcDbScale
 70
     0
300
3/8" = 1'-0"
140
0.375
141
12.0
290
     0
  0
SCALE
  5
119D9
102
{ACAD_REACTORS
330
119A6
102
}
330
119A6
100
AcDbScale
 70
     0
300
1/2" = 1'-0"
140
0.5
141
12.0
290
     0
  0
SCALE
  5
119DA
102
{ACAD_REACTORS
330
119A6
102
}
330
119A6
100
AcDbScale
 70
     0
300
3/4" = 1'-0"
140
0.75
141
12.0
290
     0
  0
SCALE
  5
119DB
102
{ACAD_REACTORS
330
119A6
102
}
330
119A6
100
AcDbScale
 70
     0
300
1" = 1'-0"
140
1.0
141
12.0
290
     0
  0
SCALE
  5
119DC
102
{ACAD_REACTORS
330
119A6
102
}
330
119A6
100
AcDbScale
 70
     0
300
1-1/2" = 1'-0"
140
1.5
141
12.0
290
     0
  0
SCALE
  5
119DD
102
{ACAD_REACTORS
330
119A6
102
}
330
119A6
100
AcDbScale
 70
     0
300
3" = 1'-0"
140
3.0
141
12.0
290
     0
  0
SCALE
  5
119DE
102
{ACAD_REACTORS
330
119A6
102
}
330
119A6
100
AcDbScale
 70
     0
300
6" = 1'-0"
140
6.0
141
12.0
290
     0
  0
SCALE
  5
119DF
102
{ACAD_REACTORS
330
119A6
102
}
330
119A6
100
AcDbScale
 70
     0
300
1'-0" = 1'-0"
140
12.0
141
12.0
290
     0
  0
ACDBSECTIONVIEWSTYLE
  5
11B4A
102
{ACAD_XDICTIONARY
360
12010
102
}
102
{ACAD_REACTORS
330
11B49
102
}
330
11B49
100
AcDbModelDocViewStyle
 70
     0
  3
Imperial24
290
     0
100
AcDbSectionViewStyle
 70
     0
 71
     0
 90
       78
 71
     1
340
11982
 62
   256
 40
0.24
340
0
340
0
 62
   256
 40
0.24
300
I, O, Q, S, X, Z
 40
0.48
 90
        3
 40
0.18
 90
        1
 71
     2
340
11954
 90
       25
 62
   256
340
11954
 90
       50
 62
   256
 40
0.24
 40
0.0
 40
0.24
 71
     3
340
11982
 62
   256
 40
0.24
 90
        1
 40
0.75
 90
        1
300
%<\AcVar ViewType \f "%tc1">% %<\AcVar ViewSectionStartId>%-%<\AcVar ViewSectionEndId>%\PSCALE %<\AcVar ViewScale \f "%sn">%
 71
     4
 62
   256
 62
   257
300
ANSI31
 40
1.0
 90
        0
290
     0
290
     0
 90
        6
 40
0.0
 40
1.570796
 40
0.261799
 40
1.308997
 40
-0.261799
 40
1.832596
  0
TABLESTYLE
  5
119BB
102
{ACAD_XDICTIONARY
360
119BC
102
}
102
{ACAD_REACTORS
330
119A7
102
}
330
119A7
100
AcDbTableStyle
280
     0
  3
Standard
 70
     0
 71
     0
 40
0.06
 41
0.06
280
     0
281
     0
  7
Standard
140
0.18
170
     2
 62
     0
 63
     7
283
     0
 90
        4
 91
        0
  1

274
    -2
284
     1
 64
     0
275
    -2
285
     1
 65
     0
276
    -2
286
     1
 66
     0
277
    -2
287
     1
 67
     0
278
    -2
288
     1
 68
     0
279
    -2
289
     1
 69
     0
  7
Standard
140
0.25
170
     5
 62
     0
 63
     7
283
     0
 90
        4
 91
        0
  1

274
    -2
284
     1
 64
     0
275
    -2
285
     1
 65
     0
276
    -2
286
     1
 66
     0
277
    -2
287
     1
 67
     0
278
    -2
288
     1
 68
     0
279
    -2
289
     1
 69
     0
  7
Standard
140
0.18
170
     5
 62
     0
 63
     7
283
     0
 90
        4
 91
        0
  1

274
    -2
284
     1
 64
     0
275
    -2
285
     1
 65
     0
276
    -2
286
     1
 66
     0
277
    -2
287
     1
 67
     0
278
    -2
288
     1
 68
     0
279
    -2
289
     1
 69
     0
  0
VISUALSTYLE
  5
1198B
102
{ACAD_REACTORS
330
1198C
102
}
330
1198C
100
AcDbVisualStyle
  2
2dWireframe
 70
     4
177
     3
291
     0
 70
    58
 90
        0
176
     1
 90
        2
176
     1
 90
        0
176
     1
 90
        0
176
     1
 40
0.6
176
     1
 40
30.0
176
     1
 62
     7
420
 16777215
176
     1
 90
        1
176
     1
 90
        4
176
     1
 62
     7
176
     1
 62
   257
176
     1
 90
        1
176
     1
 90
        1
176
     1
 40
1.0
176
     1
 90
        0
176
     1
 62
   257
176
     1
 40
1.0
176
     1
 90
        1
176
     1
 90
        6
176
     1
 90
        2
176
     1
 62
     7
176
     1
 90
        5
176
     1
 90
        0
176
     1
 90
        0
176
     1
290
     0
176
     1
 90
        1
176
     1
 40
0.0
176
     1
 90
        0
176
     1
290
     1
176
     1
290
     1
176
     1
290
     0
176
     1
290
     0
176
     1
290
     0
176
     1
290
     0
176
     1
290
     0
176
     1
290
     0
176
     1
290
     0
176
     1
 90
       50
176
     1
 40
0.0
176
     1
 40
1.0
176
     1
 90
        0
176
     1
 62
    18
420
        0
176
     1
 90
       50
176
     1
 90
        3
176
     1
 62
     5
420
      255
176
     1
290
     0
176
     1
 90
       50
176
     1
 90
       50
176
     1
 90
       50
176
     1
290
     0
176
     1
 90
       50
176
     1
 62
   256
176
     0
 40
1.0
176
     0
 90
        2
176
     1
  1
strokes_ogs.tif
176
     1
290
     0
176
     1
 40
1.0
176
     1
 40
1.0
176
     1
1001
ACAD
1000
AcDbSavedByObjectVersion
1070
     0
  0
VISUALSTYLE
  5
11B38
102
{ACAD_REACTORS
330
1198C
102
}
330
1198C
100
AcDbVisualStyle
  2
Basic
 70
     7
177
     3
291
     1
 70
    58
 90
        1
176
     1
 90
        0
176
     1
 90
        1
176
     1
 90
        0
176
     1
 40
0.6
176
     1
 40
30.0
176
     1
 62
     7
420
 16777215
176
     1
 90
        0
176
     1
 90
        4
176
     1
 62
     7
176
     1
 62
   257
176
     1
 90
        1
176
     1
 90
        1
176
     1
 40
1.0
176
     1
 90
        8
176
     1
 62
     7
176
     1
 40
1.0
176
     1
 90
        1
176
     1
 90
        6
176
     1
 90
        2
176
     1
 62
     7
176
     1
 90
        5
176
     1
 90
        0
176
     1
 90
        0
176
     1
290
     0
176
     1
 90
        1
176
     1
 40
0.0
176
     1
 90
        0
176
     1
290
     0
176
     1
290
     1
176
     1
290
     1
176
     1
290
     0
176
     1
290
     0
176
     1
290
     0
176
     1
290
     0
176
     1
290
     0
176
     1
290
     0
176
     1
 90
       50
176
     1
 40
0.0
176
     1
 40
1.0
176
     1
 90
        0
176
     1
 62
    18
420
        0
176
     1
 90
       50
176
     1
 90
        3
176
     1
 62
     5
420
      255
176
     1
290
     0
176
     1
 90
       50
176
     1
 90
       50
176
     1
 90
       50
176
     1
290
     0
176
     1
 90
       50
176
     1
 62
   256
176
     0
 40
1.0
176
     0
 90
        2
176
     1
  1
strokes_ogs.tif
176
     1
290
     0
176
     1
 40
1.0
176
     1
 40
1.0
176
     1
1001
ACAD
1000
AcDbSavedByObjectVersion
1070
     0
  0
VISUALSTYLE
  5
11B3C
102
{ACAD_REACTORS
330
1198C
102
}
330
1198C
100
AcDbVisualStyle
  2
Brighten
 70
    12
177
     3
291
     1
 70
    58
 90
        2
176
     1
 90
        2
176
     1
 90
        0
176
     1
 90
        0
176
     1
 40
0.6
176
     1
 40
30.0
176
     1
 62
     7
420
 16777215
176
     1
 90
        1
176
     1
 90
        4
176
     1
 62
     7
176
     1
 62
   257
176
     1
 90
        1
176
     1
 90
        1
176
     1
 40
1.0
176
     1
 90
        8
176
     1
 62
     7
176
     1
 40
1.0
176
     1
 90
        1
176
     1
 90
        6
176
     1
 90
        2
176
     1
 62
     7
176
     1
 90
        5
176
     1
 90
        0
176
     1
 90
        0
176
     1
290
     0
176
     1
 90
        1
176
     1
 40
50.0
176
     1
 90
        0
176
     1
290
     0
176
     1
290
     1
176
     1
290
     1
176
     1
290
     0
176
     1
290
     0
176
     1
290
     0
176
     1
290
     0
176
     1
290
     0
176
     1
290
     0
176
     1
 90
       50
176
     1
 40
0.0
176
     1
 40
1.0
176
     1
 90
        0
176
     1
 62
    18
420
        0
176
     1
 90
       50
176
     1
 90
        3
176
     1
 62
     5
420
      255
176
     1
290
     0
176
     1
 90
       50
176
     1
 90
       50
176
     1
 90
       50
176
     1
290
     0
176
     1
 90
       50
176
     1
 62
   256
176
     0
 40
1.0
176
     0
 90
        2
176
     1
  1
strokes_ogs.tif
176
     1
290
     0
176
     1
 40
1.0
176
     1
 40
1.0
176
     1
1001
ACAD
1000
AcDbSavedByObjectVersion
1070
     0
  0
VISUALSTYLE
  5
11B40
102
{ACAD_REACTORS
330
1198C
102
}
330
1198C
100
AcDbVisualStyle
  2
ColorChange
 70
    16
177
     3
291
     1
 70
    58
 90
        2
176
     1
 90
        2
176
     1
 90
        3
176
     1
 90
        0
176
     1
 40
0.6
176
     1
 40
30.0
176
     1
 62
     8
420
  8421504
176
     1
 90
        1
176
     1
 90
        4
176
     1
 62
     7
176
     1
 62
   257
176
     1
 90
        1
176
     1
 90
        1
176
     1
 40
1.0
176
     1
 90
        8
176
     1
 62
     8
420
  8421504
176
     1
 40
1.0
176
     1
 90
        1
176
     1
 90
        6
176
     1
 90
        2
176
     1
 62
     7
176
     1
 90
        5
176
     1
 90
        0
176
     1
 90
        0
176
     1
290
     0
176
     1
 90
        1
176
     1
 40
0.0
176
     1
 90
        0
176
     1
290
     0
176
     1
290
     1
176
     1
290
     1
176
     1
290
     0
176
     1
290
     0
176
     1
290
     0
176
     1
290
     0
176
     1
290
     0
176
     1
290
     0
176
     1
 90
       50
176
     1
 40
0.0
176
     1
 40
1.0
176
     1
 90
        0
176
     1
 62
    18
420
        0
176
     1
 90
       50
176
     1
 90
        3
176
     1
 62
     5
420
      255
176
     1
290
     0
176
     1
 90
       50
176
     1
 90
       50
176
     1
 90
       50
176
     1
290
     0
176
     1
 90
       50
176
     1
 62
   256
176
     0
 40
1.0
176
     0
 90
        2
176
     1
  1
strokes_ogs.tif
176
     1
290
     0
176
     1
 40
1.0
176
     1
 40
1.0
176
     1
1001
ACAD
1000
AcDbSavedByObjectVersion
1070
     0
  0
VISUALSTYLE
  5
11B3A
102
{ACAD_REACTORS
330
1198C
102
}
330
1198C
100
AcDbVisualStyle
  2
Conceptual
 70
     9
177
     3
291
     0
 70
    58
 90
        3
176
     1
 90
        2
176
     1
 90
        0
176
     1
 90
        0
176
     1
 40
0.6
176
     1
 40
30.0
176
     1
 62
     7
420
 16777215
176
     1
 90
        2
176
     1
 90
        2
176
     1
 62
     7
176
     1
 62
   257
176
     1
 90
        1
176
     1
 90
        1
176
     1
 40
179.0
176
     1
 90
        8
176
     1
 62
     7
176
     1
 40
1.0
176
     1
 90
        1
176
     1
 90
        6
176
     1
 90
        2
176
     1
 62
     7
176
     1
 90
        3
176
     1
 90
        0
176
     1
 90
        0
176
     1
290
     0
176
     1
 90
        1
176
     1
 40
0.0
176
     1
 90
        0
176
     1
290
     0
176
     1
290
     1
176
     1
290
     1
176
     1
290
     0
176
     1
290
     0
176
     1
290
     0
176
     1
290
     0
176
     1
290
     0
176
     1
290
     0
176
     1
 90
       50
176
     1
 40
0.0
176
     1
 40
1.0
176
     1
 90
        0
176
     1
 62
    18
420
        0
176
     1
 90
       50
176
     1
 90
        3
176
     1
 62
     5
420
      255
176
     1
290
     0
176
     1
 90
       50
176
     1
 90
       50
176
     1
 90
       50
176
     1
290
     0
176
     1
 90
       50
176
     1
 62
   256
176
     0
 40
1.0
176
     0
 90
        2
176
     1
  1
strokes_ogs.tif
176
     1
290
     0
176
     1
 40
1.0
176
     1
 40
1.0
176
     1
1001
ACAD
1000
AcDbSavedByObjectVersion
1070
     0
  0
VISUALSTYLE
  5
11B3B
102
{ACAD_REACTORS
330
1198C
102
}
330
1198C
100
AcDbVisualStyle
  2
Dim
 70
    11
177
     3
291
     1
 70
    58
 90
        2
176
     1
 90
        2
176
     1
 90
        0
176
     1
 90
        0
176
     1
 40
0.6
176
     1
 40
30.0
176
     1
 62
     7
420
 16777215
176
     1
 90
        1
176
     1
 90
        4
176
     1
 62
     7
176
     1
 62
   257
176
     1
 90
        1
176
     1
 90
        1
176
     1
 40
1.0
176
     1
 90
        8
176
     1
 62
     7
176
     1
 40
1.0
176
     1
 90
        1
176
     1
 90
        6
176
     1
 90
        2
176
     1
 62
     7
176
     1
 90
        5
176
     1
 90
        0
176
     1
 90
        0
176
     1
290
     0
176
     1
 90
        1
176
     1
 40
-50.0
176
     1
 90
        0
176
     1
290
     0
176
     1
290
     1
176
     1
290
     1
176
     1
290
     0
176
     1
290
     0
176
     1
290
     0
176
     1
290
     0
176
     1
290
     0
176
     1
290
     0
176
     1
 90
       50
176
     1
 40
0.0
176
     1
 40
1.0
176
     1
 90
        0
176
     1
 62
    18
420
        0
176
     1
 90
       50
176
     1
 90
        3
176
     1
 62
     5
420
      255
176
     1
290
     0
176
     1
 90
       50
176
     1
 90
       50
176
     1
 90
       50
176
     1
290
     0
176
     1
 90
       50
176
     1
 62
   256
176
     0
 40
1.0
176
     0
 90
        2
176
     1
  1
strokes_ogs.tif
176
     1
290
     0
176
     1
 40
1.0
176
     1
 40
1.0
176
     1
1001
ACAD
1000
AcDbSavedByObjectVersion
1070
     0
  0
VISUALSTYLE
  5
11B48
102
{ACAD_REACTORS
330
1198C
102
}
330
1198C
100
AcDbVisualStyle
  2
EdgeColorOff
 70
    22
177
     3
291
     1
 70
    58
 90
        2
176
     0
 90
        2
176
     0
 90
        0
176
     0
 90
        0
176
     0
 40
0.6
176
     0
 40
30.0
176
     0
 62
     7
420
 16777215
176
     0
 90
        1
176
     0
 90
        4
176
     0
 62
     7
176
     0
 62
   257
176
     0
 90
        1
176
     0
 90
        1
176
     0
 40
1.0
176
     0
 90
        8
176
     2
 62
     7
176
     0
 40
1.0
176
     0
 90
        1
176
     0
 90
        6
176
     0
 90
        2
176
     0
 62
     7
176
     0
 90
        5
176
     0
 90
        0
176
     0
 90
        0
176
     0
290
     0
176
     0
 90
        1
176
     0
 40
0.0
176
     0
 90
        0
176
     0
290
     0
176
     0
290
     1
176
     0
290
     1
176
     0
290
     0
176
     0
290
     0
176
     0
290
     0
176
     0
290
     0
176
     0
290
     0
176
     0
290
     0
176
     0
 90
       50
176
     0
 40
0.0
176
     0
 40
1.0
176
     0
 90
        0
176
     0
 62
    18
420
        0
176
     0
 90
       50
176
     0
 90
        3
176
     0
 62
     5
420
      255
176
     0
290
     0
176
     0
 90
       50
176
     0
 90
       50
176
     0
 90
       50
176
     0
290
     0
176
     0
 90
       50
176
     0
 62
   256
176
     0
 40
1.0
176
     0
 90
        2
176
     0
  1
strokes_ogs.tif
176
     0
290
     0
176
     0
 40
1.0
176
     0
 40
1.0
176
     0
1001
ACAD
1000
AcDbSavedByObjectVersion
1070
     0
  0
VISUALSTYLE
  5
11B3F
102
{ACAD_REACTORS
330
1198C
102
}
330
1198C
100
AcDbVisualStyle
  2
Facepattern
 70
    15
177
     3
291
     1
 70
    58
 90
        2
176
     1
 90
        2
176
     1
 90
        0
176
     1
 90
        0
176
     1
 40
0.6
176
     1
 40
30.0
176
     1
 62
     7
420
 16777215
176
     1
 90
        1
176
     1
 90
        4
176
     1
 62
     7
176
     1
 62
   257
176
     1
 90
        1
176
     1
 90
        1
176
     1
 40
1.0
176
     1
 90
        8
176
     1
 62
     7
176
     1
 40
1.0
176
     1
 90
        1
176
     1
 90
        6
176
     1
 90
        2
176
     1
 62
     7
176
     1
 90
        5
176
     1
 90
        0
176
     1
 90
        0
176
     1
290
     0
176
     1
 90
        1
176
     1
 40
0.0
176
     1
 90
        0
176
     1
290
     0
176
     1
290
     1
176
     1
290
     1
176
     1
290
     0
176
     1
290
     0
176
     1
290
     0
176
     1
290
     0
176
     1
290
     0
176
     1
290
     0
176
     1
 90
       50
176
     1
 40
0.0
176
     1
 40
1.0
176
     1
 90
        0
176
     1
 62
    18
420
        0
176
     1
 90
       50
176
     1
 90
        3
176
     1
 62
     5
420
      255
176
     1
290
     0
176
     1
 90
       50
176
     1
 90
       50
176
     1
 90
       50
176
     1
290
     0
176
     1
 90
       50
176
     1
 62
   256
176
     0
 40
1.0
176
     0
 90
        2
176
     1
  1
strokes_ogs.tif
176
     1
290
     0
176
     1
 40
1.0
176
     1
 40
1.0
176
     1
1001
ACAD
1000
AcDbSavedByObjectVersion
1070
     0
  0
VISUALSTYLE
  5
11B34
102
{ACAD_REACTORS
330
1198C
102
}
330
1198C
100
AcDbVisualStyle
  2
Flat
 70
     0
177
     3
291
     1
 70
    58
 90
        2
176
     1
 90
        1
176
     1
 90
        1
176
     1
 90
        2
176
     1
 40
0.6
176
     1
 40
30.0
176
     1
 62
     7
420
 16777215
176
     1
 90
        0
176
     1
 90
        0
176
     1
 62
     7
176
     1
 62
   257
176
     1
 90
        1
176
     1
 90
        1
176
     1
 40
1.0
176
     1
 90
        8
176
     1
 62
     7
176
     1
 40
1.0
176
     1
 90
        1
176
     1
 90
        6
176
     1
 90
        2
176
     1
 62
     7
176
     1
 90
        5
176
     1
 90
        0
176
     1
 90
        0
176
     1
290
     0
176
     1
 90
       13
176
     1
 40
0.0
176
     1
 90
        0
176
     1
290
     0
176
     1
290
     1
176
     1
290
     1
176
     1
290
     0
176
     1
290
     0
176
     1
290
     0
176
     1
290
     0
176
     1
290
     0
176
     1
290
     0
176
     1
 90
       50
176
     1
 40
0.0
176
     1
 40
1.0
176
     1
 90
        0
176
     1
 62
    18
420
        0
176
     1
 90
       50
176
     1
 90
        3
176
     1
 62
     5
420
      255
176
     1
290
     0
176
     1
 90
       50
176
     1
 90
       50
176
     1
 90
       50
176
     1
290
     0
176
     1
 90
       50
176
     1
 62
   256
176
     0
 40
1.0
176
     0
 90
        2
176
     1
  1
strokes_ogs.tif
176
     1
290
     0
176
     1
 40
1.0
176
     1
 40
1.0
176
     1
1001
ACAD
1000
AcDbSavedByObjectVersion
1070
     0
  0
VISUALSTYLE
  5
11B35
102
{ACAD_REACTORS
330
1198C
102
}
330
1198C
100
AcDbVisualStyle
  2
FlatWithEdges
 70
     1
177
     3
291
     1
 70
    58
 90
        2
176
     1
 90
        1
176
     1
 90
        1
176
     1
 90
        2
176
     1
 40
0.6
176
     1
 40
30.0
176
     1
 62
     7
420
 16777215
176
     1
 90
        1
176
     1
 90
        0
176
     1
 62
     7
176
     1
 62
   257
176
     1
 90
        1
176
     1
 90
        1
176
     1
 40
1.0
176
     1
 90
        0
176
     1
 62
   257
176
     1
 40
1.0
176
     1
 90
        1
176
     1
 90
        6
176
     1
 90
        2
176
     1
 62
     7
176
     1
 90
        5
176
     1
 90
        0
176
     1
 90
        0
176
     1
290
     0
176
     1
 90
       13
176
     1
 40
0.0
176
     1
 90
        0
176
     1
290
     0
176
     1
290
     1
176
     1
290
     1
176
     1
290
     0
176
     1
290
     0
176
     1
290
     0
176
     1
290
     0
176
     1
290
     0
176
     1
290
     0
176
     1
 90
       50
176
     1
 40
0.0
176
     1
 40
1.0
176
     1
 90
        0
176
     1
 62
    18
420
        0
176
     1
 90
       50
176
     1
 90
        3
176
     1
 62
     5
420
      255
176
     1
290
     0
176
     1
 90
       50
176
     1
 90
       50
176
     1
 90
       50
176
     1
290
     0
176
     1
 90
       50
176
     1
 62
   256
176
     0
 40
1.0
176
     0
 90
        2
176
     1
  1
strokes_ogs.tif
176
     1
290
     0
176
     1
 40
1.0
176
     1
 40
1.0
176
     1
1001
ACAD
1000
AcDbSavedByObjectVersion
1070
     0
  0
VISUALSTYLE
  5
11B36
102
{ACAD_REACTORS
330
1198C
102
}
330
1198C
100
AcDbVisualStyle
  2
Gouraud
 70
     2
177
     3
291
     1
 70
    58
 90
        2
176
     1
 90
        2
176
     1
 90
        1
176
     1
 90
        2
176
     1
 40
0.6
176
     1
 40
30.0
176
     1
 62
     7
420
 16777215
176
     1
 90
        0
176
     1
 90
        0
176
     1
 62
     7
176
     1
 62
   257
176
     1
 90
        1
176
     1
 90
        1
176
     1
 40
1.0
176
     1
 90
        0
176
     1
 62
     7
176
     1
 40
1.0
176
     1
 90
        1
176
     1
 90
        6
176
     1
 90
        2
176
     1
 62
     7
176
     1
 90
        5
176
     1
 90
        0
176
     1
 90
        0
176
     1
290
     0
176
     1
 90
       13
176
     1
 40
0.0
176
     1
 90
        0
176
     1
290
     0
176
     1
290
     1
176
     1
290
     1
176
     1
290
     0
176
     1
290
     0
176
     1
290
     0
176
     1
290
     0
176
     1
290
     0
176
     1
290
     0
176
     1
 90
       50
176
     1
 40
0.0
176
     1
 40
1.0
176
     1
 90
        0
176
     1
 62
    18
420
        0
176
     1
 90
       50
176
     1
 90
        3
176
     1
 62
     5
420
      255
176
     1
290
     0
176
     1
 90
       50
176
     1
 90
       50
176
     1
 90
       50
176
     1
290
     0
176
     1
 90
       50
176
     1
 62
   256
176
     0
 40
1.0
176
     0
 90
        2
176
     1
  1
strokes_ogs.tif
176
     1
290
     0
176
     1
 40
1.0
176
     1
 40
1.0
176
     1
1001
ACAD
1000
AcDbSavedByObjectVersion
1070
     0
  0
VISUALSTYLE
  5
11B37
102
{ACAD_REACTORS
330
1198C
102
}
330
1198C
100
AcDbVisualStyle
  2
GouraudWithEdges
 70
     3
177
     3
291
     1
 70
    58
 90
        2
176
     1
 90
        2
176
     1
 90
        1
176
     1
 90
        2
176
     1
 40
0.6
176
     1
 40
30.0
176
     1
 62
     7
420
 16777215
176
     1
 90
        1
176
     1
 90
        0
176
     1
 62
     7
176
     1
 62
   257
176
     1
 90
        1
176
     1
 90
        1
176
     1
 40
1.0
176
     1
 90
        0
176
     1
 62
   257
176
     1
 40
1.0
176
     1
 90
        1
176
     1
 90
        6
176
     1
 90
        2
176
     1
 62
     7
176
     1
 90
        5
176
     1
 90
        0
176
     1
 90
        0
176
     1
290
     0
176
     1
 90
       13
176
     1
 40
0.0
176
     1
 90
        0
176
     1
290
     0
176
     1
290
     1
176
     1
290
     1
176
     1
290
     0
176
     1
290
     0
176
     1
290
     0
176
     1
290
     0
176
     1
290
     0
176
     1
290
     0
176
     1
 90
       50
176
     1
 40
0.0
176
     1
 40
1.0
176
     1
 90
        0
176
     1
 62
    18
420
        0
176
     1
 90
       50
176
     1
 90
        3
176
     1
 62
     5
420
      255
176
     1
290
     0
176
     1
 90
       50
176
     1
 90
       50
176
     1
 90
       50
176
     1
290
     0
176
     1
 90
       50
176
     1
 62
   256
176
     0
 40
1.0
176
     0
 90
        2
176
     1
  1
strokes_ogs.tif
176
     1
290
     0
176
     1
 40
1.0
176
     1
 40
1.0
176
     1
1001
ACAD
1000
AcDbSavedByObjectVersion
1070
     0
  0
VISUALSTYLE
  5
11B39
102
{ACAD_REACTORS
330
1198C
102
}
330
1198C
100
AcDbVisualStyle
  2
Hidden
 70
     6
177
     3
291
     0
 70
    58
 90
        1
176
     1
 90
        2
176
     1
 90
        2
176
     1
 90
        0
176
     1
 40
0.6
176
     1
 40
30.0
176
     1
 62
     7
420
 16777215
176
     1
 90
        2
176
     1
 90
        2
176
     1
 62
     7
176
     1
 62
   257
176
     1
 90
        2
176
     1
 90
        1
176
     1
 40
40.0
176
     1
 90
        0
176
     1
 62
   257
176
     1
 40
1.0
176
     1
 90
        1
176
     1
 90
        6
176
     1
 90
        2
176
     1
 62
     7
176
     1
 90
        3
176
     1
 90
        0
176
     1
 90
        0
176
     1
290
     0
176
     1
 90
        1
176
     1
 40
0.0
176
     1
 90
        0
176
     1
290
     0
176
     1
290
     1
176
     1
290
     1
176
     1
290
     0
176
     1
290
     0
176
     1
290
     0
176
     1
290
     0
176
     1
290
     0
176
     1
290
     0
176
     1
 90
       50
176
     1
 40
0.0
176
     1
 40
1.0
176
     1
 90
        0
176
     1
 62
    18
420
        0
176
     1
 90
       50
176
     1
 90
        3
176
     1
 62
     5
420
      255
176
     1
290
     0
176
     1
 90
       50
176
     1
 90
       50
176
     1
 90
       50
176
     1
290
     0
176
     1
 90
       50
176
     1
 62
   256
176
     0
 40
1.0
176
     0
 90
        2
176
     1
  1
strokes_ogs.tif
176
     1
290
     0
176
     1
 40
1.0
176
     1
 40
1.0
176
     1
1001
ACAD
1000
AcDbSavedByObjectVersion
1070
     0
  0
VISUALSTYLE
  5
11B46
102
{ACAD_REACTORS
330
1198C
102
}
330
1198C
100
AcDbVisualStyle
  2
JitterOff
 70
    20
177
     3
291
     1
 70
    58
 90
        2
176
     0
 90
        2
176
     0
 90
        0
176
     0
 90
        0
176
     0
 40
0.6
176
     0
 40
30.0
176
     0
 62
     7
420
 16777215
176
     0
 90
        1
176
     0
 90
        4
176
     0
 62
     7
176
     0
 62
   257
176
     0
 90
        1
176
     0
 90
        1
176
     0
 40
1.0
176
     0
 90
       10
176
     2
 62
     7
176
     0
 40
1.0
176
     0
 90
        1
176
     0
 90
        6
176
     0
 90
        2
176
     0
 62
     7
176
     0
 90
        5
176
     0
 90
        0
176
     0
 90
        0
176
     0
290
     0
176
     0
 90
        1
176
     0
 40
0.0
176
     0
 90
        0
176
     0
290
     0
176
     0
290
     1
176
     0
290
     1
176
     0
290
     0
176
     0
290
     0
176
     0
290
     0
176
     0
290
     0
176
     0
290
     0
176
     0
290
     0
176
     0
 90
       50
176
     0
 40
0.0
176
     0
 40
1.0
176
     0
 90
        0
176
     0
 62
    18
420
        0
176
     0
 90
       50
176
     0
 90
        3
176
     0
 62
     5
420
      255
176
     0
290
     0
176
     0
 90
       50
176
     0
 90
       50
176
     0
 90
       50
176
     0
290
     0
176
     0
 90
       50
176
     0
 62
   256
176
     0
 40
1.0
176
     0
 90
        2
176
     0
  1
strokes_ogs.tif
176
     0
290
     0
176
     0
 40
1.0
176
     0
 40
1.0
176
     0
1001
ACAD
1000
AcDbSavedByObjectVersion
1070
     0
  0
VISUALSTYLE
  5
11B3E
102
{ACAD_REACTORS
330
1198C
102
}
330
1198C
100
AcDbVisualStyle
  2
Linepattern
 70
    14
177
     3
291
     1
 70
    58
 90
        2
176
     1
 90
        2
176
     1
 90
        0
176
     1
 90
        0
176
     1
 40
0.6
176
     1
 40
30.0
176
     1
 62
     7
420
 16777215
176
     1
 90
        1
176
     1
 90
        4
176
     1
 62
     7
176
     1
 62
   257
176
     1
 90
        7
176
     1
 90
        7
176
     1
 40
1.0
176
     1
 90
        8
176
     1
 62
     7
176
     1
 40
1.0
176
     1
 90
        1
176
     1
 90
        6
176
     1
 90
        2
176
     1
 62
     7
176
     1
 90
        5
176
     1
 90
        0
176
     1
 90
        0
176
     1
290
     0
176
     1
 90
        1
176
     1
 40
0.0
176
     1
 90
        0
176
     1
290
     0
176
     1
290
     1
176
     1
290
     1
176
     1
290
     0
176
     1
290
     0
176
     1
290
     0
176
     1
290
     0
176
     1
290
     0
176
     1
290
     0
176
     1
 90
       50
176
     1
 40
0.0
176
     1
 40
1.0
176
     1
 90
        0
176
     1
 62
    18
420
        0
176
     1
 90
       50
176
     1
 90
        3
176
     1
 62
     5
420
      255
176
     1
290
     0
176
     1
 90
       50
176
     1
 90
       50
176
     1
 90
       50
176
     1
290
     0
176
     1
 90
       50
176
     1
 62
   256
176
     0
 40
1.0
176
     0
 90
        2
176
     1
  1
strokes_ogs.tif
176
     1
290
     0
176
     1
 40
1.0
176
     1
 40
1.0
176
     1
1001
ACAD
1000
AcDbSavedByObjectVersion
1070
     0
  0
VISUALSTYLE
  5
11B47
102
{ACAD_REACTORS
330
1198C
102
}
330
1198C
100
AcDbVisualStyle
  2
OverhangOff
 70
    21
177
     3
291
     1
 70
    58
 90
        2
176
     0
 90
        2
176
     0
 90
        0
176
     0
 90
        0
176
     0
 40
0.6
176
     0
 40
30.0
176
     0
 62
     7
420
 16777215
176
     0
 90
        1
176
     0
 90
        4
176
     0
 62
     7
176
     0
 62
   257
176
     0
 90
        1
176
     0
 90
        1
176
     0
 40
1.0
176
     0
 90
        9
176
     2
 62
     7
176
     0
 40
1.0
176
     0
 90
        1
176
     0
 90
        6
176
     0
 90
        2
176
     0
 62
     7
176
     0
 90
        5
176
     0
 90
        0
176
     0
 90
        0
176
     0
290
     0
176
     0
 90
        1
176
     0
 40
0.0
176
     0
 90
        0
176
     0
290
     0
176
     0
290
     1
176
     0
290
     1
176
     0
290
     0
176
     0
290
     0
176
     0
290
     0
176
     0
290
     0
176
     0
290
     0
176
     0
290
     0
176
     0
 90
       50
176
     0
 40
0.0
176
     0
 40
1.0
176
     0
 90
        0
176
     0
 62
    18
420
        0
176
     0
 90
       50
176
     0
 90
        3
176
     0
 62
     5
420
      255
176
     0
290
     0
176
     0
 90
       50
176
     0
 90
       50
176
     0
 90
       50
176
     0
290
     0
176
     0
 90
       50
176
     0
 62
   256
176
     0
 40
1.0
176
     0
 90
        2
176
     0
  1
strokes_ogs.tif
176
     0
290
     0
176
     0
 40
1.0
176
     0
 40
1.0
176
     0
1001
ACAD
1000
AcDbSavedByObjectVersion
1070
     0
  0
VISUALSTYLE
  5
119BD
102
{ACAD_REACTORS
330
1198C
102
}
330
1198C
100
AcDbVisualStyle
  2
Realistic
 70
     8
177
     3
291
     0
 70
    58
 90
        2
176
     1
 90
        2
176
     1
 90
        0
176
     1
 90
        0
176
     1
 40
0.6
176
     1
 40
30.0
176
     1
 62
     7
420
 16777215
176
     1
 90
        1
176
     1
 90
        0
176
     1
 62
     7
176
     1
 62
   257
176
     1
 90
        1
176
     1
 90
        1
176
     1
 40
1.0
176
     1
 90
        8
176
     1
 62
     8
420
  7895160
176
     1
 40
1.0
176
     1
 90
        1
176
     1
 90
        6
176
     1
 90
        2
176
     1
 62
     7
176
     1
 90
        5
176
     1
 90
        0
176
     1
 90
        0
176
     1
290
     0
176
     1
 90
       13
176
     1
 40
0.0
176
     1
 90
        0
176
     1
290
     0
176
     1
290
     1
176
     1
290
     1
176
     1
290
     0
176
     1
290
     0
176
     1
290
     0
176
     1
290
     0
176
     1
290
     0
176
     1
290
     0
176
     1
 90
       50
176
     1
 40
0.0
176
     1
 40
1.0
176
     1
 90
        0
176
     1
 62
    18
420
        0
176
     1
 90
       50
176
     1
 90
        3
176
     1
 62
     5
420
      255
176
     1
290
     0
176
     1
 90
       50
176
     1
 90
       50
176
     1
 90
       50
176
     1
290
     0
176
     1
 90
       50
176
     1
 62
   256
176
     0
 40
1.0
176
     0
 90
        2
176
     1
  1
strokes_ogs.tif
176
     1
290
     0
176
     1
 40
1.0
176
     1
 40
1.0
176
     1
1001
ACAD
1000
AcDbSavedByObjectVersion
1070
     0
  0
VISUALSTYLE
  5
11B45
102
{ACAD_REACTORS
330
1198C
102
}
330
1198C
100
AcDbVisualStyle
  2
Shaded
 70
    27
177
     3
291
     0
 70
    58
 90
        2
176
     1
 90
        2
176
     1
 90
        1
176
     1
 90
        2
176
     1
 40
0.6
176
     1
 40
30.0
176
     1
 62
     7
420
 16777215
176
     1
 90
        0
176
     1
 90
        4
176
     1
 62
     7
176
     1
 62
   257
176
     1
 90
        1
176
     1
 90
        1
176
     1
 40
1.0
176
     1
 90
        8
176
     1
 62
   257
176
     1
 40
1.0
176
     1
 90
        1
176
     1
 90
        6
176
     1
 90
        2
176
     1
 62
     8
420
  7895160
176
     1
 90
        3
176
     1
 90
        0
176
     1
 90
        0
176
     1
290
     0
176
     1
 90
        5
176
     1
 40
0.0
176
     1
 90
        0
176
     1
290
     0
176
     1
290
     1
176
     1
290
     1
176
     1
290
     0
176
     1
290
     0
176
     1
290
     0
176
     1
290
     0
176
     1
290
     0
176
     1
290
     0
176
     1
 90
       50
176
     1
 40
0.0
176
     1
 40
1.0
176
     1
 90
        0
176
     1
 62
    18
420
        0
176
     1
 90
       50
176
     1
 90
        3
176
     1
 62
     5
420
      255
176
     1
290
     0
176
     1
 90
       50
176
     1
 90
       50
176
     1
 90
       50
176
     1
290
     0
176
     1
 90
       50
176
     1
 62
   256
176
     0
 40
1.0
176
     0
 90
        2
176
     1
  1
strokes_ogs.tif
176
     1
290
     0
176
     1
 40
1.0
176
     1
 40
1.0
176
     1
1001
ACAD
1000
AcDbSavedByObjectVersion
1070
     0
  0
VISUALSTYLE
  5
11B44
102
{ACAD_REACTORS
330
1198C
102
}
330
1198C
100
AcDbVisualStyle
  2
Shaded with edges
 70
    26
177
     3
291
     0
 70
    58
 90
        2
176
     1
 90
        2
176
     1
 90
        1
176
     1
 90
        2
176
     1
 40
0.6
176
     1
 40
30.0
176
     1
 62
     7
420
 16777215
176
     1
 90
        1
176
     1
 90
        2
176
     1
 62
     7
176
     1
 62
   257
176
     1
 90
        2
176
     1
 90
        1
176
     1
 40
1.0
176
     1
 90
        8
176
     1
 62
   257
176
     1
 40
1.0
176
     1
 90
        1
176
     1
 90
        6
176
     1
 90
        2
176
     1
 62
     7
176
     1
 90
        3
176
     1
 90
        0
176
     1
 90
        0
176
     1
290
     0
176
     1
 90
        5
176
     1
 40
0.0
176
     1
 90
        0
176
     1
290
     0
176
     1
290
     1
176
     1
290
     1
176
     1
290
     0
176
     1
290
     0
176
     1
290
     0
176
     1
290
     0
176
     1
290
     0
176
     1
290
     0
176
     1
 90
       50
176
     1
 40
0.0
176
     1
 40
1.0
176
     1
 90
        0
176
     1
 62
    18
420
        0
176
     1
 90
       50
176
     1
 90
        3
176
     1
 62
     5
420
      255
176
     1
290
     0
176
     1
 90
       50
176
     1
 90
       50
176
     1
 90
       50
176
     1
290
     0
176
     1
 90
       50
176
     1
 62
   256
176
     0
 40
1.0
176
     0
 90
        2
176
     1
  1
strokes_ogs.tif
176
     1
290
     0
176
     1
 40
1.0
176
     1
 40
1.0
176
     1
1001
ACAD
1000
AcDbSavedByObjectVersion
1070
     0
  0
VISUALSTYLE
  5
11B41
102
{ACAD_REACTORS
330
1198C
102
}
330
1198C
100
AcDbVisualStyle
  2
Shades of Gray
 70
    23
177
     3
291
     0
 70
    58
 90
        2
176
     1
 90
        2
176
     1
 90
        3
176
     1
 90
        0
176
     1
 40
0.6
176
     1
 40
30.0
176
     1
 62
     7
420
 16777215
176
     1
 90
        2
176
     1
 90
        2
176
     1
 62
     7
176
     1
 62
     7
176
     1
 90
        1
176
     1
 90
        1
176
     1
 40
40.0
176
     1
 90
        8
176
     1
 62
     7
176
     1
 40
1.0
176
     1
 90
        1
176
     1
 90
        6
176
     1
 90
        2
176
     1
 62
     7
176
     1
 90
        3
176
     1
 90
        0
176
     1
 90
        0
176
     1
290
     0
176
     1
 90
        1
176
     1
 40
0.0
176
     1
 90
        0
176
     1
290
     0
176
     1
290
     1
176
     1
290
     1
176
     1
290
     0
176
     1
290
     0
176
     1
290
     0
176
     1
290
     0
176
     1
290
     0
176
     1
290
     0
176
     1
 90
       50
176
     1
 40
0.0
176
     1
 40
1.0
176
     1
 90
        0
176
     1
 62
    18
420
        0
176
     1
 90
       50
176
     1
 90
        3
176
     1
 62
     5
420
      255
176
     1
290
     0
176
     1
 90
       50
176
     1
 90
       50
176
     1
 90
       50
176
     1
290
     0
176
     1
 90
       50
176
     1
 62
   256
176
     0
 40
1.0
176
     0
 90
        2
176
     1
  1
strokes_ogs.tif
176
     1
290
     0
176
     1
 40
1.0
176
     1
 40
1.0
176
     1
1001
ACAD
1000
AcDbSavedByObjectVersion
1070
     0
  0
VISUALSTYLE
  5
11B42
102
{ACAD_REACTORS
330
1198C
102
}
330
1198C
100
AcDbVisualStyle
  2
Sketchy
 70
    24
177
     3
291
     0
 70
    58
 90
        1
176
     1
 90
        2
176
     1
 90
        2
176
     1
 90
        0
176
     1
 40
0.6
176
     1
 40
30.0
176
     1
 62
     7
420
 16777215
176
     1
 90
        2
176
     1
 90
        2
176
     1
 62
     7
176
     1
 62
     7
176
     1
 90
        1
176
     1
 90
        1
176
     1
 40
40.0
176
     1
 90
       11
176
     1
 62
     7
176
     1
 40
1.0
176
     1
 90
        1
176
     1
 90
        6
176
     1
 90
        2
176
     1
 62
     7
176
     1
 90
        6
176
     1
 90
        0
176
     1
 90
        0
176
     1
290
     0
176
     1
 90
        1
176
     1
 40
0.0
176
     1
 90
        0
176
     1
290
     0
176
     1
290
     1
176
     1
290
     1
176
     1
290
     0
176
     1
290
     0
176
     1
290
     0
176
     1
290
     0
176
     1
290
     0
176
     1
290
     0
176
     1
 90
       50
176
     1
 40
0.0
176
     1
 40
1.0
176
     1
 90
        0
176
     1
 62
    18
420
        0
176
     1
 90
       50
176
     1
 90
        3
176
     1
 62
     5
420
      255
176
     1
290
     0
176
     1
 90
       50
176
     1
 90
       50
176
     1
 90
       50
176
     1
290
     0
176
     1
 90
       50
176
     1
 62
   256
176
     0
 40
1.0
176
     0
 90
        2
176
     1
  1
strokes_ogs.tif
176
     1
290
     0
176
     1
 40
1.0
176
     1
 40
1.0
176
     1
1001
ACAD
1000
AcDbSavedByObjectVersion
1070
     0
  0
VISUALSTYLE
  5
11B3D
102
{ACAD_REACTORS
330
1198C
102
}
330
1198C
100
AcDbVisualStyle
  2
Thicken
 70
    13
177
     3
291
     1
 70
    58
 90
        2
176
     1
 90
        2
176
     1
 90
        0
176
     1
 90
        0
176
     1
 40
0.6
176
     1
 40
30.0
176
     1
 62
     7
420
 16777215
176
     1
 90
        1
176
     1
 90
        4
176
     1
 62
     7
176
     1
 62
   257
176
     1
 90
        1
176
     1
 90
        1
176
     1
 40
1.0
176
     1
 90
       12
176
     1
 62
     7
176
     1
 40
1.0
176
     1
 90
        1
176
     1
 90
        6
176
     1
 90
        2
176
     1
 62
     7
176
     1
 90
        5
176
     1
 90
        0
176
     1
 90
        0
176
     1
290
     0
176
     1
 90
        1
176
     1
 40
0.0
176
     1
 90
        0
176
     1
290
     0
176
     1
290
     1
176
     1
290
     1
176
     1
290
     0
176
     1
290
     0
176
     1
290
     0
176
     1
290
     0
176
     1
290
     0
176
     1
290
     0
176
     1
 90
       50
176
     1
 40
0.0
176
     1
 40
1.0
176
     1
 90
        0
176
     1
 62
    18
420
        0
176
     1
 90
       50
176
     1
 90
        3
176
     1
 62
     5
420
      255
176
     1
290
     0
176
     1
 90
       50
176
     1
 90
       50
176
     1
 90
       50
176
     1
290
     0
176
     1
 90
       50
176
     1
 62
   256
176
     0
 40
1.0
176
     0
 90
        2
176
     1
  1
strokes_ogs.tif
176
     1
290
     0
176
     1
 40
1.0
176
     1
 40
1.0
176
     1
1001
ACAD
1000
AcDbSavedByObjectVersion
1070
     0
  0
VISUALSTYLE
  5
119BE
102
{ACAD_REACTORS
330
1198C
102
}
330
1198C
100
AcDbVisualStyle
  2
Wireframe
 70
     5
177
     3
291
     0
 70
    58
 90
        0
176
     1
 90
        2
176
     1
 90
        0
176
     1
 90
        0
176
     1
 40
0.6
176
     1
 40
30.0
176
     1
 62
     7
420
 16777215
176
     1
 90
        1
176
     1
 90
        4
176
     1
 62
     7
176
     1
 62
   257
176
     1
 90
        1
176
     1
 90
        1
176
     1
 40
1.0
176
     1
 90
        0
176
     1
 62
   257
176
     1
 40
1.0
176
     1
 90
        1
176
     1
 90
        6
176
     1
 90
        2
176
     1
 62
     7
176
     1
 90
        3
176
     1
 90
        0
176
     1
 90
        0
176
     1
290
     0
176
     1
 90
        1
176
     1
 40
0.0
176
     1
 90
        0
176
     1
290
     0
176
     1
290
     1
176
     1
290
     1
176
     1
290
     0
176
     1
290
     0
176
     1
290
     0
176
     1
290
     0
176
     1
290
     0
176
     1
290
     0
176
     1
 90
       50
176
     1
 40
0.0
176
     1
 40
1.0
176
     1
 90
        0
176
     1
 62
    18
420
        0
176
     1
 90
       50
176
     1
 90
        3
176
     1
 62
     5
420
      255
176
     1
290
     0
176
     1
 90
       50
176
     1
 90
       50
176
     1
 90
       50
176
     1
290
     0
176
     1
 90
       50
176
     1
 62
   256
176
     0
 40
1.0
176
     0
 90
        2
176
     1
  1
strokes_ogs.tif
176
     1
290
     0
176
     1
 40
1.0
176
     1
 40
1.0
176
     1
1001
ACAD
1000
AcDbSavedByObjectVersion
1070
     0
  0
VISUALSTYLE
  5
11B43
102
{ACAD_REACTORS
330
1198C
102
}
330
1198C
100
AcDbVisualStyle
  2
X-Ray
 70
    25
177
     3
291
     0
 70
    58
 90
        2
176
     1
 90
        2
176
     1
 90
        1
176
     1
 90
        1
176
     1
 40
0.5
176
     1
 40
30.0
176
     1
 62
     7
420
 16777215
176
     1
 90
        1
176
     1
 90
        0
176
     1
 62
     7
176
     1
 62
   257
176
     1
 90
        1
176
     1
 90
        1
176
     1
 40
1.0
176
     1
 90
        8
176
     1
 62
     7
176
     1
 40
1.0
176
     1
 90
        1
176
     1
 90
        6
176
     1
 90
        2
176
     1
 62
     7
176
     1
 90
        3
176
     1
 90
        0
176
     1
 90
        0
176
     1
290
     0
176
     1
 90
       13
176
     1
 40
0.0
176
     1
 90
        0
176
     1
290
     0
176
     1
290
     1
176
     1
290
     1
176
     1
290
     0
176
     1
290
     0
176
     1
290
     0
176
     1
290
     0
176
     1
290
     0
176
     1
290
     0
176
     1
 90
       50
176
     1
 40
0.0
176
     1
 40
1.0
176
     1
 90
        0
176
     1
 62
    18
420
        0
176
     1
 90
       50
176
     1
 90
        3
176
     1
 62
     5
420
      255
176
     1
290
     0
176
     1
 90
       50
176
     1
 90
       50
176
     1
 90
       50
176
     1
290
     0
176
     1
 90
       50
176
     1
 62
   256
176
     0
 40
1.0
176
     0
 90
        2
176
     1
  1
strokes_ogs.tif
176
     1
290
     0
176
     1
 40
1.0
176
     1
 40
1.0
176
     1
1001
ACAD
1000
AcDbSavedByObjectVersion
1070
     0
  0
DICTIONARYVAR
  5
119AA
102
{ACAD_REACTORS
330
119A9
102
}
330
119A9
100
DictionaryVariables
280
     0
  1
1:1
  0
DICTIONARYVAR
  5
119AB
102
{ACAD_REACTORS
330
119A9
102
}
330
119A9
100
DictionaryVariables
280
     0
  1
STANDARD
  0
DICTIONARYVAR
  5
119AC
102
{ACAD_REACTORS
330
119A9
102
}
330
119A9
100
DictionaryVariables
280
     0
  1
STANDARD
  0
DICTIONARYVAR
  5
119AD
102
{ACAD_REACTORS
330
119A9
102
}
330
119A9
100
DictionaryVariables
280
     0
  1
Imperial24
  0
DICTIONARYVAR
  5
119AE
102
{ACAD_REACTORS
330
119A9
102
}
330
119A9
100
DictionaryVariables
280
     0
  1
Imperial24
  0
DICTIONARYVAR
  5
119AF
102
{ACAD_REACTORS
330
119A9
102
}
330
119A9
100
DictionaryVariables
280
     0
  1
1
  0
DICTIONARYVAR
  5
119B0
102
{ACAD_REACTORS
330
119A9
102
}
330
119A9
100
DictionaryVariables
280
     0
  1
15
  0
DICTIONARYVAR
  5
119B1
102
{ACAD_REACTORS
330
119A9
102
}
330
119A9
100
DictionaryVariables
280
     0
  1
0
  0
DICTIONARYVAR
  5
119B2
102
{ACAD_REACTORS
330
119A9
102
}
330
119A9
100
DictionaryVariables
280
     0
  1
0
  0
DICTIONARY
  5
1200F
102
{ACAD_REACTORS
330
1200D
102
}
330
1200D
100
AcDbDictionary
281
     1
  0
DICTIONARY
  5
1200E
102
{ACAD_REACTORS
330
1200D
102
}
330
1200D
100
AcDbDictionary
281
     1
  3
1398760424704
350
12008
  3
1398760424720
350
12009
  3
1398760424736
350
1200A
  3
1398760424752
350
1200B
  3
1398760424768
350
1200C
  0
DICTIONARY
  5
12012
330
11B4C
100
AcDbDictionary
280
     1
281
     1
  3
ACAD_XREC_ROUNDTRIP
360
12013
  0
DICTIONARY
  5
1197A
330
11979
100
AcDbDictionary
280
     1
281
     1
  0
DICTIONARY
  5
11975
330
11973
100
AcDbDictionary
280
     1
281
     1
  0
DICTIONARY
  5
1199E
330
1199D
100
AcDbDictionary
280
     1
281
     1
  3
BUMPTILE
360
1199F
  3
DIFFUSETILE
360
119A0
  3
OPACITYTILE
360
119A1
  3
REFLECTIONTILE
360
119A2
  3
REFRACTIONTILE
360
119A3
  3
SPECULARTILE
360
119A4
  0
DICTIONARY
  5
11996
330
11995
100
AcDbDictionary
280
     1
281
     1
  3
BUMPTILE
360
11997
  3
DIFFUSETILE
360
11998
  3
OPACITYTILE
360
11999
  3
REFLECTIONTILE
360
1199A
  3
REFRACTIONTILE
360
1199B
  3
SPECULARTILE
360
1199C
  0
DICTIONARY
  5
11B20
330
8DC
100
AcDbDictionary
280
     1
281
     1
  3
ADVMATERIAL
360
11B23
  3
DIFFUSETILE
360
11B21
  3
OPACITYTILE
360
11B24
  3
SPECULARTILE
360
11B22
  0
DICTIONARY
  5
1194D
330
1194B
100
AcDbDictionary
280
     1
281
     1
  3
BUMPTILE
360
1194E
  3
DIFFUSETILE
360
1194F
  3
OPACITYTILE
360
11950
  3
REFLECTIONTILE
360
11951
  3
REFRACTIONTILE
360
11952
  3
SPECULARTILE
360
11953
  0
DICTIONARY
  5
12010
330
11B4A
100
AcDbDictionary
280
     1
281
     1
  3
ACAD_XREC_ROUNDTRIP
360
12011
  0
DICTIONARY
  5
119BC
330
119BB
100
AcDbDictionary
280
     1
281
     1
  3
ACAD_ROUNDTRIP_2008_TABLESTYLE_CELLSTYLEMAP
360
12006
  0
XRECORD
  5
12008
102
{ACAD_REACTORS
330
1200E
102
}
330
1200E
100
AcDbXrecord
280
     1
  1
AcDb_Thumbnail_Schema
102
{ATTRRECORD
341
12009
  2
AcDbDs::TreatedAsObjectData
280
     1
291
     1
102
ATTRRECORD}
102
{ATTRRECORD
341
1200A
  2
AcDbDs::Legacy
280
     1
291
     1
102
ATTRRECORD}
  2
AcDbDs::ID
280
    10
 91
        8
102
{ATTRRECORD
341
1200B
  2
AcDs:Indexable
280
     1
291
     1
102
ATTRRECORD}
102
{ATTRRECORD
341
1200C
  2
AcDbDs::HandleAttribute
280
     7
282
     1
102
ATTRRECORD}
  2
Thumbnail_Data
280
    15
 91
        0
  0
XRECORD
  5
12009
102
{ACAD_REACTORS
330
1200E
102
}
330
1200E
100
AcDbXrecord
280
     1
  1
AcDbDs::TreatedAsObjectDataSchema
  2
AcDbDs::TreatedAsObjectData
280
     1
 91
        0
  0
XRECORD
  5
1200A
102
{ACAD_REACTORS
330
1200E
102
}
330
1200E
100
AcDbXrecord
280
     1
  1
AcDbDs::LegacySchema
  2
AcDbDs::Legacy
280
     1
 91
        0
  0
XRECORD
  5
1200B
102
{ACAD_REACTORS
330
1200E
102
}
330
1200E
100
AcDbXrecord
280
     1
  1
AcDbDs::IndexedPropertySchema
  2
AcDs:Indexable
280
     1
 91
        0
  0
XRECORD
  5
1200C
102
{ACAD_REACTORS
330
1200E
102
}
330
1200E
100
AcDbXrecord
280
     1
  1
AcDbDs::HandleAttributeSchema
  2
AcDbDs::HandleAttribute
280
     7
 91
        1
284
     1
  0
XRECORD
  5
12013
102
{ACAD_REACTORS
330
12012
102
}
330
12012
100
AcDbXrecord
280
     1
102
DISPLAYNAME
  1
Imperial24
102
FLAGS
 90
        0
  0
XRECORD
  5
1199F
102
{ACAD_REACTORS
330
1199E
102
}
330
1199E
100
AcDbXrecord
280
     1
270
     1
271
     1
  0
XRECORD
  5
119A0
102
{ACAD_REACTORS
330
1199E
102
}
330
1199E
100
AcDbXrecord
280
     1
270
     1
271
     1
  0
XRECORD
  5
119A1
102
{ACAD_REACTORS
330
1199E
102
}
330
1199E
100
AcDbXrecord
280
     1
270
     1
271
     1
  0
XRECORD
  5
119A2
102
{ACAD_REACTORS
330
1199E
102
}
330
1199E
100
AcDbXrecord
280
     1
270
     1
271
     1
  0
XRECORD
  5
119A3
102
{ACAD_REACTORS
330
1199E
102
}
330
1199E
100
AcDbXrecord
280
     1
270
     1
271
     1
  0
XRECORD
  5
119A4
102
{ACAD_REACTORS
330
1199E
102
}
330
1199E
100
AcDbXrecord
280
     1
270
     1
271
     1
  0
XRECORD
  5
11997
102
{ACAD_REACTORS
330
11996
102
}
330
11996
100
AcDbXrecord
280
     1
270
     1
271
     1
  0
XRECORD
  5
11998
102
{ACAD_REACTORS
330
11996
102
}
330
11996
100
AcDbXrecord
280
     1
270
     1
271
     1
  0
XRECORD
  5
11999
102
{ACAD_REACTORS
330
11996
102
}
330
11996
100
AcDbXrecord
280
     1
270
     1
271
     1
  0
XRECORD
  5
1199A
102
{ACAD_REACTORS
330
11996
102
}
330
11996
100
AcDbXrecord
280
     1
270
     1
271
     1
  0
XRECORD
  5
1199B
102
{ACAD_REACTORS
330
11996
102
}
330
11996
100
AcDbXrecord
280
     1
270
     1
271
     1
  0
XRECORD
  5
1199C
102
{ACAD_REACTORS
330
11996
102
}
330
11996
100
AcDbXrecord
280
     1
270
     1
271
     1
  0
XRECORD
  5
11B23
102
{ACAD_REACTORS
330
11B20
102
}
330
11B20
100
AcDbXrecord
280
     1
460
100.0
461
100.0
462
100.0
463
100.0
290
     0
270
     0
464
0.0
293
     0
272
     3
273
     3
  0
XRECORD
  5
11B21
102
{ACAD_REACTORS
330
11B20
102
}
330
11B20
100
AcDbXrecord
280
     1
270
     1
271
     1
  0
XRECORD
  5
11B24
102
{ACAD_REACTORS
330
11B20
102
}
330
11B20
100
AcDbXrecord
280
     1
270
     1
271
     1
  0
XRECORD
  5
11B22
102
{ACAD_REACTORS
330
11B20
102
}
330
11B20
100
AcDbXrecord
280
     1
270
     1
271
     1
  0
XRECORD
  5
1194E
102
{ACAD_REACTORS
330
1194D
102
}
330
1194D
100
AcDbXrecord
280
     1
270
     1
271
     1
  0
XRECORD
  5
1194F
102
{ACAD_REACTORS
330
1194D
102
}
330
1194D
100
AcDbXrecord
280
     1
270
     1
271
     1
  0
XRECORD
  5
11950
102
{ACAD_REACTORS
330
1194D
102
}
330
1194D
100
AcDbXrecord
280
     1
270
     1
271
     1
  0
XRECORD
  5
11951
102
{ACAD_REACTORS
330
1194D
102
}
330
1194D
100
AcDbXrecord
280
     1
270
     1
271
     1
  0
XRECORD
  5
11952
102
{ACAD_REACTORS
330
1194D
102
}
330
1194D
100
AcDbXrecord
280
     1
270
     1
271
     1
  0
XRECORD
  5
11953
102
{ACAD_REACTORS
330
1194D
102
}
330
1194D
100
AcDbXrecord
280
     1
270
     1
271
     1
  0
XRECORD
  5
12011
102
{ACAD_REACTORS
330
12010
102
}
330
12010
100
AcDbXrecord
280
     1
102
DISPLAYNAME
  1
Imperial24
102
FLAGS
 90
        0
  0
CELLSTYLEMAP
  5
12006
102
{ACAD_REACTORS
330
119BC
102
}
330
119BC
100
AcDbCellStyleMap
 90
        3
300
CELLSTYLE
  1
TABLEFORMAT_BEGIN
 90
        5
170
     1
 91
        0
 92
    32768
 62
   257
 93
        1
300
CONTENTFORMAT
  1
CONTENTFORMAT_BEGIN
 90
        0
 91
        0
 92
        4
 93
        0
300

 40
0.0
140
1.0
 94
        5
 62
     0
340
11982
144
0.25
309
CONTENTFORMAT_END
171
     0
 94
        6
 95
        1
302
GRIDFORMAT
  1
GRIDFORMAT_BEGIN
 90
        0
 91
        1
 62
     0
 92
       -2
340
0
 93
        0
 40
0.045
309
GRIDFORMAT_END
 95
        2
302
GRIDFORMAT
  1
GRIDFORMAT_BEGIN
 90
        0
 91
        1
 62
     0
 92
       -2
340
0
 93
        0
 40
0.045
309
GRIDFORMAT_END
 95
        4
302
GRIDFORMAT
  1
GRIDFORMAT_BEGIN
 90
        0
 91
        1
 62
     0
 92
       -2
340
0
 93
        0
 40
0.045
309
GRIDFORMAT_END
 95
        8
302
GRIDFORMAT
  1
GRIDFORMAT_BEGIN
 90
        0
 91
        1
 62
     0
 92
       -2
340
0
 93
        0
 40
0.045
309
GRIDFORMAT_END
 95
       16
302
GRIDFORMAT
  1
GRIDFORMAT_BEGIN
 90
        0
 91
        1
 62
     0
 92
       -2
340
0
 93
        0
 40
0.045
309
GRIDFORMAT_END
 95
       32
302
GRIDFORMAT
  1
GRIDFORMAT_BEGIN
 90
        0
 91
        1
 62
     0
 92
       -2
340
0
 93
        0
 40
0.045
309
GRIDFORMAT_END
309
TABLEFORMAT_END
  1
CELLSTYLE_BEGIN
 90
        1
 91
        1
300
_TITLE
309
CELLSTYLE_END
300
CELLSTYLE
  1
TABLEFORMAT_BEGIN
 90
        5
170
     1
 91
        0
 92
        0
 62
   257
 93
        1
300
CONTENTFORMAT
  1
CONTENTFORMAT_BEGIN
 90
        0
 91
        0
 92
        4
 93
        0
300

 40
0.0
140
1.0
 94
        5
 62
     0
340
11982
144
0.18
309
CONTENTFORMAT_END
171
     0
 94
        6
 95
        1
302
GRIDFORMAT
  1
GRIDFORMAT_BEGIN
 90
        0
 91
        1
 62
     0
 92
       -2
340
0
 93
        0
 40
0.045
309
GRIDFORMAT_END
 95
        2
302
GRIDFORMAT
  1
GRIDFORMAT_BEGIN
 90
        0
 91
        1
 62
     0
 92
       -2
340
0
 93
        0
 40
0.045
309
GRIDFORMAT_END
 95
        4
302
GRIDFORMAT
  1
GRIDFORMAT_BEGIN
 90
        0
 91
        1
 62
     0
 92
       -2
340
0
 93
        0
 40
0.045
309
GRIDFORMAT_END
 95
        8
302
GRIDFORMAT
  1
GRIDFORMAT_BEGIN
 90
        0
 91
        1
 62
     0
 92
       -2
340
0
 93
        0
 40
0.045
309
GRIDFORMAT_END
 95
       16
302
GRIDFORMAT
  1
GRIDFORMAT_BEGIN
 90
        0
 91
        1
 62
     0
 92
       -2
340
0
 93
        0
 40
0.045
309
GRIDFORMAT_END
 95
       32
302
GRIDFORMAT
  1
GRIDFORMAT_BEGIN
 90
        0
 91
        1
 62
     0
 92
       -2
340
0
 93
        0
 40
0.045
309
GRIDFORMAT_END
309
TABLEFORMAT_END
  1
CELLSTYLE_BEGIN
 90
        2
 91
        1
300
_HEADER
309
CELLSTYLE_END
300
CELLSTYLE
  1
TABLEFORMAT_BEGIN
 90
        5
170
     1
 91
        0
 92
        0
 62
   257
 93
        1
300
CONTENTFORMAT
  1
CONTENTFORMAT_BEGIN
 90
        0
 91
        0
 92
        4
 93
        0
300

 40
0.0
140
1.0
 94
        2
 62
     0
340
11982
144
0.18
309
CONTENTFORMAT_END
171
     0
 94
        6
 95
        1
302
GRIDFORMAT
  1
GRIDFORMAT_BEGIN
 90
        0
 91
        1
 62
     0
 92
       -2
340
0
 93
        0
 40
0.045
309
GRIDFORMAT_END
 95
        2
302
GRIDFORMAT
  1
GRIDFORMAT_BEGIN
 90
        0
 91
        1
 62
     0
 92
       -2
340
0
 93
        0
 40
0.045
309
GRIDFORMAT_END
 95
        4
302
GRIDFORMAT
  1
GRIDFORMAT_BEGIN
 90
        0
 91
        1
 62
     0
 92
       -2
340
0
 93
        0
 40
0.045
309
GRIDFORMAT_END
 95
        8
302
GRIDFORMAT
  1
GRIDFORMAT_BEGIN
 90
        0
 91
        1
 62
     0
 92
       -2
340
0
 93
        0
 40
0.045
309
GRIDFORMAT_END
 95
       16
302
GRIDFORMAT
  1
GRIDFORMAT_BEGIN
 90
        0
 91
        1
 62
     0
 92
       -2
340
0
 93
        0
 40
0.045
309
GRIDFORMAT_END
 95
       32
302
GRIDFORMAT
  1
GRIDFORMAT_BEGIN
 90
        0
 91
        1
 62
     0
 92
       -2
340
0
 93
        0
 40
0.045
309
GRIDFORMAT_END
309
TABLEFORMAT_END
  1
CELLSTYLE_BEGIN
 90
        3
 91
        2
300
_DATA
309
CELLSTYLE_END
  0
ENDSEC
  0
SECTION
  2
ACDSDATA
 70
     2
 71
     8
  0
ACDSSCHEMA
 90
        0
  1
AcDb_Thumbnail_Schema
  2
AcDbDs::ID
280
    10
 91
        8
  2
Thumbnail_Data
280
    15
 91
        0
101
ACDSRECORD
 95
        0
 90
        1
  2
AcDbDs::TreatedAsObjectData
280
     1
291
     1
101
ACDSRECORD
 95
        0
 90
        2
  2
AcDbDs::Legacy
280
     1
291
     1
101
ACDSRECORD
  1
AcDbDs::ID
 90
        3
  2
AcDs:Indexable
280
     1
291
     1
101
ACDSRECORD
  1
AcDbDs::ID
 90
        4
  2
AcDbDs::HandleAttribute
280
     7
282
     1
  0
ACDSSCHEMA
 90
        1
  1
AcDbDs::TreatedAsObjectDataSchema
  2
AcDbDs::TreatedAsObjectData
280
     1
 91
        0
  0
ACDSSCHEMA
 90
        2
  1
AcDbDs::LegacySchema
  2
AcDbDs::Legacy
280
     1
 91
        0
  0
ACDSSCHEMA
 90
        3
  1
AcDbDs::IndexedPropertySchema
  2
AcDs:Indexable
280
     1
 91
        0
  0
ACDSSCHEMA
 90
        4
  1
AcDbDs::HandleAttributeSchema
  2
AcDbDs::HandleAttribute
280
     7
 91
        1
284
     1
  0
ACDSRECORD
 90
        0
  2
AcDbDs::ID
280
    10
320
11979
  2
Thumbnail_Data
280
    15
 94
     1183
310
89504E470D0A1A0A0000000D4948445200000100000000C508030000008CFEDCE700000300504C5445FFFFFF000000FFFFFF0000000000000000000000000000000000000000000000000000330000660000990000CC0000FF0033000033330033660033990033CC0033FF0066000066330066660066990066CC0066FF0099
310
000099330099660099990099CC0099FF00CC0000CC3300CC6600CC9900CCCC00CCFF00FF0000FF3300FF6600FF9900FFCC00FFFF3300003300333300663300993300CC3300FF3333003333333333663333993333CC3333FF3366003366333366663366993366CC3366FF3399003399333399663399993399CC3399FF33CC00
310
33CC3333CC6633CC9933CCCC33CCFF33FF0033FF3333FF6633FF9933FFCC33FFFF6600006600336600666600996600CC6600FF6633006633336633666633996633CC6633FF6666006666336666666666996666CC6666FF6699006699336699666699996699CC6699FF66CC0066CC3366CC6666CC9966CCCC66CCFF66FF0066
310
FF3366FF6666FF9966FFCC66FFFF9900009900339900669900999900CC9900FF9933009933339933669933999933CC9933FF9966009966339966669966999966CC9966FF9999009999339999669999999999CC9999FF99CC0099CC3399CC6699CC9999CCCC99CCFF99FF0099FF3399FF6699FF9999FFCC99FFFFCC0000CC00
310
33CC0066CC0099CC00CCCC00FFCC3300CC3333CC3366CC3399CC33CCCC33FFCC6600CC6633CC6666CC6699CC66CCCC66FFCC9900CC9933CC9966CC9999CC99CCCC99FFCCCC00CCCC33CCCC66CCCC99CCCCCCCCCCFFCCFF00CCFF33CCFF66CCFF99CCFFCCCCFFFFFF0000FF0033FF0066FF0099FF00CCFF00FFFF3300FF3333
310
FF3366FF3399FF33CCFF33FFFF6600FF6633FF6666FF6699FF66CCFF66FFFF9900FF9933FF9966FF9999FF99CCFF99FFFFCC00FFCC33FFCC66FFCC99FFCCCCFFCCFFFFFF00FFFF33FFFF66FFFF99FFFFCCFFFFFF0000000D0D0D1A1A1A2828283535354343435050505D5D5D6B6B6B787878868686939393A1A1A1AEAEAEBB
310
BBBBC9C9C9D6D6D6E4E4E4F1F1F1FFFFFF000000000000000000000000000000000000000000000000000000000000790CAC0F0000015A4944415478DAEDD8410A8340100440FFFFCCF9C09EE61E104224896014844D579F64F420A587DE592A3A632CD5C101100F500500C0F36ACDF6D636BFCEEBAEF9E9177D0788FBF600
310
000000000000004D1000000000000000100F50FB4F4C9E8B5578FAFF0300000000000000000000000000000000B00BD069000D0000000000000000A009020000000000000000000000000000000052013A0DA001000000000000000000A8C2000000000000000000000000000000402A40FC420400000000000000002016C0
310
5900000000000000000000000000000000C803885F88000000000000000000C402380B0000000000000000000000000000000000E2003A0DA0010000000000000000344100000000000000000000000000000000C0E7C660F21C04080D0000000000000000C01F54DE73151900000000000000D0AFCDCFB6227CDDAB1C9CD7
310
5DF3D32FAA0902000000C00A109E658C110DF0000E6CC6FBCCF8EC2E0000000049454E44AE426082
  0
ACDSRECORD
 90
        0
  2
AcDbDs::ID
280
    10
320
11973
  2
Thumbnail_Data
280
    15
 94
     1017
310
89504E470D0A1A0A0000000D4948445200000100000000890803000000F46416F000000300504C5445FEFCF0000000FFFFFF0000000000000000000000000000000000000000000000000000330000660000990000CC0000FF0033000033330033660033990033CC0033FF0066000066330066660066990066CC0066FF0099
310
000099330099660099990099CC0099FF00CC0000CC3300CC6600CC9900CCCC00CCFF00FF0000FF3300FF6600FF9900FFCC00FFFF3300003300333300663300993300CC3300FF3333003333333333663333993333CC3333FF3366003366333366663366993366CC3366FF3399003399333399663399993399CC3399FF33CC00
310
33CC3333CC6633CC9933CCCC33CCFF33FF0033FF3333FF6633FF9933FFCC33FFFF6600006600336600666600996600CC6600FF6633006633336633666633996633CC6633FF6666006666336666666666996666CC6666FF6699006699336699666699996699CC6699FF66CC0066CC3366CC6666CC9966CCCC66CCFF66FF0066
310
FF3366FF6666FF9966FFCC66FFFF9900009900339900669900999900CC9900FF9933009933339933669933999933CC9933FF9966009966339966669966999966CC9966FF9999009999339999669999999999CC9999FF99CC0099CC3399CC6699CC9999CCCC99CCFF99FF0099FF3399FF6699FF9999FFCC99FFFFCC0000CC00
310
33CC0066CC0099CC00CCCC00FFCC3300CC3333CC3366CC3399CC33CCCC33FFCC6600CC6633CC6666CC6699CC66CCCC66FFCC9900CC9933CC9966CC9999CC99CCCC99FFCCCC00CCCC33CCCC66CCCC99CCCCCCCCCCFFCCFF00CCFF33CCFF66CCFF99CCFFCCCCFFFFFF0000FF0033FF0066FF0099FF00CCFF00FFFF3300FF3333
310
FF3366FF3399FF33CCFF33FFFF6600FF6633FF6666FF6699FF66CCFF66FFFF9900FF9933FF9966FF9999FF99CCFF99FFFFCC00FFCC33FFCC66FFCC99FFCCCCFFCCFFFFFF00FFFF33FFFF66FFFF99FFFFCCFFFFFF0000000D0D0D1A1A1A2828283535354343435050505D5D5D6B6B6B787878868686939393A1A1A1AEAEAEBB
310
BBBBC9C9C9D6D6D6E4E4E4F1F1F1FFFFFF0000000000000000000000000000000000000000000000000000000000007C77BAA7000000B44944415478DAEDD0310100000C0220FBB7B48931760C22903E1701020408102040800001020408102040800001020408102040800001020408102040800001020408102040800001
310
020408102040800001020408102040800001020408102040800001020408102040800001020408102040800001020408102040800001020408102040800001020408102040800001020408102040800001020408102040800001020408102040800001020408102040C099016B33700943E05F3C0000000049454E44AE4260
310
82
  0
ENDSEC
  0
SECTION
  2
THUMBNAILIMAGE
 90
    14496
310
28000000B80000004900000001000800000000007834000001000000010000000001000000000000FFFFFF0030303000F8F8F800F0F0F000B0B0B0FF888888007070700050505000FFFFFFAEFFFFFF00FFFFFFAEFFFFFF00FFFFFFAEFFFFFF00FFFFFFAEFFFFFF00FFFFFFAEFFFFFF00FFFFFFAEFFFFFF00FFFFFFAEFFFFFF
310
00FFFFFFAEFFFFFF00FFFFFFAEFFFFFF00FFFFFFAEFFFFFF00FFFFFFAEFFFFFF00FFFFFF38FFFFFF00FFFFFF00FFFFFF00FFFFFF00FFFFFF00FFFFFF00FFFFFF00FFFFFF00FFFFFF00FFFFFF00FFFFFF00FFFFFF00FFFFFF00FFFFFF00FFFFFF00FFFFFF00FFFFFF00FFFFFF00FFFFFF00FFFFFF00FFFFFF00FFFFFF00FFFF
310
FF00FFFFFF00FFFFFF00FFFFFF00FFFFFF00FFFFFF00FFFFFF00FFFFFF00FFFFFF00FFFFFF00FFFFFF00FFFFFF00FFFFFF00FFFFFFAEFFFFFF00FFFFFFAEFFFFFF00FFFFFF00FFFFFF00FFFFFF00FFFFFF00FFFFFF00FFFFFF00FFFFFF00FFFFFF00FFFFFF00FFFFFF00FFFFFF00FFFFFFFFFFFFFF00FFFFFF00FFFFFF00FF
310
FFFF00FFFFFF00FFFFFF00FFFFFF00FFFFFF00FFFFFF00FFFFFF00FFFFFF00FFFFFF00FFFFFF00FFFFFF00FFFFFF00FFFFFF00FFFFFF00FFFFFF00FFFFFF00FFFFFF00FFFFFF00FFFFFF00FFFFFF00FFFFFF00FFFFFF00FFFFFF00FFFFFF00FFFFFF00FFFFFF00FFFFFF00FFFFFF00FFFFFF00FFFFFF00FFFFFF00FFFFFF00
310
FFFFFF00FFFFFF00FFFFFF00FFFFFF00FFFFFF00FFFFFF00FFFFFF00FFFFFFAEFFFFFF00FFFFFFB4FFFFFF00FFFFFF00FFFFFF00FFFFFF00FFFFFF00FFFFFF00FFFFFF00FFFFFF00FFFFFF00FFFFFF00FFFFFF00FFFFFF00FFFFFF00FFFFFF00FFFFFF00FFFFFF00FFFFFF00FFFFFF00FFFFFF00FFFFFF00FFFFFF00FFFFFF
310
00FFFFFF00FFFFFFB4FFFFFF00FFFFFF00FFFFFF00FFFFFF00FFFFFF00FFFFFF00FFFFFF00FFFFFFAEFFFFFF00FFFFFFB4FFFFFF00FFFFFF00FFFFFF00FFFFFF00FFFFFF00FFFFFF00FFFFFF00FFFFFF00FFFFFF00FFFFFF00FFFFFF00FFFFFF00FFFFFF00FFFFFF00FFFFFF00FFFFFF00FFFFFF00FFFFFF00FFFFFF00FFFF
310
FF00FFFFFF00FFFFFF00FFFFFF00FFFFFFB4FFFFFF00FFFFFF00FFFFFF00FFFFFF00FFFFFF00FFFFFF00FFFFFF00FFFFFF00FFFFFF00FFFFFF00FFFFFF00FFFFFF00FFFFFF00FFFFFF00FFFFFF00FFFFFF00FFFFFF00FFFFFF00FFFFFF00FFFFFF00FFFFFF00FFFFFF00FFFFFF00FFFFFF00FFFFFF00FFFFFF00FFFFFF00FF
310
FFFF00FFFFFF00FFFFFF00FFFFFF00FFFFFF00FFFFFF00FFFFFF00FFFFFF00FFFFFF00FFFFFF00FFFFFF00FFFFFF00FFFFFF00FFFFFF00FFFFFF00FFFFFF00FFFFFF00FFFFFF00FFFFFF00FFFFFF00FFFFFF00FFFFFF00FFFFFF00FFFFFF00FFFFFF00FFFFFF00FFFFFF00FFFFFF00FFFFFF00FFFFFF00FFFFFF00FFFFFF00
310
FFFFFF00FFFFFF00FFFFFF00FFFFFF00FFFFFF00FFFFFF00FFFFFF00FFFFFF00FFFFFF00FFFFFF00FFFFFF00FFFFFF0000000000000000000000000000000000000000000000000000000000000000000000000000000000000000000000000000000000000000000000000000000000000000000000000000000000000000
310
00000000000000000000000000000000000000000000000000000000000000000000000000000000000000000000000000000000000000000000000000000000000000000000000000000000000000000000000000000000000000000000000000000000000000000000000000000000000000000000000000000000000000
310
00000000000000000000000000000000000000000000000000000000000000000000000000000000000000000000000000000000000000000000000000000000000000000000000000000000000000000000000000000000000000000000000000000000000000000000000000000000000000000000000000000000000000
310
00000000000000000000000000000000000000000000000000000000000000000000000000000000000000000000000000000000000000000000000000000000000000000000000000000000000000000000000000000000000000000000000000000000000000000000000000000000000000000000000000000000000000
310
00000000000000000000000000000000000000000000000000000000000000000000000000000000000000000000000000000000000000000000000000000000000000000000000000000000000000000000000000000000000000000000000000000000000000000000000000000000000000000000000000000000000000
310
00000000000000000000000000000000000000000000000000000000000000000000000000000000000000000000000000000000000000000000000000000000000000000000000000000000000000000000000000000000000000000000000000000000000000000000000000000000000000000000000000000000000000
310
00000000000000000000000000000000000000000000000000000000000000000000000000000000000000000000000000000000000000000000000000000000000000000000000000000000000000000000000000000000000000000000000000000000000000000000000000000000000000000000000000000000000000
310
00000000000000000000000000000000000000000000000000000000000000000000000000000000000000000000000000000000000000000000000000000000000000000000000000000000000000000000000000000000000000000000000000000000000000000000000000000000000000000000000000000000000000
310
00000000000000000000000000000000000000000000000000000000000000000000000000000000000000000000000000000000000000000000000000000000000000000000000000000000000000000000000000000000000000000000000000000000000000000000000000000000000000000000000000000000000000
310
00000000000000000000000000000000000000000000000000000000000000000000000000000000000000000000000000000000000000000000000000000000000000000000000000000000000000000000000000000000000000000000000000000000000000000000000000000000000000000000000000000000000000
310
00000000000000000000000000000000000000000000000000000000000000000000000000000000000000000000000000000000000000000000000000000000000000000000000000000000000000000000000000000000000000000000000000000000000000000000000000000000000000000000000000000000000000
310
00000000000000000000000000000000000000000000000000000000000000000000000000000000000000000000000000000000000000000000000000000000000000000000000000000000000000000000000000000000000000000000000000000000000000000000000000000000000000000000000000000000000000
310
00000000000000000000000000000000000000000000000000000000000000000000000000000000000000000000000000000000000000000000000000000000000000000000000000000000000000000000000000000000000000000000000000000000000000000000000000000000000000000000000000000000000000
310
00000000000000000000000000000000000000000000000000000000000000000000000000000000000000000000000000000000000000000000000000000000000000000000000000000000000000000000000000000000000000000000000000000000000000000000000000000000000000000000000000000000000000
310
00000000000000000000000000000000000000000000000000000000000000000000000000000000000000000000000000000000000000000000000000000000000000000000000000000000000000000000000000000000000000000000000000000000000000000000000000000000000000000000000000000000000000
310
00000000000000000000000000000000000000000000000000000000000000000000000000000000000000000000000000000000000000000000000000000000000000000000000000000000000000000000000000000000000000000000000000000000000000000000000000000000000000000000000000000000000000
310
00000000000000000000000000000000000000000000000000000000000000000000000000000000000000000000000000000000000000000000000000000000000000000000000000000000000000000000000000000000000000000000000000000000000000000000000000000000000000000000000000000000000000
310
00000000000000000000000000000000000000000000000000000000000000000000000000000000000000000000000000000000000000000000000000000000000000000000000000000000000000000000000000000000000000000000000000000000000000000000000000000000000000000000000000000000000000
310
00000000000000000000000000000000000000000000000000000000000000000000000000000000000000000000000000000000000000000000000000000000000000000000000000000000000000000000000000000000000000000000000000000000000000000000000000000000000000000000000000000000000000
310
00000000000000000000000000000000000000000000000000000000000000000000000000000000000000000000000000000000000000000000000000000000000000000000000000000000000000000000000000000000000000000000000000000000000000000000000000000000000000000000000000000000000000
310
00000000000000000000000000000000000000000000000000000000000000000000000000000000000000000000000000000000000000000000000000000000000000000000000000000000000000000000000000000000000000000000000000000000000000000000000000000000000000000000000000000000000000
310
00000000000000000000000000000000000000000000000000000000000000000000000000000000000000000000000000000000000000000000000000000000000000000000000000000000000000000000000000000000000000000000000000000000000000000000000000000000000000000000000000000000000000
310
00000000000000000000000000000000000000000000000000000000000000000000000000000000000000000000000000000000000000000000000000000000000000000000000000000000000000000000000000000000000000000000000000000000000000000000000000000000000000000000000000000000000000
310
00000000000000000000000000000000000000000000000000000000000000000000000000000000000000000000000000000000000000000000000000000000000000000000000000000000000000000000000000000000000000000000000000000000000000000000000000000000000000000000000000000000000000
310
00000000000000000000000000000000000000000000000000000000000000000000000000000000000000000000000000000000000000000000000000000000000000000000000000000000000000000000000000000000000000000000000000000000000000000000000000000000000000000000000000000000000000
310
00000000000000000000000000000000000000000000000000000000000000000000000000000000000000000000000000000000000000000000000000000000000000000000000000000000000000000000000000000000000000000000000000000000000000000000000000000000000000000000000000000000000000
310
00000000000000000000000000000000000000000000000000000000000000000000000000000000000000000000000000000000000000000000000000000000000000000000000000000000000000000000000000000000000000000000000000000000000000000000000000000000000000000000000000000000000000
310
00000000000000000000000000000000000000000000000000000000000000000000000000000000000000000000000000000000000000000000000000000000000000000000000000000000000000000000000000000000000000000000000000000000000000000000000000000000000000000000000000000000000000
310
00000000000000000000000000000000000000000000000000000000000000000000000000000000000000000000000000000000000000000000000000000000000000000000000000000000000000000000000000000000000000000000000000000000000000000000000000000000000000000000000000000000000000
310
00000000000000000000000000000000000000000000000000000000000000000000000000000000000000000000000000000000000000000000000000000000000000000000000000000000000000000000000000000000000000000000000000000000000000000000000000000000000000000000000000000000000000
310
00000000000000000000000000000000000000000000000000000000000000000000000000000000000000000000000000000000000000000000000000000000000000000000000000000000000000000000000000000000000000000000000000000000000000000000000000000000000000000000000000000000000000
310
00000000000000000000000000000000000000000000000000000000000000000000000000000000000000000000000000000000000000000000000000000000000000000000000000000000000000000000000000000000000000000000000000000000000000000000000000000000000000000000000000000000000000
310
00000000000000000000000000000000000000000000000000000000000000000000000000000000000000000000000000000000000000000000000000000000000000000000000000000000000000000000000000000000000000000000000000000000000000000000000000000000000000000000000000000000000000
310
00000000000000000000000000000000000000000000000000000000000000000000000000000000000000000000000000000000000000000000000000000000000000000000000000000000000000000000000000000000000000000000000000000000000000000000000000000000000000000000000000000000000000
310
00000000000000000000000000000000000000000000000000000000000000000000000000000000000000000000000000000000000000000000000000000000000000000000000000000000000000000000000000000000000000000000000000000000000000000000000000000000000000000000000000000000000000
310
00000000000000000000000000000000000000000000000000000000000000000000000000000000000000000000000000000000000000000000000000000000000000000000000000000000000000000000000000000000000000000000000000000000000000000000000000000000000000000000000000000000000000
310
00000000000000000000000000000000000000000000000000000000000000000000000000000000000000000000000000000000000000000000000000000000000000000000000000000000000000000000000000000000000000000000000000000000000000000000000000000000000000000006010700000000000000
310
00000000000000000000000000000000000000000000000000000000000000000000000000000000000000000000000000000000000000000000000000000000000000000000000000000000000000000000000000000000000000000000000000000000000000000000000000000000000000000000000000000000000000
310
00000000000000000000000000000000000000000000000000000000000000000000000000000000000000000202000202020000000000000000000000000000000000000000000000000000000000000000000000000000000000000000000000000000000000000000000000000000000000000000000000000000000000
310
00000000000000000000000000000000000000000000000000000000000000000000000000000000000000000000000000000000000000000000000000000000000000000000000000000000000000000000000000000000000000000000000000000000000000000203020000000000000000000000000000000000000000
310
00000000000000000000000000000000000000000000000000000000000000000000000000000000000000000000000000000000000000000000000000000000000000000000000000000000000000000000000000000000000000000000000000000000000000000000000000000000000000000000000000000000000000
310
00000000000000000000000000000000000000000000000000000000000000000000070007000000000000000000000000000000000000000000000000000000000000000000000000000000000000000000000000000000000000000000000000000000000000000000000000000000000000000000000000000000000000
310
00000000000000000000000000000000000000000000000000000000000000000000000000000000000000000000000000000000000000000000000000000000000000000000000000000000000000000000000000000000000000000000000000000000000000000000000000000000000000000000000000000000000000
310
00000000000000000000000000000000000000000000000000000000000000000000000000000000000000000000000000000000000000000000000000000000000000000000000000000000000000000000000000000000000000000000000000000000000000000000000000000000000000000000000000000000000000
310
00000000000000000000000000000000000000000000000000000000000000000000000000000000000000000000000000000000000000000000000000000000000000000000000000000000000000000000000000000000000000000000000000000000000000000000000000000000000000000000000000000000000000
310
00000000000000000000000000000000000000000000000000000000000000000000000000000000000000000000000000000000000000000000000000000000000000000000000000000000000000000000000000000000000000000502020202020202020202000205000000000000000000000000000000000000000000
310
00000000000000000000000000000000000000000000000000000000000000000000000000000000000000000000000000000000000000000000000000000000000000000000000000000000000000000000000000000000000000000000000000000000000000000000000000000000000000000000000000000000000000
310
00000000000000000000000000000000000002020202020500000000000000000000050202020200000000000000000000000000000000000000000000000000000000000000000000000000000000000000000000000000000000000000000000000000000000000000000000000000000000000000000000000000000000
310
00000000000000000000000000000000000000000000000000000000000000000000000000000000000000000000000000000000000000000000000000000000000000000000000007000202000000000000000000000000000000000000000002020000000000000000000000000000000000000000000000000000000000
310
00000000000000000000000000000000000000000000000000000000000000000000000000000000000000000000000000000000000000000000000000000000000000000000000000000000000000000000000000000000000000000000000000000000000000000000000000000000000000000000000000000000000000
310
00000200000000000000000000000000000000000000000000000002020000000000000000000000000000000000000000000000000000000000000000000000000000000000000000000000000000000000000000000000000000000000000000000000000000000000000000000000000000000000000000000000000000
310
00000000000000000000000000000000000000000000000000000000000000000000000000000000000000000000000000000000000000000000020200000000000000000000000000000000000000000000000007000000000000000000000000000000000000000000000000000000000000000000000000000000000000
310
00000000000000000000000000000000000000000000000000000000000000000000000000000000000000000000000000000000000000000000000000000000000000000000000000000000000000000000000000000000000000000000000000000000000000000000000000000000000002000000000000000000000000
310
00000000000000000000000000000000000205000000000000000000000000000000000000000000000000000000000000000000000000000000000000000000000000000000000000000000000000000000000000000000000000000000000000000000000000000000000000000000000000000000000000000000000000
310
00000000000000000000000000000000000000000000000000000000000000000000000000000000000000020200000000000000000000000000000000000000000000000000000000000402070000000000000000000000000000000000000000000000000000000000000000000000000000000000000000000000000000
310
00000000000000000000000000000000000000000000000000000000000000000000000000000000000000000000000000000000000000000000000000000000000000000000000000000000000000000000000000000000000000000000000000000007020700000000000000000000000000000000000000000000000000
310
00000000000000000000000000000000000000000000000000000000000000000000000000000000000000000000000000000000000000000000000000000000000000000000000000000000000000000000000000000000000000000000000000000000000000000000000000000000000000000000000000000000000000
310
00000000000000000000000000000000000000000000000000000000000200000000000000000000000000000000000000000000000000000000000000000002000000000000000000000000000000000000000000000000000000000000000000000000000000000000000000000000000000000000000000000000000000
310
00000000000000000000000000000000000000000000000000000000000000000000000000000000000000000000000000000000000000000000000000000000000000000000000000000000000000000000000000020200000000000000000000000000000000000000000000000000000000000000000002020000000000
310
00000000000000000000000000000000000000000000000000000000000000000000000000000000000000000000000000000000000000000000000000000000000000000000000000000000000000000000000000000000000000000000000000000000000000000000000000000000000000000000000000000000000000
310
00000000000000000000000000000002000000000000000000000000000000000000000000000000000000000000000000000002000000000000000000000000000000000000000000000000000000000000000000000000000000000000000000000000000000000000000000000000000000000000000000000000000000
310
00000000000000000000000000000000000000000000000000000000000000000000000000000000000000000000000000000000000000000000000000000000000000000000000002000000000000000000000000000000000000000000000000000000000000000000000002050000000000000000000000000000000000
310
00000000000000000000000000000000000000000000000000000000000000000000000000000000000000000000000000000000000000000000000000000000000000000000000000000000000000000000000000000000000000000000000000000000000000000000000000000000000000000000000000000000000000
310
00000200000000000000000000000000000000000000000000000000000000000000000000000502000000000000000000000000000000000000000000000000000000000000000000000000000000000000000000000000000000000000000000000000000000000000000000000000000000000000000000000000000000
310
00000000000000000000000000000000000000000000000000000000000000000000000000000000000000000000000000000000000000000000020000000000000000000000000000000000000000000000000000000000000000000000000002000000000000000000000000000000000000000000000000000000000000
310
00000000000000000000000000000000000000000000000000000000000000000000000000000000000000000000000000000000000000000000000000000000000000000000000000000000000000000000000000000000000000000000000000000000000000000000000000000000000000020000000000000000000000
310
00000000000000000000000000000000000000000000000000000200000000000000000000000000000000000000000000000000000000000000000000000000000000000000000000000000000000000000000000000000000000000000000000000000000000000000000000000000000000000000000000000000000000
310
00000000000000000000000000000000000000000000000000000000000000000000000000000000000000000002000000000000000000000000000002020202020202020200000000000000000000000000000200000000000000000000000000000000000000000000000000000000000000000000000000000000000000
310
00000000000000000000000000000000000000000000000000000000000000000000000000000000000000000000000000000000000000000000000000000000000000000000000000000000000000000000000000000000000000000000000000000000000002000000000000000000000000000002020202020202020200
310
00000000000000000000000000020000000000000000000000000000000000000000000000000000000000000000000000000000000000000000000000000000000000000000000000000000000000000000000000000000000000000000000000000000000000000000000000000000000000000000000000000000000000
310
00000000000000000000000000000000000000000000000000000000000000000200000000000000000000000000000002020002000200020000000000000000000000000000020000000000000000000000000000000000000000000000000000000000000000000000000000000000000000000000000000000000000000
310
00000000000000000000000000000000000000000000000000000000000000000000000000000000000000000000000000000000000000000000000000000000000000000000000000000000000000000000000000000000000200000000000000000000000000000002020002000200020000000000000000000000000000
310
02000000000000000000000000000000000000000000000000000000000000000000000000000000000000000000000000000000000000000000000000000000000000000000000000000000000000000000000000000000000000000000000000000000000000000000000000000000000000000000000000000000000000
310
00000000000000000000000000000000000000020000000000000000000000000000000202000200020002000000000000000000000000000002000000000000000000000000000000000000000000000000000000000000000000000000000000000000000000000000000000000000000000000000000000000000000000
310
00000000000000000000000000000000000000000000000000000000000000000000000000000000000000000000000000000000000000000000000000000000000000000000000000000000020000000000000000000000000000020202020202020202000000000000000000000000000002000000000000000000000000
310
00000000000000000000000000000000000000000000000000000000000000000000000000000000000000000000000000000000000000000000000000000000000000000000000000000000000000000000000000000000000000000000000000000000000000000000000000000000000000000000000000000000000000
310
00000000000002000000000000000000000000000000000000000000000000000000000000000000000000000000000000000000000000000000000000000000000000000000000000000000000000000000000000000000000000000000000000000000000000000000000000000000000000000000000000000000000000
310
00000000000000000000000000000000000000000000000000000000000000000000000000000000000000000000000000000000000000000000000000000002000000000000000000000000000000000000000000000000000000000000000000000000000200000000000000000000000000000000000000000000000000
310
00000000000000000000000000000000000000000000000000000000000000000000000000000000000000000000000000000000000000000000000000000000000000000000000000000000000000000000000000000000000000000000000000000000000000000000000000000000000000000000000002000000000000
310
00000000000000000000000000000000000000000000000000000000000000020000000000000000000000000000000000000000000000000000000000000000000000000000000000000000000000000000000000000000000000000000000000000000000000000000000000000000000000000000000000000000000000
310
00000000000000000000000000000000000000000000000000000000000000000000000000000000000000000000000000000002000000000000000000000000000000000000000000000000000000000000000000000005020000000000000000000000000000000000000000000000000000000000000000000000000000
310
00000000000000000000000000000000000000000000000000000000000000000000000000000000000000000000000000000000000000000000000000000000000000000000000000000000000000000000000000000000000000000000000000000000000000000000000002000000000000000000000000000000000000
310
00000000000000000000000000000000000205000000000000000000000000000000000000000000000000000000000000000000000000000000000000000000000000000000000000000000000000000000000000000000000000000000000000000000000000000000000000000000000000000000000000000000000000
310
00000000000000000000000000000000000000000000000000000000000000000000000000000200000000000000000000000000000000000000000000000000000000000000000000000200000000000000000000000000000000000000000000000000000000000000000000000000000000000000000000000000000000
310
00000000000000000000000000000000000000000000000000000000000000000000000000000000000000000000000000000000000000000000000000000000000000000000000000000000000000000000000000000000000000000000000002000000000000000000000000000000000000000000000000000000000000
310
00000002000000000000000000000000000000000000000000000000000000000000000000000000000000000000000000000000000000000000000000000000000000000000000000000000000000000000000000000000000000000000000000000000000000000000000000000000000000000000000000000000000000
310
00000000000000000000000000000000000000000000000000000200000000000000000000000000000000000000000000000000000000000000000002000000000000000000000000000000000000000000000000000000000000000000000000000000000000000000000000000000000000000000000000000000000000
310
00000000000000000000000000000000000000000000000000000000000000000000000000000000000000000000000000000000000000000000000000000000000000000000000000000000000000000000000702070000000000000000000000000000000000000000000000000000000000000202070000000000000000
310
00000000000000000000000000000000000000000000000000000000000000000000000000000000000000000000000000000000000000000000000000000000000000000000000000000000000000000000000000000000000000000000000000000000000000000000000000000000000000000000000000000000000000
310
00000000000000000000000000000002000000000000000000000000000000000000000000000000000000000005020000000000000000000000000000000000000000000000000000000000000000000000000000000000000000000000000000000000000000000000000000000000000000000000000000000000000000
310
00000000000000000000000000000000000000000000000000000000000000000000000000000000000000000000000000000000000000000000000000000000000000000000000002020500000000000000000000000000000000000000000000000000000202050000000000000000000000000000000000000000000000
310
00000000000000000000000000000000000000000000000000000000000000000000000000000000000000000000000000000000000000000000000000000000000000000000000000000000000000000000000000000000000000000000000000000000000000000000000000000000000000000000000000000000000000
310
00000005020700000000000000000000000000000000000000000000000002020000000000000000000000000000000000000000000000000000000000000000000000000000000000000000000000000000000000000000000000000000000000000000000000000000000000000000000000000000000000000000000000
310
00000000000000000000000000000000000000000000000000000000000000000000000000000000000000000000000000000000000000000000000000020202050000000000000000000000000000000000000000050202000000000000000000000000000000000000000000000000000000000000000000000000000000
310
00000000000000000000000000000000000000000000000000000000000000000000000000000000000000000000000000000000000000000000000000000000000000000000000000000000000000000000000000000000000000000000000000000000000000000000000000000000000000000000000705020500000000
310
00000000000000000000000000050202050700000000000000000000000000000000000000000000000000000000000000000000000000000000000000000000000000000000000000000000000000000000000000000000000000000000000000000000000000000000000000000000000000000000000000000000000000
310
00000000000000000000000000000000000000000000000000000000000000000000000000000000000000000000000000000005020202020202020202020202020202020202020500000000000000000000000000000000000000000000000000000000000000000000000000000000000000000000000000000000000000
310
00000000000000000000000000000000000000000000000000000000000000000000000000000000000000000000000000000000000000000000000000000000000000000000000000000000000000000000000000000000000000000000000000000000000000000000000000000000000000000000000000000000000000
310
00000000000000000000000000000000000000000000000000000000000000000000000000000000000000000000000000000000000000000000000000000000000000000000000000000000000000000000000000000000000000000000000000000000000000000000000000000000000000000000000000000000000000
310
00000000000000000000000000000000000000000000000000000000000000000000000000000000000000000000000000000000000000000000000000000000000000000000000000000000000000000000000000000000000000000000000000000000000000000000000000000000000000000000000000000000000000
310
00000000000000000000000000000000000000000000000000000000000000000000000000000000000000000000000000000000000000000000000000000000000000000000000000000000000000000000000000000000000000000000000000000000000000000000000000000000000000000000000000000000000000
310
00000000000000000000000000000000000000000000000000000000000000000000000000000000000000000000000000000000000000000000000000000000000000000000000000000000000000000000000000000000000000000000000000000000000000000000000000000000000000000000000000000000000000
310
00000000000000000000000000000000000000000000000000000000000000000000000000000000000000000000000000000000000000000000000000000000000000000000000000000000000000000000000000000000000000000000000000000000000000000000000000000000000000000000000000000000000000
310
00000000000000000000000000000000000000000000000000000000000000000000000000000000000000000000000000000000000000000000000000000000000000000000000000000000000000000000000000000000000000000000000000000000000000000000000000000000000000000000000000000000000000
310
00000000000000000000000000000000000000000000000000000000000000000000000000000000000000000000000000000000000000000000000000000000000000000000000000000000000000000000000000000000000000000000000000000000000000000000000000000000000000000000000000000000000000
310
00000000000000000000000000000000000000000000000000000000000000000000000000000000000000000000000000000000000000000000000000000000000000000000000000000000000000000000000000000000000000000000000000000000000000000000000000000000000000000000000000000000000000
310
000000000000000000000000000000000000
  0
ENDSEC
  0
EOF
