  0
SECTION
  2
HEADER
  9
$ACADVER
  1
AC1027
  9
$ACADMAINTVER
 70
   125
  9
$DWGCODEPAGE
  3
ANSI_1252
  9
$SUBJECT
  1
MicroStation
  9
$AUTHOR
  1
WAEngineering2
  9
$LASTSAVEDBY
  1
WAEngineering2
  9
$REQUIREDVERSIONS
160
                 0
  9
$INSBASE
 10
0.0
 20
0.0
 30
0.0
  9
$EXTMIN
 10
654.9
 20
209.2
 30
0.0
  9
$EXTMAX
 10
6079.6
 20
5634.0
 30
0.0
  9
$LIMMIN
 10
-11976.260046
 20
-12421.910046
  9
$LIMMAX
 10
18710.760046
 20
18265.110046
  9
$ORTHOMODE
 70
     0
  9
$REGENMODE
 70
     1
  9
$FILLMODE
 70
     1
  9
$QTEXTMODE
 70
     0
  9
$MIRRTEXT
 70
     0
  9
$LTSCALE
 40
1.0
  9
$ATTMODE
 70
     1
  9
$TEXTSIZE
 40
3.0
  9
$TRACEWID
 40
0.05
  9
$TEXTSTYLE
  7
Standard
  9
$CLAYER
  8
0
  9
$CELTYPE
  6
Continuous
  9
$CECOLOR
 62
     3
  9
$CELTSCALE
 40
1.0
  9
$DISPSILH
 70
     0
  9
$DIMSCALE
 40
1.0
  9
$DIMASZ
 40
3.0
  9
$DIMEXO
 40
1.5
  9
$DIMDLI
 40
0.0
  9
$DIMRND
 40
0.0
  9
$DIMDLE
 40
0.0
  9
$DIMEXE
 40
1.5
  9
$DIMTP
 40
0.0
  9
$DIMTM
 40
0.0
  9
$DIMTXT
 40
3.0
  9
$DIMCEN
 40
2.0
  9
$DIMTSZ
 40
0.0
  9
$DIMTOL
 70
     0
  9
$DIMLIM
 70
     0
  9
$DIMTIH
 70
     0
  9
$DIMTOH
 70
     0
  9
$DIMSE1
 70
     0
  9
$DIMSE2
 70
     0
  9
$DIMTAD
 70
     1
  9
$DIMZIN
 70
    11
  9
$DIMBLK
  1

  9
$DIMASO
 70
     1
  9
$DIMSHO
 70
     1
  9
$DIMPOST
  1

  9
$DIMAPOST
  1

  9
$DIMALT
 70
     0
  9
$DIMALTD
 70
     4
  9
$DIMALTF
 40
0.000001
  9
$DIMLFAC
 40
1.0
  9
$DIMTOFL
 70
     0
  9
$DIMTVP
 40
0.0
  9
$DIMTIX
 70
     0
  9
$DIMSOXD
 70
     0
  9
$DIMSAH
 70
     0
  9
$DIMBLK1
  1

  9
$DIMBLK2
  1

  9
$DIMSTYLE
  2
Standard
  9
$DIMCLRD
 70
     0
  9
$DIMCLRE
 70
     0
  9
$DIMCLRT
 70
     0
  9
$DIMTFAC
 40
1.0
  9
$DIMGAP
 40
1.5
  9
$DIMJUST
 70
     0
  9
$DIMSD1
 70
     0
  9
$DIMSD2
 70
     0
  9
$DIMTOLJ
 70
     1
  9
$DIMTZIN
 70
    11
  9
$DIMALTZ
 70
    15
  9
$DIMALTTZ
 70
    15
  9
$DIMUPT
 70
     0
  9
$DIMDEC
 70
     1
  9
$DIMTDEC
 70
     0
  9
$DIMALTU
 70
     2
  9
$DIMALTTD
 70
     0
  9
$DIMTXSTY
  7
Style-INTL_ISO
  9
$DIMAUNIT
 70
     0
  9
$DIMADEC
 70
     0
  9
$DIMALTRND
 40
0.0
  9
$DIMAZIN
 70
     3
  9
$DIMDSEP
 70
     0
  9
$DIMATFIT
 70
     1
  9
$DIMFRAC
 70
     2
  9
$DIMLDRBLK
  1

  9
$DIMLUNIT
 70
     2
  9
$DIMLWD
 70
    -2
  9
$DIMLWE
 70
    -2
  9
$DIMTMOVE
 70
     0
  9
$DIMFXL
 40
1.0
  9
$DIMFXLON
 70
     0
  9
$DIMJOGANG
 40
0.785398
  9
$DIMTFILL
 70
     0
  9
$DIMTFILLCLR
 70
     0
  9
$DIMARCSYM
 70
     0
  9
$DIMLTYPE
  6
ByBlock
  9
$DIMLTEX1
  6
ByBlock
  9
$DIMLTEX2
  6
ByBlock
  9
$DIMTXTDIRECTION
 70
     0
  9
$LUNITS
 70
     2
  9
$LUPREC
 70
     1
  9
$SKETCHINC
 40
0.1
  9
$FILLETRAD
 40
0.0
  9
$AUNITS
 70
     0
  9
$AUPREC
 70
     0
  9
$MENU
  1
.
  9
$ELEVATION
 40
0.0
  9
$PELEVATION
 40
0.0
  9
$THICKNESS
 40
0.0
  9
$LIMCHECK
 70
     0
  9
$CHAMFERA
 40
0.0
  9
$CHAMFERB
 40
0.0
  9
$CHAMFERC
 40
0.0
  9
$CHAMFERD
 40
0.0
  9
$SKPOLY
 70
     0
  9
$TDCREATE
 40
2454145.111354167
  9
$TDUCREATE
 40
2454144.778024017
  9
$TDUPDATE
 40
2458045.399039352
  9
$TDUUPDATE
 40
2458045.065706019
  9
$TDINDWG
 40
0.0057927662
  9
$TDUSRTIMER
 40
0.0057925810
  9
$USRTIMER
 70
     1
  9
$ANGBASE
 50
0.0
  9
$ANGDIR
 70
     0
  9
$PDMODE
 70
     0
  9
$PDSIZE
 40
0.0
  9
$PLINEWID
 40
0.0
  9
$SPLFRAME
 70
     0
  9
$SPLINETYPE
 70
     6
  9
$SPLINESEGS
 70
     8
  9
$HANDSEED
  5
1443A
  9
$SURFTAB1
 70
     6
  9
$SURFTAB2
 70
     6
  9
$SURFTYPE
 70
     6
  9
$SURFU
 70
     6
  9
$SURFV
 70
     6
  9
$UCSBASE
  2

  9
$UCSNAME
  2

  9
$UCSORG
 10
0.0
 20
0.0
 30
0.0
  9
$UCSXDIR
 10
1.0
 20
0.0
 30
0.0
  9
$UCSYDIR
 10
0.0
 20
1.0
 30
0.0
  9
$UCSORTHOREF
  2

  9
$UCSORTHOVIEW
 70
     0
  9
$UCSORGTOP
 10
0.0
 20
0.0
 30
0.0
  9
$UCSORGBOTTOM
 10
0.0
 20
0.0
 30
0.0
  9
$UCSORGLEFT
 10
0.0
 20
0.0
 30
0.0
  9
$UCSORGRIGHT
 10
0.0
 20
0.0
 30
0.0
  9
$UCSORGFRONT
 10
0.0
 20
0.0
 30
0.0
  9
$UCSORGBACK
 10
0.0
 20
0.0
 30
0.0
  9
$PUCSBASE
  2

  9
$PUCSNAME
  2

  9
$PUCSORG
 10
0.0
 20
0.0
 30
0.0
  9
$PUCSXDIR
 10
1.0
 20
0.0
 30
0.0
  9
$PUCSYDIR
 10
0.0
 20
1.0
 30
0.0
  9
$PUCSORTHOREF
  2

  9
$PUCSORTHOVIEW
 70
     0
  9
$PUCSORGTOP
 10
0.0
 20
0.0
 30
0.0
  9
$PUCSORGBOTTOM
 10
0.0
 20
0.0
 30
0.0
  9
$PUCSORGLEFT
 10
0.0
 20
0.0
 30
0.0
  9
$PUCSORGRIGHT
 10
0.0
 20
0.0
 30
0.0
  9
$PUCSORGFRONT
 10
0.0
 20
0.0
 30
0.0
  9
$PUCSORGBACK
 10
0.0
 20
0.0
 30
0.0
  9
$USERI1
 70
     0
  9
$USERI2
 70
     0
  9
$USERI3
 70
     0
  9
$USERI4
 70
     0
  9
$USERI5
 70
     0
  9
$USERR1
 40
0.0
  9
$USERR2
 40
0.0
  9
$USERR3
 40
0.0
  9
$USERR4
 40
0.0
  9
$USERR5
 40
0.0
  9
$WORLDVIEW
 70
     1
  9
$SHADEDGE
 70
     3
  9
$SHADEDIF
 70
    70
  9
$TILEMODE
 70
     1
  9
$MAXACTVP
 70
    64
  9
$PINSBASE
 10
0.0
 20
0.0
 30
0.0
  9
$PLIMCHECK
 70
     0
  9
$PEXTMIN
 10
1.05
 20
0.8
 30
0.0
  9
$PEXTMAX
 10
9.45
 20
7.2
 30
0.0
  9
$PLIMMIN
 10
-0.25
 20
-0.25
  9
$PLIMMAX
 10
10.75
 20
8.25
  9
$UNITMODE
 70
     0
  9
$VISRETAIN
 70
     1
  9
$PLINEGEN
 70
     0
  9
$PSLTSCALE
 70
     0
  9
$TREEDEPTH
 70
  3020
  9
$CMLSTYLE
  2
Standard
  9
$CMLJUST
 70
     0
  9
$CMLSCALE
 40
1.0
  9
$PROXYGRAPHICS
 70
     1
  9
$MEASUREMENT
 70
     0
  9
$CELWEIGHT
370
     0
  9
$ENDCAPS
280
     0
  9
$JOINSTYLE
280
     0
  9
$LWDISPLAY
290
     1
  9
$INSUNITS
 70
     4
  9
$HYPERLINKBASE
  1

  9
$STYLESHEET
  1

  9
$XEDIT
290
     1
  9
$CEPSNTYPE
380
     0
  9
$PSTYLEMODE
290
     1
  9
$FINGERPRINTGUID
  2
{75D59B50-DB69-C647-95A7-B23B750C43C4}
  9
$VERSIONGUID
  2
{38E7CD85-556C-4D6E-9C4C-B935CE7E055D}
  9
$EXTNAMES
290
     1
  9
$PSVPSCALE
 40
0.0
  9
$OLESTARTUP
290
     0
  9
$SORTENTS
280
   127
  9
$INDEXCTL
280
     0
  9
$HIDETEXT
280
     1
  9
$XCLIPFRAME
280
     0
  9
$HALOGAP
280
     0
  9
$OBSCOLOR
 70
   257
  9
$OBSLTYPE
280
     0
  9
$INTERSECTIONDISPLAY
280
     0
  9
$INTERSECTIONCOLOR
 70
   257
  9
$DIMASSOC
280
     2
  9
$PROJECTNAME
  1

  9
$CAMERADISPLAY
290
     0
  9
$LENSLENGTH
 40
50.0
  9
$CAMERAHEIGHT
 40
0.0
  9
$STEPSPERSEC
 40
2.0
  9
$STEPSIZE
 40
6.0
  9
$3DDWFPREC
 40
2.0
  9
$PSOLWIDTH
 40
0.25
  9
$PSOLHEIGHT
 40
4.0
  9
$LOFTANG1
 40
1.570796
  9
$LOFTANG2
 40
1.570796
  9
$LOFTMAG1
 40
0.0
  9
$LOFTMAG2
 40
0.0
  9
$LOFTPARAM
 70
     7
  9
$LOFTNORMALS
280
     1
  9
$LATITUDE
 40
37.795
  9
$LONGITUDE
 40
-122.394
  9
$NORTHDIRECTION
 40
0.0
  9
$TIMEZONE
 70
 -8000
  9
$LIGHTGLYPHDISPLAY
280
     1
  9
$TILEMODELIGHTSYNCH
280
     1
  9
$CMATERIAL
347
13DCE
  9
$SOLIDHIST
280
     1
  9
$SHOWHIST
280
     1
  9
$DWFFRAME
280
     2
  9
$DGNFRAME
280
     0
  9
$REALWORLDSCALE
290
     1
  9
$INTERFERECOLOR
 62
     1
  9
$INTERFEREOBJVS
345
13DF6
  9
$INTERFEREVPVS
346
13DF7
  9
$CSHADOW
280
     0
  9
$SHADOWPLANELOCATION
 40
0.0
  0
ENDSEC
  0
SECTION
  2
CLASSES
  0
CLASS
  1
ACDBDICTIONARYWDFLT
  2
AcDbDictionaryWithDefault
  3
ObjectDBX Classes
 90
        0
 91
        1
280
     0
281
     0
  0
CLASS
  1
DICTIONARYVAR
  2
AcDbDictionaryVar
  3
ObjectDBX Classes
 90
        0
 91
        9
280
     0
281
     0
  0
CLASS
  1
TABLESTYLE
  2
AcDbTableStyle
  3
ObjectDBX Classes
 90
     4095
 91
        1
280
     0
281
     0
  0
CLASS
  1
MATERIAL
  2
AcDbMaterial
  3
ObjectDBX Classes
 90
     1153
 91
        4
280
     0
281
     0
  0
CLASS
  1
VISUALSTYLE
  2
AcDbVisualStyle
  3
ObjectDBX Classes
 90
     4095
 91
       24
280
     0
281
     0
  0
CLASS
  1
SCALE
  2
AcDbScale
  3
ObjectDBX Classes
 90
     1153
 91
       33
280
     0
281
     0
  0
CLASS
  1
MLEADERSTYLE
  2
AcDbMLeaderStyle
  3
ACDB_MLEADERSTYLE_CLASS
 90
     4095
 91
        1
280
     0
281
     0
  0
CLASS
  1
EXACXREFPANELOBJECT
  2
ExAcXREFPanelObject
  3
EXAC_ESW
 90
     1025
 91
        0
280
     1
281
     0
  0
CLASS
  1
NPOCOLLECTION
  2
AcDbImpNonPersistentObjectsCollection
  3
ObjectDBX Classes
 90
     1153
 91
        0
280
     0
281
     0
  0
CLASS
  1
CELLSTYLEMAP
  2
AcDbCellStyleMap
  3
ObjectDBX Classes
 90
     1152
 91
        2
280
     0
281
     0
  0
CLASS
  1
ACDBSECTIONVIEWSTYLE
  2
AcDbSectionViewStyle
  3
ObjectDBX Classes
 90
     1025
 91
        1
280
     0
281
     0
  0
CLASS
  1
ACDBDETAILVIEWSTYLE
  2
AcDbDetailViewStyle
  3
ObjectDBX Classes
 90
     1025
 91
        1
280
     0
281
     0
  0
CLASS
  1
SORTENTSTABLE
  2
AcDbSortentsTable
  3
ObjectDBX Classes
 90
        0
 91
        1
280
     0
281
     0
  0
ENDSEC
  0
SECTION
  2
TABLES
  0
TABLE
  2
VPORT
  5
13DC2
330
0
100
AcDbSymbolTable
 70
     1
1001
ACAD
1000
DbSaveVer
1071
      253
  0
VPORT
  5
4B
330
13DC2
100
AcDbSymbolTableRecord
100
AcDbViewportTableRecord
  2
*ACTIVE
 70
     0
 10
0.0
 20
0.0
 11
1.0
 21
1.0
 12
3367.238337
 22
2921.570746
 13
0.0
 23
0.0
 14
100000.0
 24
100000.0
 15
100000.0
 25
100000.0
 16
0.0
 26
0.0
 36
1.0
 17
0.0
 27
0.0
 37
0.0
 40
5641.659061
 41
2.440986
 42
50.0
 43
0.0
 44
0.0
 50
0.0
 51
0.0
 71
     0
 72
 20000
 73
     1
 74
     1
 75
     0
 76
     0
 77
     0
 78
     1
281
     0
 65
     1
110
0.0
120
0.0
130
0.0
111
1.0
121
0.0
131
0.0
112
0.0
122
1.0
132
0.0
 79
     0
146
0.0
348
13DC4
 60
     3
 61
     1
292
     0
282
     1
141
0.0
142
0.0
 63
     7
421
 16777215
  0
ENDTAB
  0
TABLE
  2
LTYPE
  5
13DBD
330
0
100
AcDbSymbolTable
 70
     2
  0
LTYPE
  5
13DBE
330
13DBD
100
AcDbSymbolTableRecord
100
AcDbLinetypeTableRecord
  2
ByBlock
 70
     0
  3

 72
    65
 73
     0
 40
0.0
  0
LTYPE
  5
13DBF
330
13DBD
100
AcDbSymbolTableRecord
100
AcDbLinetypeTableRecord
  2
ByLayer
 70
     0
  3

 72
    65
 73
     0
 40
0.0
  0
LTYPE
  5
13D8D
330
13DBD
100
AcDbSymbolTableRecord
100
AcDbLinetypeTableRecord
  2
Continuous
 70
     0
  3
Solid line
 72
    65
 73
     0
 40
0.0
  0
LTYPE
  5
13F61
330
13DBD
100
AcDbSymbolTableRecord
100
AcDbLinetypeTableRecord
  2
DGN Style 2
 70
     0
  3
Dgn Style 2
 72
    65
 73
     2
 40
137.712093
 49
82.627256
 74
     0
 49
-55.084837
 74
     0
  0
ENDTAB
  0
TABLE
  2
LAYER
  5
13DB5
102
{ACAD_XDICTIONARY
360
13DB6
102
}
330
0
100
AcDbSymbolTable
 70
   336
  0
LAYER
  5
13D7E
102
{ACAD_XDICTIONARY
360
13D7F
102
}
330
13DB5
100
AcDbSymbolTableRecord
100
AcDbLayerTableRecord
  2
0
 70
     0
 62
     3
  6
Continuous
370
    -3
390
13D81
347
13D84
348
0
1001
AcCmTransparency
1071
 33554687
  0
LAYER
  5
13DEC
330
13DB5
100
AcDbSymbolTableRecord
100
AcDbLayerTableRecord
  2
Level 1
 70
     0
 62
     7
  6
Continuous
370
     0
390
13D81
347
13D84
348
0
1001
AcCmTransparency
1071
 33554687
  0
LAYER
  5
13D90
330
13DB5
100
AcDbSymbolTableRecord
100
AcDbLayerTableRecord
  2
Level 2
 70
     0
 62
     7
  6
Continuous
370
     0
390
13D81
347
13D84
348
0
1001
AcCmTransparency
1071
 33554687
  0
LAYER
  5
13E19
330
13DB5
100
AcDbSymbolTableRecord
100
AcDbLayerTableRecord
  2
A!|Level 1
 70
    16
 62
     7
  6
Continuous
370
     0
390
13D81
347
13D84
348
0
1001
AcCmTransparency
1071
 33554687
  0
LAYER
  5
13E1A
330
13DB5
100
AcDbSymbolTableRecord
100
AcDbLayerTableRecord
  2
A!|Level 2
 70
    16
 62
     7
  6
Continuous
370
     0
390
13D81
347
13D84
348
0
1001
AcCmTransparency
1071
 33554687
  0
LAYER
  5
13E1B
330
13DB5
100
AcDbSymbolTableRecord
100
AcDbLayerTableRecord
  2
A!|Level 3
 70
    16
 62
     7
  6
Continuous
370
     0
390
13D81
347
13D84
348
0
1001
AcCmTransparency
1071
 33554687
  0
LAYER
  5
13E1C
330
13DB5
100
AcDbSymbolTableRecord
100
AcDbLayerTableRecord
  2
A!|Level 4
 70
    16
 62
     7
  6
Continuous
370
     0
390
13D81
347
13D84
348
0
1001
AcCmTransparency
1071
 33554687
  0
LAYER
  5
13E1D
330
13DB5
100
AcDbSymbolTableRecord
100
AcDbLayerTableRecord
  2
A!|Level 5
 70
    16
 62
     7
  6
Continuous
370
     0
390
13D81
347
13D84
348
0
1001
AcCmTransparency
1071
 33554687
  0
LAYER
  5
13E1E
330
13DB5
100
AcDbSymbolTableRecord
100
AcDbLayerTableRecord
  2
A!|Level 6
 70
    16
 62
     7
  6
Continuous
370
     0
390
13D81
347
13D84
348
0
1001
AcCmTransparency
1071
 33554687
  0
LAYER
  5
13E1F
330
13DB5
100
AcDbSymbolTableRecord
100
AcDbLayerTableRecord
  2
A!|Level 7
 70
    16
 62
     7
  6
Continuous
370
     0
390
13D81
347
13D84
348
0
1001
AcCmTransparency
1071
 33554687
  0
LAYER
  5
13E20
330
13DB5
100
AcDbSymbolTableRecord
100
AcDbLayerTableRecord
  2
A!|Level 8
 70
    16
 62
     7
  6
Continuous
370
     0
390
13D81
347
13D84
348
0
1001
AcCmTransparency
1071
 33554687
  0
LAYER
  5
13E21
330
13DB5
100
AcDbSymbolTableRecord
100
AcDbLayerTableRecord
  2
A!|Level 9
 70
    16
 62
     7
  6
Continuous
370
     0
390
13D81
347
13D84
348
0
1001
AcCmTransparency
1071
 33554687
  0
LAYER
  5
13E22
330
13DB5
100
AcDbSymbolTableRecord
100
AcDbLayerTableRecord
  2
A!|Level 10
 70
    16
 62
     7
  6
Continuous
370
     0
390
13D81
347
13D84
348
0
1001
AcCmTransparency
1071
 33554687
  0
LAYER
  5
13E23
330
13DB5
100
AcDbSymbolTableRecord
100
AcDbLayerTableRecord
  2
A!|Level 11
 70
    16
 62
     7
  6
Continuous
370
     0
390
13D81
347
13D84
348
0
1001
AcCmTransparency
1071
 33554687
  0
LAYER
  5
13E24
330
13DB5
100
AcDbSymbolTableRecord
100
AcDbLayerTableRecord
  2
A!|Level 12
 70
    16
 62
     7
  6
Continuous
370
     0
390
13D81
347
13D84
348
0
1001
AcCmTransparency
1071
 33554687
  0
LAYER
  5
13E25
330
13DB5
100
AcDbSymbolTableRecord
100
AcDbLayerTableRecord
  2
A!|Level 13
 70
    16
 62
     7
  6
Continuous
370
     0
390
13D81
347
13D84
348
0
1001
AcCmTransparency
1071
 33554687
  0
LAYER
  5
13E26
330
13DB5
100
AcDbSymbolTableRecord
100
AcDbLayerTableRecord
  2
A!|Level 14
 70
    16
 62
     7
  6
Continuous
370
     0
390
13D81
347
13D84
348
0
1001
AcCmTransparency
1071
 33554687
  0
LAYER
  5
13E27
330
13DB5
100
AcDbSymbolTableRecord
100
AcDbLayerTableRecord
  2
A!|Level 15
 70
    16
 62
     7
  6
Continuous
370
     0
390
13D81
347
13D84
348
0
1001
AcCmTransparency
1071
 33554687
  0
LAYER
  5
13E28
330
13DB5
100
AcDbSymbolTableRecord
100
AcDbLayerTableRecord
  2
A!|Level 16
 70
    16
 62
     7
  6
Continuous
370
     0
390
13D81
347
13D84
348
0
1001
AcCmTransparency
1071
 33554687
  0
LAYER
  5
13E29
330
13DB5
100
AcDbSymbolTableRecord
100
AcDbLayerTableRecord
  2
A!|Level 17
 70
    16
 62
     7
  6
Continuous
370
     0
390
13D81
347
13D84
348
0
1001
AcCmTransparency
1071
 33554687
  0
LAYER
  5
13E2A
330
13DB5
100
AcDbSymbolTableRecord
100
AcDbLayerTableRecord
  2
A!|Level 18
 70
    16
 62
     7
  6
Continuous
370
     0
390
13D81
347
13D84
348
0
1001
AcCmTransparency
1071
 33554687
  0
LAYER
  5
13E2B
330
13DB5
100
AcDbSymbolTableRecord
100
AcDbLayerTableRecord
  2
A!|Level 19
 70
    16
 62
     7
  6
Continuous
370
     0
390
13D81
347
13D84
348
0
1001
AcCmTransparency
1071
 33554687
  0
LAYER
  5
13E2C
330
13DB5
100
AcDbSymbolTableRecord
100
AcDbLayerTableRecord
  2
A!|Level 20
 70
    16
 62
     7
  6
Continuous
370
     0
390
13D81
347
13D84
348
0
1001
AcCmTransparency
1071
 33554687
  0
LAYER
  5
13E2D
330
13DB5
100
AcDbSymbolTableRecord
100
AcDbLayerTableRecord
  2
A!|Level 21
 70
    16
 62
     7
  6
Continuous
370
     0
390
13D81
347
13D84
348
0
1001
AcCmTransparency
1071
 33554687
  0
LAYER
  5
13E2E
330
13DB5
100
AcDbSymbolTableRecord
100
AcDbLayerTableRecord
  2
A!|Level 22
 70
    16
 62
     7
  6
Continuous
370
     0
390
13D81
347
13D84
348
0
1001
AcCmTransparency
1071
 33554687
  0
LAYER
  5
13E2F
330
13DB5
100
AcDbSymbolTableRecord
100
AcDbLayerTableRecord
  2
A!|Level 23
 70
    16
 62
     7
  6
Continuous
370
     0
390
13D81
347
13D84
348
0
1001
AcCmTransparency
1071
 33554687
  0
LAYER
  5
13E30
330
13DB5
100
AcDbSymbolTableRecord
100
AcDbLayerTableRecord
  2
A!|Level 24
 70
    16
 62
     7
  6
Continuous
370
     0
390
13D81
347
13D84
348
0
1001
AcCmTransparency
1071
 33554687
  0
LAYER
  5
13E31
330
13DB5
100
AcDbSymbolTableRecord
100
AcDbLayerTableRecord
  2
A!|Level 25
 70
    16
 62
     7
  6
Continuous
370
     0
390
13D81
347
13D84
348
0
1001
AcCmTransparency
1071
 33554687
  0
LAYER
  5
13E32
330
13DB5
100
AcDbSymbolTableRecord
100
AcDbLayerTableRecord
  2
A!|Level 26
 70
    16
 62
     7
  6
Continuous
370
     0
390
13D81
347
13D84
348
0
1001
AcCmTransparency
1071
 33554687
  0
LAYER
  5
13E33
330
13DB5
100
AcDbSymbolTableRecord
100
AcDbLayerTableRecord
  2
A!|Level 27
 70
    16
 62
     7
  6
Continuous
370
     0
390
13D81
347
13D84
348
0
1001
AcCmTransparency
1071
 33554687
  0
LAYER
  5
13E34
330
13DB5
100
AcDbSymbolTableRecord
100
AcDbLayerTableRecord
  2
A!|Level 28
 70
    16
 62
     7
  6
Continuous
370
     0
390
13D81
347
13D84
348
0
1001
AcCmTransparency
1071
 33554687
  0
LAYER
  5
13E35
330
13DB5
100
AcDbSymbolTableRecord
100
AcDbLayerTableRecord
  2
A!|Level 29
 70
    16
 62
     7
  6
Continuous
370
     0
390
13D81
347
13D84
348
0
1001
AcCmTransparency
1071
 33554687
  0
LAYER
  5
13E36
330
13DB5
100
AcDbSymbolTableRecord
100
AcDbLayerTableRecord
  2
A!|Level 30
 70
    16
 62
     7
  6
Continuous
370
     0
390
13D81
347
13D84
348
0
1001
AcCmTransparency
1071
 33554687
  0
LAYER
  5
13E37
330
13DB5
100
AcDbSymbolTableRecord
100
AcDbLayerTableRecord
  2
A!|Level 31
 70
    16
 62
     7
  6
Continuous
370
     0
390
13D81
347
13D84
348
0
1001
AcCmTransparency
1071
 33554687
  0
LAYER
  5
13E38
330
13DB5
100
AcDbSymbolTableRecord
100
AcDbLayerTableRecord
  2
A!|Level 32
 70
    16
 62
     7
  6
Continuous
370
     0
390
13D81
347
13D84
348
0
1001
AcCmTransparency
1071
 33554687
  0
LAYER
  5
13E39
330
13DB5
100
AcDbSymbolTableRecord
100
AcDbLayerTableRecord
  2
A!|Level 33
 70
    16
 62
     7
  6
Continuous
370
     0
390
13D81
347
13D84
348
0
1001
AcCmTransparency
1071
 33554687
  0
LAYER
  5
13E3A
330
13DB5
100
AcDbSymbolTableRecord
100
AcDbLayerTableRecord
  2
A!|Level 34
 70
    16
 62
     7
  6
Continuous
370
     0
390
13D81
347
13D84
348
0
1001
AcCmTransparency
1071
 33554687
  0
LAYER
  5
13E3B
330
13DB5
100
AcDbSymbolTableRecord
100
AcDbLayerTableRecord
  2
A!|Level 35
 70
    16
 62
     7
  6
Continuous
370
     0
390
13D81
347
13D84
348
0
1001
AcCmTransparency
1071
 33554687
  0
LAYER
  5
13E3C
330
13DB5
100
AcDbSymbolTableRecord
100
AcDbLayerTableRecord
  2
A!|Level 36
 70
    16
 62
     7
  6
Continuous
370
     0
390
13D81
347
13D84
348
0
1001
AcCmTransparency
1071
 33554687
  0
LAYER
  5
13E3D
330
13DB5
100
AcDbSymbolTableRecord
100
AcDbLayerTableRecord
  2
A!|Level 37
 70
    16
 62
     7
  6
Continuous
370
     0
390
13D81
347
13D84
348
0
1001
AcCmTransparency
1071
 33554687
  0
LAYER
  5
13E3E
330
13DB5
100
AcDbSymbolTableRecord
100
AcDbLayerTableRecord
  2
A!|Level 38
 70
    16
 62
     7
  6
Continuous
370
     0
390
13D81
347
13D84
348
0
1001
AcCmTransparency
1071
 33554687
  0
LAYER
  5
13E3F
330
13DB5
100
AcDbSymbolTableRecord
100
AcDbLayerTableRecord
  2
A!|Level 39
 70
    16
 62
     7
  6
Continuous
370
     0
390
13D81
347
13D84
348
0
1001
AcCmTransparency
1071
 33554687
  0
LAYER
  5
13E40
330
13DB5
100
AcDbSymbolTableRecord
100
AcDbLayerTableRecord
  2
A!|Level 40
 70
    16
 62
     7
  6
Continuous
370
     0
390
13D81
347
13D84
348
0
1001
AcCmTransparency
1071
 33554687
  0
LAYER
  5
13E41
330
13DB5
100
AcDbSymbolTableRecord
100
AcDbLayerTableRecord
  2
A!|Level 41
 70
    16
 62
     7
  6
Continuous
370
     0
390
13D81
347
13D84
348
0
1001
AcCmTransparency
1071
 33554687
  0
LAYER
  5
13E42
330
13DB5
100
AcDbSymbolTableRecord
100
AcDbLayerTableRecord
  2
A!|Level 42
 70
    16
 62
     7
  6
Continuous
370
     0
390
13D81
347
13D84
348
0
1001
AcCmTransparency
1071
 33554687
  0
LAYER
  5
13E43
330
13DB5
100
AcDbSymbolTableRecord
100
AcDbLayerTableRecord
  2
A!|Level 43
 70
    16
 62
     7
  6
Continuous
370
     0
390
13D81
347
13D84
348
0
1001
AcCmTransparency
1071
 33554687
  0
LAYER
  5
13E44
330
13DB5
100
AcDbSymbolTableRecord
100
AcDbLayerTableRecord
  2
A!|Level 44
 70
    16
 62
     7
  6
Continuous
370
     0
390
13D81
347
13D84
348
0
1001
AcCmTransparency
1071
 33554687
  0
LAYER
  5
13E45
330
13DB5
100
AcDbSymbolTableRecord
100
AcDbLayerTableRecord
  2
A!|Level 45
 70
    16
 62
     7
  6
Continuous
370
     0
390
13D81
347
13D84
348
0
1001
AcCmTransparency
1071
 33554687
  0
LAYER
  5
13E46
330
13DB5
100
AcDbSymbolTableRecord
100
AcDbLayerTableRecord
  2
A!|Level 46
 70
    16
 62
     7
  6
Continuous
370
     0
390
13D81
347
13D84
348
0
1001
AcCmTransparency
1071
 33554687
  0
LAYER
  5
13E47
330
13DB5
100
AcDbSymbolTableRecord
100
AcDbLayerTableRecord
  2
A!|Level 47
 70
    16
 62
     7
  6
Continuous
370
     0
390
13D81
347
13D84
348
0
1001
AcCmTransparency
1071
 33554687
  0
LAYER
  5
13E48
330
13DB5
100
AcDbSymbolTableRecord
100
AcDbLayerTableRecord
  2
A!|Level 48
 70
    16
 62
     7
  6
Continuous
370
     0
390
13D81
347
13D84
348
0
1001
AcCmTransparency
1071
 33554687
  0
LAYER
  5
13E49
330
13DB5
100
AcDbSymbolTableRecord
100
AcDbLayerTableRecord
  2
A!|Level 49
 70
    16
 62
     7
  6
Continuous
370
     0
390
13D81
347
13D84
348
0
1001
AcCmTransparency
1071
 33554687
  0
LAYER
  5
13E4A
330
13DB5
100
AcDbSymbolTableRecord
100
AcDbLayerTableRecord
  2
A!|Level 50
 70
    16
 62
     7
  6
Continuous
370
     0
390
13D81
347
13D84
348
0
1001
AcCmTransparency
1071
 33554687
  0
LAYER
  5
13E4B
330
13DB5
100
AcDbSymbolTableRecord
100
AcDbLayerTableRecord
  2
A!|Level 51
 70
    16
 62
     7
  6
Continuous
370
     0
390
13D81
347
13D84
348
0
1001
AcCmTransparency
1071
 33554687
  0
LAYER
  5
13E4C
330
13DB5
100
AcDbSymbolTableRecord
100
AcDbLayerTableRecord
  2
A!|Level 52
 70
    16
 62
     7
  6
Continuous
370
     0
390
13D81
347
13D84
348
0
1001
AcCmTransparency
1071
 33554687
  0
LAYER
  5
13E4D
330
13DB5
100
AcDbSymbolTableRecord
100
AcDbLayerTableRecord
  2
A!|Level 53
 70
    16
 62
     7
  6
Continuous
370
     0
390
13D81
347
13D84
348
0
1001
AcCmTransparency
1071
 33554687
  0
LAYER
  5
13E4E
330
13DB5
100
AcDbSymbolTableRecord
100
AcDbLayerTableRecord
  2
A!|Level 54
 70
    16
 62
     7
  6
Continuous
370
     0
390
13D81
347
13D84
348
0
1001
AcCmTransparency
1071
 33554687
  0
LAYER
  5
13E4F
330
13DB5
100
AcDbSymbolTableRecord
100
AcDbLayerTableRecord
  2
A!|Level 55
 70
    16
 62
     7
  6
Continuous
370
     0
390
13D81
347
13D84
348
0
1001
AcCmTransparency
1071
 33554687
  0
LAYER
  5
13E50
330
13DB5
100
AcDbSymbolTableRecord
100
AcDbLayerTableRecord
  2
A!|Level 56
 70
    16
 62
     7
  6
Continuous
370
     0
390
13D81
347
13D84
348
0
1001
AcCmTransparency
1071
 33554687
  0
LAYER
  5
13E51
330
13DB5
100
AcDbSymbolTableRecord
100
AcDbLayerTableRecord
  2
A!|Level 57
 70
    16
 62
     7
  6
Continuous
370
     0
390
13D81
347
13D84
348
0
1001
AcCmTransparency
1071
 33554687
  0
LAYER
  5
13E52
330
13DB5
100
AcDbSymbolTableRecord
100
AcDbLayerTableRecord
  2
A!|Level 58
 70
    16
 62
     7
  6
Continuous
370
     0
390
13D81
347
13D84
348
0
1001
AcCmTransparency
1071
 33554687
  0
LAYER
  5
13E53
330
13DB5
100
AcDbSymbolTableRecord
100
AcDbLayerTableRecord
  2
A!|Level 59
 70
    16
 62
     7
  6
Continuous
370
     0
390
13D81
347
13D84
348
0
1001
AcCmTransparency
1071
 33554687
  0
LAYER
  5
13E54
330
13DB5
100
AcDbSymbolTableRecord
100
AcDbLayerTableRecord
  2
A!|Level 60
 70
    16
 62
     7
  6
Continuous
370
     0
390
13D81
347
13D84
348
0
1001
AcCmTransparency
1071
 33554687
  0
LAYER
  5
13E55
330
13DB5
100
AcDbSymbolTableRecord
100
AcDbLayerTableRecord
  2
A!|Level 61
 70
    16
 62
     7
  6
Continuous
370
     0
390
13D81
347
13D84
348
0
1001
AcCmTransparency
1071
 33554687
  0
LAYER
  5
13E56
330
13DB5
100
AcDbSymbolTableRecord
100
AcDbLayerTableRecord
  2
A!|Level 62
 70
    16
 62
     7
  6
Continuous
370
     0
390
13D81
347
13D84
348
0
1001
AcCmTransparency
1071
 33554687
  0
LAYER
  5
13E57
330
13DB5
100
AcDbSymbolTableRecord
100
AcDbLayerTableRecord
  2
A!|Level 63
 70
    16
 62
     7
  6
Continuous
370
     0
390
13D81
347
13D84
348
0
1001
AcCmTransparency
1071
 33554687
  0
LAYER
  5
13E58
330
13DB5
100
AcDbSymbolTableRecord
100
AcDbLayerTableRecord
  2
A!|5
 70
    16
 62
     1
  6
Continuous
370
     0
390
13D81
347
13D84
348
0
1001
AcCmTransparency
1071
 33554687
  0
LAYER
  5
13E59
330
13DB5
100
AcDbSymbolTableRecord
100
AcDbLayerTableRecord
  2
A!|4
 70
    16
 62
     7
  6
Continuous
370
     0
390
13D81
347
13D84
348
0
1001
AcCmTransparency
1071
 33554687
  0
LAYER
  5
13E5A
330
13DB5
100
AcDbSymbolTableRecord
100
AcDbLayerTableRecord
  2
A!|3
 70
    16
 62
     7
  6
Continuous
370
     0
390
13D81
347
13D84
348
0
1001
AcCmTransparency
1071
 33554687
  0
LAYER
  5
13E5B
330
13DB5
100
AcDbSymbolTableRecord
100
AcDbLayerTableRecord
  2
a2|Level 1
 70
    16
 62
     7
  6
Continuous
370
     0
390
13D81
347
13D84
348
0
1001
AcCmTransparency
1071
 33554687
  0
LAYER
  5
13E5C
330
13DB5
100
AcDbSymbolTableRecord
100
AcDbLayerTableRecord
  2
a2|Level 2
 70
    16
 62
     7
  6
Continuous
370
     0
390
13D81
347
13D84
348
0
1001
AcCmTransparency
1071
 33554687
  0
LAYER
  5
13E5D
330
13DB5
100
AcDbSymbolTableRecord
100
AcDbLayerTableRecord
  2
a2|Level 3
 70
    16
 62
     7
  6
Continuous
370
     0
390
13D81
347
13D84
348
0
1001
AcCmTransparency
1071
 33554687
  0
LAYER
  5
13E5E
330
13DB5
100
AcDbSymbolTableRecord
100
AcDbLayerTableRecord
  2
a2|Level 4
 70
    16
 62
     7
  6
Continuous
370
     0
390
13D81
347
13D84
348
0
1001
AcCmTransparency
1071
 33554687
  0
LAYER
  5
13E5F
330
13DB5
100
AcDbSymbolTableRecord
100
AcDbLayerTableRecord
  2
a2|Level 5
 70
    16
 62
     7
  6
Continuous
370
     0
390
13D81
347
13D84
348
0
1001
AcCmTransparency
1071
 33554687
  0
LAYER
  5
13E60
330
13DB5
100
AcDbSymbolTableRecord
100
AcDbLayerTableRecord
  2
a2|Level 6
 70
    16
 62
     7
  6
Continuous
370
     0
390
13D81
347
13D84
348
0
1001
AcCmTransparency
1071
 33554687
  0
LAYER
  5
13E61
330
13DB5
100
AcDbSymbolTableRecord
100
AcDbLayerTableRecord
  2
a2|Level 7
 70
    16
 62
     7
  6
Continuous
370
     0
390
13D81
347
13D84
348
0
1001
AcCmTransparency
1071
 33554687
  0
LAYER
  5
13E62
330
13DB5
100
AcDbSymbolTableRecord
100
AcDbLayerTableRecord
  2
a2|Level 8
 70
    16
 62
     7
  6
Continuous
370
     0
390
13D81
347
13D84
348
0
1001
AcCmTransparency
1071
 33554687
  0
LAYER
  5
13E63
330
13DB5
100
AcDbSymbolTableRecord
100
AcDbLayerTableRecord
  2
a2|Level 9
 70
    16
 62
     7
  6
Continuous
370
     0
390
13D81
347
13D84
348
0
1001
AcCmTransparency
1071
 33554687
  0
LAYER
  5
13E64
330
13DB5
100
AcDbSymbolTableRecord
100
AcDbLayerTableRecord
  2
a2|Level 10
 70
    16
 62
     7
  6
Continuous
370
     0
390
13D81
347
13D84
348
0
1001
AcCmTransparency
1071
 33554687
  0
LAYER
  5
13E65
330
13DB5
100
AcDbSymbolTableRecord
100
AcDbLayerTableRecord
  2
a2|Level 11
 70
    16
 62
     7
  6
Continuous
370
     0
390
13D81
347
13D84
348
0
1001
AcCmTransparency
1071
 33554687
  0
LAYER
  5
13E66
330
13DB5
100
AcDbSymbolTableRecord
100
AcDbLayerTableRecord
  2
a2|Level 12
 70
    16
 62
     7
  6
Continuous
370
     0
390
13D81
347
13D84
348
0
1001
AcCmTransparency
1071
 33554687
  0
LAYER
  5
13E67
330
13DB5
100
AcDbSymbolTableRecord
100
AcDbLayerTableRecord
  2
a2|Level 13
 70
    16
 62
     7
  6
Continuous
370
     0
390
13D81
347
13D84
348
0
1001
AcCmTransparency
1071
 33554687
  0
LAYER
  5
13E68
330
13DB5
100
AcDbSymbolTableRecord
100
AcDbLayerTableRecord
  2
a2|Level 14
 70
    16
 62
     7
  6
Continuous
370
     0
390
13D81
347
13D84
348
0
1001
AcCmTransparency
1071
 33554687
  0
LAYER
  5
13E69
330
13DB5
100
AcDbSymbolTableRecord
100
AcDbLayerTableRecord
  2
a2|Level 15
 70
    16
 62
     7
  6
Continuous
370
     0
390
13D81
347
13D84
348
0
1001
AcCmTransparency
1071
 33554687
  0
LAYER
  5
13E6A
330
13DB5
100
AcDbSymbolTableRecord
100
AcDbLayerTableRecord
  2
a2|Level 16
 70
    16
 62
     7
  6
Continuous
370
     0
390
13D81
347
13D84
348
0
1001
AcCmTransparency
1071
 33554687
  0
LAYER
  5
13E6B
330
13DB5
100
AcDbSymbolTableRecord
100
AcDbLayerTableRecord
  2
a2|Level 17
 70
    16
 62
     7
  6
Continuous
370
     0
390
13D81
347
13D84
348
0
1001
AcCmTransparency
1071
 33554687
  0
LAYER
  5
13E6C
330
13DB5
100
AcDbSymbolTableRecord
100
AcDbLayerTableRecord
  2
a2|Level 18
 70
    16
 62
     7
  6
Continuous
370
     0
390
13D81
347
13D84
348
0
1001
AcCmTransparency
1071
 33554687
  0
LAYER
  5
13E6D
330
13DB5
100
AcDbSymbolTableRecord
100
AcDbLayerTableRecord
  2
a2|Level 19
 70
    16
 62
     7
  6
Continuous
370
     0
390
13D81
347
13D84
348
0
1001
AcCmTransparency
1071
 33554687
  0
LAYER
  5
13E6E
330
13DB5
100
AcDbSymbolTableRecord
100
AcDbLayerTableRecord
  2
a2|Level 20
 70
    16
 62
     7
  6
Continuous
370
     0
390
13D81
347
13D84
348
0
1001
AcCmTransparency
1071
 33554687
  0
LAYER
  5
13E6F
330
13DB5
100
AcDbSymbolTableRecord
100
AcDbLayerTableRecord
  2
a2|Level 21
 70
    16
 62
     7
  6
Continuous
370
     0
390
13D81
347
13D84
348
0
1001
AcCmTransparency
1071
 33554687
  0
LAYER
  5
13E70
330
13DB5
100
AcDbSymbolTableRecord
100
AcDbLayerTableRecord
  2
a2|Level 22
 70
    16
 62
     7
  6
Continuous
370
     0
390
13D81
347
13D84
348
0
1001
AcCmTransparency
1071
 33554687
  0
LAYER
  5
13E71
330
13DB5
100
AcDbSymbolTableRecord
100
AcDbLayerTableRecord
  2
a2|Level 23
 70
    16
 62
     7
  6
Continuous
370
     0
390
13D81
347
13D84
348
0
1001
AcCmTransparency
1071
 33554687
  0
LAYER
  5
13E72
330
13DB5
100
AcDbSymbolTableRecord
100
AcDbLayerTableRecord
  2
a2|Level 24
 70
    16
 62
     7
  6
Continuous
370
     0
390
13D81
347
13D84
348
0
1001
AcCmTransparency
1071
 33554687
  0
LAYER
  5
13E73
330
13DB5
100
AcDbSymbolTableRecord
100
AcDbLayerTableRecord
  2
a2|Level 25
 70
    16
 62
     7
  6
Continuous
370
     0
390
13D81
347
13D84
348
0
1001
AcCmTransparency
1071
 33554687
  0
LAYER
  5
13E74
330
13DB5
100
AcDbSymbolTableRecord
100
AcDbLayerTableRecord
  2
a2|Level 26
 70
    16
 62
     7
  6
Continuous
370
     0
390
13D81
347
13D84
348
0
1001
AcCmTransparency
1071
 33554687
  0
LAYER
  5
13E75
330
13DB5
100
AcDbSymbolTableRecord
100
AcDbLayerTableRecord
  2
a2|Level 27
 70
    16
 62
     7
  6
Continuous
370
     0
390
13D81
347
13D84
348
0
1001
AcCmTransparency
1071
 33554687
  0
LAYER
  5
13E76
330
13DB5
100
AcDbSymbolTableRecord
100
AcDbLayerTableRecord
  2
a2|Level 28
 70
    16
 62
     7
  6
Continuous
370
     0
390
13D81
347
13D84
348
0
1001
AcCmTransparency
1071
 33554687
  0
LAYER
  5
13E77
330
13DB5
100
AcDbSymbolTableRecord
100
AcDbLayerTableRecord
  2
a2|Level 29
 70
    16
 62
     7
  6
Continuous
370
     0
390
13D81
347
13D84
348
0
1001
AcCmTransparency
1071
 33554687
  0
LAYER
  5
13E78
330
13DB5
100
AcDbSymbolTableRecord
100
AcDbLayerTableRecord
  2
a2|Level 30
 70
    16
 62
     7
  6
Continuous
370
     0
390
13D81
347
13D84
348
0
1001
AcCmTransparency
1071
 33554687
  0
LAYER
  5
13E79
330
13DB5
100
AcDbSymbolTableRecord
100
AcDbLayerTableRecord
  2
a2|Level 31
 70
    16
 62
     7
  6
Continuous
370
     0
390
13D81
347
13D84
348
0
1001
AcCmTransparency
1071
 33554687
  0
LAYER
  5
13E7A
330
13DB5
100
AcDbSymbolTableRecord
100
AcDbLayerTableRecord
  2
a2|Level 32
 70
    16
 62
     7
  6
Continuous
370
     0
390
13D81
347
13D84
348
0
1001
AcCmTransparency
1071
 33554687
  0
LAYER
  5
13E7B
330
13DB5
100
AcDbSymbolTableRecord
100
AcDbLayerTableRecord
  2
a2|Level 33
 70
    16
 62
     7
  6
Continuous
370
     0
390
13D81
347
13D84
348
0
1001
AcCmTransparency
1071
 33554687
  0
LAYER
  5
13E7C
330
13DB5
100
AcDbSymbolTableRecord
100
AcDbLayerTableRecord
  2
a2|Level 34
 70
    16
 62
     7
  6
Continuous
370
     0
390
13D81
347
13D84
348
0
1001
AcCmTransparency
1071
 33554687
  0
LAYER
  5
13E7D
330
13DB5
100
AcDbSymbolTableRecord
100
AcDbLayerTableRecord
  2
a2|Level 35
 70
    16
 62
     7
  6
Continuous
370
     0
390
13D81
347
13D84
348
0
1001
AcCmTransparency
1071
 33554687
  0
LAYER
  5
13E7E
330
13DB5
100
AcDbSymbolTableRecord
100
AcDbLayerTableRecord
  2
a2|Level 36
 70
    16
 62
     7
  6
Continuous
370
     0
390
13D81
347
13D84
348
0
1001
AcCmTransparency
1071
 33554687
  0
LAYER
  5
13E7F
330
13DB5
100
AcDbSymbolTableRecord
100
AcDbLayerTableRecord
  2
a2|Level 37
 70
    16
 62
     7
  6
Continuous
370
     0
390
13D81
347
13D84
348
0
1001
AcCmTransparency
1071
 33554687
  0
LAYER
  5
13E80
330
13DB5
100
AcDbSymbolTableRecord
100
AcDbLayerTableRecord
  2
a2|Level 38
 70
    16
 62
     7
  6
Continuous
370
     0
390
13D81
347
13D84
348
0
1001
AcCmTransparency
1071
 33554687
  0
LAYER
  5
13E81
330
13DB5
100
AcDbSymbolTableRecord
100
AcDbLayerTableRecord
  2
a2|Level 39
 70
    16
 62
     7
  6
Continuous
370
     0
390
13D81
347
13D84
348
0
1001
AcCmTransparency
1071
 33554687
  0
LAYER
  5
13E82
330
13DB5
100
AcDbSymbolTableRecord
100
AcDbLayerTableRecord
  2
a2|Level 40
 70
    16
 62
     7
  6
Continuous
370
     0
390
13D81
347
13D84
348
0
1001
AcCmTransparency
1071
 33554687
  0
LAYER
  5
13E83
330
13DB5
100
AcDbSymbolTableRecord
100
AcDbLayerTableRecord
  2
a2|Level 41
 70
    16
 62
     7
  6
Continuous
370
     0
390
13D81
347
13D84
348
0
1001
AcCmTransparency
1071
 33554687
  0
LAYER
  5
13E84
330
13DB5
100
AcDbSymbolTableRecord
100
AcDbLayerTableRecord
  2
a2|Level 42
 70
    16
 62
     7
  6
Continuous
370
     0
390
13D81
347
13D84
348
0
1001
AcCmTransparency
1071
 33554687
  0
LAYER
  5
13E85
330
13DB5
100
AcDbSymbolTableRecord
100
AcDbLayerTableRecord
  2
a2|Level 43
 70
    16
 62
     7
  6
Continuous
370
     0
390
13D81
347
13D84
348
0
1001
AcCmTransparency
1071
 33554687
  0
LAYER
  5
13E86
330
13DB5
100
AcDbSymbolTableRecord
100
AcDbLayerTableRecord
  2
a2|Level 44
 70
    16
 62
     7
  6
Continuous
370
     0
390
13D81
347
13D84
348
0
1001
AcCmTransparency
1071
 33554687
  0
LAYER
  5
13E87
330
13DB5
100
AcDbSymbolTableRecord
100
AcDbLayerTableRecord
  2
a2|Level 45
 70
    16
 62
     7
  6
Continuous
370
     0
390
13D81
347
13D84
348
0
1001
AcCmTransparency
1071
 33554687
  0
LAYER
  5
13E88
330
13DB5
100
AcDbSymbolTableRecord
100
AcDbLayerTableRecord
  2
a2|Level 46
 70
    16
 62
     7
  6
Continuous
370
     0
390
13D81
347
13D84
348
0
1001
AcCmTransparency
1071
 33554687
  0
LAYER
  5
13E89
330
13DB5
100
AcDbSymbolTableRecord
100
AcDbLayerTableRecord
  2
a2|Level 47
 70
    16
 62
     7
  6
Continuous
370
     0
390
13D81
347
13D84
348
0
1001
AcCmTransparency
1071
 33554687
  0
LAYER
  5
13E8A
330
13DB5
100
AcDbSymbolTableRecord
100
AcDbLayerTableRecord
  2
a2|Level 48
 70
    16
 62
     7
  6
Continuous
370
     0
390
13D81
347
13D84
348
0
1001
AcCmTransparency
1071
 33554687
  0
LAYER
  5
13E8B
330
13DB5
100
AcDbSymbolTableRecord
100
AcDbLayerTableRecord
  2
a2|Level 49
 70
    16
 62
     7
  6
Continuous
370
     0
390
13D81
347
13D84
348
0
1001
AcCmTransparency
1071
 33554687
  0
LAYER
  5
13E8C
330
13DB5
100
AcDbSymbolTableRecord
100
AcDbLayerTableRecord
  2
a2|Level 50
 70
    16
 62
     7
  6
Continuous
370
     0
390
13D81
347
13D84
348
0
1001
AcCmTransparency
1071
 33554687
  0
LAYER
  5
13E8D
330
13DB5
100
AcDbSymbolTableRecord
100
AcDbLayerTableRecord
  2
a2|Level 51
 70
    16
 62
     7
  6
Continuous
370
     0
390
13D81
347
13D84
348
0
1001
AcCmTransparency
1071
 33554687
  0
LAYER
  5
13E8E
330
13DB5
100
AcDbSymbolTableRecord
100
AcDbLayerTableRecord
  2
a2|Level 52
 70
    16
 62
     7
  6
Continuous
370
     0
390
13D81
347
13D84
348
0
1001
AcCmTransparency
1071
 33554687
  0
LAYER
  5
13E8F
330
13DB5
100
AcDbSymbolTableRecord
100
AcDbLayerTableRecord
  2
a2|Level 53
 70
    16
 62
     7
  6
Continuous
370
     0
390
13D81
347
13D84
348
0
1001
AcCmTransparency
1071
 33554687
  0
LAYER
  5
13E90
330
13DB5
100
AcDbSymbolTableRecord
100
AcDbLayerTableRecord
  2
a2|Level 54
 70
    16
 62
     7
  6
Continuous
370
     0
390
13D81
347
13D84
348
0
1001
AcCmTransparency
1071
 33554687
  0
LAYER
  5
13E91
330
13DB5
100
AcDbSymbolTableRecord
100
AcDbLayerTableRecord
  2
a2|Level 55
 70
    16
 62
     7
  6
Continuous
370
     0
390
13D81
347
13D84
348
0
1001
AcCmTransparency
1071
 33554687
  0
LAYER
  5
13E92
330
13DB5
100
AcDbSymbolTableRecord
100
AcDbLayerTableRecord
  2
a2|Level 56
 70
    16
 62
     7
  6
Continuous
370
     0
390
13D81
347
13D84
348
0
1001
AcCmTransparency
1071
 33554687
  0
LAYER
  5
13E93
330
13DB5
100
AcDbSymbolTableRecord
100
AcDbLayerTableRecord
  2
a2|Level 57
 70
    16
 62
     7
  6
Continuous
370
     0
390
13D81
347
13D84
348
0
1001
AcCmTransparency
1071
 33554687
  0
LAYER
  5
13E94
330
13DB5
100
AcDbSymbolTableRecord
100
AcDbLayerTableRecord
  2
a2|Level 58
 70
    16
 62
     7
  6
Continuous
370
     0
390
13D81
347
13D84
348
0
1001
AcCmTransparency
1071
 33554687
  0
LAYER
  5
13E95
330
13DB5
100
AcDbSymbolTableRecord
100
AcDbLayerTableRecord
  2
a2|Level 59
 70
    16
 62
     7
  6
Continuous
370
     0
390
13D81
347
13D84
348
0
1001
AcCmTransparency
1071
 33554687
  0
LAYER
  5
13E96
330
13DB5
100
AcDbSymbolTableRecord
100
AcDbLayerTableRecord
  2
a2|Level 60
 70
    16
 62
     7
  6
Continuous
370
     0
390
13D81
347
13D84
348
0
1001
AcCmTransparency
1071
 33554687
  0
LAYER
  5
13E97
330
13DB5
100
AcDbSymbolTableRecord
100
AcDbLayerTableRecord
  2
a2|Level 61
 70
    16
 62
     7
  6
Continuous
370
     0
390
13D81
347
13D84
348
0
1001
AcCmTransparency
1071
 33554687
  0
LAYER
  5
13E98
330
13DB5
100
AcDbSymbolTableRecord
100
AcDbLayerTableRecord
  2
a2|Level 62
 70
    16
 62
     7
  6
Continuous
370
     0
390
13D81
347
13D84
348
0
1001
AcCmTransparency
1071
 33554687
  0
LAYER
  5
13E99
330
13DB5
100
AcDbSymbolTableRecord
100
AcDbLayerTableRecord
  2
a2|Level 63
 70
    16
 62
     7
  6
Continuous
370
     0
390
13D81
347
13D84
348
0
1001
AcCmTransparency
1071
 33554687
  0
LAYER
  5
13E9A
330
13DB5
100
AcDbSymbolTableRecord
100
AcDbLayerTableRecord
  2
a3|Level 1
 70
    16
 62
     7
  6
Continuous
370
     0
390
13D81
347
13D84
348
0
1001
AcCmTransparency
1071
 33554687
  0
LAYER
  5
13E9B
330
13DB5
100
AcDbSymbolTableRecord
100
AcDbLayerTableRecord
  2
a3|Level 2
 70
    16
 62
     7
  6
Continuous
370
     0
390
13D81
347
13D84
348
0
1001
AcCmTransparency
1071
 33554687
  0
LAYER
  5
13E9C
330
13DB5
100
AcDbSymbolTableRecord
100
AcDbLayerTableRecord
  2
a3|Level 3
 70
    16
 62
     7
  6
Continuous
370
     0
390
13D81
347
13D84
348
0
1001
AcCmTransparency
1071
 33554687
  0
LAYER
  5
13E9D
330
13DB5
100
AcDbSymbolTableRecord
100
AcDbLayerTableRecord
  2
a3|Level 4
 70
    16
 62
     7
  6
Continuous
370
     0
390
13D81
347
13D84
348
0
1001
AcCmTransparency
1071
 33554687
  0
LAYER
  5
13E9E
330
13DB5
100
AcDbSymbolTableRecord
100
AcDbLayerTableRecord
  2
a3|Level 5
 70
    16
 62
     7
  6
Continuous
370
     0
390
13D81
347
13D84
348
0
1001
AcCmTransparency
1071
 33554687
  0
LAYER
  5
13E9F
330
13DB5
100
AcDbSymbolTableRecord
100
AcDbLayerTableRecord
  2
a3|Level 6
 70
    16
 62
     7
  6
Continuous
370
     0
390
13D81
347
13D84
348
0
1001
AcCmTransparency
1071
 33554687
  0
LAYER
  5
13EA0
330
13DB5
100
AcDbSymbolTableRecord
100
AcDbLayerTableRecord
  2
a3|Level 7
 70
    16
 62
     7
  6
Continuous
370
     0
390
13D81
347
13D84
348
0
1001
AcCmTransparency
1071
 33554687
  0
LAYER
  5
13EA1
330
13DB5
100
AcDbSymbolTableRecord
100
AcDbLayerTableRecord
  2
a3|Level 8
 70
    16
 62
     7
  6
Continuous
370
     0
390
13D81
347
13D84
348
0
1001
AcCmTransparency
1071
 33554687
  0
LAYER
  5
13EA2
330
13DB5
100
AcDbSymbolTableRecord
100
AcDbLayerTableRecord
  2
a3|Level 9
 70
    16
 62
     7
  6
Continuous
370
     0
390
13D81
347
13D84
348
0
1001
AcCmTransparency
1071
 33554687
  0
LAYER
  5
13EA3
330
13DB5
100
AcDbSymbolTableRecord
100
AcDbLayerTableRecord
  2
a3|Level 10
 70
    16
 62
     7
  6
Continuous
370
     0
390
13D81
347
13D84
348
0
1001
AcCmTransparency
1071
 33554687
  0
LAYER
  5
13EA4
330
13DB5
100
AcDbSymbolTableRecord
100
AcDbLayerTableRecord
  2
a3|Level 11
 70
    16
 62
     7
  6
Continuous
370
     0
390
13D81
347
13D84
348
0
1001
AcCmTransparency
1071
 33554687
  0
LAYER
  5
13EA5
330
13DB5
100
AcDbSymbolTableRecord
100
AcDbLayerTableRecord
  2
a3|Level 12
 70
    16
 62
     7
  6
Continuous
370
     0
390
13D81
347
13D84
348
0
1001
AcCmTransparency
1071
 33554687
  0
LAYER
  5
13EA6
330
13DB5
100
AcDbSymbolTableRecord
100
AcDbLayerTableRecord
  2
a3|Level 13
 70
    16
 62
     7
  6
Continuous
370
     0
390
13D81
347
13D84
348
0
1001
AcCmTransparency
1071
 33554687
  0
LAYER
  5
13EA7
330
13DB5
100
AcDbSymbolTableRecord
100
AcDbLayerTableRecord
  2
a3|Level 14
 70
    16
 62
     7
  6
Continuous
370
     0
390
13D81
347
13D84
348
0
1001
AcCmTransparency
1071
 33554687
  0
LAYER
  5
13EA8
330
13DB5
100
AcDbSymbolTableRecord
100
AcDbLayerTableRecord
  2
a3|Level 15
 70
    16
 62
     7
  6
Continuous
370
     0
390
13D81
347
13D84
348
0
1001
AcCmTransparency
1071
 33554687
  0
LAYER
  5
13EA9
330
13DB5
100
AcDbSymbolTableRecord
100
AcDbLayerTableRecord
  2
a3|Level 16
 70
    16
 62
     7
  6
Continuous
370
     0
390
13D81
347
13D84
348
0
1001
AcCmTransparency
1071
 33554687
  0
LAYER
  5
13EAA
330
13DB5
100
AcDbSymbolTableRecord
100
AcDbLayerTableRecord
  2
a3|Level 17
 70
    16
 62
     7
  6
Continuous
370
     0
390
13D81
347
13D84
348
0
1001
AcCmTransparency
1071
 33554687
  0
LAYER
  5
13EAB
330
13DB5
100
AcDbSymbolTableRecord
100
AcDbLayerTableRecord
  2
a3|Level 18
 70
    16
 62
     7
  6
Continuous
370
     0
390
13D81
347
13D84
348
0
1001
AcCmTransparency
1071
 33554687
  0
LAYER
  5
13EAC
330
13DB5
100
AcDbSymbolTableRecord
100
AcDbLayerTableRecord
  2
a3|Level 19
 70
    16
 62
     7
  6
Continuous
370
     0
390
13D81
347
13D84
348
0
1001
AcCmTransparency
1071
 33554687
  0
LAYER
  5
13EAD
330
13DB5
100
AcDbSymbolTableRecord
100
AcDbLayerTableRecord
  2
a3|Level 20
 70
    16
 62
     7
  6
Continuous
370
     0
390
13D81
347
13D84
348
0
1001
AcCmTransparency
1071
 33554687
  0
LAYER
  5
13EAE
330
13DB5
100
AcDbSymbolTableRecord
100
AcDbLayerTableRecord
  2
a3|Level 21
 70
    16
 62
     7
  6
Continuous
370
     0
390
13D81
347
13D84
348
0
1001
AcCmTransparency
1071
 33554687
  0
LAYER
  5
13EAF
330
13DB5
100
AcDbSymbolTableRecord
100
AcDbLayerTableRecord
  2
a3|Level 22
 70
    16
 62
     7
  6
Continuous
370
     0
390
13D81
347
13D84
348
0
1001
AcCmTransparency
1071
 33554687
  0
LAYER
  5
13EB0
330
13DB5
100
AcDbSymbolTableRecord
100
AcDbLayerTableRecord
  2
a3|Level 23
 70
    16
 62
     7
  6
Continuous
370
     0
390
13D81
347
13D84
348
0
1001
AcCmTransparency
1071
 33554687
  0
LAYER
  5
13EB1
330
13DB5
100
AcDbSymbolTableRecord
100
AcDbLayerTableRecord
  2
a3|Level 24
 70
    16
 62
     7
  6
Continuous
370
     0
390
13D81
347
13D84
348
0
1001
AcCmTransparency
1071
 33554687
  0
LAYER
  5
13EB2
330
13DB5
100
AcDbSymbolTableRecord
100
AcDbLayerTableRecord
  2
a3|Level 25
 70
    16
 62
     7
  6
Continuous
370
     0
390
13D81
347
13D84
348
0
1001
AcCmTransparency
1071
 33554687
  0
LAYER
  5
13EB3
330
13DB5
100
AcDbSymbolTableRecord
100
AcDbLayerTableRecord
  2
a3|Level 26
 70
    16
 62
     7
  6
Continuous
370
     0
390
13D81
347
13D84
348
0
1001
AcCmTransparency
1071
 33554687
  0
LAYER
  5
13EB4
330
13DB5
100
AcDbSymbolTableRecord
100
AcDbLayerTableRecord
  2
a3|Level 27
 70
    16
 62
     7
  6
Continuous
370
     0
390
13D81
347
13D84
348
0
1001
AcCmTransparency
1071
 33554687
  0
LAYER
  5
13EB5
330
13DB5
100
AcDbSymbolTableRecord
100
AcDbLayerTableRecord
  2
a3|Level 28
 70
    16
 62
     7
  6
Continuous
370
     0
390
13D81
347
13D84
348
0
1001
AcCmTransparency
1071
 33554687
  0
LAYER
  5
13EB6
330
13DB5
100
AcDbSymbolTableRecord
100
AcDbLayerTableRecord
  2
a3|Level 29
 70
    16
 62
     7
  6
Continuous
370
     0
390
13D81
347
13D84
348
0
1001
AcCmTransparency
1071
 33554687
  0
LAYER
  5
13EB7
330
13DB5
100
AcDbSymbolTableRecord
100
AcDbLayerTableRecord
  2
a3|Level 30
 70
    16
 62
     7
  6
Continuous
370
     0
390
13D81
347
13D84
348
0
1001
AcCmTransparency
1071
 33554687
  0
LAYER
  5
13EB8
330
13DB5
100
AcDbSymbolTableRecord
100
AcDbLayerTableRecord
  2
a3|Level 31
 70
    16
 62
     7
  6
Continuous
370
     0
390
13D81
347
13D84
348
0
1001
AcCmTransparency
1071
 33554687
  0
LAYER
  5
13EB9
330
13DB5
100
AcDbSymbolTableRecord
100
AcDbLayerTableRecord
  2
a3|Level 32
 70
    16
 62
     7
  6
Continuous
370
     0
390
13D81
347
13D84
348
0
1001
AcCmTransparency
1071
 33554687
  0
LAYER
  5
13EBA
330
13DB5
100
AcDbSymbolTableRecord
100
AcDbLayerTableRecord
  2
a3|Level 33
 70
    16
 62
     7
  6
Continuous
370
     0
390
13D81
347
13D84
348
0
1001
AcCmTransparency
1071
 33554687
  0
LAYER
  5
13EBB
330
13DB5
100
AcDbSymbolTableRecord
100
AcDbLayerTableRecord
  2
a3|Level 34
 70
    16
 62
     7
  6
Continuous
370
     0
390
13D81
347
13D84
348
0
1001
AcCmTransparency
1071
 33554687
  0
LAYER
  5
13EBC
330
13DB5
100
AcDbSymbolTableRecord
100
AcDbLayerTableRecord
  2
a3|Level 35
 70
    16
 62
     7
  6
Continuous
370
     0
390
13D81
347
13D84
348
0
1001
AcCmTransparency
1071
 33554687
  0
LAYER
  5
13EBD
330
13DB5
100
AcDbSymbolTableRecord
100
AcDbLayerTableRecord
  2
a3|Level 36
 70
    16
 62
     7
  6
Continuous
370
     0
390
13D81
347
13D84
348
0
1001
AcCmTransparency
1071
 33554687
  0
LAYER
  5
13EBE
330
13DB5
100
AcDbSymbolTableRecord
100
AcDbLayerTableRecord
  2
a3|Level 37
 70
    16
 62
     7
  6
Continuous
370
     0
390
13D81
347
13D84
348
0
1001
AcCmTransparency
1071
 33554687
  0
LAYER
  5
13EBF
330
13DB5
100
AcDbSymbolTableRecord
100
AcDbLayerTableRecord
  2
a3|Level 38
 70
    16
 62
     7
  6
Continuous
370
     0
390
13D81
347
13D84
348
0
1001
AcCmTransparency
1071
 33554687
  0
LAYER
  5
13EC0
330
13DB5
100
AcDbSymbolTableRecord
100
AcDbLayerTableRecord
  2
a3|Level 39
 70
    16
 62
     7
  6
Continuous
370
     0
390
13D81
347
13D84
348
0
1001
AcCmTransparency
1071
 33554687
  0
LAYER
  5
13EC1
330
13DB5
100
AcDbSymbolTableRecord
100
AcDbLayerTableRecord
  2
a3|Level 40
 70
    16
 62
     7
  6
Continuous
370
     0
390
13D81
347
13D84
348
0
1001
AcCmTransparency
1071
 33554687
  0
LAYER
  5
13EC2
330
13DB5
100
AcDbSymbolTableRecord
100
AcDbLayerTableRecord
  2
a3|Level 41
 70
    16
 62
     7
  6
Continuous
370
     0
390
13D81
347
13D84
348
0
1001
AcCmTransparency
1071
 33554687
  0
LAYER
  5
13EC3
330
13DB5
100
AcDbSymbolTableRecord
100
AcDbLayerTableRecord
  2
a3|Level 42
 70
    16
 62
     7
  6
Continuous
370
     0
390
13D81
347
13D84
348
0
1001
AcCmTransparency
1071
 33554687
  0
LAYER
  5
13EC4
330
13DB5
100
AcDbSymbolTableRecord
100
AcDbLayerTableRecord
  2
a3|Level 43
 70
    16
 62
     7
  6
Continuous
370
     0
390
13D81
347
13D84
348
0
1001
AcCmTransparency
1071
 33554687
  0
LAYER
  5
13EC5
330
13DB5
100
AcDbSymbolTableRecord
100
AcDbLayerTableRecord
  2
a3|Level 44
 70
    16
 62
     7
  6
Continuous
370
     0
390
13D81
347
13D84
348
0
1001
AcCmTransparency
1071
 33554687
  0
LAYER
  5
13EC6
330
13DB5
100
AcDbSymbolTableRecord
100
AcDbLayerTableRecord
  2
a3|Level 45
 70
    16
 62
     7
  6
Continuous
370
     0
390
13D81
347
13D84
348
0
1001
AcCmTransparency
1071
 33554687
  0
LAYER
  5
13EC7
330
13DB5
100
AcDbSymbolTableRecord
100
AcDbLayerTableRecord
  2
a3|Level 46
 70
    16
 62
     7
  6
Continuous
370
     0
390
13D81
347
13D84
348
0
1001
AcCmTransparency
1071
 33554687
  0
LAYER
  5
13EC8
330
13DB5
100
AcDbSymbolTableRecord
100
AcDbLayerTableRecord
  2
a3|Level 47
 70
    16
 62
     7
  6
Continuous
370
     0
390
13D81
347
13D84
348
0
1001
AcCmTransparency
1071
 33554687
  0
LAYER
  5
13EC9
330
13DB5
100
AcDbSymbolTableRecord
100
AcDbLayerTableRecord
  2
a3|Level 48
 70
    16
 62
     7
  6
Continuous
370
     0
390
13D81
347
13D84
348
0
1001
AcCmTransparency
1071
 33554687
  0
LAYER
  5
13ECA
330
13DB5
100
AcDbSymbolTableRecord
100
AcDbLayerTableRecord
  2
a3|Level 49
 70
    16
 62
     7
  6
Continuous
370
     0
390
13D81
347
13D84
348
0
1001
AcCmTransparency
1071
 33554687
  0
LAYER
  5
13ECB
330
13DB5
100
AcDbSymbolTableRecord
100
AcDbLayerTableRecord
  2
a3|Level 50
 70
    16
 62
     7
  6
Continuous
370
     0
390
13D81
347
13D84
348
0
1001
AcCmTransparency
1071
 33554687
  0
LAYER
  5
13ECC
330
13DB5
100
AcDbSymbolTableRecord
100
AcDbLayerTableRecord
  2
a3|Level 51
 70
    16
 62
     7
  6
Continuous
370
     0
390
13D81
347
13D84
348
0
1001
AcCmTransparency
1071
 33554687
  0
LAYER
  5
13ECD
330
13DB5
100
AcDbSymbolTableRecord
100
AcDbLayerTableRecord
  2
a3|Level 52
 70
    16
 62
     7
  6
Continuous
370
     0
390
13D81
347
13D84
348
0
1001
AcCmTransparency
1071
 33554687
  0
LAYER
  5
13ECE
330
13DB5
100
AcDbSymbolTableRecord
100
AcDbLayerTableRecord
  2
a3|Level 53
 70
    16
 62
     7
  6
Continuous
370
     0
390
13D81
347
13D84
348
0
1001
AcCmTransparency
1071
 33554687
  0
LAYER
  5
13ECF
330
13DB5
100
AcDbSymbolTableRecord
100
AcDbLayerTableRecord
  2
a3|Level 54
 70
    16
 62
     7
  6
Continuous
370
     0
390
13D81
347
13D84
348
0
1001
AcCmTransparency
1071
 33554687
  0
LAYER
  5
13ED0
330
13DB5
100
AcDbSymbolTableRecord
100
AcDbLayerTableRecord
  2
a3|Level 55
 70
    16
 62
     7
  6
Continuous
370
     0
390
13D81
347
13D84
348
0
1001
AcCmTransparency
1071
 33554687
  0
LAYER
  5
13ED1
330
13DB5
100
AcDbSymbolTableRecord
100
AcDbLayerTableRecord
  2
a3|Level 56
 70
    16
 62
     7
  6
Continuous
370
     0
390
13D81
347
13D84
348
0
1001
AcCmTransparency
1071
 33554687
  0
LAYER
  5
13ED2
330
13DB5
100
AcDbSymbolTableRecord
100
AcDbLayerTableRecord
  2
a3|Level 57
 70
    16
 62
     7
  6
Continuous
370
     0
390
13D81
347
13D84
348
0
1001
AcCmTransparency
1071
 33554687
  0
LAYER
  5
13ED3
330
13DB5
100
AcDbSymbolTableRecord
100
AcDbLayerTableRecord
  2
a3|Level 58
 70
    16
 62
     7
  6
Continuous
370
     0
390
13D81
347
13D84
348
0
1001
AcCmTransparency
1071
 33554687
  0
LAYER
  5
13ED4
330
13DB5
100
AcDbSymbolTableRecord
100
AcDbLayerTableRecord
  2
a3|Level 59
 70
    16
 62
     7
  6
Continuous
370
     0
390
13D81
347
13D84
348
0
1001
AcCmTransparency
1071
 33554687
  0
LAYER
  5
13ED5
330
13DB5
100
AcDbSymbolTableRecord
100
AcDbLayerTableRecord
  2
a3|Level 60
 70
    16
 62
     7
  6
Continuous
370
     0
390
13D81
347
13D84
348
0
1001
AcCmTransparency
1071
 33554687
  0
LAYER
  5
13ED6
330
13DB5
100
AcDbSymbolTableRecord
100
AcDbLayerTableRecord
  2
a3|Level 61
 70
    16
 62
     7
  6
Continuous
370
     0
390
13D81
347
13D84
348
0
1001
AcCmTransparency
1071
 33554687
  0
LAYER
  5
13ED7
330
13DB5
100
AcDbSymbolTableRecord
100
AcDbLayerTableRecord
  2
a3|Level 62
 70
    16
 62
     7
  6
Continuous
370
     0
390
13D81
347
13D84
348
0
1001
AcCmTransparency
1071
 33554687
  0
LAYER
  5
13ED8
330
13DB5
100
AcDbSymbolTableRecord
100
AcDbLayerTableRecord
  2
a3|Level 63
 70
    16
 62
     7
  6
Continuous
370
     0
390
13D81
347
13D84
348
0
1001
AcCmTransparency
1071
 33554687
  0
LAYER
  5
13ED9
330
13DB5
100
AcDbSymbolTableRecord
100
AcDbLayerTableRecord
  2
a4|Level 1
 70
    16
 62
     7
  6
Continuous
370
     0
390
13D81
347
13D84
348
0
1001
AcCmTransparency
1071
 33554687
  0
LAYER
  5
13EDA
330
13DB5
100
AcDbSymbolTableRecord
100
AcDbLayerTableRecord
  2
a4|Level 2
 70
    16
 62
     7
  6
Continuous
370
     0
390
13D81
347
13D84
348
0
1001
AcCmTransparency
1071
 33554687
  0
LAYER
  5
13EDB
330
13DB5
100
AcDbSymbolTableRecord
100
AcDbLayerTableRecord
  2
a4|Level 3
 70
    16
 62
     7
  6
Continuous
370
     0
390
13D81
347
13D84
348
0
1001
AcCmTransparency
1071
 33554687
  0
LAYER
  5
13EDC
330
13DB5
100
AcDbSymbolTableRecord
100
AcDbLayerTableRecord
  2
a4|Level 4
 70
    16
 62
     7
  6
Continuous
370
     0
390
13D81
347
13D84
348
0
1001
AcCmTransparency
1071
 33554687
  0
LAYER
  5
13EDD
330
13DB5
100
AcDbSymbolTableRecord
100
AcDbLayerTableRecord
  2
a4|Level 5
 70
    16
 62
     7
  6
Continuous
370
     0
390
13D81
347
13D84
348
0
1001
AcCmTransparency
1071
 33554687
  0
LAYER
  5
13EDE
330
13DB5
100
AcDbSymbolTableRecord
100
AcDbLayerTableRecord
  2
a4|Level 6
 70
    16
 62
     7
  6
Continuous
370
     0
390
13D81
347
13D84
348
0
1001
AcCmTransparency
1071
 33554687
  0
LAYER
  5
13EDF
330
13DB5
100
AcDbSymbolTableRecord
100
AcDbLayerTableRecord
  2
a4|Level 7
 70
    16
 62
     7
  6
Continuous
370
     0
390
13D81
347
13D84
348
0
1001
AcCmTransparency
1071
 33554687
  0
LAYER
  5
13EE0
330
13DB5
100
AcDbSymbolTableRecord
100
AcDbLayerTableRecord
  2
a4|Level 8
 70
    16
 62
     7
  6
Continuous
370
     0
390
13D81
347
13D84
348
0
1001
AcCmTransparency
1071
 33554687
  0
LAYER
  5
13EE1
330
13DB5
100
AcDbSymbolTableRecord
100
AcDbLayerTableRecord
  2
a4|Level 9
 70
    16
 62
     7
  6
Continuous
370
     0
390
13D81
347
13D84
348
0
1001
AcCmTransparency
1071
 33554687
  0
LAYER
  5
13EE2
330
13DB5
100
AcDbSymbolTableRecord
100
AcDbLayerTableRecord
  2
a4|Level 10
 70
    16
 62
     7
  6
Continuous
370
     0
390
13D81
347
13D84
348
0
1001
AcCmTransparency
1071
 33554687
  0
LAYER
  5
13EE3
330
13DB5
100
AcDbSymbolTableRecord
100
AcDbLayerTableRecord
  2
a4|Level 11
 70
    16
 62
     7
  6
Continuous
370
     0
390
13D81
347
13D84
348
0
1001
AcCmTransparency
1071
 33554687
  0
LAYER
  5
13EE4
330
13DB5
100
AcDbSymbolTableRecord
100
AcDbLayerTableRecord
  2
a4|Level 12
 70
    16
 62
     7
  6
Continuous
370
     0
390
13D81
347
13D84
348
0
1001
AcCmTransparency
1071
 33554687
  0
LAYER
  5
13EE5
330
13DB5
100
AcDbSymbolTableRecord
100
AcDbLayerTableRecord
  2
a4|Level 13
 70
    16
 62
     7
  6
Continuous
370
     0
390
13D81
347
13D84
348
0
1001
AcCmTransparency
1071
 33554687
  0
LAYER
  5
13EE6
330
13DB5
100
AcDbSymbolTableRecord
100
AcDbLayerTableRecord
  2
a4|Level 14
 70
    16
 62
     7
  6
Continuous
370
     0
390
13D81
347
13D84
348
0
1001
AcCmTransparency
1071
 33554687
  0
LAYER
  5
13EE7
330
13DB5
100
AcDbSymbolTableRecord
100
AcDbLayerTableRecord
  2
a4|Level 15
 70
    16
 62
     7
  6
Continuous
370
     0
390
13D81
347
13D84
348
0
1001
AcCmTransparency
1071
 33554687
  0
LAYER
  5
13EE8
330
13DB5
100
AcDbSymbolTableRecord
100
AcDbLayerTableRecord
  2
a4|Level 16
 70
    16
 62
     7
  6
Continuous
370
     0
390
13D81
347
13D84
348
0
1001
AcCmTransparency
1071
 33554687
  0
LAYER
  5
13EE9
330
13DB5
100
AcDbSymbolTableRecord
100
AcDbLayerTableRecord
  2
a4|Level 17
 70
    16
 62
     7
  6
Continuous
370
     0
390
13D81
347
13D84
348
0
1001
AcCmTransparency
1071
 33554687
  0
LAYER
  5
13EEA
330
13DB5
100
AcDbSymbolTableRecord
100
AcDbLayerTableRecord
  2
a4|Level 18
 70
    16
 62
     7
  6
Continuous
370
     0
390
13D81
347
13D84
348
0
1001
AcCmTransparency
1071
 33554687
  0
LAYER
  5
13EEB
330
13DB5
100
AcDbSymbolTableRecord
100
AcDbLayerTableRecord
  2
a4|Level 19
 70
    16
 62
     7
  6
Continuous
370
     0
390
13D81
347
13D84
348
0
1001
AcCmTransparency
1071
 33554687
  0
LAYER
  5
13EEC
330
13DB5
100
AcDbSymbolTableRecord
100
AcDbLayerTableRecord
  2
a4|Level 20
 70
    16
 62
     7
  6
Continuous
370
     0
390
13D81
347
13D84
348
0
1001
AcCmTransparency
1071
 33554687
  0
LAYER
  5
13EED
330
13DB5
100
AcDbSymbolTableRecord
100
AcDbLayerTableRecord
  2
a4|Level 21
 70
    16
 62
     7
  6
Continuous
370
     0
390
13D81
347
13D84
348
0
1001
AcCmTransparency
1071
 33554687
  0
LAYER
  5
13EEE
330
13DB5
100
AcDbSymbolTableRecord
100
AcDbLayerTableRecord
  2
a4|Level 22
 70
    16
 62
     7
  6
Continuous
370
     0
390
13D81
347
13D84
348
0
1001
AcCmTransparency
1071
 33554687
  0
LAYER
  5
13EEF
330
13DB5
100
AcDbSymbolTableRecord
100
AcDbLayerTableRecord
  2
a4|Level 23
 70
    16
 62
     7
  6
Continuous
370
     0
390
13D81
347
13D84
348
0
1001
AcCmTransparency
1071
 33554687
  0
LAYER
  5
13EF0
330
13DB5
100
AcDbSymbolTableRecord
100
AcDbLayerTableRecord
  2
a4|Level 24
 70
    16
 62
     7
  6
Continuous
370
     0
390
13D81
347
13D84
348
0
1001
AcCmTransparency
1071
 33554687
  0
LAYER
  5
13EF1
330
13DB5
100
AcDbSymbolTableRecord
100
AcDbLayerTableRecord
  2
a4|Level 25
 70
    16
 62
     7
  6
Continuous
370
     0
390
13D81
347
13D84
348
0
1001
AcCmTransparency
1071
 33554687
  0
LAYER
  5
13EF2
330
13DB5
100
AcDbSymbolTableRecord
100
AcDbLayerTableRecord
  2
a4|Level 26
 70
    16
 62
     7
  6
Continuous
370
     0
390
13D81
347
13D84
348
0
1001
AcCmTransparency
1071
 33554687
  0
LAYER
  5
13EF3
330
13DB5
100
AcDbSymbolTableRecord
100
AcDbLayerTableRecord
  2
a4|Level 27
 70
    16
 62
     7
  6
Continuous
370
     0
390
13D81
347
13D84
348
0
1001
AcCmTransparency
1071
 33554687
  0
LAYER
  5
13EF4
330
13DB5
100
AcDbSymbolTableRecord
100
AcDbLayerTableRecord
  2
a4|Level 28
 70
    16
 62
     7
  6
Continuous
370
     0
390
13D81
347
13D84
348
0
1001
AcCmTransparency
1071
 33554687
  0
LAYER
  5
13EF5
330
13DB5
100
AcDbSymbolTableRecord
100
AcDbLayerTableRecord
  2
a4|Level 29
 70
    16
 62
     7
  6
Continuous
370
     0
390
13D81
347
13D84
348
0
1001
AcCmTransparency
1071
 33554687
  0
LAYER
  5
13EF6
330
13DB5
100
AcDbSymbolTableRecord
100
AcDbLayerTableRecord
  2
a4|Level 30
 70
    16
 62
     7
  6
Continuous
370
     0
390
13D81
347
13D84
348
0
1001
AcCmTransparency
1071
 33554687
  0
LAYER
  5
13EF7
330
13DB5
100
AcDbSymbolTableRecord
100
AcDbLayerTableRecord
  2
a4|Level 31
 70
    16
 62
     7
  6
Continuous
370
     0
390
13D81
347
13D84
348
0
1001
AcCmTransparency
1071
 33554687
  0
LAYER
  5
13EF8
330
13DB5
100
AcDbSymbolTableRecord
100
AcDbLayerTableRecord
  2
a4|Level 32
 70
    16
 62
     7
  6
Continuous
370
     0
390
13D81
347
13D84
348
0
1001
AcCmTransparency
1071
 33554687
  0
LAYER
  5
13EF9
330
13DB5
100
AcDbSymbolTableRecord
100
AcDbLayerTableRecord
  2
a4|Level 33
 70
    16
 62
     7
  6
Continuous
370
     0
390
13D81
347
13D84
348
0
1001
AcCmTransparency
1071
 33554687
  0
LAYER
  5
13EFA
330
13DB5
100
AcDbSymbolTableRecord
100
AcDbLayerTableRecord
  2
a4|Level 34
 70
    16
 62
     7
  6
Continuous
370
     0
390
13D81
347
13D84
348
0
1001
AcCmTransparency
1071
 33554687
  0
LAYER
  5
13EFB
330
13DB5
100
AcDbSymbolTableRecord
100
AcDbLayerTableRecord
  2
a4|Level 35
 70
    16
 62
     7
  6
Continuous
370
     0
390
13D81
347
13D84
348
0
1001
AcCmTransparency
1071
 33554687
  0
LAYER
  5
13EFC
330
13DB5
100
AcDbSymbolTableRecord
100
AcDbLayerTableRecord
  2
a4|Level 36
 70
    16
 62
     7
  6
Continuous
370
     0
390
13D81
347
13D84
348
0
1001
AcCmTransparency
1071
 33554687
  0
LAYER
  5
13EFD
330
13DB5
100
AcDbSymbolTableRecord
100
AcDbLayerTableRecord
  2
a4|Level 37
 70
    16
 62
     7
  6
Continuous
370
     0
390
13D81
347
13D84
348
0
1001
AcCmTransparency
1071
 33554687
  0
LAYER
  5
13EFE
330
13DB5
100
AcDbSymbolTableRecord
100
AcDbLayerTableRecord
  2
a4|Level 38
 70
    16
 62
     7
  6
Continuous
370
     0
390
13D81
347
13D84
348
0
1001
AcCmTransparency
1071
 33554687
  0
LAYER
  5
13EFF
330
13DB5
100
AcDbSymbolTableRecord
100
AcDbLayerTableRecord
  2
a4|Level 39
 70
    16
 62
     7
  6
Continuous
370
     0
390
13D81
347
13D84
348
0
1001
AcCmTransparency
1071
 33554687
  0
LAYER
  5
13F00
330
13DB5
100
AcDbSymbolTableRecord
100
AcDbLayerTableRecord
  2
a4|Level 40
 70
    16
 62
     7
  6
Continuous
370
     0
390
13D81
347
13D84
348
0
1001
AcCmTransparency
1071
 33554687
  0
LAYER
  5
13F01
330
13DB5
100
AcDbSymbolTableRecord
100
AcDbLayerTableRecord
  2
a4|Level 41
 70
    16
 62
     7
  6
Continuous
370
     0
390
13D81
347
13D84
348
0
1001
AcCmTransparency
1071
 33554687
  0
LAYER
  5
13F02
330
13DB5
100
AcDbSymbolTableRecord
100
AcDbLayerTableRecord
  2
a4|Level 42
 70
    16
 62
     7
  6
Continuous
370
     0
390
13D81
347
13D84
348
0
1001
AcCmTransparency
1071
 33554687
  0
LAYER
  5
13F03
330
13DB5
100
AcDbSymbolTableRecord
100
AcDbLayerTableRecord
  2
a4|Level 43
 70
    16
 62
     7
  6
Continuous
370
     0
390
13D81
347
13D84
348
0
1001
AcCmTransparency
1071
 33554687
  0
LAYER
  5
13F04
330
13DB5
100
AcDbSymbolTableRecord
100
AcDbLayerTableRecord
  2
a4|Level 44
 70
    16
 62
     7
  6
Continuous
370
     0
390
13D81
347
13D84
348
0
1001
AcCmTransparency
1071
 33554687
  0
LAYER
  5
13F05
330
13DB5
100
AcDbSymbolTableRecord
100
AcDbLayerTableRecord
  2
a4|Level 45
 70
    16
 62
     7
  6
Continuous
370
     0
390
13D81
347
13D84
348
0
1001
AcCmTransparency
1071
 33554687
  0
LAYER
  5
13F06
330
13DB5
100
AcDbSymbolTableRecord
100
AcDbLayerTableRecord
  2
a4|Level 46
 70
    16
 62
     7
  6
Continuous
370
     0
390
13D81
347
13D84
348
0
1001
AcCmTransparency
1071
 33554687
  0
LAYER
  5
13F07
330
13DB5
100
AcDbSymbolTableRecord
100
AcDbLayerTableRecord
  2
a4|Level 47
 70
    16
 62
     7
  6
Continuous
370
     0
390
13D81
347
13D84
348
0
1001
AcCmTransparency
1071
 33554687
  0
LAYER
  5
13F08
330
13DB5
100
AcDbSymbolTableRecord
100
AcDbLayerTableRecord
  2
a4|Level 48
 70
    16
 62
     7
  6
Continuous
370
     0
390
13D81
347
13D84
348
0
1001
AcCmTransparency
1071
 33554687
  0
LAYER
  5
13F09
330
13DB5
100
AcDbSymbolTableRecord
100
AcDbLayerTableRecord
  2
a4|Level 49
 70
    16
 62
     7
  6
Continuous
370
     0
390
13D81
347
13D84
348
0
1001
AcCmTransparency
1071
 33554687
  0
LAYER
  5
13F0A
330
13DB5
100
AcDbSymbolTableRecord
100
AcDbLayerTableRecord
  2
a4|Level 50
 70
    16
 62
     7
  6
Continuous
370
     0
390
13D81
347
13D84
348
0
1001
AcCmTransparency
1071
 33554687
  0
LAYER
  5
13F0B
330
13DB5
100
AcDbSymbolTableRecord
100
AcDbLayerTableRecord
  2
a4|Level 51
 70
    16
 62
     7
  6
Continuous
370
     0
390
13D81
347
13D84
348
0
1001
AcCmTransparency
1071
 33554687
  0
LAYER
  5
13F0C
330
13DB5
100
AcDbSymbolTableRecord
100
AcDbLayerTableRecord
  2
a4|Level 52
 70
    16
 62
     7
  6
Continuous
370
     0
390
13D81
347
13D84
348
0
1001
AcCmTransparency
1071
 33554687
  0
LAYER
  5
13F0D
330
13DB5
100
AcDbSymbolTableRecord
100
AcDbLayerTableRecord
  2
a4|Level 53
 70
    16
 62
     7
  6
Continuous
370
     0
390
13D81
347
13D84
348
0
1001
AcCmTransparency
1071
 33554687
  0
LAYER
  5
13F0E
330
13DB5
100
AcDbSymbolTableRecord
100
AcDbLayerTableRecord
  2
a4|Level 54
 70
    16
 62
     7
  6
Continuous
370
     0
390
13D81
347
13D84
348
0
1001
AcCmTransparency
1071
 33554687
  0
LAYER
  5
13F0F
330
13DB5
100
AcDbSymbolTableRecord
100
AcDbLayerTableRecord
  2
a4|Level 55
 70
    16
 62
     7
  6
Continuous
370
     0
390
13D81
347
13D84
348
0
1001
AcCmTransparency
1071
 33554687
  0
LAYER
  5
13F10
330
13DB5
100
AcDbSymbolTableRecord
100
AcDbLayerTableRecord
  2
a4|Level 56
 70
    16
 62
     7
  6
Continuous
370
     0
390
13D81
347
13D84
348
0
1001
AcCmTransparency
1071
 33554687
  0
LAYER
  5
13F11
330
13DB5
100
AcDbSymbolTableRecord
100
AcDbLayerTableRecord
  2
a4|Level 57
 70
    16
 62
     7
  6
Continuous
370
     0
390
13D81
347
13D84
348
0
1001
AcCmTransparency
1071
 33554687
  0
LAYER
  5
13F12
330
13DB5
100
AcDbSymbolTableRecord
100
AcDbLayerTableRecord
  2
a4|Level 58
 70
    16
 62
     7
  6
Continuous
370
     0
390
13D81
347
13D84
348
0
1001
AcCmTransparency
1071
 33554687
  0
LAYER
  5
13F13
330
13DB5
100
AcDbSymbolTableRecord
100
AcDbLayerTableRecord
  2
a4|Level 59
 70
    16
 62
     7
  6
Continuous
370
     0
390
13D81
347
13D84
348
0
1001
AcCmTransparency
1071
 33554687
  0
LAYER
  5
13F14
330
13DB5
100
AcDbSymbolTableRecord
100
AcDbLayerTableRecord
  2
a4|Level 60
 70
    16
 62
     7
  6
Continuous
370
     0
390
13D81
347
13D84
348
0
1001
AcCmTransparency
1071
 33554687
  0
LAYER
  5
13F15
330
13DB5
100
AcDbSymbolTableRecord
100
AcDbLayerTableRecord
  2
a4|Level 61
 70
    16
 62
     7
  6
Continuous
370
     0
390
13D81
347
13D84
348
0
1001
AcCmTransparency
1071
 33554687
  0
LAYER
  5
13F16
330
13DB5
100
AcDbSymbolTableRecord
100
AcDbLayerTableRecord
  2
a4|Level 62
 70
    16
 62
     7
  6
Continuous
370
     0
390
13D81
347
13D84
348
0
1001
AcCmTransparency
1071
 33554687
  0
LAYER
  5
13F17
330
13DB5
100
AcDbSymbolTableRecord
100
AcDbLayerTableRecord
  2
a4|Level 63
 70
    16
 62
     7
  6
Continuous
370
     0
390
13D81
347
13D84
348
0
1001
AcCmTransparency
1071
 33554687
  0
LAYER
  5
13F18
330
13DB5
100
AcDbSymbolTableRecord
100
AcDbLayerTableRecord
  2
b1|Level 1
 70
    16
 62
     7
  6
Continuous
370
     0
390
13D81
347
13D84
348
0
1001
AcCmTransparency
1071
 33554687
  0
LAYER
  5
13F19
330
13DB5
100
AcDbSymbolTableRecord
100
AcDbLayerTableRecord
  2
b1|Level 2
 70
    16
 62
     7
  6
Continuous
370
     0
390
13D81
347
13D84
348
0
1001
AcCmTransparency
1071
 33554687
  0
LAYER
  5
13F1A
330
13DB5
100
AcDbSymbolTableRecord
100
AcDbLayerTableRecord
  2
b1|Level 3
 70
    16
 62
     7
  6
Continuous
370
     0
390
13D81
347
13D84
348
0
1001
AcCmTransparency
1071
 33554687
  0
LAYER
  5
13F1B
330
13DB5
100
AcDbSymbolTableRecord
100
AcDbLayerTableRecord
  2
b1|Level 4
 70
    16
 62
     7
  6
Continuous
370
     0
390
13D81
347
13D84
348
0
1001
AcCmTransparency
1071
 33554687
  0
LAYER
  5
13F1C
330
13DB5
100
AcDbSymbolTableRecord
100
AcDbLayerTableRecord
  2
b1|Level 5
 70
    16
 62
     7
  6
Continuous
370
     0
390
13D81
347
13D84
348
0
1001
AcCmTransparency
1071
 33554687
  0
LAYER
  5
13F1D
330
13DB5
100
AcDbSymbolTableRecord
100
AcDbLayerTableRecord
  2
b1|Level 6
 70
    16
 62
     7
  6
Continuous
370
     0
390
13D81
347
13D84
348
0
1001
AcCmTransparency
1071
 33554687
  0
LAYER
  5
13F1E
330
13DB5
100
AcDbSymbolTableRecord
100
AcDbLayerTableRecord
  2
b1|Level 7
 70
    16
 62
     7
  6
Continuous
370
     0
390
13D81
347
13D84
348
0
1001
AcCmTransparency
1071
 33554687
  0
LAYER
  5
13F1F
330
13DB5
100
AcDbSymbolTableRecord
100
AcDbLayerTableRecord
  2
b1|Level 8
 70
    16
 62
     7
  6
Continuous
370
     0
390
13D81
347
13D84
348
0
1001
AcCmTransparency
1071
 33554687
  0
LAYER
  5
13F20
330
13DB5
100
AcDbSymbolTableRecord
100
AcDbLayerTableRecord
  2
b1|Level 9
 70
    16
 62
     7
  6
Continuous
370
     0
390
13D81
347
13D84
348
0
1001
AcCmTransparency
1071
 33554687
  0
LAYER
  5
13F21
330
13DB5
100
AcDbSymbolTableRecord
100
AcDbLayerTableRecord
  2
b1|Level 10
 70
    16
 62
     7
  6
Continuous
370
     0
390
13D81
347
13D84
348
0
1001
AcCmTransparency
1071
 33554687
  0
LAYER
  5
13F22
330
13DB5
100
AcDbSymbolTableRecord
100
AcDbLayerTableRecord
  2
b1|Level 11
 70
    16
 62
     7
  6
Continuous
370
     0
390
13D81
347
13D84
348
0
1001
AcCmTransparency
1071
 33554687
  0
LAYER
  5
13F23
330
13DB5
100
AcDbSymbolTableRecord
100
AcDbLayerTableRecord
  2
b1|Level 12
 70
    16
 62
     7
  6
Continuous
370
     0
390
13D81
347
13D84
348
0
1001
AcCmTransparency
1071
 33554687
  0
LAYER
  5
13F24
330
13DB5
100
AcDbSymbolTableRecord
100
AcDbLayerTableRecord
  2
b1|Level 13
 70
    16
 62
     7
  6
Continuous
370
     0
390
13D81
347
13D84
348
0
1001
AcCmTransparency
1071
 33554687
  0
LAYER
  5
13F25
330
13DB5
100
AcDbSymbolTableRecord
100
AcDbLayerTableRecord
  2
b1|Level 14
 70
    16
 62
     7
  6
Continuous
370
     0
390
13D81
347
13D84
348
0
1001
AcCmTransparency
1071
 33554687
  0
LAYER
  5
13F26
330
13DB5
100
AcDbSymbolTableRecord
100
AcDbLayerTableRecord
  2
b1|Level 15
 70
    16
 62
     7
  6
Continuous
370
     0
390
13D81
347
13D84
348
0
1001
AcCmTransparency
1071
 33554687
  0
LAYER
  5
13F27
330
13DB5
100
AcDbSymbolTableRecord
100
AcDbLayerTableRecord
  2
b1|Level 16
 70
    16
 62
     7
  6
Continuous
370
     0
390
13D81
347
13D84
348
0
1001
AcCmTransparency
1071
 33554687
  0
LAYER
  5
13F28
330
13DB5
100
AcDbSymbolTableRecord
100
AcDbLayerTableRecord
  2
b1|Level 17
 70
    16
 62
     7
  6
Continuous
370
     0
390
13D81
347
13D84
348
0
1001
AcCmTransparency
1071
 33554687
  0
LAYER
  5
13F29
330
13DB5
100
AcDbSymbolTableRecord
100
AcDbLayerTableRecord
  2
b1|Level 18
 70
    16
 62
     7
  6
Continuous
370
     0
390
13D81
347
13D84
348
0
1001
AcCmTransparency
1071
 33554687
  0
LAYER
  5
13F2A
330
13DB5
100
AcDbSymbolTableRecord
100
AcDbLayerTableRecord
  2
b1|Level 19
 70
    16
 62
     7
  6
Continuous
370
     0
390
13D81
347
13D84
348
0
1001
AcCmTransparency
1071
 33554687
  0
LAYER
  5
13F2B
330
13DB5
100
AcDbSymbolTableRecord
100
AcDbLayerTableRecord
  2
b1|Level 20
 70
    16
 62
     7
  6
Continuous
370
     0
390
13D81
347
13D84
348
0
1001
AcCmTransparency
1071
 33554687
  0
LAYER
  5
13F2C
330
13DB5
100
AcDbSymbolTableRecord
100
AcDbLayerTableRecord
  2
b1|Level 21
 70
    16
 62
     7
  6
Continuous
370
     0
390
13D81
347
13D84
348
0
1001
AcCmTransparency
1071
 33554687
  0
LAYER
  5
13F2D
330
13DB5
100
AcDbSymbolTableRecord
100
AcDbLayerTableRecord
  2
b1|Level 22
 70
    16
 62
     7
  6
Continuous
370
     0
390
13D81
347
13D84
348
0
1001
AcCmTransparency
1071
 33554687
  0
LAYER
  5
13F2E
330
13DB5
100
AcDbSymbolTableRecord
100
AcDbLayerTableRecord
  2
b1|Level 23
 70
    16
 62
     7
  6
Continuous
370
     0
390
13D81
347
13D84
348
0
1001
AcCmTransparency
1071
 33554687
  0
LAYER
  5
13F2F
330
13DB5
100
AcDbSymbolTableRecord
100
AcDbLayerTableRecord
  2
b1|Level 24
 70
    16
 62
     7
  6
Continuous
370
     0
390
13D81
347
13D84
348
0
1001
AcCmTransparency
1071
 33554687
  0
LAYER
  5
13F30
330
13DB5
100
AcDbSymbolTableRecord
100
AcDbLayerTableRecord
  2
b1|Level 25
 70
    16
 62
     7
  6
Continuous
370
     0
390
13D81
347
13D84
348
0
1001
AcCmTransparency
1071
 33554687
  0
LAYER
  5
13F31
330
13DB5
100
AcDbSymbolTableRecord
100
AcDbLayerTableRecord
  2
b1|Level 26
 70
    16
 62
     7
  6
Continuous
370
     0
390
13D81
347
13D84
348
0
1001
AcCmTransparency
1071
 33554687
  0
LAYER
  5
13F32
330
13DB5
100
AcDbSymbolTableRecord
100
AcDbLayerTableRecord
  2
b1|Level 27
 70
    16
 62
     7
  6
Continuous
370
     0
390
13D81
347
13D84
348
0
1001
AcCmTransparency
1071
 33554687
  0
LAYER
  5
13F33
330
13DB5
100
AcDbSymbolTableRecord
100
AcDbLayerTableRecord
  2
b1|Level 28
 70
    16
 62
     7
  6
Continuous
370
     0
390
13D81
347
13D84
348
0
1001
AcCmTransparency
1071
 33554687
  0
LAYER
  5
13F34
330
13DB5
100
AcDbSymbolTableRecord
100
AcDbLayerTableRecord
  2
b1|Level 29
 70
    16
 62
     7
  6
Continuous
370
     0
390
13D81
347
13D84
348
0
1001
AcCmTransparency
1071
 33554687
  0
LAYER
  5
13F35
330
13DB5
100
AcDbSymbolTableRecord
100
AcDbLayerTableRecord
  2
b1|Level 30
 70
    16
 62
     7
  6
Continuous
370
     0
390
13D81
347
13D84
348
0
1001
AcCmTransparency
1071
 33554687
  0
LAYER
  5
13F36
330
13DB5
100
AcDbSymbolTableRecord
100
AcDbLayerTableRecord
  2
b1|Level 31
 70
    16
 62
     7
  6
Continuous
370
     0
390
13D81
347
13D84
348
0
1001
AcCmTransparency
1071
 33554687
  0
LAYER
  5
13F37
330
13DB5
100
AcDbSymbolTableRecord
100
AcDbLayerTableRecord
  2
b1|Level 32
 70
    16
 62
     7
  6
Continuous
370
     0
390
13D81
347
13D84
348
0
1001
AcCmTransparency
1071
 33554687
  0
LAYER
  5
13F38
330
13DB5
100
AcDbSymbolTableRecord
100
AcDbLayerTableRecord
  2
b1|Level 33
 70
    16
 62
     7
  6
Continuous
370
     0
390
13D81
347
13D84
348
0
1001
AcCmTransparency
1071
 33554687
  0
LAYER
  5
13F39
330
13DB5
100
AcDbSymbolTableRecord
100
AcDbLayerTableRecord
  2
b1|Level 34
 70
    16
 62
     7
  6
Continuous
370
     0
390
13D81
347
13D84
348
0
1001
AcCmTransparency
1071
 33554687
  0
LAYER
  5
13F3A
330
13DB5
100
AcDbSymbolTableRecord
100
AcDbLayerTableRecord
  2
b1|Level 35
 70
    16
 62
     7
  6
Continuous
370
     0
390
13D81
347
13D84
348
0
1001
AcCmTransparency
1071
 33554687
  0
LAYER
  5
13F3B
330
13DB5
100
AcDbSymbolTableRecord
100
AcDbLayerTableRecord
  2
b1|Level 36
 70
    16
 62
     7
  6
Continuous
370
     0
390
13D81
347
13D84
348
0
1001
AcCmTransparency
1071
 33554687
  0
LAYER
  5
13F3C
330
13DB5
100
AcDbSymbolTableRecord
100
AcDbLayerTableRecord
  2
b1|Level 37
 70
    16
 62
     7
  6
Continuous
370
     0
390
13D81
347
13D84
348
0
1001
AcCmTransparency
1071
 33554687
  0
LAYER
  5
13F3D
330
13DB5
100
AcDbSymbolTableRecord
100
AcDbLayerTableRecord
  2
b1|Level 38
 70
    16
 62
     7
  6
Continuous
370
     0
390
13D81
347
13D84
348
0
1001
AcCmTransparency
1071
 33554687
  0
LAYER
  5
13F3E
330
13DB5
100
AcDbSymbolTableRecord
100
AcDbLayerTableRecord
  2
b1|Level 39
 70
    16
 62
     7
  6
Continuous
370
     0
390
13D81
347
13D84
348
0
1001
AcCmTransparency
1071
 33554687
  0
LAYER
  5
13F3F
330
13DB5
100
AcDbSymbolTableRecord
100
AcDbLayerTableRecord
  2
b1|Level 40
 70
    16
 62
     7
  6
Continuous
370
     0
390
13D81
347
13D84
348
0
1001
AcCmTransparency
1071
 33554687
  0
LAYER
  5
13F40
330
13DB5
100
AcDbSymbolTableRecord
100
AcDbLayerTableRecord
  2
b1|Level 41
 70
    16
 62
     7
  6
Continuous
370
     0
390
13D81
347
13D84
348
0
1001
AcCmTransparency
1071
 33554687
  0
LAYER
  5
13F41
330
13DB5
100
AcDbSymbolTableRecord
100
AcDbLayerTableRecord
  2
b1|Level 42
 70
    16
 62
     7
  6
Continuous
370
     0
390
13D81
347
13D84
348
0
1001
AcCmTransparency
1071
 33554687
  0
LAYER
  5
13F42
330
13DB5
100
AcDbSymbolTableRecord
100
AcDbLayerTableRecord
  2
b1|Level 43
 70
    16
 62
     7
  6
Continuous
370
     0
390
13D81
347
13D84
348
0
1001
AcCmTransparency
1071
 33554687
  0
LAYER
  5
13F43
330
13DB5
100
AcDbSymbolTableRecord
100
AcDbLayerTableRecord
  2
b1|Level 44
 70
    16
 62
     7
  6
Continuous
370
     0
390
13D81
347
13D84
348
0
1001
AcCmTransparency
1071
 33554687
  0
LAYER
  5
13F44
330
13DB5
100
AcDbSymbolTableRecord
100
AcDbLayerTableRecord
  2
b1|Level 45
 70
    16
 62
     7
  6
Continuous
370
     0
390
13D81
347
13D84
348
0
1001
AcCmTransparency
1071
 33554687
  0
LAYER
  5
13F45
330
13DB5
100
AcDbSymbolTableRecord
100
AcDbLayerTableRecord
  2
b1|Level 46
 70
    16
 62
     7
  6
Continuous
370
     0
390
13D81
347
13D84
348
0
1001
AcCmTransparency
1071
 33554687
  0
LAYER
  5
13F46
330
13DB5
100
AcDbSymbolTableRecord
100
AcDbLayerTableRecord
  2
b1|Level 47
 70
    16
 62
     7
  6
Continuous
370
     0
390
13D81
347
13D84
348
0
1001
AcCmTransparency
1071
 33554687
  0
LAYER
  5
13F47
330
13DB5
100
AcDbSymbolTableRecord
100
AcDbLayerTableRecord
  2
b1|Level 48
 70
    16
 62
     7
  6
Continuous
370
     0
390
13D81
347
13D84
348
0
1001
AcCmTransparency
1071
 33554687
  0
LAYER
  5
13F48
330
13DB5
100
AcDbSymbolTableRecord
100
AcDbLayerTableRecord
  2
b1|Level 49
 70
    16
 62
     7
  6
Continuous
370
     0
390
13D81
347
13D84
348
0
1001
AcCmTransparency
1071
 33554687
  0
LAYER
  5
13F49
330
13DB5
100
AcDbSymbolTableRecord
100
AcDbLayerTableRecord
  2
b1|Level 50
 70
    16
 62
     7
  6
Continuous
370
     0
390
13D81
347
13D84
348
0
1001
AcCmTransparency
1071
 33554687
  0
LAYER
  5
13F4A
330
13DB5
100
AcDbSymbolTableRecord
100
AcDbLayerTableRecord
  2
b1|Level 51
 70
    16
 62
     7
  6
Continuous
370
     0
390
13D81
347
13D84
348
0
1001
AcCmTransparency
1071
 33554687
  0
LAYER
  5
13F4B
330
13DB5
100
AcDbSymbolTableRecord
100
AcDbLayerTableRecord
  2
b1|Level 52
 70
    16
 62
     7
  6
Continuous
370
     0
390
13D81
347
13D84
348
0
1001
AcCmTransparency
1071
 33554687
  0
LAYER
  5
13F4C
330
13DB5
100
AcDbSymbolTableRecord
100
AcDbLayerTableRecord
  2
b1|Level 53
 70
    16
 62
     7
  6
Continuous
370
     0
390
13D81
347
13D84
348
0
1001
AcCmTransparency
1071
 33554687
  0
LAYER
  5
13F4D
330
13DB5
100
AcDbSymbolTableRecord
100
AcDbLayerTableRecord
  2
b1|Level 54
 70
    16
 62
     7
  6
Continuous
370
     0
390
13D81
347
13D84
348
0
1001
AcCmTransparency
1071
 33554687
  0
LAYER
  5
13F4E
330
13DB5
100
AcDbSymbolTableRecord
100
AcDbLayerTableRecord
  2
b1|Level 55
 70
    16
 62
     7
  6
Continuous
370
     0
390
13D81
347
13D84
348
0
1001
AcCmTransparency
1071
 33554687
  0
LAYER
  5
13F4F
330
13DB5
100
AcDbSymbolTableRecord
100
AcDbLayerTableRecord
  2
b1|Level 56
 70
    16
 62
     7
  6
Continuous
370
     0
390
13D81
347
13D84
348
0
1001
AcCmTransparency
1071
 33554687
  0
LAYER
  5
13F50
330
13DB5
100
AcDbSymbolTableRecord
100
AcDbLayerTableRecord
  2
b1|Level 57
 70
    16
 62
     7
  6
Continuous
370
     0
390
13D81
347
13D84
348
0
1001
AcCmTransparency
1071
 33554687
  0
LAYER
  5
13F51
330
13DB5
100
AcDbSymbolTableRecord
100
AcDbLayerTableRecord
  2
b1|Level 58
 70
    16
 62
     7
  6
Continuous
370
     0
390
13D81
347
13D84
348
0
1001
AcCmTransparency
1071
 33554687
  0
LAYER
  5
13F52
330
13DB5
100
AcDbSymbolTableRecord
100
AcDbLayerTableRecord
  2
b1|Level 59
 70
    16
 62
     7
  6
Continuous
370
     0
390
13D81
347
13D84
348
0
1001
AcCmTransparency
1071
 33554687
  0
LAYER
  5
13F53
330
13DB5
100
AcDbSymbolTableRecord
100
AcDbLayerTableRecord
  2
b1|Level 60
 70
    16
 62
     7
  6
Continuous
370
     0
390
13D81
347
13D84
348
0
1001
AcCmTransparency
1071
 33554687
  0
LAYER
  5
13F54
330
13DB5
100
AcDbSymbolTableRecord
100
AcDbLayerTableRecord
  2
b1|Level 61
 70
    16
 62
     7
  6
Continuous
370
     0
390
13D81
347
13D84
348
0
1001
AcCmTransparency
1071
 33554687
  0
LAYER
  5
13F55
330
13DB5
100
AcDbSymbolTableRecord
100
AcDbLayerTableRecord
  2
b1|Level 62
 70
    16
 62
     7
  6
Continuous
370
     0
390
13D81
347
13D84
348
0
1001
AcCmTransparency
1071
 33554687
  0
LAYER
  5
13F56
330
13DB5
100
AcDbSymbolTableRecord
100
AcDbLayerTableRecord
  2
b1|Level 63
 70
    16
 62
     7
  6
Continuous
370
     0
390
13D81
347
13D84
348
0
1001
AcCmTransparency
1071
 33554687
  0
LAYER
  5
13D6A
330
13DB5
100
AcDbSymbolTableRecord
100
AcDbLayerTableRecord
  2
Thawley Rocker - Level 14
 70
     0
 62
     7
  6
Continuous
370
     0
390
13D81
347
13D84
348
0
1001
AcCmTransparency
1071
 33554687
1001
AcAecLayerStandard
1000

1000
Fall Zone Individual
  0
LAYER
  5
13D6B
330
13DB5
100
AcDbSymbolTableRecord
100
AcDbLayerTableRecord
  2
springs2 - Level 26
 70
     0
 62
     7
  6
Continuous
370
     0
390
13D81
347
13D84
348
0
1001
AcCmTransparency
1071
 33554687
1001
AcAecLayerStandard
1000

1000
Assemblies - Colour Locked
  0
LAYER
  5
13D6C
330
13DB5
100
AcDbSymbolTableRecord
100
AcDbLayerTableRecord
  2
springs2 - Level 25
 70
     0
 62
     7
  6
Continuous
370
     0
390
13D81
347
13D84
348
0
1001
AcCmTransparency
1071
 33554687
1001
AcAecLayerStandard
1000

1000
Assemblies - Base
  0
LAYER
  5
13D6D
330
13DB5
100
AcDbSymbolTableRecord
100
AcDbLayerTableRecord
  2
springs2 - Level 29
 70
     0
 62
     7
  6
Continuous
370
     0
390
13D81
347
13D84
348
0
1001
AcCmTransparency
1071
 33554687
1001
AcAecLayerStandard
1000

1000
Assemblies - Secondary 29
  0
LAYER
  5
13D6E
330
13DB5
100
AcDbSymbolTableRecord
100
AcDbLayerTableRecord
  2
springs2 - Level 43
 70
     0
 62
     7
  6
Continuous
370
     0
390
13D81
347
13D84
348
0
1001
AcCmTransparency
1071
 33554687
  0
LAYER
  5
13D6F
330
13DB5
100
AcDbSymbolTableRecord
100
AcDbLayerTableRecord
  2
springs2 - Level 30
 70
     0
 62
     7
  6
Continuous
370
     0
390
13D81
347
13D84
348
0
1001
AcCmTransparency
1071
 33554687
1001
AcAecLayerStandard
1000

1000
Assemblies - Secondary 30
  0
LAYER
  5
13D70
330
13DB5
100
AcDbSymbolTableRecord
100
AcDbLayerTableRecord
  2
springs2 - Level 44
 70
     0
 62
     7
  6
Continuous
370
     0
390
13D81
347
13D84
348
0
1001
AcCmTransparency
1071
 33554687
  0
LAYER
  5
13D71
330
13DB5
100
AcDbSymbolTableRecord
100
AcDbLayerTableRecord
  2
springs2 - Level 33
 70
     0
 62
     7
  6
Continuous
370
     0
390
13D81
347
13D84
348
0
1001
AcCmTransparency
1071
 33554687
  0
LAYER
  5
13D72
330
13DB5
100
AcDbSymbolTableRecord
100
AcDbLayerTableRecord
  2
springs2 - Level 34
 70
     0
 62
     7
  6
Continuous
370
     0
390
13D81
347
13D84
348
0
1001
AcCmTransparency
1071
 33554687
  0
LAYER
  5
13D73
330
13DB5
100
AcDbSymbolTableRecord
100
AcDbLayerTableRecord
  2
springs2 - Level 31
 70
     0
 62
     7
  6
Continuous
370
     0
390
13D81
347
13D84
348
0
1001
AcCmTransparency
1071
 33554687
  0
LAYER
  5
13D74
330
13DB5
100
AcDbSymbolTableRecord
100
AcDbLayerTableRecord
  2
springs2 - Level 32
 70
     0
 62
     7
  6
Continuous
370
     0
390
13D81
347
13D84
348
0
1001
AcCmTransparency
1071
 33554687
  0
LAYER
  5
13D75
330
13DB5
100
AcDbSymbolTableRecord
100
AcDbLayerTableRecord
  2
springs2 - Level 28
 70
     0
 62
     7
  6
Continuous
370
     0
390
13D81
347
13D84
348
0
1001
AcCmTransparency
1071
 33554687
1001
AcAecLayerStandard
1000

1000
Assemblies - Secondary 28
  0
LAYER
  5
13D76
330
13DB5
100
AcDbSymbolTableRecord
100
AcDbLayerTableRecord
  2
springs2 - Level 42
 70
     0
 62
     7
  6
Continuous
370
     0
390
13D81
347
13D84
348
0
1001
AcCmTransparency
1071
 33554687
  0
LAYER
  5
13D77
330
13DB5
100
AcDbSymbolTableRecord
100
AcDbLayerTableRecord
  2
springs2 - Level 27
 70
     0
 62
     7
  6
Continuous
370
     0
390
13D81
347
13D84
348
0
1001
AcCmTransparency
1071
 33554687
1001
AcAecLayerStandard
1000

1000
Assemblies - Secondary 27
  0
LAYER
  5
13D78
330
13DB5
100
AcDbSymbolTableRecord
100
AcDbLayerTableRecord
  2
springs2 - Level 41
 70
     0
 62
     7
  6
Continuous
370
     0
390
13D81
347
13D84
348
0
1001
AcCmTransparency
1071
 33554687
1001
AcAecLayerStandard
1000

1000
Assemblies - Tertiary 41
  0
ENDTAB
  0
TABLE
  2
STYLE
  5
13DBA
330
0
100
AcDbSymbolTable
 70
     3
  0
STYLE
  5
13DBB
330
13DBA
100
AcDbSymbolTableRecord
100
AcDbTextStyleTableRecord
  2
Standard
 70
     0
 40
3.0
 41
1.0
 50
0.0
 71
     0
 42
3.0
  3
INTL_ISO.shx
  4

1001
AcadAnnotative
1000
AnnotativeData
1002
{
1070
     1
1070
     0
1002
}
  0
STYLE
  5
13D91
330
13DBA
100
AcDbSymbolTableRecord
100
AcDbTextStyleTableRecord
  2
Style-STANDARD
 70
     0
 40
0.0
 41
1.0
 50
0.0
 71
     0
 42
3.5
  3
STANDARD.shx
  4

1001
AcadAnnotative
1000
AnnotativeData
1002
{
1070
     1
1070
     1
1002
}
  0
STYLE
  5
313
330
13DBA
100
AcDbSymbolTableRecord
100
AcDbTextStyleTableRecord
  2
Style-INTL_ISO
 70
     0
 40
0.0
 41
1.0
 50
0.0
 71
     0
 42
3.5
  3
INTL_ISO.shx
  4

  0
ENDTAB
  0
TABLE
  2
VIEW
  5
13DC0
330
0
100
AcDbSymbolTable
 70
     0
  0
ENDTAB
  0
TABLE
  2
UCS
  5
13DC1
330
0
100
AcDbSymbolTable
 70
     0
  0
ENDTAB
  0
TABLE
  2
APPID
  5
13DC6
330
0
100
AcDbSymbolTable
 70
     6
  0
APPID
  5
13DC7
330
13DC6
100
AcDbSymbolTableRecord
100
AcDbRegAppTableRecord
  2
ACAD
 70
     0
  0
APPID
  5
13DB4
330
13DC6
100
AcDbSymbolTableRecord
100
AcDbRegAppTableRecord
  2
ACAD_PSEXT
 70
     0
  0
APPID
  5
13D8E
330
13DC6
100
AcDbSymbolTableRecord
100
AcDbRegAppTableRecord
  2
AcCmTransparency
 70
     0
  0
APPID
  5
13D92
330
13DC6
100
AcDbSymbolTableRecord
100
AcDbRegAppTableRecord
  2
AcadAnnotative
 70
     0
  0
APPID
  5
13D9A
330
13DC6
100
AcDbSymbolTableRecord
100
AcDbRegAppTableRecord
  2
MStation
 70
     0
  0
APPID
  5
13F58
330
13DC6
100
AcDbSymbolTableRecord
100
AcDbRegAppTableRecord
  2
AcAecLayerStandard
 70
     0
  0
ENDTAB
  0
TABLE
  2
DIMSTYLE
  5
13DC8
330
0
100
AcDbSymbolTable
 70
     1
100
AcDbDimStyleTable
 71
     1
340
13DC9
  0
DIMSTYLE
105
13DC9
330
13DC8
100
AcDbSymbolTableRecord
100
AcDbDimStyleTableRecord
  2
Standard
 70
     0
 78
     3
272
     0
274
     0
278
     0
284
     3
285
     3
286
     3
289
     1
340
13DBB
345
13D8D
346
13D8D
347
13D8D
  0
ENDTAB
  0
TABLE
  2
BLOCK_RECORD
  5
13D79
330
0
100
AcDbSymbolTable
 70
     6
  0
BLOCK_RECORD
  5
13D7A
102
{ACAD_XDICTIONARY
360
13D7B
102
}
330
13D79
100
AcDbSymbolTableRecord
100
AcDbBlockTableRecord
  2
*Model_Space
340
13DAC
 70
     0
280
     1
281
     0
  0
BLOCK_RECORD
  5
13DAF
330
13D79
100
AcDbSymbolTableRecord
100
AcDbBlockTableRecord
  2
*Paper_Space
340
13DB2
 70
     0
280
     1
281
     0
  0
BLOCK_RECORD
  5
13D97
330
13D79
100
AcDbSymbolTableRecord
100
AcDbBlockTableRecord
  2
A!
340
0
102
{BLKREFS
331
13D96
102
}
 70
     0
280
     1
281
     0
  0
BLOCK_RECORD
  5
13D9C
330
13D79
100
AcDbSymbolTableRecord
100
AcDbBlockTableRecord
  2
a2
340
0
102
{BLKREFS
331
13D9B
102
}
 70
     0
280
     1
281
     0
  0
BLOCK_RECORD
  5
13DA0
330
13D79
100
AcDbSymbolTableRecord
100
AcDbBlockTableRecord
  2
a3
340
0
102
{BLKREFS
331
13D9F
102
}
 70
     0
280
     1
281
     0
  0
BLOCK_RECORD
  5
13DA4
330
13D79
100
AcDbSymbolTableRecord
100
AcDbBlockTableRecord
  2
a4
340
0
102
{BLKREFS
331
13DA3
102
}
 70
     0
280
     1
281
     0
  0
BLOCK_RECORD
  5
13DA8
330
13D79
100
AcDbSymbolTableRecord
100
AcDbBlockTableRecord
  2
b1
340
0
102
{BLKREFS
331
13DA7
102
}
 70
     0
280
     1
281
     0
  0
BLOCK_RECORD
  5
13DED
330
13D79
100
AcDbSymbolTableRecord
100
AcDbBlockTableRecord
  2
TerminatorOpen_0.5
340
0
 70
     0
280
     1
281
     0
  0
ENDTAB
  0
ENDSEC
  0
SECTION
  2
BLOCKS
  0
BLOCK
  5
13D7D
330
13D7A
100
AcDbEntity
  8
0
100
AcDbBlockBegin
  2
*Model_Space
 70
     0
 10
0.0
 20
0.0
 30
0.0
  3
*Model_Space
  1

  0
ENDBLK
  5
13DAB
330
13D7A
100
AcDbEntity
  8
0
100
AcDbBlockEnd
  0
BLOCK
  5
13DB0
330
13DAF
100
AcDbEntity
 67
     1
  8
0
100
AcDbBlockBegin
  2
*Paper_Space
 70
     0
 10
0.0
 20
0.0
 30
0.0
  3
*Paper_Space
  1

  0
ENDBLK
  5
13DB1
330
13DAF
100
AcDbEntity
 67
     1
  8
0
100
AcDbBlockEnd
  0
BLOCK
  5
13D98
330
13D97
100
AcDbEntity
  8
0
100
AcDbBlockBegin
  2
A!
 70
     4
 10
0.0
 20
0.0
 30
0.0
  3
A!
  1
a1draw.dwg
  0
ENDBLK
  5
13D99
330
13D97
100
AcDbEntity
  8
0
100
AcDbBlockEnd
  0
BLOCK
  5
13D9D
330
13D9C
100
AcDbEntity
  8
0
100
AcDbBlockBegin
  2
a2
 70
     4
 71
     1
 10
0.0
 20
0.0
 30
0.0
  3
a2
  1
a2draw.dwg
  0
ENDBLK
  5
13D9E
330
13D9C
100
AcDbEntity
  8
0
100
AcDbBlockEnd
  0
BLOCK
  5
13DA1
330
13DA0
100
AcDbEntity
  8
0
100
AcDbBlockBegin
  2
a3
 70
     4
 71
     1
 10
0.0
 20
0.0
 30
0.0
  3
a3
  1
a3draw.dwg
  0
ENDBLK
  5
13DA2
330
13DA0
100
AcDbEntity
  8
0
100
AcDbBlockEnd
  0
BLOCK
  5
13DA5
330
13DA4
100
AcDbEntity
  8
0
100
AcDbBlockBegin
  2
a4
 70
     4
 71
     1
 10
0.0
 20
0.0
 30
0.0
  3
a4
  1
a4draw.dwg
  0
ENDBLK
  5
13DA6
330
13DA4
100
AcDbEntity
  8
0
100
AcDbBlockEnd
  0
BLOCK
  5
13DA9
330
13DA8
100
AcDbEntity
  8
0
100
AcDbBlockBegin
  2
b1
 70
     4
 71
     1
 10
0.0
 20
0.0
 30
0.0
  3
b1
  1
b1draw.dwg
  0
ENDBLK
  5
13DAA
330
13DA8
100
AcDbEntity
  8
0
100
AcDbBlockEnd
  0
BLOCK
  5
13DEE
330
13DED
100
AcDbEntity
  8
0
 62
     7
370
    30
100
AcDbBlockBegin
  2
TerminatorOpen_0.5
 70
     0
 10
0.0
 20
0.0
 30
0.0
  3
TerminatorOpen_0.5
  1

  0
LINE
  5
13DEF
330
13DED
100
AcDbEntity
  8
0
  6
ByBlock
 62
     0
370
    -2
100
AcDbLine
 10
0.0
 20
0.0
 30
0.0
 11
-1.0
 21
0.0
 31
0.0
  0
LINE
  5
13DF0
330
13DED
100
AcDbEntity
  8
0
  6
ByBlock
 62
     0
370
    -2
100
AcDbLine
 10
0.0
 20
0.0
 30
0.0
 11
-1.0
 21
0.25
 31
0.0
  0
LINE
  5
13DF1
330
13DED
100
AcDbEntity
  8
0
  6
ByBlock
 62
     0
370
    -2
100
AcDbLine
 10
0.0
 20
0.0
 30
0.0
 11
-1.0
 21
-0.25
 31
0.0
  0
ENDBLK
  5
13DF2
330
13DED
100
AcDbEntity
  8
0
 62
     7
370
    30
100
AcDbBlockEnd
  0
ENDSEC
  0
SECTION
  2
ENTITIES
  0
INSERT
  5
13D96
330
13D7A
100
AcDbEntity
  8
0
  6
Continuous
 62
     7
370
    30
100
AcDbBlockReference
  2
A!
 10
0.0
 20
0.0
 30
0.0
1001
MStation
1000
RefAttachMethod
1002
{
1070
     0
1002
}
1000
RefTreatedAsElement
1002
{
1070
     0
1002
}
  0
INSERT
  5
13D9B
330
13D7A
100
AcDbEntity
  8
0
  6
Continuous
 62
     7
370
    30
100
AcDbBlockReference
  2
a2
 10
0.0
 20
0.0
 30
0.0
1001
MStation
1000
RefAttachMethod
1002
{
1070
     0
1002
}
1000
RefTreatedAsElement
1002
{
1070
     0
1002
}
  0
INSERT
  5
13D9F
330
13D7A
100
AcDbEntity
  8
0
  6
Continuous
 62
     7
370
    30
100
AcDbBlockReference
  2
a3
 10
0.0
 20
0.0
 30
0.0
1001
MStation
1000
RefAttachMethod
1002
{
1070
     0
1002
}
1000
RefTreatedAsElement
1002
{
1070
     0
1002
}
  0
INSERT
  5
13DA3
330
13D7A
100
AcDbEntity
  8
0
  6
Continuous
 62
     7
370
    30
100
AcDbBlockReference
  2
a4
 10
0.0
 20
0.0
 30
0.0
1001
MStation
1000
RefAttachMethod
1002
{
1070
     0
1002
}
1000
RefTreatedAsElement
1002
{
1070
     0
1002
}
  0
INSERT
  5
13DA7
330
13D7A
100
AcDbEntity
  8
0
  6
Continuous
 62
     7
370
    30
100
AcDbBlockReference
  2
b1
 10
0.0
 20
0.0
 30
0.0
1001
MStation
1000
RefAttachMethod
1002
{
1070
     0
1002
}
1000
RefTreatedAsElement
1002
{
1070
     0
1002
}
  0
LWPOLYLINE
  5
13B36
330
13D7A
100
AcDbEntity
  8
Thawley Rocker - Level 14
  6
DGN Style 2
 62
     7
370
    13
100
AcDbPolyline
 90
       21
 70
   128
 43
0.0
 10
6079.574424
 20
3019.570746
 42
0.351707
 10
5139.127199
 20
4191.164685
 10
4727.928492
 20
4282.260901
 10
4636.832276
 20
4693.459609
 42
0.351707
 10
3465.238337
 20
5633.906833
 10
3269.238337
 20
5633.906833
 42
0.351707
 10
2097.644399
 20
4693.459608
 10
2006.548183
 20
4282.260901
 10
1595.349475
 20
4191.164685
 42
0.351707
 10
654.902251
 20
3019.570746
 10
654.902251
 20
2823.570746
 42
0.351707
 10
1595.349476
 20
1651.976808
 10
2006.548183
 20
1560.880591
 10
2097.644399
 20
1149.681884
 42
0.351707
 10
3269.238337
 20
209.23466
 10
3465.238337
 20
209.23466
 42
0.351707
 10
4636.832276
 20
1149.681885
 10
4727.928492
 20
1560.880591
 10
5139.1272
 20
1651.976808
 42
0.351707
 10
6079.574424
 20
2823.570746
 10
6079.574424
 20
3019.570746
  0
LINE
  5
13B47
330
13D7A
100
AcDbEntity
  8
springs2 - Level 26
  6
Continuous
 62
     7
370
    13
100
AcDbLine
 10
3294.738337
 20
1436.570746
 30
0.0
 11
3294.738337
 21
1435.881234
 31
0.0
  0
LINE
  5
13B48
330
13D7A
100
AcDbEntity
  8
springs2 - Level 26
  6
Continuous
 62
     7
370
    13
100
AcDbLine
 10
3439.738337
 20
1436.570746
 30
0.0
 11
3439.738337
 21
1435.881234
 31
0.0
  0
LINE
  5
13B49
330
13D7A
100
AcDbEntity
  8
springs2 - Level 26
  6
Continuous
 62
     7
370
    13
100
AcDbLine
 10
3357.238345
 20
1431.073793
 30
0.0
 11
3377.23833
 21
1431.073793
 31
0.0
  0
LINE
  5
13B4A
330
13D7A
100
AcDbEntity
  8
springs2 - Level 26
  6
Continuous
 62
     7
370
    13
100
AcDbLine
 10
3357.238337
 20
1449.073793
 30
0.0
 11
3377.238337
 21
1449.073793
 31
0.0
  0
ARC
  5
13B4B
330
13D7A
100
AcDbEntity
  8
springs2 - Level 26
  6
Continuous
 62
     7
370
    13
100
AcDbCircle
 10
-3414.738337
 20
1480.881241
 30
0.0
 40
6.899999999999997
210
0.0
220
0.0
230
-1.0
100
AcDbArc
 50
37.826691
 51
142.173309
  0
ARC
  5
13B4C
330
13D7A
100
AcDbEntity
  8
springs2 - Level 26
  6
Continuous
 62
     7
370
    13
100
AcDbCircle
 10
-3319.738337
 20
1480.881241
 30
0.0
 40
6.899999999999997
210
0.0
220
0.0
230
-1.0
100
AcDbArc
 50
37.826691
 51
142.173309
  0
LINE
  5
13B4D
330
13D7A
100
AcDbEntity
  8
springs2 - Level 25
  6
Continuous
 62
     7
370
    13
100
AcDbLine
 10
3282.238337
 20
4406.570746
 30
0.0
 11
3282.238337
 21
4388.260252
 31
0.0
  0
LINE
  5
13B4E
330
13D7A
100
AcDbEntity
  8
springs2 - Level 25
  6
Continuous
 62
     7
370
    13
100
AcDbLine
 10
3282.238337
 20
4106.260252
 30
0.0
 11
3282.238337
 21
4035.760252
 31
0.0
  0
LINE
  5
13B4F
330
13D7A
100
AcDbEntity
  8
springs2 - Level 25
  6
Continuous
 62
     7
370
    13
100
AcDbLine
 10
3282.238337
 20
4008.760252
 30
0.0
 11
3282.238337
 21
2999.250238
 31
0.0
  0
LINE
  5
13B50
330
13D7A
100
AcDbEntity
  8
springs2 - Level 25
  6
Continuous
 62
     7
370
    13
100
AcDbLine
 10
3282.238337
 20
2843.891254
 30
0.0
 11
3282.238337
 21
1834.381241
 31
0.0
  0
LINE
  5
13B51
330
13D7A
100
AcDbEntity
  8
springs2 - Level 25
  6
Continuous
 62
     7
370
    13
100
AcDbLine
 10
3282.238337
 20
1807.381241
 30
0.0
 11
3282.238337
 21
1736.881241
 31
0.0
  0
LINE
  5
13B52
330
13D7A
100
AcDbEntity
  8
springs2 - Level 25
  6
Continuous
 62
     7
370
    13
100
AcDbLine
 10
3282.238337
 20
1454.881241
 30
0.0
 11
3282.238337
 21
1436.570746
 31
0.0
  0
LINE
  5
13B53
330
13D7A
100
AcDbEntity
  8
springs2 - Level 25
  6
Continuous
 62
     7
370
    13
100
AcDbLine
 10
3357.238337
 20
4406.570746
 30
0.0
 11
3357.238337
 21
4388.260252
 31
0.0
  0
LINE
  5
13B54
330
13D7A
100
AcDbEntity
  8
springs2 - Level 25
  6
Continuous
 62
     7
370
    13
100
AcDbLine
 10
3357.238337
 20
4106.260252
 30
0.0
 11
3357.238337
 21
4102.260252
 31
0.0
  0
LINE
  5
13B55
330
13D7A
100
AcDbEntity
  8
springs2 - Level 25
  6
Continuous
 62
     7
370
    13
100
AcDbLine
 10
3357.238337
 20
3802.260252
 30
0.0
 11
3357.238337
 21
3290.881241
 31
0.0
  0
LINE
  5
13B56
330
13D7A
100
AcDbEntity
  8
springs2 - Level 25
  6
Continuous
 62
     7
370
    13
100
AcDbLine
 10
3357.238337
 20
2550.881241
 30
0.0
 11
3357.238337
 21
2040.881241
 31
0.0
  0
LINE
  5
13B57
330
13D7A
100
AcDbEntity
  8
springs2 - Level 25
  6
Continuous
 62
     7
370
    13
100
AcDbLine
 10
3357.238337
 20
1740.881241
 30
0.0
 11
3357.238337
 21
1736.881241
 31
0.0
  0
LINE
  5
13B58
330
13D7A
100
AcDbEntity
  8
springs2 - Level 25
  6
Continuous
 62
     7
370
    13
100
AcDbLine
 10
3357.238337
 20
1454.881241
 30
0.0
 11
3357.238337
 21
1436.570746
 31
0.0
  0
ARC
  5
13B59
330
13D7A
100
AcDbEntity
  8
springs2 - Level 25
  6
Continuous
 62
     7
370
    13
100
AcDbCircle
 10
3319.738337
 20
4361.570746
 30
0.0
 40
6.499999999999997
100
AcDbArc
 50
0.0
 51
359.999994
  0
ARC
  5
13B5A
330
13D7A
100
AcDbEntity
  8
springs2 - Level 25
  6
Continuous
 62
     7
370
    13
100
AcDbCircle
 10
3319.738337
 20
4131.570746
 30
0.0
 40
6.499999999999997
100
AcDbArc
 50
0.0
 51
359.999994
  0
ARC
  5
13B5B
330
13D7A
100
AcDbEntity
  8
springs2 - Level 25
  6
Continuous
 62
     7
370
    13
100
AcDbCircle
 10
3319.738337
 20
1481.570746
 30
0.0
 40
6.499999999999997
100
AcDbArc
 50
0.0
 51
359.999994
  0
ARC
  5
13B5C
330
13D7A
100
AcDbEntity
  8
springs2 - Level 25
  6
Continuous
 62
     7
370
    13
100
AcDbCircle
 10
3319.738337
 20
1711.570746
 30
0.0
 40
6.499999999999997
100
AcDbArc
 50
0.0
 51
359.999994
  0
ARC
  5
13B5D
330
13D7A
100
AcDbEntity
  8
springs2 - Level 25
  6
Continuous
 62
     7
370
    13
100
AcDbCircle
 10
3319.738337
 20
3266.570746
 30
0.0
 40
7.999999999999997
100
AcDbArc
 50
114.746835
 51
276.091098
  0
ARC
  5
13B5E
330
13D7A
100
AcDbEntity
  8
springs2 - Level 25
  6
Continuous
 62
     7
370
    13
100
AcDbCircle
 10
3319.738337
 20
3036.570746
 30
0.0
 40
7.999999999999997
100
AcDbArc
 50
114.746835
 51
276.091098
  0
ARC
  5
13B5F
330
13D7A
100
AcDbEntity
  8
springs2 - Level 25
  6
Continuous
 62
     7
370
    13
100
AcDbCircle
 10
3319.738337
 20
2806.570746
 30
0.0
 40
7.999999999999997
100
AcDbArc
 50
114.746835
 51
276.091098
  0
ARC
  5
13B60
330
13D7A
100
AcDbEntity
  8
springs2 - Level 25
  6
Continuous
 62
     7
370
    13
100
AcDbCircle
 10
3319.738337
 20
2576.570746
 30
0.0
 40
7.999999999999997
100
AcDbArc
 50
114.746835
 51
276.091098
  0
ARC
  5
13B61
330
13D7A
100
AcDbEntity
  8
springs2 - Level 25
  6
Continuous
 62
     7
370
    13
100
AcDbCircle
 10
3317.238337
 20
2015.881241
 30
0.0
 40
6.499999999999997
100
AcDbArc
 50
0.0
 51
359.999994
  0
ARC
  5
13B62
330
13D7A
100
AcDbEntity
  8
springs2 - Level 25
  6
Continuous
 62
     7
370
    13
100
AcDbCircle
 10
3317.238337
 20
1765.881241
 30
0.0
 40
6.499999999999997
100
AcDbArc
 50
0.0
 51
359.999994
  0
ARC
  5
13B63
330
13D7A
100
AcDbEntity
  8
springs2 - Level 25
  6
Continuous
 62
     7
370
    13
100
AcDbCircle
 10
3317.238337
 20
3827.260252
 30
0.0
 40
6.499999999999997
100
AcDbArc
 50
0.0
 51
359.999994
  0
ARC
  5
13B64
330
13D7A
100
AcDbEntity
  8
springs2 - Level 25
  6
Continuous
 62
     7
370
    13
100
AcDbCircle
 10
3317.238337
 20
4077.260252
 30
0.0
 40
6.499999999999997
100
AcDbArc
 50
0.0
 51
359.999994
  0
LINE
  5
13B65
330
13D7A
100
AcDbEntity
  8
springs2 - Level 25
  6
Continuous
 62
     7
370
    13
100
AcDbLine
 10
3282.238337
 20
1436.570746
 30
0.0
 11
3357.238337
 21
1436.570746
 31
0.0
  0
LINE
  5
13B66
330
13D7A
100
AcDbEntity
  8
springs2 - Level 25
  6
Continuous
 62
     7
370
    13
100
AcDbLine
 10
3282.238337
 20
4406.570746
 30
0.0
 11
3357.238337
 21
4406.570746
 31
0.0
  0
LINE
  5
13B67
330
13D7A
100
AcDbEntity
  8
springs2 - Level 25
  6
Continuous
 62
     7
370
    13
100
AcDbLine
 10
3377.238337
 20
4406.570746
 30
0.0
 11
3377.238337
 21
4388.260252
 31
0.0
  0
LINE
  5
13B68
330
13D7A
100
AcDbEntity
  8
springs2 - Level 25
  6
Continuous
 62
     7
370
    13
100
AcDbLine
 10
3377.238337
 20
4106.260252
 30
0.0
 11
3377.238337
 21
4102.260252
 31
0.0
  0
LINE
  5
13B69
330
13D7A
100
AcDbEntity
  8
springs2 - Level 25
  6
Continuous
 62
     7
370
    13
100
AcDbLine
 10
3377.238337
 20
3802.260252
 30
0.0
 11
3377.238337
 21
3290.881241
 31
0.0
  0
LINE
  5
13B6A
330
13D7A
100
AcDbEntity
  8
springs2 - Level 25
  6
Continuous
 62
     7
370
    13
100
AcDbLine
 10
3377.238337
 20
2550.881241
 30
0.0
 11
3377.238337
 21
2040.881241
 31
0.0
  0
LINE
  5
13B6B
330
13D7A
100
AcDbEntity
  8
springs2 - Level 25
  6
Continuous
 62
     7
370
    13
100
AcDbLine
 10
3377.238337
 20
1740.881241
 30
0.0
 11
3377.238337
 21
1736.881241
 31
0.0
  0
LINE
  5
13B6C
330
13D7A
100
AcDbEntity
  8
springs2 - Level 25
  6
Continuous
 62
     7
370
    13
100
AcDbLine
 10
3377.238337
 20
1454.881241
 30
0.0
 11
3377.238337
 21
1436.570746
 31
0.0
  0
LINE
  5
13B6D
330
13D7A
100
AcDbEntity
  8
springs2 - Level 25
  6
Continuous
 62
     7
370
    13
100
AcDbLine
 10
3452.238337
 20
4406.570746
 30
0.0
 11
3452.238337
 21
4388.260252
 31
0.0
  0
LINE
  5
13B6E
330
13D7A
100
AcDbEntity
  8
springs2 - Level 25
  6
Continuous
 62
     7
370
    13
100
AcDbLine
 10
3452.238337
 20
4106.260252
 30
0.0
 11
3452.238337
 21
4035.760252
 31
0.0
  0
LINE
  5
13B6F
330
13D7A
100
AcDbEntity
  8
springs2 - Level 25
  6
Continuous
 62
     7
370
    13
100
AcDbLine
 10
3452.238337
 20
4008.760252
 30
0.0
 11
3452.238337
 21
2999.250238
 31
0.0
  0
LINE
  5
13B70
330
13D7A
100
AcDbEntity
  8
springs2 - Level 25
  6
Continuous
 62
     7
370
    13
100
AcDbLine
 10
3452.238337
 20
2843.891254
 30
0.0
 11
3452.238337
 21
1834.381241
 31
0.0
  0
LINE
  5
13B71
330
13D7A
100
AcDbEntity
  8
springs2 - Level 25
  6
Continuous
 62
     7
370
    13
100
AcDbLine
 10
3452.238337
 20
1807.381241
 30
0.0
 11
3452.238337
 21
1736.881241
 31
0.0
  0
LINE
  5
13B72
330
13D7A
100
AcDbEntity
  8
springs2 - Level 25
  6
Continuous
 62
     7
370
    13
100
AcDbLine
 10
3452.238337
 20
1454.881241
 30
0.0
 11
3452.238337
 21
1436.570746
 31
0.0
  0
ARC
  5
13B73
330
13D7A
100
AcDbEntity
  8
springs2 - Level 25
  6
Continuous
 62
     7
370
    13
100
AcDbCircle
 10
-3414.738337
 20
4361.570746
 30
0.0
 40
6.499999999999997
210
0.0
220
0.0
230
-1.0
100
AcDbArc
 50
0.0
 51
359.999994
  0
ARC
  5
13B74
330
13D7A
100
AcDbEntity
  8
springs2 - Level 25
  6
Continuous
 62
     7
370
    13
100
AcDbCircle
 10
-3414.738337
 20
4131.570746
 30
0.0
 40
6.499999999999997
210
0.0
220
0.0
230
-1.0
100
AcDbArc
 50
0.0
 51
359.999994
  0
ARC
  5
13B75
330
13D7A
100
AcDbEntity
  8
springs2 - Level 25
  6
Continuous
 62
     7
370
    13
100
AcDbCircle
 10
-3414.738337
 20
1481.570746
 30
0.0
 40
6.499999999999997
210
0.0
220
0.0
230
-1.0
100
AcDbArc
 50
0.0
 51
359.999994
  0
ARC
  5
13B76
330
13D7A
100
AcDbEntity
  8
springs2 - Level 25
  6
Continuous
 62
     7
370
    13
100
AcDbCircle
 10
-3414.738337
 20
1711.570746
 30
0.0
 40
6.499999999999997
210
0.0
220
0.0
230
-1.0
100
AcDbArc
 50
0.0
 51
359.999994
  0
ARC
  5
13B77
330
13D7A
100
AcDbEntity
  8
springs2 - Level 25
  6
Continuous
 62
     7
370
    13
100
AcDbCircle
 10
-3414.738337
 20
3266.570746
 30
0.0
 40
7.999999999999997
210
0.0
220
0.0
230
-1.0
100
AcDbArc
 50
114.746835
 51
276.091098
  0
ARC
  5
13B78
330
13D7A
100
AcDbEntity
  8
springs2 - Level 25
  6
Continuous
 62
     7
370
    13
100
AcDbCircle
 10
-3414.738337
 20
3036.570746
 30
0.0
 40
7.999999999999997
210
0.0
220
0.0
230
-1.0
100
AcDbArc
 50
114.746835
 51
276.091098
  0
ARC
  5
13B79
330
13D7A
100
AcDbEntity
  8
springs2 - Level 25
  6
Continuous
 62
     7
370
    13
100
AcDbCircle
 10
-3414.738337
 20
2806.570746
 30
0.0
 40
7.999999999999997
210
0.0
220
0.0
230
-1.0
100
AcDbArc
 50
114.746835
 51
276.091098
  0
ARC
  5
13B7A
330
13D7A
100
AcDbEntity
  8
springs2 - Level 25
  6
Continuous
 62
     7
370
    13
100
AcDbCircle
 10
-3414.738337
 20
2576.570746
 30
0.0
 40
7.999999999999997
210
0.0
220
0.0
230
-1.0
100
AcDbArc
 50
114.746835
 51
276.091098
  0
ARC
  5
13B7B
330
13D7A
100
AcDbEntity
  8
springs2 - Level 25
  6
Continuous
 62
     7
370
    13
100
AcDbCircle
 10
3417.238337
 20
4077.260252
 30
0.0
 40
6.499999999999997
100
AcDbArc
 50
0.0
 51
359.999994
  0
ARC
  5
13B7C
330
13D7A
100
AcDbEntity
  8
springs2 - Level 25
  6
Continuous
 62
     7
370
    13
100
AcDbCircle
 10
3417.238337
 20
3827.260252
 30
0.0
 40
6.499999999999997
100
AcDbArc
 50
0.0
 51
359.999994
  0
ARC
  5
13B7D
330
13D7A
100
AcDbEntity
  8
springs2 - Level 25
  6
Continuous
 62
     7
370
    13
100
AcDbCircle
 10
3417.238337
 20
1765.881241
 30
0.0
 40
6.499999999999997
100
AcDbArc
 50
0.0
 51
359.999994
  0
ARC
  5
13B7E
330
13D7A
100
AcDbEntity
  8
springs2 - Level 25
  6
Continuous
 62
     7
370
    13
100
AcDbCircle
 10
3417.238337
 20
2015.881241
 30
0.0
 40
6.499999999999997
100
AcDbArc
 50
0.0
 51
359.999994
  0
LINE
  5
13B7F
330
13D7A
100
AcDbEntity
  8
springs2 - Level 25
  6
Continuous
 62
     7
370
    13
100
AcDbLine
 10
3452.238337
 20
1436.570746
 30
0.0
 11
3377.238337
 21
1436.570746
 31
0.0
  0
LINE
  5
13B80
330
13D7A
100
AcDbEntity
  8
springs2 - Level 25
  6
Continuous
 62
     7
370
    13
100
AcDbLine
 10
3452.238337
 20
4406.570746
 30
0.0
 11
3377.238337
 21
4406.570746
 31
0.0
  0
LINE
  5
13B81
330
13D7A
100
AcDbEntity
  8
springs2 - Level 26
  6
Continuous
 62
     7
370
    13
100
AcDbLine
 10
3282.238337
 20
1419.23466
 30
0.0
 11
3357.238337
 21
1419.23466
 31
0.0
  0
LINE
  5
13B82
330
13D7A
100
AcDbEntity
  8
springs2 - Level 26
  6
Continuous
 62
     7
370
    13
100
AcDbLine
 10
3357.238337
 20
1435.881241
 30
0.0
 11
3357.238337
 21
1419.23466
 31
0.0
  0
LINE
  5
13B83
330
13D7A
100
AcDbEntity
  8
springs2 - Level 26
  6
Continuous
 62
     7
370
    13
100
AcDbLine
 10
3292.238337
 20
1409.23466
 30
0.0
 11
3347.238337
 21
1409.23466
 31
0.0
  0
LINE
  5
13B84
330
13D7A
100
AcDbEntity
  8
springs2 - Level 26
  6
Continuous
 62
     7
370
    13
100
AcDbLine
 10
3282.238337
 20
1419.23466
 30
0.0
 11
3282.238337
 21
1435.881241
 31
0.0
  0
LINE
  5
13B85
330
13D7A
100
AcDbEntity
  8
springs2 - Level 26
  6
Continuous
 62
     7
370
    13
100
AcDbLine
 10
3282.238337
 20
1435.881241
 30
0.0
 11
3357.238337
 21
1435.881241
 31
0.0
  0
LINE
  5
13B86
330
13D7A
100
AcDbEntity
  8
springs2 - Level 26
  6
Continuous
 62
     7
370
    13
100
AcDbLine
 10
3282.238337
 20
1419.23466
 30
0.0
 11
3292.238337
 21
1409.23466
 31
0.0
  0
LINE
  5
13B87
330
13D7A
100
AcDbEntity
  8
springs2 - Level 26
  6
Continuous
 62
     7
370
    13
100
AcDbLine
 10
3347.238337
 20
1409.23466
 30
0.0
 11
3357.238337
 21
1419.23466
 31
0.0
  0
LINE
  5
13B88
330
13D7A
100
AcDbEntity
  8
springs2 - Level 26
  6
Continuous
 62
     7
370
    13
100
AcDbLine
 10
3377.238337
 20
1419.23466
 30
0.0
 11
3452.238337
 21
1419.23466
 31
0.0
  0
LINE
  5
13B89
330
13D7A
100
AcDbEntity
  8
springs2 - Level 26
  6
Continuous
 62
     7
370
    13
100
AcDbLine
 10
3452.238337
 20
1435.881241
 30
0.0
 11
3452.238337
 21
1419.23466
 31
0.0
  0
LINE
  5
13B8A
330
13D7A
100
AcDbEntity
  8
springs2 - Level 26
  6
Continuous
 62
     7
370
    13
100
AcDbLine
 10
3387.238337
 20
1409.23466
 30
0.0
 11
3442.238337
 21
1409.23466
 31
0.0
  0
LINE
  5
13B8B
330
13D7A
100
AcDbEntity
  8
springs2 - Level 26
  6
Continuous
 62
     7
370
    13
100
AcDbLine
 10
3377.238337
 20
1419.23466
 30
0.0
 11
3377.238337
 21
1435.881241
 31
0.0
  0
LINE
  5
13B8C
330
13D7A
100
AcDbEntity
  8
springs2 - Level 26
  6
Continuous
 62
     7
370
    13
100
AcDbLine
 10
3377.238337
 20
1435.881241
 30
0.0
 11
3452.238337
 21
1435.881241
 31
0.0
  0
LINE
  5
13B8D
330
13D7A
100
AcDbEntity
  8
springs2 - Level 26
  6
Continuous
 62
     7
370
    13
100
AcDbLine
 10
3377.238337
 20
1419.23466
 30
0.0
 11
3387.238337
 21
1409.23466
 31
0.0
  0
LINE
  5
13B8E
330
13D7A
100
AcDbEntity
  8
springs2 - Level 26
  6
Continuous
 62
     7
370
    13
100
AcDbLine
 10
3442.238337
 20
1409.23466
 30
0.0
 11
3452.238337
 21
1419.23466
 31
0.0
  0
ARC
  5
13B8F
330
13D7A
100
AcDbEntity
  8
springs2 - Level 29
  6
Continuous
 62
     7
370
    13
100
AcDbCircle
 10
3317.238337
 20
2015.881241
 30
0.0
 40
8.000000000000001
100
AcDbArc
 50
0.0
 51
359.999994
  0
ARC
  5
13B90
330
13D7A
100
AcDbEntity
  8
springs2 - Level 29
  6
Continuous
 62
     7
370
    13
100
AcDbCircle
 10
3417.238337
 20
2015.881241
 30
0.0
 40
8.000000000000001
100
AcDbArc
 50
0.0
 51
359.999994
  0
ARC
  5
13B91
330
13D7A
100
AcDbEntity
  8
springs2 - Level 29
  6
Continuous
 62
     7
370
    13
100
AcDbCircle
 10
3312.238337
 20
2020.881241
 30
0.0
 40
20.00000000000001
100
AcDbArc
 50
90.0
 51
180.0
  0
LINE
  5
13B92
330
13D7A
100
AcDbEntity
  8
springs2 - Level 29
  6
Continuous
 62
     7
370
    13
100
AcDbLine
 10
3312.238337
 20
2040.881241
 30
0.0
 11
3422.238337
 21
2040.881241
 31
0.0
  0
ARC
  5
13B93
330
13D7A
100
AcDbEntity
  8
springs2 - Level 29
  6
Continuous
 62
     7
370
    13
100
AcDbCircle
 10
3422.238337
 20
2020.881241
 30
0.0
 40
20.00000000000001
100
AcDbArc
 50
0.0
 51
90.0
  0
LINE
  5
13B94
330
13D7A
100
AcDbEntity
  8
springs2 - Level 29
  6
Continuous
 62
     7
370
    13
100
AcDbLine
 10
3442.238337
 20
2020.881241
 30
0.0
 11
3442.238337
 21
1834.381241
 31
0.0
  0
LINE
  5
13B95
330
13D7A
100
AcDbEntity
  8
springs2 - Level 29
  6
Continuous
 62
     7
370
    13
100
AcDbLine
 10
3442.238337
 20
1807.381241
 30
0.0
 11
3442.238337
 21
1760.881241
 31
0.0
  0
ARC
  5
13B96
330
13D7A
100
AcDbEntity
  8
springs2 - Level 29
  6
Continuous
 62
     7
370
    13
100
AcDbCircle
 10
-3422.238337
 20
1760.881241
 30
0.0
 40
20.00000000000001
210
0.0
220
0.0
230
-1.0
100
AcDbArc
 50
180.0
 51
270.0
  0
LINE
  5
13B97
330
13D7A
100
AcDbEntity
  8
springs2 - Level 29
  6
Continuous
 62
     7
370
    13
100
AcDbLine
 10
3312.238337
 20
1740.881241
 30
0.0
 11
3422.238337
 21
1740.881241
 31
0.0
  0
ARC
  5
13B98
330
13D7A
100
AcDbEntity
  8
springs2 - Level 29
  6
Continuous
 62
     7
370
    13
100
AcDbCircle
 10
-3312.238337
 20
1760.881241
 30
0.0
 40
20.00000000000001
210
0.0
220
0.0
230
-1.0
100
AcDbArc
 50
270.0
 51
0.0
  0
LINE
  5
13B99
330
13D7A
100
AcDbEntity
  8
springs2 - Level 29
  6
Continuous
 62
     7
370
    13
100
AcDbLine
 10
3292.238337
 20
1760.881241
 30
0.0
 11
3292.238337
 21
1807.381241
 31
0.0
  0
LINE
  5
13B9A
330
13D7A
100
AcDbEntity
  8
springs2 - Level 29
  6
Continuous
 62
     7
370
    13
100
AcDbLine
 10
3292.238337
 20
1834.381241
 30
0.0
 11
3292.238337
 21
2020.881241
 31
0.0
  0
ARC
  5
13B9B
330
13D7A
100
AcDbEntity
  8
springs2 - Level 29
  6
Continuous
 62
     7
370
    13
100
AcDbCircle
 10
-3317.238337
 20
1765.881241
 30
0.0
 40
8.000000000000001
210
0.0
220
0.0
230
-1.0
100
AcDbArc
 50
0.0
 51
359.999994
  0
ARC
  5
13B9C
330
13D7A
100
AcDbEntity
  8
springs2 - Level 29
  6
Continuous
 62
     7
370
    13
100
AcDbCircle
 10
-3417.238337
 20
1765.881241
 30
0.0
 40
8.000000000000001
210
0.0
220
0.0
230
-1.0
100
AcDbArc
 50
0.0
 51
359.999994
  0
LINE
  5
13B9D
330
13D7A
100
AcDbEntity
  8
springs2 - Level 43
  6
Continuous
 62
     7
370
    13
100
AcDbLine
 10
3274.238337
 20
1731.881241
 30
0.0
 11
3460.238337
 21
1731.881241
 31
0.0
  0
LINE
  5
13B9E
330
13D7A
100
AcDbEntity
  8
springs2 - Level 43
  6
Continuous
 62
     7
370
    13
100
AcDbLine
 10
3460.238337
 20
1731.881241
 30
0.0
 11
3460.238337
 21
1459.881241
 31
0.0
  0
LINE
  5
13B9F
330
13D7A
100
AcDbEntity
  8
springs2 - Level 43
  6
Continuous
 62
     7
370
    13
100
AcDbLine
 10
3460.238337
 20
1459.881241
 30
0.0
 11
3274.238337
 21
1459.881241
 31
0.0
  0
LINE
  5
13BA0
330
13D7A
100
AcDbEntity
  8
springs2 - Level 43
  6
Continuous
 62
     7
370
    13
100
AcDbLine
 10
3274.238337
 20
1459.881241
 30
0.0
 11
3274.238337
 21
1731.881241
 31
0.0
  0
ARC
  5
13BA1
330
13D7A
100
AcDbEntity
  8
springs2 - Level 43
  6
Continuous
 62
     7
370
    13
100
AcDbCircle
 10
3414.738337
 20
1710.881241
 30
0.0
 40
7.999999999999999
100
AcDbArc
 50
0.0
 51
359.999994
  0
ARC
  5
13BA2
330
13D7A
100
AcDbEntity
  8
springs2 - Level 43
  6
Continuous
 62
     7
370
    13
100
AcDbCircle
 10
3319.738337
 20
1710.881241
 30
0.0
 40
7.999999999999999
100
AcDbArc
 50
0.0
 51
359.999994
  0
ARC
  5
13BA3
330
13D7A
100
AcDbEntity
  8
springs2 - Level 43
  6
Continuous
 62
     7
370
    13
100
AcDbCircle
 10
3319.738337
 20
1480.881241
 30
0.0
 40
7.999999999999999
100
AcDbArc
 50
0.0
 51
359.999994
  0
ARC
  5
13BA4
330
13D7A
100
AcDbEntity
  8
springs2 - Level 43
  6
Continuous
 62
     7
370
    13
100
AcDbCircle
 10
3414.738337
 20
1480.881241
 30
0.0
 40
7.999999999999999
100
AcDbArc
 50
0.0
 51
359.999994
  0
LINE
  5
13BA5
330
13D7A
100
AcDbEntity
  8
springs2 - Level 43
  6
Continuous
 62
     7
370
    13
100
AcDbLine
 10
3274.238337
 20
1731.881241
 30
0.0
 11
3269.238337
 21
1731.881241
 31
0.0
  0
LINE
  5
13BA6
330
13D7A
100
AcDbEntity
  8
springs2 - Level 43
  6
Continuous
 62
     7
370
    13
100
AcDbLine
 10
3274.238337
 20
1459.881241
 30
0.0
 11
3269.238337
 21
1459.881241
 31
0.0
  0
LINE
  5
13BA7
330
13D7A
100
AcDbEntity
  8
springs2 - Level 43
  6
Continuous
 62
     7
370
    13
100
AcDbLine
 10
3269.238337
 20
1731.881241
 30
0.0
 11
3269.238337
 21
1459.881241
 31
0.0
  0
LINE
  5
13BA8
330
13D7A
100
AcDbEntity
  8
springs2 - Level 43
  6
Continuous
 62
     7
370
    13
100
AcDbLine
 10
3274.238337
 20
1459.881241
 30
0.0
 11
3274.238337
 21
1454.881241
 31
0.0
  0
ARC
  5
13BA9
330
13D7A
100
AcDbEntity
  8
springs2 - Level 43
  6
Continuous
 62
     7
370
    13
100
AcDbCircle
 10
3274.238337
 20
1459.881241
 30
0.0
 40
5.0
100
AcDbArc
 50
180.0
 51
270.0
  0
LINE
  5
13BAA
330
13D7A
100
AcDbEntity
  8
springs2 - Level 43
  6
Continuous
 62
     7
370
    13
100
AcDbLine
 10
3460.238337
 20
1459.881241
 30
0.0
 11
3460.238337
 21
1454.881241
 31
0.0
  0
LINE
  5
13BAB
330
13D7A
100
AcDbEntity
  8
springs2 - Level 43
  6
Continuous
 62
     7
370
    13
100
AcDbLine
 10
3274.238337
 20
1454.881241
 30
0.0
 11
3460.238337
 21
1454.881241
 31
0.0
  0
LINE
  5
13BAC
330
13D7A
100
AcDbEntity
  8
springs2 - Level 43
  6
Continuous
 62
     7
370
    13
100
AcDbLine
 10
3460.238337
 20
1459.881241
 30
0.0
 11
3465.238337
 21
1459.881241
 31
0.0
  0
ARC
  5
13BAD
330
13D7A
100
AcDbEntity
  8
springs2 - Level 43
  6
Continuous
 62
     7
370
    13
100
AcDbCircle
 10
3460.238337
 20
1459.881241
 30
0.0
 40
5.0
100
AcDbArc
 50
270.0
 51
0.0
  0
LINE
  5
13BAE
330
13D7A
100
AcDbEntity
  8
springs2 - Level 43
  6
Continuous
 62
     7
370
    13
100
AcDbLine
 10
3274.238337
 20
1731.881241
 30
0.0
 11
3274.238337
 21
1736.881241
 31
0.0
  0
LINE
  5
13BAF
330
13D7A
100
AcDbEntity
  8
springs2 - Level 43
  6
Continuous
 62
     7
370
    13
100
AcDbLine
 10
3460.238337
 20
1736.881241
 30
0.0
 11
3274.238337
 21
1736.881241
 31
0.0
  0
LINE
  5
13BB0
330
13D7A
100
AcDbEntity
  8
springs2 - Level 43
  6
Continuous
 62
     7
370
    13
100
AcDbLine
 10
3460.238337
 20
1736.881241
 30
0.0
 11
3460.238337
 21
1731.881241
 31
0.0
  0
LINE
  5
13BB1
330
13D7A
100
AcDbEntity
  8
springs2 - Level 43
  6
Continuous
 62
     7
370
    13
100
AcDbLine
 10
3465.238337
 20
1731.881241
 30
0.0
 11
3460.238337
 21
1731.881241
 31
0.0
  0
LINE
  5
13BB2
330
13D7A
100
AcDbEntity
  8
springs2 - Level 43
  6
Continuous
 62
     7
370
    13
100
AcDbLine
 10
3465.238337
 20
1459.881241
 30
0.0
 11
3465.238337
 21
1731.881241
 31
0.0
  0
ARC
  5
13BB3
330
13D7A
100
AcDbEntity
  8
springs2 - Level 43
  6
Continuous
 62
     7
370
    13
100
AcDbCircle
 10
3460.238337
 20
1731.881241
 30
0.0
 40
5.0
100
AcDbArc
 50
0.0
 51
90.0
  0
ARC
  5
13BB4
330
13D7A
100
AcDbEntity
  8
springs2 - Level 43
  6
Continuous
 62
     7
370
    13
100
AcDbCircle
 10
3274.238337
 20
1731.881241
 30
0.0
 40
5.0
100
AcDbArc
 50
90.0
 51
180.0
  0
LINE
  5
13BB5
330
13D7A
100
AcDbEntity
  8
springs2 - Level 29
  6
Continuous
 62
     7
370
    13
100
AcDbLine
 10
3399.738337
 20
1803.381241
 30
0.0
 11
3334.738337
 21
1803.381241
 31
0.0
  0
LINE
  5
13BB6
330
13D7A
100
AcDbEntity
  8
springs2 - Level 29
  6
Continuous
 62
     7
370
    13
100
AcDbLine
 10
3334.738337
 20
1803.381241
 30
0.0
 11
3334.738337
 21
1807.381241
 31
0.0
  0
LINE
  5
13BB7
330
13D7A
100
AcDbEntity
  8
springs2 - Level 29
  6
Continuous
 62
     7
370
    13
100
AcDbLine
 10
3334.738337
 20
1834.381241
 30
0.0
 11
3334.738337
 21
1838.381241
 31
0.0
  0
LINE
  5
13BB8
330
13D7A
100
AcDbEntity
  8
springs2 - Level 29
  6
Continuous
 62
     7
370
    13
100
AcDbLine
 10
3399.738337
 20
1838.381241
 30
0.0
 11
3399.738337
 21
1834.381241
 31
0.0
  0
LINE
  5
13BB9
330
13D7A
100
AcDbEntity
  8
springs2 - Level 29
  6
Continuous
 62
     7
370
    13
100
AcDbLine
 10
3399.738337
 20
1807.381241
 30
0.0
 11
3399.738337
 21
1803.381241
 31
0.0
  0
LINE
  5
13BBA
330
13D7A
100
AcDbEntity
  8
springs2 - Level 29
  6
Continuous
 62
     7
370
    13
100
AcDbLine
 10
3334.738337
 20
1838.381241
 30
0.0
 11
3399.738337
 21
1838.381241
 31
0.0
  0
ARC
  5
13BBB
330
13D7A
100
AcDbEntity
  8
springs2 - Level 29
  6
Continuous
 62
     7
370
    13
100
AcDbCircle
 10
3215.738337
 20
1820.881241
 30
0.0
 40
13.5
100
AcDbArc
 50
90.0
 51
270.0
  0
ARC
  5
13BBC
330
13D7A
100
AcDbEntity
  8
springs2 - Level 29
  6
Continuous
 62
     7
370
    13
100
AcDbCircle
 10
3518.738337
 20
1820.881241
 30
0.0
 40
13.5
100
AcDbArc
 50
270.0
 51
90.0
  0
LINE
  5
13BBD
330
13D7A
100
AcDbEntity
  8
springs2 - Level 29
  6
Continuous
 62
     7
370
    13
100
AcDbLine
 10
3518.738337
 20
1807.381241
 30
0.0
 11
3215.738337
 21
1807.381241
 31
0.0
  0
LINE
  5
13BBE
330
13D7A
100
AcDbEntity
  8
springs2 - Level 29
  6
Continuous
 62
     7
370
    13
100
AcDbLine
 10
3215.738337
 20
1834.381241
 30
0.0
 11
3518.738337
 21
1834.381241
 31
0.0
  0
LINE
  5
13BBF
330
13D7A
100
AcDbEntity
  8
springs2 - Level 26
  6
Continuous
 62
     7
370
    13
100
AcDbLine
 10
1876.741384
 20
2931.570739
 30
0.0
 11
1876.741384
 21
2911.570754
 31
0.0
  0
LINE
  5
13BC0
330
13D7A
100
AcDbEntity
  8
springs2 - Level 26
  6
Continuous
 62
     7
370
    13
100
AcDbLine
 10
1894.741384
 20
2931.570746
 30
0.0
 11
1894.741384
 21
2911.570746
 31
0.0
  0
LINE
  5
13BC1
330
13D7A
100
AcDbEntity
  8
springs2 - Level 25
  6
Continuous
 62
     7
370
    13
100
AcDbLine
 10
2996.548832
 20
2911.570746
 30
0.0
 11
2486.548832
 21
2911.570746
 31
0.0
  0
LINE
  5
13BC2
330
13D7A
100
AcDbEntity
  8
springs2 - Level 25
  6
Continuous
 62
     7
370
    13
100
AcDbLine
 10
2186.548832
 20
2911.570746
 30
0.0
 11
2182.548832
 21
2911.570746
 31
0.0
  0
LINE
  5
13BC3
330
13D7A
100
AcDbEntity
  8
springs2 - Level 25
  6
Continuous
 62
     7
370
    13
100
AcDbLine
 10
1900.548832
 20
2911.570746
 30
0.0
 11
1881.548832
 21
2911.570746
 31
0.0
  0
LINE
  5
13BC4
330
13D7A
100
AcDbEntity
  8
springs2 - Level 25
  6
Continuous
 62
     7
370
    13
100
AcDbLine
 10
3275.548832
 20
2836.570746
 30
0.0
 11
2280.048832
 21
2836.570746
 31
0.0
  0
LINE
  5
13BC5
330
13D7A
100
AcDbEntity
  8
springs2 - Level 25
  6
Continuous
 62
     7
370
    13
100
AcDbLine
 10
2253.048832
 20
2836.570746
 30
0.0
 11
2182.548832
 21
2836.570746
 31
0.0
  0
LINE
  5
13BC6
330
13D7A
100
AcDbEntity
  8
springs2 - Level 25
  6
Continuous
 62
     7
370
    13
100
AcDbLine
 10
1900.548832
 20
2836.570746
 30
0.0
 11
1881.548832
 21
2836.570746
 31
0.0
  0
LINE
  5
13BC7
330
13D7A
100
AcDbEntity
  8
springs2 - Level 25
  6
Continuous
 62
     7
370
    13
100
AcDbLine
 10
1881.548832
 20
2836.570746
 30
0.0
 11
1881.548832
 21
2911.570746
 31
0.0
  0
ARC
  5
13BC8
330
13D7A
100
AcDbEntity
  8
springs2 - Level 25
  6
Continuous
 62
     7
370
    13
100
AcDbCircle
 10
-1926.548832
 20
2874.070746
 30
0.0
 40
6.499999999999997
210
0.0
220
0.0
230
-1.0
100
AcDbArc
 50
0.0
 51
359.999994
  0
ARC
  5
13BC9
330
13D7A
100
AcDbEntity
  8
springs2 - Level 25
  6
Continuous
 62
     7
370
    13
100
AcDbCircle
 10
-2156.548832
 20
2874.070746
 30
0.0
 40
6.499999999999997
210
0.0
220
0.0
230
-1.0
100
AcDbArc
 50
0.0
 51
359.999994
  0
ARC
  5
13BCA
330
13D7A
100
AcDbEntity
  8
springs2 - Level 25
  6
Continuous
 62
     7
370
    13
100
AcDbCircle
 10
-3021.548832
 20
2874.070746
 30
0.0
 40
7.999999999999997
210
0.0
220
0.0
230
-1.0
100
AcDbArc
 50
188.989299
 51
351.010701
  0
ARC
  5
13BCB
330
13D7A
100
AcDbEntity
  8
springs2 - Level 25
  6
Continuous
 62
     7
370
    13
100
AcDbCircle
 10
-3251.548832
 20
2874.070746
 30
0.0
 40
7.999999999999997
210
0.0
220
0.0
230
-1.0
100
AcDbArc
 50
188.989299
 51
351.010701
  0
ARC
  5
13BCC
330
13D7A
100
AcDbEntity
  8
springs2 - Level 25
  6
Continuous
 62
     7
370
    13
100
AcDbCircle
 10
-2461.548832
 20
2871.570746
 30
0.0
 40
6.499999999999997
210
0.0
220
0.0
230
-1.0
100
AcDbArc
 50
0.0
 51
359.999994
  0
ARC
  5
13BCD
330
13D7A
100
AcDbEntity
  8
springs2 - Level 25
  6
Continuous
 62
     7
370
    13
100
AcDbCircle
 10
-2211.548832
 20
2871.570746
 30
0.0
 40
6.499999999999997
210
0.0
220
0.0
230
-1.0
100
AcDbArc
 50
0.0
 51
359.999994
  0
LINE
  5
13BCE
330
13D7A
100
AcDbEntity
  8
springs2 - Level 25
  6
Continuous
 62
     7
370
    13
100
AcDbLine
 10
3275.548832
 20
3006.570746
 30
0.0
 11
2280.048832
 21
3006.570746
 31
0.0
  0
LINE
  5
13BCF
330
13D7A
100
AcDbEntity
  8
springs2 - Level 25
  6
Continuous
 62
     7
370
    13
100
AcDbLine
 10
2253.048832
 20
3006.570746
 30
0.0
 11
2182.548832
 21
3006.570746
 31
0.0
  0
LINE
  5
13BD0
330
13D7A
100
AcDbEntity
  8
springs2 - Level 25
  6
Continuous
 62
     7
370
    13
100
AcDbLine
 10
1900.548832
 20
3006.570746
 30
0.0
 11
1881.548832
 21
3006.570746
 31
0.0
  0
LINE
  5
13BD1
330
13D7A
100
AcDbEntity
  8
springs2 - Level 25
  6
Continuous
 62
     7
370
    13
100
AcDbLine
 10
2996.548832
 20
2931.570746
 30
0.0
 11
2486.548832
 21
2931.570746
 31
0.0
  0
LINE
  5
13BD2
330
13D7A
100
AcDbEntity
  8
springs2 - Level 25
  6
Continuous
 62
     7
370
    13
100
AcDbLine
 10
2186.548832
 20
2931.570746
 30
0.0
 11
2182.548832
 21
2931.570746
 31
0.0
  0
LINE
  5
13BD3
330
13D7A
100
AcDbEntity
  8
springs2 - Level 25
  6
Continuous
 62
     7
370
    13
100
AcDbLine
 10
1900.548832
 20
2931.570746
 30
0.0
 11
1881.548832
 21
2931.570746
 31
0.0
  0
LINE
  5
13BD4
330
13D7A
100
AcDbEntity
  8
springs2 - Level 25
  6
Continuous
 62
     7
370
    13
100
AcDbLine
 10
1881.548832
 20
3006.570746
 30
0.0
 11
1881.548832
 21
2931.570746
 31
0.0
  0
ARC
  5
13BD5
330
13D7A
100
AcDbEntity
  8
springs2 - Level 25
  6
Continuous
 62
     7
370
    13
100
AcDbCircle
 10
1926.548832
 20
2969.070746
 30
0.0
 40
6.499999999999997
100
AcDbArc
 50
0.0
 51
359.999994
  0
ARC
  5
13BD6
330
13D7A
100
AcDbEntity
  8
springs2 - Level 25
  6
Continuous
 62
     7
370
    13
100
AcDbCircle
 10
2156.548832
 20
2969.070746
 30
0.0
 40
6.499999999999997
100
AcDbArc
 50
0.0
 51
359.999994
  0
ARC
  5
13BD7
330
13D7A
100
AcDbEntity
  8
springs2 - Level 25
  6
Continuous
 62
     7
370
    13
100
AcDbCircle
 10
3021.548832
 20
2969.070746
 30
0.0
 40
7.999999999999997
100
AcDbArc
 50
8.989299
 51
171.010701
  0
ARC
  5
13BD8
330
13D7A
100
AcDbEntity
  8
springs2 - Level 25
  6
Continuous
 62
     7
370
    13
100
AcDbCircle
 10
3251.548832
 20
2969.070746
 30
0.0
 40
7.999999999999997
100
AcDbArc
 50
8.989299
 51
171.010701
  0
ARC
  5
13BD9
330
13D7A
100
AcDbEntity
  8
springs2 - Level 25
  6
Continuous
 62
     7
370
    13
100
AcDbCircle
 10
-2211.548832
 20
2971.570746
 30
0.0
 40
6.499999999999997
210
0.0
220
0.0
230
-1.0
100
AcDbArc
 50
0.0
 51
359.999994
  0
ARC
  5
13BDA
330
13D7A
100
AcDbEntity
  8
springs2 - Level 25
  6
Continuous
 62
     7
370
    13
100
AcDbCircle
 10
-2461.548832
 20
2971.570746
 30
0.0
 40
6.499999999999997
210
0.0
220
0.0
230
-1.0
100
AcDbArc
 50
0.0
 51
359.999994
  0
LINE
  5
13BDB
330
13D7A
100
AcDbEntity
  8
springs2 - Level 26
  6
Continuous
 62
     7
370
    13
100
AcDbLine
 10
1864.902251
 20
2911.570746
 30
0.0
 11
1864.902251
 21
2836.570746
 31
0.0
  0
LINE
  5
13BDC
330
13D7A
100
AcDbEntity
  8
springs2 - Level 26
  6
Continuous
 62
     7
370
    13
100
AcDbLine
 10
1881.548832
 20
2836.570746
 30
0.0
 11
1864.902251
 21
2836.570746
 31
0.0
  0
LINE
  5
13BDD
330
13D7A
100
AcDbEntity
  8
springs2 - Level 26
  6
Continuous
 62
     7
370
    13
100
AcDbLine
 10
1854.902251
 20
2901.570746
 30
0.0
 11
1854.902251
 21
2846.570746
 31
0.0
  0
LINE
  5
13BDE
330
13D7A
100
AcDbEntity
  8
springs2 - Level 26
  6
Continuous
 62
     7
370
    13
100
AcDbLine
 10
1864.902251
 20
2911.570746
 30
0.0
 11
1881.548832
 21
2911.570746
 31
0.0
  0
LINE
  5
13BDF
330
13D7A
100
AcDbEntity
  8
springs2 - Level 26
  6
Continuous
 62
     7
370
    13
100
AcDbLine
 10
1864.902251
 20
2911.570746
 30
0.0
 11
1854.902251
 21
2901.570746
 31
0.0
  0
LINE
  5
13BE0
330
13D7A
100
AcDbEntity
  8
springs2 - Level 26
  6
Continuous
 62
     7
370
    13
100
AcDbLine
 10
1854.902251
 20
2846.570746
 30
0.0
 11
1864.902251
 21
2836.570746
 31
0.0
  0
LINE
  5
13BE1
330
13D7A
100
AcDbEntity
  8
springs2 - Level 26
  6
Continuous
 62
     7
370
    13
100
AcDbLine
 10
1864.902251
 20
3006.570746
 30
0.0
 11
1864.902251
 21
2931.570746
 31
0.0
  0
LINE
  5
13BE2
330
13D7A
100
AcDbEntity
  8
springs2 - Level 26
  6
Continuous
 62
     7
370
    13
100
AcDbLine
 10
1881.548832
 20
2931.570746
 30
0.0
 11
1864.902251
 21
2931.570746
 31
0.0
  0
LINE
  5
13BE3
330
13D7A
100
AcDbEntity
  8
springs2 - Level 26
  6
Continuous
 62
     7
370
    13
100
AcDbLine
 10
1854.902251
 20
2996.570746
 30
0.0
 11
1854.902251
 21
2941.570746
 31
0.0
  0
LINE
  5
13BE4
330
13D7A
100
AcDbEntity
  8
springs2 - Level 26
  6
Continuous
 62
     7
370
    13
100
AcDbLine
 10
1864.902251
 20
3006.570746
 30
0.0
 11
1881.548832
 21
3006.570746
 31
0.0
  0
LINE
  5
13BE5
330
13D7A
100
AcDbEntity
  8
springs2 - Level 26
  6
Continuous
 62
     7
370
    13
100
AcDbLine
 10
1864.902251
 20
3006.570746
 30
0.0
 11
1854.902251
 21
2996.570746
 31
0.0
  0
LINE
  5
13BE6
330
13D7A
100
AcDbEntity
  8
springs2 - Level 26
  6
Continuous
 62
     7
370
    13
100
AcDbLine
 10
1854.902251
 20
2941.570746
 30
0.0
 11
1864.902251
 21
2931.570746
 31
0.0
  0
ARC
  5
13BE7
330
13D7A
100
AcDbEntity
  8
springs2 - Level 30
  6
Continuous
 62
     7
370
    13
100
AcDbCircle
 10
2461.548832
 20
2971.570746
 30
0.0
 40
8.000000000000001
100
AcDbArc
 50
0.0
 51
359.999994
  0
ARC
  5
13BE8
330
13D7A
100
AcDbEntity
  8
springs2 - Level 30
  6
Continuous
 62
     7
370
    13
100
AcDbCircle
 10
2461.548832
 20
2871.570746
 30
0.0
 40
8.000000000000001
100
AcDbArc
 50
0.0
 51
359.999994
  0
ARC
  5
13BE9
330
13D7A
100
AcDbEntity
  8
springs2 - Level 30
  6
Continuous
 62
     7
370
    13
100
AcDbCircle
 10
2466.548832
 20
2976.570746
 30
0.0
 40
20.00000000000001
100
AcDbArc
 50
0.0
 51
90.0
  0
LINE
  5
13BEA
330
13D7A
100
AcDbEntity
  8
springs2 - Level 30
  6
Continuous
 62
     7
370
    13
100
AcDbLine
 10
2486.548832
 20
2976.570746
 30
0.0
 11
2486.548832
 21
2866.570746
 31
0.0
  0
ARC
  5
13BEB
330
13D7A
100
AcDbEntity
  8
springs2 - Level 30
  6
Continuous
 62
     7
370
    13
100
AcDbCircle
 10
2466.548832
 20
2866.570746
 30
0.0
 40
20.00000000000001
100
AcDbArc
 50
270.0
 51
360.0
  0
LINE
  5
13BEC
330
13D7A
100
AcDbEntity
  8
springs2 - Level 30
  6
Continuous
 62
     7
370
    13
100
AcDbLine
 10
2466.548832
 20
2846.570746
 30
0.0
 11
2280.048832
 21
2846.570746
 31
0.0
  0
LINE
  5
13BED
330
13D7A
100
AcDbEntity
  8
springs2 - Level 30
  6
Continuous
 62
     7
370
    13
100
AcDbLine
 10
2253.048832
 20
2846.570746
 30
0.0
 11
2206.548832
 21
2846.570746
 31
0.0
  0
ARC
  5
13BEE
330
13D7A
100
AcDbEntity
  8
springs2 - Level 30
  6
Continuous
 62
     7
370
    13
100
AcDbCircle
 10
-2206.548832
 20
2866.570746
 30
0.0
 40
20.00000000000001
210
0.0
220
0.0
230
-1.0
100
AcDbArc
 50
270.0
 51
0.0
  0
LINE
  5
13BEF
330
13D7A
100
AcDbEntity
  8
springs2 - Level 30
  6
Continuous
 62
     7
370
    13
100
AcDbLine
 10
2186.548832
 20
2976.570746
 30
0.0
 11
2186.548832
 21
2866.570746
 31
0.0
  0
ARC
  5
13BF0
330
13D7A
100
AcDbEntity
  8
springs2 - Level 30
  6
Continuous
 62
     7
370
    13
100
AcDbCircle
 10
-2206.548832
 20
2976.570746
 30
0.0
 40
20.00000000000001
210
0.0
220
0.0
230
-1.0
100
AcDbArc
 50
0.0
 51
90.0
  0
LINE
  5
13BF1
330
13D7A
100
AcDbEntity
  8
springs2 - Level 30
  6
Continuous
 62
     7
370
    13
100
AcDbLine
 10
2206.548832
 20
2996.570746
 30
0.0
 11
2253.048832
 21
2996.570746
 31
0.0
  0
LINE
  5
13BF2
330
13D7A
100
AcDbEntity
  8
springs2 - Level 30
  6
Continuous
 62
     7
370
    13
100
AcDbLine
 10
2280.048832
 20
2996.570746
 30
0.0
 11
2466.548832
 21
2996.570746
 31
0.0
  0
ARC
  5
13BF3
330
13D7A
100
AcDbEntity
  8
springs2 - Level 30
  6
Continuous
 62
     7
370
    13
100
AcDbCircle
 10
-2211.548832
 20
2971.570746
 30
0.0
 40
8.000000000000001
210
0.0
220
0.0
230
-1.0
100
AcDbArc
 50
0.0
 51
359.999994
  0
ARC
  5
13BF4
330
13D7A
100
AcDbEntity
  8
springs2 - Level 30
  6
Continuous
 62
     7
370
    13
100
AcDbCircle
 10
-2211.548832
 20
2871.570746
 30
0.0
 40
8.000000000000001
210
0.0
220
0.0
230
-1.0
100
AcDbArc
 50
0.0
 51
359.999994
  0
LINE
  5
13BF5
330
13D7A
100
AcDbEntity
  8
springs2 - Level 44
  6
Continuous
 62
     7
370
    13
100
AcDbLine
 10
2177.548832
 20
3014.570746
 30
0.0
 11
2177.548832
 21
2828.570746
 31
0.0
  0
LINE
  5
13BF6
330
13D7A
100
AcDbEntity
  8
springs2 - Level 44
  6
Continuous
 62
     7
370
    13
100
AcDbLine
 10
2177.548832
 20
2828.570746
 30
0.0
 11
1905.548832
 21
2828.570746
 31
0.0
  0
LINE
  5
13BF7
330
13D7A
100
AcDbEntity
  8
springs2 - Level 44
  6
Continuous
 62
     7
370
    13
100
AcDbLine
 10
1905.548832
 20
2828.570746
 30
0.0
 11
1905.548832
 21
3014.570746
 31
0.0
  0
LINE
  5
13BF8
330
13D7A
100
AcDbEntity
  8
springs2 - Level 44
  6
Continuous
 62
     7
370
    13
100
AcDbLine
 10
1905.548832
 20
3014.570746
 30
0.0
 11
2177.548832
 21
3014.570746
 31
0.0
  0
ARC
  5
13BF9
330
13D7A
100
AcDbEntity
  8
springs2 - Level 44
  6
Continuous
 62
     7
370
    13
100
AcDbCircle
 10
2156.548832
 20
2874.070746
 30
0.0
 40
7.999999999999999
100
AcDbArc
 50
0.0
 51
359.999994
  0
ARC
  5
13BFA
330
13D7A
100
AcDbEntity
  8
springs2 - Level 44
  6
Continuous
 62
     7
370
    13
100
AcDbCircle
 10
2156.548832
 20
2969.070746
 30
0.0
 40
7.999999999999999
100
AcDbArc
 50
0.0
 51
359.999994
  0
ARC
  5
13BFB
330
13D7A
100
AcDbEntity
  8
springs2 - Level 44
  6
Continuous
 62
     7
370
    13
100
AcDbCircle
 10
1926.548832
 20
2969.070746
 30
0.0
 40
7.999999999999999
100
AcDbArc
 50
0.0
 51
359.999994
  0
ARC
  5
13BFC
330
13D7A
100
AcDbEntity
  8
springs2 - Level 44
  6
Continuous
 62
     7
370
    13
100
AcDbCircle
 10
1926.548832
 20
2874.070746
 30
0.0
 40
7.999999999999999
100
AcDbArc
 50
0.0
 51
359.999994
  0
LINE
  5
13BFD
330
13D7A
100
AcDbEntity
  8
springs2 - Level 44
  6
Continuous
 62
     7
370
    13
100
AcDbLine
 10
2177.548832
 20
3014.570746
 30
0.0
 11
2177.548832
 21
3019.570746
 31
0.0
  0
LINE
  5
13BFE
330
13D7A
100
AcDbEntity
  8
springs2 - Level 44
  6
Continuous
 62
     7
370
    13
100
AcDbLine
 10
1905.548832
 20
3014.570746
 30
0.0
 11
1905.548832
 21
3019.570746
 31
0.0
  0
LINE
  5
13BFF
330
13D7A
100
AcDbEntity
  8
springs2 - Level 44
  6
Continuous
 62
     7
370
    13
100
AcDbLine
 10
2177.548832
 20
3019.570746
 30
0.0
 11
1905.548832
 21
3019.570746
 31
0.0
  0
LINE
  5
13C00
330
13D7A
100
AcDbEntity
  8
springs2 - Level 44
  6
Continuous
 62
     7
370
    13
100
AcDbLine
 10
1905.548832
 20
3014.570746
 30
0.0
 11
1900.548832
 21
3014.570746
 31
0.0
  0
ARC
  5
13C01
330
13D7A
100
AcDbEntity
  8
springs2 - Level 44
  6
Continuous
 62
     7
370
    13
100
AcDbCircle
 10
1905.548832
 20
3014.570746
 30
0.0
 40
5.0
100
AcDbArc
 50
90.0
 51
180.0
  0
LINE
  5
13C02
330
13D7A
100
AcDbEntity
  8
springs2 - Level 44
  6
Continuous
 62
     7
370
    13
100
AcDbLine
 10
1905.548832
 20
2828.570746
 30
0.0
 11
1900.548832
 21
2828.570746
 31
0.0
  0
LINE
  5
13C03
330
13D7A
100
AcDbEntity
  8
springs2 - Level 44
  6
Continuous
 62
     7
370
    13
100
AcDbLine
 10
1900.548832
 20
3014.570746
 30
0.0
 11
1900.548832
 21
2828.570746
 31
0.0
  0
LINE
  5
13C04
330
13D7A
100
AcDbEntity
  8
springs2 - Level 44
  6
Continuous
 62
     7
370
    13
100
AcDbLine
 10
1905.548832
 20
2828.570746
 30
0.0
 11
1905.548832
 21
2823.570746
 31
0.0
  0
ARC
  5
13C05
330
13D7A
100
AcDbEntity
  8
springs2 - Level 44
  6
Continuous
 62
     7
370
    13
100
AcDbCircle
 10
1905.548832
 20
2828.570746
 30
0.0
 40
5.0
100
AcDbArc
 50
180.0
 51
270.0
  0
LINE
  5
13C06
330
13D7A
100
AcDbEntity
  8
springs2 - Level 44
  6
Continuous
 62
     7
370
    13
100
AcDbLine
 10
2177.548832
 20
3014.570746
 30
0.0
 11
2182.548832
 21
3014.570746
 31
0.0
  0
LINE
  5
13C07
330
13D7A
100
AcDbEntity
  8
springs2 - Level 44
  6
Continuous
 62
     7
370
    13
100
AcDbLine
 10
2182.548832
 20
2828.570746
 30
0.0
 11
2182.548832
 21
3014.570746
 31
0.0
  0
LINE
  5
13C08
330
13D7A
100
AcDbEntity
  8
springs2 - Level 44
  6
Continuous
 62
     7
370
    13
100
AcDbLine
 10
2182.548832
 20
2828.570746
 30
0.0
 11
2177.548832
 21
2828.570746
 31
0.0
  0
LINE
  5
13C09
330
13D7A
100
AcDbEntity
  8
springs2 - Level 44
  6
Continuous
 62
     7
370
    13
100
AcDbLine
 10
2177.548832
 20
2823.570746
 30
0.0
 11
2177.548832
 21
2828.570746
 31
0.0
  0
LINE
  5
13C0A
330
13D7A
100
AcDbEntity
  8
springs2 - Level 44
  6
Continuous
 62
     7
370
    13
100
AcDbLine
 10
1905.548832
 20
2823.570746
 30
0.0
 11
2177.548832
 21
2823.570746
 31
0.0
  0
ARC
  5
13C0B
330
13D7A
100
AcDbEntity
  8
springs2 - Level 44
  6
Continuous
 62
     7
370
    13
100
AcDbCircle
 10
2177.548832
 20
2828.570746
 30
0.0
 40
5.0
100
AcDbArc
 50
270.0
 51
0.0
  0
ARC
  5
13C0C
330
13D7A
100
AcDbEntity
  8
springs2 - Level 44
  6
Continuous
 62
     7
370
    13
100
AcDbCircle
 10
2177.548832
 20
3014.570746
 30
0.0
 40
5.0
100
AcDbArc
 50
0.0
 51
90.0
  0
LINE
  5
13C0D
330
13D7A
100
AcDbEntity
  8
springs2 - Level 30
  6
Continuous
 62
     7
370
    13
100
AcDbLine
 10
2249.048832
 20
2889.070746
 30
0.0
 11
2249.048832
 21
2954.070746
 31
0.0
  0
LINE
  5
13C0E
330
13D7A
100
AcDbEntity
  8
springs2 - Level 30
  6
Continuous
 62
     7
370
    13
100
AcDbLine
 10
2249.048832
 20
2954.070746
 30
0.0
 11
2253.048832
 21
2954.070746
 31
0.0
  0
LINE
  5
13C0F
330
13D7A
100
AcDbEntity
  8
springs2 - Level 30
  6
Continuous
 62
     7
370
    13
100
AcDbLine
 10
2280.048832
 20
2954.070746
 30
0.0
 11
2284.048832
 21
2954.070746
 31
0.0
  0
LINE
  5
13C10
330
13D7A
100
AcDbEntity
  8
springs2 - Level 30
  6
Continuous
 62
     7
370
    13
100
AcDbLine
 10
2284.048832
 20
2889.070746
 30
0.0
 11
2280.048832
 21
2889.070746
 31
0.0
  0
LINE
  5
13C11
330
13D7A
100
AcDbEntity
  8
springs2 - Level 30
  6
Continuous
 62
     7
370
    13
100
AcDbLine
 10
2253.048832
 20
2889.070746
 30
0.0
 11
2249.048832
 21
2889.070746
 31
0.0
  0
LINE
  5
13C12
330
13D7A
100
AcDbEntity
  8
springs2 - Level 30
  6
Continuous
 62
     7
370
    13
100
AcDbLine
 10
2284.048832
 20
2954.070746
 30
0.0
 11
2284.048832
 21
2889.070746
 31
0.0
  0
ARC
  5
13C13
330
13D7A
100
AcDbEntity
  8
springs2 - Level 30
  6
Continuous
 62
     7
370
    13
100
AcDbCircle
 10
2266.548832
 20
3073.070746
 30
0.0
 40
13.5
100
AcDbArc
 50
0.0
 51
180.0
  0
ARC
  5
13C14
330
13D7A
100
AcDbEntity
  8
springs2 - Level 30
  6
Continuous
 62
     7
370
    13
100
AcDbCircle
 10
2266.548832
 20
2770.070746
 30
0.0
 40
13.5
100
AcDbArc
 50
180.0
 51
0.0
  0
LINE
  5
13C15
330
13D7A
100
AcDbEntity
  8
springs2 - Level 30
  6
Continuous
 62
     7
370
    13
100
AcDbLine
 10
2253.048832
 20
2770.070746
 30
0.0
 11
2253.048832
 21
3073.070746
 31
0.0
  0
LINE
  5
13C16
330
13D7A
100
AcDbEntity
  8
springs2 - Level 30
  6
Continuous
 62
     7
370
    13
100
AcDbLine
 10
2280.048832
 20
3073.070746
 30
0.0
 11
2280.048832
 21
2770.070746
 31
0.0
  0
ARC
  5
13C17
330
13D7A
100
AcDbEntity
  8
springs2 - Level 26
  6
Continuous
 62
     7
370
    13
100
AcDbCircle
 10
3174.877658
 20
1960.881241
 30
0.0
 40
30.0
100
AcDbArc
 50
219.791819
 51
318.189685
  0
ARC
  5
13C18
330
13D7A
100
AcDbEntity
  8
springs2 - Level 26
  6
Continuous
 62
     7
370
    13
100
AcDbCircle
 10
3174.877658
 20
1960.881241
 30
0.0
 40
30.0
100
AcDbArc
 50
41.810315
 51
140.208181
  0
LINE
  5
13C19
330
13D7A
100
AcDbEntity
  8
springs2 - Level 26
  6
Continuous
 62
     7
370
    13
100
AcDbLine
 10
3197.238337
 20
1940.881241
 30
0.0
 11
3197.238337
 21
1980.881241
 31
0.0
  0
LINE
  5
13C1A
330
13D7A
100
AcDbEntity
  8
springs2 - Level 26
  6
Continuous
 62
     7
370
    13
100
AcDbLine
 10
3151.82641
 20
1941.681241
 30
0.0
 11
3151.82641
 21
1980.081241
 31
0.0
  0
ARC
  5
13C1B
330
13D7A
100
AcDbEntity
  8
springs2 - Level 26
  6
Continuous
 62
     7
370
    13
100
AcDbCircle
 10
3155.668285
 20
1976.881241
 30
0.0
 40
5.0
100
AcDbArc
 50
140.208181
 51
180.0
  0
ARC
  5
13C1C
330
13D7A
100
AcDbEntity
  8
springs2 - Level 26
  6
Continuous
 62
     7
370
    13
100
AcDbCircle
 10
3155.668285
 20
1944.881241
 30
0.0
 40
5.0
100
AcDbArc
 50
180.0
 51
219.791819
  0
LINE
  5
13C1D
330
13D7A
100
AcDbEntity
  8
springs2 - Level 26
  6
Continuous
 62
     7
370
    13
100
AcDbLine
 10
3150.668285
 20
1944.881241
 30
0.0
 11
3150.668285
 21
1976.881241
 31
0.0
  0
LINE
  5
13C1E
330
13D7A
100
AcDbEntity
  8
springs2 - Level 26
  6
Continuous
 62
     7
370
    13
100
AcDbLine
 10
2386.548832
 20
2751.570746
 30
0.0
 11
2426.548832
 21
2751.570746
 31
0.0
  0
LINE
  5
13C1F
330
13D7A
100
AcDbEntity
  8
springs2 - Level 26
  6
Continuous
 62
     7
370
    13
100
AcDbLine
 10
2387.348832
 20
2706.158819
 30
0.0
 11
2425.748832
 21
2706.158819
 31
0.0
  0
ARC
  5
13C20
330
13D7A
100
AcDbEntity
  8
springs2 - Level 26
  6
Continuous
 62
     7
370
    13
100
AcDbCircle
 10
2406.548832
 20
2729.210067
 30
0.0
 40
30.0
100
AcDbArc
 50
309.791819
 51
0.0
  0
ARC
  5
13C21
330
13D7A
100
AcDbEntity
  8
springs2 - Level 26
  6
Continuous
 62
     7
370
    13
100
AcDbCircle
 10
2406.548832
 20
2729.210067
 30
0.0
 40
30.0
100
AcDbArc
 50
131.810315
 51
230.208181
  0
ARC
  5
13C22
330
13D7A
100
AcDbEntity
  8
springs2 - Level 26
  6
Continuous
 62
     7
370
    13
100
AcDbCircle
 10
2406.548832
 20
2729.210067
 30
0.0
 40
30.0
100
AcDbArc
 50
0.0
 51
48.189685
  0
ARC
  5
13C23
330
13D7A
100
AcDbEntity
  8
springs2 - Level 26
  6
Continuous
 62
     7
370
    13
100
AcDbCircle
 10
2422.548832
 20
2710.000694
 30
0.0
 40
5.0
100
AcDbArc
 50
270.0
 51
309.791819
  0
ARC
  5
13C24
330
13D7A
100
AcDbEntity
  8
springs2 - Level 26
  6
Continuous
 62
     7
370
    13
100
AcDbCircle
 10
2390.548832
 20
2710.000694
 30
0.0
 40
5.0
100
AcDbArc
 50
230.208181
 51
270.0
  0
LINE
  5
13C25
330
13D7A
100
AcDbEntity
  8
springs2 - Level 26
  6
Continuous
 62
     7
370
    13
100
AcDbLine
 10
2422.548832
 20
2705.000694
 30
0.0
 11
2390.548832
 21
2705.000694
 31
0.0
  0
LINE
  5
13C26
330
13D7A
100
AcDbEntity
  8
springs2 - Level 26
  6
Continuous
 62
     7
370
    13
100
AcDbLine
 10
2386.548832
 20
3091.570746
 30
0.0
 11
2426.548832
 21
3091.570746
 31
0.0
  0
LINE
  5
13C27
330
13D7A
100
AcDbEntity
  8
springs2 - Level 26
  6
Continuous
 62
     7
370
    13
100
AcDbLine
 10
2387.348832
 20
3136.982673
 30
0.0
 11
2425.748832
 21
3136.982673
 31
0.0
  0
ARC
  5
13C28
330
13D7A
100
AcDbEntity
  8
springs2 - Level 26
  6
Continuous
 62
     7
370
    13
100
AcDbCircle
 10
2406.548832
 20
3113.931426
 30
0.0
 40
30.0
100
AcDbArc
 50
311.810315
 51
0.0
  0
ARC
  5
13C29
330
13D7A
100
AcDbEntity
  8
springs2 - Level 26
  6
Continuous
 62
     7
370
    13
100
AcDbCircle
 10
2406.548832
 20
3113.931426
 30
0.0
 40
30.0
100
AcDbArc
 50
129.791819
 51
228.189685
  0
ARC
  5
13C2A
330
13D7A
100
AcDbEntity
  8
springs2 - Level 26
  6
Continuous
 62
     7
370
    13
100
AcDbCircle
 10
2406.548832
 20
3113.931426
 30
0.0
 40
30.0
100
AcDbArc
 50
0.0
 51
50.208181
  0
ARC
  5
13C2B
330
13D7A
100
AcDbEntity
  8
springs2 - Level 26
  6
Continuous
 62
     7
370
    13
100
AcDbCircle
 10
2422.548832
 20
3133.140799
 30
0.0
 40
5.0
100
AcDbArc
 50
50.208181
 51
90.0
  0
ARC
  5
13C2C
330
13D7A
100
AcDbEntity
  8
springs2 - Level 26
  6
Continuous
 62
     7
370
    13
100
AcDbCircle
 10
2390.548832
 20
3133.140799
 30
0.0
 40
5.0
100
AcDbArc
 50
90.0
 51
129.791819
  0
LINE
  5
13C2D
330
13D7A
100
AcDbEntity
  8
springs2 - Level 26
  6
Continuous
 62
     7
370
    13
100
AcDbLine
 10
2390.548832
 20
3138.140799
 30
0.0
 11
2422.548832
 21
3138.140799
 31
0.0
  0
LINE
  5
13C2E
330
13D7A
100
AcDbEntity
  8
springs2 - Level 33
  6
Continuous
 62
     7
370
    13
100
AcDbLine
 10
3197.238337
 20
1943.881241
 30
0.0
 11
3282.238337
 21
1943.881241
 31
0.0
  0
LINE
  5
13C2F
330
13D7A
100
AcDbEntity
  8
springs2 - Level 33
  6
Continuous
 62
     7
370
    13
100
AcDbLine
 10
3452.238337
 20
1943.881241
 30
0.0
 11
3537.238337
 21
1943.881241
 31
0.0
  0
LINE
  5
13C30
330
13D7A
100
AcDbEntity
  8
springs2 - Level 33
  6
Continuous
 62
     7
370
    13
100
AcDbLine
 10
3537.238337
 20
1977.881241
 30
0.0
 11
3452.238337
 21
1977.881241
 31
0.0
  0
LINE
  5
13C31
330
13D7A
100
AcDbEntity
  8
springs2 - Level 33
  6
Continuous
 62
     7
370
    13
100
AcDbLine
 10
3282.238337
 20
1977.881241
 30
0.0
 11
3197.238337
 21
1977.881241
 31
0.0
  0
LINE
  5
13C32
330
13D7A
100
AcDbEntity
  8
springs2 - Level 33
  6
Continuous
 62
     7
370
    13
100
AcDbLine
 10
3537.238337
 20
1977.881241
 30
0.0
 11
3537.238337
 21
1943.881241
 31
0.0
  0
LINE
  5
13C33
330
13D7A
100
AcDbEntity
  8
springs2 - Level 34
  6
Continuous
 62
     7
370
    13
100
AcDbLine
 10
2389.548832
 20
3091.570746
 30
0.0
 11
2389.548832
 21
3006.570746
 31
0.0
  0
LINE
  5
13C34
330
13D7A
100
AcDbEntity
  8
springs2 - Level 34
  6
Continuous
 62
     7
370
    13
100
AcDbLine
 10
2389.548832
 20
2836.570746
 30
0.0
 11
2389.548832
 21
2751.570746
 31
0.0
  0
LINE
  5
13C35
330
13D7A
100
AcDbEntity
  8
springs2 - Level 34
  6
Continuous
 62
     7
370
    13
100
AcDbLine
 10
2423.548832
 20
2751.570746
 30
0.0
 11
2423.548832
 21
2836.570746
 31
0.0
  0
LINE
  5
13C36
330
13D7A
100
AcDbEntity
  8
springs2 - Level 34
  6
Continuous
 62
     7
370
    13
100
AcDbLine
 10
2423.548832
 20
3006.570746
 30
0.0
 11
2423.548832
 21
3091.570746
 31
0.0
  0
LINE
  5
13C37
330
13D7A
100
AcDbEntity
  8
springs2 - Level 34
  6
Continuous
 62
     7
370
    13
100
AcDbLine
 10
2423.548832
 20
2751.570746
 30
0.0
 11
2389.548832
 21
2751.570746
 31
0.0
  0
ARC
  5
13C38
330
13D7A
100
AcDbEntity
  8
springs2 - Level 26
  6
Continuous
 62
     7
370
    13
100
AcDbCircle
 10
3559.599017
 20
1960.881241
 30
0.0
 40
30.0
100
AcDbArc
 50
221.810315
 51
320.208181
  0
ARC
  5
13C39
330
13D7A
100
AcDbEntity
  8
springs2 - Level 26
  6
Continuous
 62
     7
370
    13
100
AcDbCircle
 10
3559.599017
 20
1960.881241
 30
0.0
 40
30.0
100
AcDbArc
 50
39.791819
 51
138.189685
  0
LINE
  5
13C3A
330
13D7A
100
AcDbEntity
  8
springs2 - Level 26
  6
Continuous
 62
     7
370
    13
100
AcDbLine
 10
3537.238337
 20
1940.881241
 30
0.0
 11
3537.238337
 21
1980.881241
 31
0.0
  0
LINE
  5
13C3B
330
13D7A
100
AcDbEntity
  8
springs2 - Level 26
  6
Continuous
 62
     7
370
    13
100
AcDbLine
 10
3582.650264
 20
1941.681241
 30
0.0
 11
3582.650264
 21
1980.081241
 31
0.0
  0
ARC
  5
13C3C
330
13D7A
100
AcDbEntity
  8
springs2 - Level 26
  6
Continuous
 62
     7
370
    13
100
AcDbCircle
 10
3578.80839
 20
1976.881241
 30
0.0
 40
5.0
100
AcDbArc
 50
0.0
 51
39.791819
  0
ARC
  5
13C3D
330
13D7A
100
AcDbEntity
  8
springs2 - Level 26
  6
Continuous
 62
     7
370
    13
100
AcDbCircle
 10
3578.80839
 20
1944.881241
 30
0.0
 40
5.0
100
AcDbArc
 50
320.208181
 51
0.0
  0
LINE
  5
13C3E
330
13D7A
100
AcDbEntity
  8
springs2 - Level 26
  6
Continuous
 62
     7
370
    13
100
AcDbLine
 10
3583.80839
 20
1976.881241
 30
0.0
 11
3583.80839
 21
1944.881241
 31
0.0
  0
ARC
  5
13C3F
330
13D7A
100
AcDbEntity
  8
springs2 - Level 26
  6
Continuous
 62
     7
370
    13
100
AcDbCircle
 10
-3021.548832
 20
2969.070746
 30
0.0
 40
6.499999999999997
210
0.0
220
0.0
230
-1.0
100
AcDbArc
 50
0.0
 51
208.484635
  0
ARC
  5
13C40
330
13D7A
100
AcDbEntity
  8
springs2 - Level 26
  6
Continuous
 62
     7
370
    13
100
AcDbCircle
 10
-3021.548832
 20
2969.070746
 30
0.0
 40
6.499999999999997
210
0.0
220
0.0
230
-1.0
100
AcDbArc
 50
331.515365
 51
0.0
  0
ARC
  5
13C41
330
13D7A
100
AcDbEntity
  8
springs2 - Level 26
  6
Continuous
 62
     7
370
    13
100
AcDbCircle
 10
-3021.548832
 20
2874.070746
 30
0.0
 40
6.499999999999997
210
0.0
220
0.0
230
-1.0
100
AcDbArc
 50
0.0
 51
28.484635
  0
ARC
  5
13C42
330
13D7A
100
AcDbEntity
  8
springs2 - Level 26
  6
Continuous
 62
     7
370
    13
100
AcDbCircle
 10
-3021.548832
 20
2874.070746
 30
0.0
 40
6.499999999999997
210
0.0
220
0.0
230
-1.0
100
AcDbArc
 50
151.515365
 51
0.0
  0
ARC
  5
13C43
330
13D7A
100
AcDbEntity
  8
springs2 - Level 26
  6
Continuous
 62
     7
370
    13
100
AcDbCircle
 10
-3251.548832
 20
2969.070746
 30
0.0
 40
6.499999999999997
210
0.0
220
0.0
230
-1.0
100
AcDbArc
 50
0.0
 51
208.484635
  0
ARC
  5
13C44
330
13D7A
100
AcDbEntity
  8
springs2 - Level 26
  6
Continuous
 62
     7
370
    13
100
AcDbCircle
 10
-3251.548832
 20
2969.070746
 30
0.0
 40
6.499999999999997
210
0.0
220
0.0
230
-1.0
100
AcDbArc
 50
331.515365
 51
0.0
  0
ARC
  5
13C45
330
13D7A
100
AcDbEntity
  8
springs2 - Level 26
  6
Continuous
 62
     7
370
    13
100
AcDbCircle
 10
-3251.548832
 20
2874.070746
 30
0.0
 40
6.499999999999997
210
0.0
220
0.0
230
-1.0
100
AcDbArc
 50
0.0
 51
28.484635
  0
ARC
  5
13C46
330
13D7A
100
AcDbEntity
  8
springs2 - Level 26
  6
Continuous
 62
     7
370
    13
100
AcDbCircle
 10
-3251.548832
 20
2874.070746
 30
0.0
 40
6.499999999999997
210
0.0
220
0.0
230
-1.0
100
AcDbArc
 50
151.515365
 51
0.0
  0
LINE
  5
13C47
330
13D7A
100
AcDbEntity
  8
springs2 - Level 25
  6
Continuous
 62
     7
370
    13
100
AcDbLine
 10
3275.548832
 20
3046.570746
 30
0.0
 11
3275.548832
 21
2996.846634
 31
0.0
  0
LINE
  5
13C48
330
13D7A
100
AcDbEntity
  8
springs2 - Level 25
  6
Continuous
 62
     7
370
    13
100
AcDbLine
 10
3275.548832
 20
2846.294859
 30
0.0
 11
3275.548832
 21
2796.570746
 31
0.0
  0
LINE
  5
13C49
330
13D7A
100
AcDbEntity
  8
springs2 - Level 25
  6
Continuous
 62
     7
370
    13
100
AcDbLine
 10
3275.548832
 20
3046.570746
 30
0.0
 11
3281.548832
 21
3046.570746
 31
0.0
  0
LINE
  5
13C4A
330
13D7A
100
AcDbEntity
  8
springs2 - Level 25
  6
Continuous
 62
     7
370
    13
100
AcDbLine
 10
3281.548832
 20
3046.570746
 30
0.0
 11
3281.548832
 21
2998.870049
 31
0.0
  0
LINE
  5
13C4B
330
13D7A
100
AcDbEntity
  8
springs2 - Level 25
  6
Continuous
 62
     7
370
    13
100
AcDbLine
 10
3281.548832
 20
2844.271444
 30
0.0
 11
3281.548832
 21
2796.570746
 31
0.0
  0
LINE
  5
13C4C
330
13D7A
100
AcDbEntity
  8
springs2 - Level 25
  6
Continuous
 62
     7
370
    13
100
AcDbLine
 10
3275.548832
 20
2796.570746
 30
0.0
 11
3281.548832
 21
2796.570746
 31
0.0
  0
LINE
  5
13C4D
330
13D7A
100
AcDbEntity
  8
springs2 - Level 25
  6
Continuous
 62
     7
370
    13
100
AcDbLine
 10
3458.927843
 20
3046.570746
 30
0.0
 11
3458.927843
 21
2996.846634
 31
0.0
  0
LINE
  5
13C4E
330
13D7A
100
AcDbEntity
  8
springs2 - Level 25
  6
Continuous
 62
     7
370
    13
100
AcDbLine
 10
3458.927843
 20
2846.294859
 30
0.0
 11
3458.927843
 21
2796.570746
 31
0.0
  0
LINE
  5
13C4F
330
13D7A
100
AcDbEntity
  8
springs2 - Level 25
  6
Continuous
 62
     7
370
    13
100
AcDbLine
 10
3458.927843
 20
3046.570746
 30
0.0
 11
3452.927843
 21
3046.570746
 31
0.0
  0
LINE
  5
13C50
330
13D7A
100
AcDbEntity
  8
springs2 - Level 25
  6
Continuous
 62
     7
370
    13
100
AcDbLine
 10
3452.927843
 20
3046.570746
 30
0.0
 11
3452.927843
 21
2998.870049
 31
0.0
  0
LINE
  5
13C51
330
13D7A
100
AcDbEntity
  8
springs2 - Level 25
  6
Continuous
 62
     7
370
    13
100
AcDbLine
 10
3452.927843
 20
2844.271444
 30
0.0
 11
3452.927843
 21
2796.570746
 31
0.0
  0
LINE
  5
13C52
330
13D7A
100
AcDbEntity
  8
springs2 - Level 25
  6
Continuous
 62
     7
370
    13
100
AcDbLine
 10
3458.927843
 20
2796.570746
 30
0.0
 11
3452.927843
 21
2796.570746
 31
0.0
  0
ARC
  5
13C53
330
13D7A
100
AcDbEntity
  8
springs2 - Level 26
  6
Continuous
 62
     7
370
    13
100
AcDbCircle
 10
3174.877658
 20
3882.260252
 30
0.0
 40
30.0
100
AcDbArc
 50
219.791819
 51
318.189685
  0
ARC
  5
13C54
330
13D7A
100
AcDbEntity
  8
springs2 - Level 26
  6
Continuous
 62
     7
370
    13
100
AcDbCircle
 10
3174.877658
 20
3882.260252
 30
0.0
 40
30.0
100
AcDbArc
 50
41.810315
 51
140.208181
  0
LINE
  5
13C55
330
13D7A
100
AcDbEntity
  8
springs2 - Level 26
  6
Continuous
 62
     7
370
    13
100
AcDbLine
 10
3197.238337
 20
3902.260252
 30
0.0
 11
3197.238337
 21
3862.260252
 31
0.0
  0
LINE
  5
13C56
330
13D7A
100
AcDbEntity
  8
springs2 - Level 26
  6
Continuous
 62
     7
370
    13
100
AcDbLine
 10
3151.82641
 20
3901.460252
 30
0.0
 11
3151.82641
 21
3863.060252
 31
0.0
  0
ARC
  5
13C57
330
13D7A
100
AcDbEntity
  8
springs2 - Level 26
  6
Continuous
 62
     7
370
    13
100
AcDbCircle
 10
3155.668285
 20
3866.260252
 30
0.0
 40
5.0
100
AcDbArc
 50
180.0
 51
219.791819
  0
ARC
  5
13C58
330
13D7A
100
AcDbEntity
  8
springs2 - Level 26
  6
Continuous
 62
     7
370
    13
100
AcDbCircle
 10
3155.668285
 20
3898.260252
 30
0.0
 40
5.0
100
AcDbArc
 50
140.208181
 51
180.0
  0
LINE
  5
13C59
330
13D7A
100
AcDbEntity
  8
springs2 - Level 26
  6
Continuous
 62
     7
370
    13
100
AcDbLine
 10
3150.668285
 20
3866.260252
 30
0.0
 11
3150.668285
 21
3898.260252
 31
0.0
  0
ARC
  5
13C5A
330
13D7A
100
AcDbEntity
  8
springs2 - Level 26
  6
Continuous
 62
     7
370
    13
100
AcDbCircle
 10
3559.599017
 20
3882.260252
 30
0.0
 40
30.0
100
AcDbArc
 50
221.810315
 51
320.208181
  0
ARC
  5
13C5B
330
13D7A
100
AcDbEntity
  8
springs2 - Level 26
  6
Continuous
 62
     7
370
    13
100
AcDbCircle
 10
3559.599017
 20
3882.260252
 30
0.0
 40
30.0
100
AcDbArc
 50
39.791819
 51
138.189685
  0
LINE
  5
13C5C
330
13D7A
100
AcDbEntity
  8
springs2 - Level 26
  6
Continuous
 62
     7
370
    13
100
AcDbLine
 10
3537.238337
 20
3902.260252
 30
0.0
 11
3537.238337
 21
3862.260252
 31
0.0
  0
LINE
  5
13C5D
330
13D7A
100
AcDbEntity
  8
springs2 - Level 26
  6
Continuous
 62
     7
370
    13
100
AcDbLine
 10
3582.650264
 20
3901.460252
 30
0.0
 11
3582.650264
 21
3863.060252
 31
0.0
  0
ARC
  5
13C5E
330
13D7A
100
AcDbEntity
  8
springs2 - Level 26
  6
Continuous
 62
     7
370
    13
100
AcDbCircle
 10
3578.80839
 20
3866.260252
 30
0.0
 40
5.0
100
AcDbArc
 50
320.208181
 51
0.0
  0
ARC
  5
13C5F
330
13D7A
100
AcDbEntity
  8
springs2 - Level 26
  6
Continuous
 62
     7
370
    13
100
AcDbCircle
 10
3578.80839
 20
3898.260252
 30
0.0
 40
5.0
100
AcDbArc
 50
0.0
 51
39.791819
  0
LINE
  5
13C60
330
13D7A
100
AcDbEntity
  8
springs2 - Level 26
  6
Continuous
 62
     7
370
    13
100
AcDbLine
 10
3583.80839
 20
3898.260252
 30
0.0
 11
3583.80839
 21
3866.260252
 31
0.0
  0
LINE
  5
13C61
330
13D7A
100
AcDbEntity
  8
springs2 - Level 26
  6
Continuous
 62
     7
370
    13
100
AcDbLine
 10
3439.738337
 20
4406.570746
 30
0.0
 11
3439.738337
 21
4407.260259
 31
0.0
  0
LINE
  5
13C62
330
13D7A
100
AcDbEntity
  8
springs2 - Level 26
  6
Continuous
 62
     7
370
    13
100
AcDbLine
 10
3294.738337
 20
4406.570746
 30
0.0
 11
3294.738337
 21
4407.260259
 31
0.0
  0
LINE
  5
13C63
330
13D7A
100
AcDbEntity
  8
springs2 - Level 26
  6
Continuous
 62
     7
370
    13
100
AcDbLine
 10
3377.23833
 20
4412.0677
 30
0.0
 11
3357.238345
 21
4412.0677
 31
0.0
  0
LINE
  5
13C64
330
13D7A
100
AcDbEntity
  8
springs2 - Level 26
  6
Continuous
 62
     7
370
    13
100
AcDbLine
 10
3357.238337
 20
4394.0677
 30
0.0
 11
3377.238337
 21
4394.0677
 31
0.0
  0
ARC
  5
13C65
330
13D7A
100
AcDbEntity
  8
springs2 - Level 26
  6
Continuous
 62
     7
370
    13
100
AcDbCircle
 10
3414.738337
 20
4362.260252
 30
0.0
 40
6.899999999999997
100
AcDbArc
 50
217.826691
 51
322.173309
  0
ARC
  5
13C66
330
13D7A
100
AcDbEntity
  8
springs2 - Level 26
  6
Continuous
 62
     7
370
    13
100
AcDbCircle
 10
3319.738337
 20
4362.260252
 30
0.0
 40
6.899999999999997
100
AcDbArc
 50
217.826691
 51
322.173309
  0
LINE
  5
13C67
330
13D7A
100
AcDbEntity
  8
springs2 - Level 31
  6
Continuous
 62
     7
370
    13
100
AcDbLine
 10
3197.238337
 20
3865.260252
 30
0.0
 11
3282.238337
 21
3865.260252
 31
0.0
  0
LINE
  5
13C68
330
13D7A
100
AcDbEntity
  8
springs2 - Level 31
  6
Continuous
 62
     7
370
    13
100
AcDbLine
 10
3452.238337
 20
3865.260252
 30
0.0
 11
3537.238337
 21
3865.260252
 31
0.0
  0
LINE
  5
13C69
330
13D7A
100
AcDbEntity
  8
springs2 - Level 31
  6
Continuous
 62
     7
370
    13
100
AcDbLine
 10
3537.238337
 20
3899.260252
 30
0.0
 11
3452.238337
 21
3899.260252
 31
0.0
  0
LINE
  5
13C6A
330
13D7A
100
AcDbEntity
  8
springs2 - Level 31
  6
Continuous
 62
     7
370
    13
100
AcDbLine
 10
3282.238337
 20
3899.260252
 30
0.0
 11
3197.238337
 21
3899.260252
 31
0.0
  0
LINE
  5
13C6B
330
13D7A
100
AcDbEntity
  8
springs2 - Level 31
  6
Continuous
 62
     7
370
    13
100
AcDbLine
 10
3537.238337
 20
3865.260252
 30
0.0
 11
3537.238337
 21
3899.260252
 31
0.0
  0
ARC
  5
13C6C
330
13D7A
100
AcDbEntity
  8
springs2 - Level 25
  6
Continuous
 62
     7
370
    13
100
AcDbCircle
 10
3317.238337
 20
2575.881241
 30
0.0
 40
8.0
100
AcDbArc
 50
0.0
 51
359.999994
  0
ARC
  5
13C6D
330
13D7A
100
AcDbEntity
  8
springs2 - Level 25
  6
Continuous
 62
     7
370
    13
100
AcDbCircle
 10
3317.238337
 20
2805.881241
 30
0.0
 40
8.0
100
AcDbArc
 50
0.0
 51
359.999994
  0
ARC
  5
13C6E
330
13D7A
100
AcDbEntity
  8
springs2 - Level 25
  6
Continuous
 62
     7
370
    13
100
AcDbCircle
 10
3417.238337
 20
2805.881241
 30
0.0
 40
8.0
100
AcDbArc
 50
0.0
 51
359.999994
  0
ARC
  5
13C6F
330
13D7A
100
AcDbEntity
  8
springs2 - Level 25
  6
Continuous
 62
     7
370
    13
100
AcDbCircle
 10
3417.238337
 20
2575.881241
 30
0.0
 40
8.0
100
AcDbArc
 50
0.0
 51
359.999994
  0
ARC
  5
13C70
330
13D7A
100
AcDbEntity
  8
springs2 - Level 25
  6
Continuous
 62
     7
370
    13
100
AcDbCircle
 10
3711.548832
 20
2971.570746
 30
0.0
 40
8.0
100
AcDbArc
 50
0.0
 51
359.999994
  0
ARC
  5
13C71
330
13D7A
100
AcDbEntity
  8
springs2 - Level 25
  6
Continuous
 62
     7
370
    13
100
AcDbCircle
 10
3481.548832
 20
2971.570746
 30
0.0
 40
8.0
100
AcDbArc
 50
0.0
 51
359.999994
  0
ARC
  5
13C72
330
13D7A
100
AcDbEntity
  8
springs2 - Level 25
  6
Continuous
 62
     7
370
    13
100
AcDbCircle
 10
3481.548832
 20
2871.570746
 30
0.0
 40
8.0
100
AcDbArc
 50
0.0
 51
359.999994
  0
ARC
  5
13C73
330
13D7A
100
AcDbEntity
  8
springs2 - Level 25
  6
Continuous
 62
     7
370
    13
100
AcDbCircle
 10
3711.548832
 20
2871.570746
 30
0.0
 40
8.0
100
AcDbArc
 50
0.0
 51
359.999994
  0
ARC
  5
13C74
330
13D7A
100
AcDbEntity
  8
springs2 - Level 25
  6
Continuous
 62
     7
370
    13
100
AcDbCircle
 10
3021.548832
 20
2871.570746
 30
0.0
 40
8.0
100
AcDbArc
 50
0.0
 51
359.999994
  0
ARC
  5
13C75
330
13D7A
100
AcDbEntity
  8
springs2 - Level 25
  6
Continuous
 62
     7
370
    13
100
AcDbCircle
 10
3251.548832
 20
2871.570746
 30
0.0
 40
8.0
100
AcDbArc
 50
0.0
 51
359.999994
  0
ARC
  5
13C76
330
13D7A
100
AcDbEntity
  8
springs2 - Level 25
  6
Continuous
 62
     7
370
    13
100
AcDbCircle
 10
3251.548832
 20
2971.570746
 30
0.0
 40
8.0
100
AcDbArc
 50
0.0
 51
359.999994
  0
ARC
  5
13C77
330
13D7A
100
AcDbEntity
  8
springs2 - Level 25
  6
Continuous
 62
     7
370
    13
100
AcDbCircle
 10
3021.548832
 20
2971.570746
 30
0.0
 40
8.0
100
AcDbArc
 50
0.0
 51
359.999994
  0
ARC
  5
13C78
330
13D7A
100
AcDbEntity
  8
springs2 - Level 25
  6
Continuous
 62
     7
370
    13
100
AcDbCircle
 10
3417.238337
 20
3265.881241
 30
0.0
 40
8.0
100
AcDbArc
 50
0.0
 51
359.999994
  0
ARC
  5
13C79
330
13D7A
100
AcDbEntity
  8
springs2 - Level 25
  6
Continuous
 62
     7
370
    13
100
AcDbCircle
 10
3417.238337
 20
3035.881241
 30
0.0
 40
8.0
100
AcDbArc
 50
0.0
 51
359.999994
  0
ARC
  5
13C7A
330
13D7A
100
AcDbEntity
  8
springs2 - Level 25
  6
Continuous
 62
     7
370
    13
100
AcDbCircle
 10
3317.238337
 20
3035.881241
 30
0.0
 40
8.0
100
AcDbArc
 50
0.0
 51
359.999994
  0
ARC
  5
13C7B
330
13D7A
100
AcDbEntity
  8
springs2 - Level 25
  6
Continuous
 62
     7
370
    13
100
AcDbCircle
 10
3317.238337
 20
3265.881241
 30
0.0
 40
8.0
100
AcDbArc
 50
0.0
 51
359.999994
  0
ARC
  5
13C7C
330
13D7A
100
AcDbEntity
  8
springs2 - Level 25
  6
Continuous
 62
     7
370
    13
100
AcDbCircle
 10
3312.238337
 20
3270.881241
 30
0.0
 40
20.0
100
AcDbArc
 50
90.0
 51
180.0
  0
LINE
  5
13C7D
330
13D7A
100
AcDbEntity
  8
springs2 - Level 25
  6
Continuous
 62
     7
370
    13
100
AcDbLine
 10
3312.238337
 20
3290.881241
 30
0.0
 11
3422.238337
 21
3290.881241
 31
0.0
  0
ARC
  5
13C7E
330
13D7A
100
AcDbEntity
  8
springs2 - Level 25
  6
Continuous
 62
     7
370
    13
100
AcDbCircle
 10
3422.238337
 20
3270.881241
 30
0.0
 40
20.0
100
AcDbArc
 50
0.0
 51
90.0
  0
LINE
  5
13C7F
330
13D7A
100
AcDbEntity
  8
springs2 - Level 25
  6
Continuous
 62
     7
370
    13
100
AcDbLine
 10
3442.238337
 20
3270.881241
 30
0.0
 11
3442.238337
 21
3016.570746
 31
0.0
  0
ARC
  5
13C80
330
13D7A
100
AcDbEntity
  8
springs2 - Level 25
  6
Continuous
 62
     7
370
    13
100
AcDbCircle
 10
-3462.238337
 20
3016.570746
 30
0.0
 40
20.0
210
0.0
220
0.0
230
-1.0
100
AcDbArc
 50
270.0
 51
0.0
  0
LINE
  5
13C81
330
13D7A
100
AcDbEntity
  8
springs2 - Level 25
  6
Continuous
 62
     7
370
    13
100
AcDbLine
 10
3462.238337
 20
2996.570746
 30
0.0
 11
3716.548832
 21
2996.570746
 31
0.0
  0
ARC
  5
13C82
330
13D7A
100
AcDbEntity
  8
springs2 - Level 25
  6
Continuous
 62
     7
370
    13
100
AcDbCircle
 10
3716.548832
 20
2976.570746
 30
0.0
 40
20.0
100
AcDbArc
 50
0.0
 51
90.0
  0
LINE
  5
13C83
330
13D7A
100
AcDbEntity
  8
springs2 - Level 25
  6
Continuous
 62
     7
370
    13
100
AcDbLine
 10
3736.548832
 20
2976.570746
 30
0.0
 11
3736.548832
 21
2866.570746
 31
0.0
  0
ARC
  5
13C84
330
13D7A
100
AcDbEntity
  8
springs2 - Level 25
  6
Continuous
 62
     7
370
    13
100
AcDbCircle
 10
3716.548832
 20
2866.570746
 30
0.0
 40
20.0
100
AcDbArc
 50
270.0
 51
0.0
  0
LINE
  5
13C85
330
13D7A
100
AcDbEntity
  8
springs2 - Level 25
  6
Continuous
 62
     7
370
    13
100
AcDbLine
 10
3716.548832
 20
2846.570746
 30
0.0
 11
3462.238337
 21
2846.570746
 31
0.0
  0
ARC
  5
13C86
330
13D7A
100
AcDbEntity
  8
springs2 - Level 25
  6
Continuous
 62
     7
370
    13
100
AcDbCircle
 10
-3462.238337
 20
2826.570746
 30
0.0
 40
20.0
210
0.0
220
0.0
230
-1.0
100
AcDbArc
 50
0.0
 51
90.0
  0
ARC
  5
13C87
330
13D7A
100
AcDbEntity
  8
springs2 - Level 25
  6
Continuous
 62
     7
370
    13
100
AcDbCircle
 10
3422.238337
 20
2570.881241
 30
0.0
 40
20.0
100
AcDbArc
 50
270.0
 51
0.0
  0
LINE
  5
13C88
330
13D7A
100
AcDbEntity
  8
springs2 - Level 25
  6
Continuous
 62
     7
370
    13
100
AcDbLine
 10
3422.238337
 20
2550.881241
 30
0.0
 11
3312.238337
 21
2550.881241
 31
0.0
  0
ARC
  5
13C89
330
13D7A
100
AcDbEntity
  8
springs2 - Level 25
  6
Continuous
 62
     7
370
    13
100
AcDbCircle
 10
3312.238337
 20
2570.881241
 30
0.0
 40
20.0
100
AcDbArc
 50
180.0
 51
270.0
  0
ARC
  5
13C8A
330
13D7A
100
AcDbEntity
  8
springs2 - Level 25
  6
Continuous
 62
     7
370
    13
100
AcDbCircle
 10
-3272.238337
 20
2826.570746
 30
0.0
 40
20.0
210
0.0
220
0.0
230
-1.0
100
AcDbArc
 50
90.0
 51
180.0
  0
LINE
  5
13C8B
330
13D7A
100
AcDbEntity
  8
springs2 - Level 25
  6
Continuous
 62
     7
370
    13
100
AcDbLine
 10
3272.238337
 20
2846.570746
 30
0.0
 11
3016.548832
 21
2846.570746
 31
0.0
  0
ARC
  5
13C8C
330
13D7A
100
AcDbEntity
  8
springs2 - Level 25
  6
Continuous
 62
     7
370
    13
100
AcDbCircle
 10
3016.548832
 20
2866.570746
 30
0.0
 40
20.0
100
AcDbArc
 50
180.0
 51
270.0
  0
LINE
  5
13C8D
330
13D7A
100
AcDbEntity
  8
springs2 - Level 25
  6
Continuous
 62
     7
370
    13
100
AcDbLine
 10
2996.548832
 20
2866.570746
 30
0.0
 11
2996.548832
 21
2976.570746
 31
0.0
  0
ARC
  5
13C8E
330
13D7A
100
AcDbEntity
  8
springs2 - Level 25
  6
Continuous
 62
     7
370
    13
100
AcDbCircle
 10
3016.548832
 20
2976.570746
 30
0.0
 40
20.0
100
AcDbArc
 50
90.0
 51
180.0
  0
LINE
  5
13C8F
330
13D7A
100
AcDbEntity
  8
springs2 - Level 25
  6
Continuous
 62
     7
370
    13
100
AcDbLine
 10
3016.548832
 20
2996.570746
 30
0.0
 11
3272.238337
 21
2996.570746
 31
0.0
  0
ARC
  5
13C90
330
13D7A
100
AcDbEntity
  8
springs2 - Level 25
  6
Continuous
 62
     7
370
    13
100
AcDbCircle
 10
-3272.238337
 20
3016.570746
 30
0.0
 40
20.0
210
0.0
220
0.0
230
-1.0
100
AcDbArc
 50
180.0
 51
270.0
  0
LINE
  5
13C91
330
13D7A
100
AcDbEntity
  8
springs2 - Level 25
  6
Continuous
 62
     7
370
    13
100
AcDbLine
 10
3292.238337
 20
3016.570746
 30
0.0
 11
3292.238337
 21
3270.881241
 31
0.0
  0
LINE
  5
13C92
330
13D7A
100
AcDbEntity
  8
springs2 - Level 25
  6
Continuous
 62
     7
370
    13
100
AcDbLine
 10
3292.238337
 20
2570.881241
 30
0.0
 11
3292.238337
 21
2826.570746
 31
0.0
  0
LINE
  5
13C93
330
13D7A
100
AcDbEntity
  8
springs2 - Level 25
  6
Continuous
 62
     7
370
    13
100
AcDbLine
 10
3442.238337
 20
2826.570746
 30
0.0
 11
3442.238337
 21
2570.881241
 31
0.0
  0
LINE
  5
13C94
330
13D7A
100
AcDbEntity
  8
springs2 - Level 26
  6
Continuous
 62
     7
370
    13
100
AcDbLine
 10
4327.927843
 20
2751.570746
 30
0.0
 11
4307.927843
 21
2751.570746
 31
0.0
  0
LINE
  5
13C95
330
13D7A
100
AcDbEntity
  8
springs2 - Level 26
  6
Continuous
 62
     7
370
    13
100
AcDbLine
 10
4327.927843
 20
2706.158819
 30
0.0
 11
4308.727843
 21
2706.158819
 31
0.0
  0
ARC
  5
13C96
330
13D7A
100
AcDbEntity
  8
springs2 - Level 26
  6
Continuous
 62
     7
370
    13
100
AcDbCircle
 10
4327.927843
 20
2729.210067
 30
0.0
 40
30.0
100
AcDbArc
 50
309.791819
 51
0.0
  0
ARC
  5
13C97
330
13D7A
100
AcDbEntity
  8
springs2 - Level 26
  6
Continuous
 62
     7
370
    13
100
AcDbCircle
 10
4327.927843
 20
2729.210067
 30
0.0
 40
30.0
100
AcDbArc
 50
131.810315
 51
230.208181
  0
ARC
  5
13C98
330
13D7A
100
AcDbEntity
  8
springs2 - Level 26
  6
Continuous
 62
     7
370
    13
100
AcDbCircle
 10
4327.927843
 20
2729.210067
 30
0.0
 40
30.0
100
AcDbArc
 50
0.0
 51
48.189685
  0
LINE
  5
13C99
330
13D7A
100
AcDbEntity
  8
springs2 - Level 26
  6
Continuous
 62
     7
370
    13
100
AcDbLine
 10
4347.927843
 20
2751.570746
 30
0.0
 11
4327.927843
 21
2751.570746
 31
0.0
  0
LINE
  5
13C9A
330
13D7A
100
AcDbEntity
  8
springs2 - Level 26
  6
Continuous
 62
     7
370
    13
100
AcDbLine
 10
4347.127843
 20
2706.158819
 30
0.0
 11
4327.927843
 21
2706.158819
 31
0.0
  0
ARC
  5
13C9B
330
13D7A
100
AcDbEntity
  8
springs2 - Level 26
  6
Continuous
 62
     7
370
    13
100
AcDbCircle
 10
4311.927843
 20
2710.000694
 30
0.0
 40
5.0
100
AcDbArc
 50
230.208181
 51
270.0
  0
ARC
  5
13C9C
330
13D7A
100
AcDbEntity
  8
springs2 - Level 26
  6
Continuous
 62
     7
370
    13
100
AcDbCircle
 10
4343.927843
 20
2710.000694
 30
0.0
 40
5.0
100
AcDbArc
 50
270.0
 51
309.791819
  0
LINE
  5
13C9D
330
13D7A
100
AcDbEntity
  8
springs2 - Level 26
  6
Continuous
 62
     7
370
    13
100
AcDbLine
 10
4343.927843
 20
2705.000694
 30
0.0
 11
4311.927843
 21
2705.000694
 31
0.0
  0
LINE
  5
13C9E
330
13D7A
100
AcDbEntity
  8
springs2 - Level 26
  6
Continuous
 62
     7
370
    13
100
AcDbLine
 10
4327.927843
 20
3091.570746
 30
0.0
 11
4307.927843
 21
3091.570746
 31
0.0
  0
LINE
  5
13C9F
330
13D7A
100
AcDbEntity
  8
springs2 - Level 26
  6
Continuous
 62
     7
370
    13
100
AcDbLine
 10
4327.927843
 20
3136.982673
 30
0.0
 11
4308.727843
 21
3136.982673
 31
0.0
  0
ARC
  5
13CA0
330
13D7A
100
AcDbEntity
  8
springs2 - Level 26
  6
Continuous
 62
     7
370
    13
100
AcDbCircle
 10
4327.927843
 20
3113.931426
 30
0.0
 40
30.0
100
AcDbArc
 50
311.810315
 51
0.0
  0
ARC
  5
13CA1
330
13D7A
100
AcDbEntity
  8
springs2 - Level 26
  6
Continuous
 62
     7
370
    13
100
AcDbCircle
 10
4327.927843
 20
3113.931426
 30
0.0
 40
30.0
100
AcDbArc
 50
129.791819
 51
228.189685
  0
ARC
  5
13CA2
330
13D7A
100
AcDbEntity
  8
springs2 - Level 26
  6
Continuous
 62
     7
370
    13
100
AcDbCircle
 10
4327.927843
 20
3113.931426
 30
0.0
 40
30.0
100
AcDbArc
 50
0.0
 51
50.208181
  0
LINE
  5
13CA3
330
13D7A
100
AcDbEntity
  8
springs2 - Level 26
  6
Continuous
 62
     7
370
    13
100
AcDbLine
 10
4347.927843
 20
3091.570746
 30
0.0
 11
4327.927843
 21
3091.570746
 31
0.0
  0
LINE
  5
13CA4
330
13D7A
100
AcDbEntity
  8
springs2 - Level 26
  6
Continuous
 62
     7
370
    13
100
AcDbLine
 10
4347.127843
 20
3136.982673
 30
0.0
 11
4327.927843
 21
3136.982673
 31
0.0
  0
ARC
  5
13CA5
330
13D7A
100
AcDbEntity
  8
springs2 - Level 26
  6
Continuous
 62
     7
370
    13
100
AcDbCircle
 10
4311.927843
 20
3133.140799
 30
0.0
 40
5.0
100
AcDbArc
 50
90.0
 51
129.791819
  0
ARC
  5
13CA6
330
13D7A
100
AcDbEntity
  8
springs2 - Level 26
  6
Continuous
 62
     7
370
    13
100
AcDbCircle
 10
4343.927843
 20
3133.140799
 30
0.0
 40
5.0
100
AcDbArc
 50
50.208181
 51
90.0
  0
LINE
  5
13CA7
330
13D7A
100
AcDbEntity
  8
springs2 - Level 26
  6
Continuous
 62
     7
370
    13
100
AcDbLine
 10
4311.927843
 20
3138.140799
 30
0.0
 11
4343.927843
 21
3138.140799
 31
0.0
  0
LINE
  5
13CA8
330
13D7A
100
AcDbEntity
  8
springs2 - Level 26
  6
Continuous
 62
     7
370
    13
100
AcDbLine
 10
4857.735291
 20
2911.570754
 30
0.0
 11
4857.735291
 21
2931.570739
 31
0.0
  0
LINE
  5
13CA9
330
13D7A
100
AcDbEntity
  8
springs2 - Level 26
  6
Continuous
 62
     7
370
    13
100
AcDbLine
 10
4839.735291
 20
2931.570746
 30
0.0
 11
4839.735291
 21
2911.570746
 31
0.0
  0
LINE
  5
13CAA
330
13D7A
100
AcDbEntity
  8
springs2 - Level 32
  6
Continuous
 62
     7
370
    13
100
AcDbLine
 10
4310.927843
 20
3091.570746
 30
0.0
 11
4310.927843
 21
3006.570746
 31
0.0
  0
LINE
  5
13CAB
330
13D7A
100
AcDbEntity
  8
springs2 - Level 32
  6
Continuous
 62
     7
370
    13
100
AcDbLine
 10
4310.927843
 20
2836.570746
 30
0.0
 11
4310.927843
 21
2751.570746
 31
0.0
  0
LINE
  5
13CAC
330
13D7A
100
AcDbEntity
  8
springs2 - Level 32
  6
Continuous
 62
     7
370
    13
100
AcDbLine
 10
4344.927843
 20
2751.570746
 30
0.0
 11
4344.927843
 21
2836.570746
 31
0.0
  0
LINE
  5
13CAD
330
13D7A
100
AcDbEntity
  8
springs2 - Level 32
  6
Continuous
 62
     7
370
    13
100
AcDbLine
 10
4344.927843
 20
3006.570746
 30
0.0
 11
4344.927843
 21
3091.570746
 31
0.0
  0
LINE
  5
13CAE
330
13D7A
100
AcDbEntity
  8
springs2 - Level 32
  6
Continuous
 62
     7
370
    13
100
AcDbLine
 10
4310.927843
 20
2751.570746
 30
0.0
 11
4344.927843
 21
2751.570746
 31
0.0
  0
LINE
  5
13CAF
330
13D7A
100
AcDbEntity
  8
springs2 - Level 25
  6
Continuous
 62
     7
370
    13
100
AcDbLine
 10
3458.927843
 20
2836.570746
 30
0.0
 11
4454.427843
 21
2836.570746
 31
0.0
  0
LINE
  5
13CB0
330
13D7A
100
AcDbEntity
  8
springs2 - Level 25
  6
Continuous
 62
     7
370
    13
100
AcDbLine
 10
4481.427843
 20
2836.570746
 30
0.0
 11
4551.927843
 21
2836.570746
 31
0.0
  0
LINE
  5
13CB1
330
13D7A
100
AcDbEntity
  8
springs2 - Level 25
  6
Continuous
 62
     7
370
    13
100
AcDbLine
 10
4833.927843
 20
2836.570746
 30
0.0
 11
4852.927843
 21
2836.570746
 31
0.0
  0
LINE
  5
13CB2
330
13D7A
100
AcDbEntity
  8
springs2 - Level 25
  6
Continuous
 62
     7
370
    13
100
AcDbLine
 10
3736.548832
 20
2911.570746
 30
0.0
 11
4247.927843
 21
2911.570746
 31
0.0
  0
LINE
  5
13CB3
330
13D7A
100
AcDbEntity
  8
springs2 - Level 25
  6
Continuous
 62
     7
370
    13
100
AcDbLine
 10
4547.927843
 20
2911.570746
 30
0.0
 11
4551.927843
 21
2911.570746
 31
0.0
  0
LINE
  5
13CB4
330
13D7A
100
AcDbEntity
  8
springs2 - Level 25
  6
Continuous
 62
     7
370
    13
100
AcDbLine
 10
4833.927843
 20
2911.570746
 30
0.0
 11
4852.927843
 21
2911.570746
 31
0.0
  0
LINE
  5
13CB5
330
13D7A
100
AcDbEntity
  8
springs2 - Level 25
  6
Continuous
 62
     7
370
    13
100
AcDbLine
 10
4852.927843
 20
2836.570746
 30
0.0
 11
4852.927843
 21
2911.570746
 31
0.0
  0
ARC
  5
13CB6
330
13D7A
100
AcDbEntity
  8
springs2 - Level 25
  6
Continuous
 62
     7
370
    13
100
AcDbCircle
 10
4807.927843
 20
2874.070746
 30
0.0
 40
6.499999999999999
100
AcDbArc
 50
0.0
 51
359.999994
  0
ARC
  5
13CB7
330
13D7A
100
AcDbEntity
  8
springs2 - Level 25
  6
Continuous
 62
     7
370
    13
100
AcDbCircle
 10
4577.927843
 20
2874.070746
 30
0.0
 40
6.499999999999999
100
AcDbArc
 50
0.0
 51
359.999994
  0
ARC
  5
13CB8
330
13D7A
100
AcDbEntity
  8
springs2 - Level 25
  6
Continuous
 62
     7
370
    13
100
AcDbCircle
 10
3712.927843
 20
2874.070746
 30
0.0
 40
7.999999999999999
100
AcDbArc
 50
161.397862
 51
320.839517
  0
ARC
  5
13CB9
330
13D7A
100
AcDbEntity
  8
springs2 - Level 25
  6
Continuous
 62
     7
370
    13
100
AcDbCircle
 10
3482.927843
 20
2874.070746
 30
0.0
 40
7.999999999999999
100
AcDbArc
 50
161.397862
 51
320.839517
  0
ARC
  5
13CBA
330
13D7A
100
AcDbEntity
  8
springs2 - Level 25
  6
Continuous
 62
     7
370
    13
100
AcDbCircle
 10
4272.927843
 20
2871.570746
 30
0.0
 40
6.499999999999999
100
AcDbArc
 50
0.0
 51
359.999994
  0
ARC
  5
13CBB
330
13D7A
100
AcDbEntity
  8
springs2 - Level 25
  6
Continuous
 62
     7
370
    13
100
AcDbCircle
 10
4522.927843
 20
2871.570746
 30
0.0
 40
6.499999999999999
100
AcDbArc
 50
0.0
 51
359.999994
  0
LINE
  5
13CBC
330
13D7A
100
AcDbEntity
  8
springs2 - Level 26
  6
Continuous
 62
     7
370
    13
100
AcDbLine
 10
4869.574424
 20
2911.570746
 30
0.0
 11
4869.574424
 21
2836.570746
 31
0.0
  0
LINE
  5
13CBD
330
13D7A
100
AcDbEntity
  8
springs2 - Level 26
  6
Continuous
 62
     7
370
    13
100
AcDbLine
 10
4852.927843
 20
2836.570746
 30
0.0
 11
4869.574424
 21
2836.570746
 31
0.0
  0
LINE
  5
13CBE
330
13D7A
100
AcDbEntity
  8
springs2 - Level 26
  6
Continuous
 62
     7
370
    13
100
AcDbLine
 10
4879.574424
 20
2901.570746
 30
0.0
 11
4879.574424
 21
2846.570746
 31
0.0
  0
LINE
  5
13CBF
330
13D7A
100
AcDbEntity
  8
springs2 - Level 26
  6
Continuous
 62
     7
370
    13
100
AcDbLine
 10
4869.574424
 20
2911.570746
 30
0.0
 11
4852.927843
 21
2911.570746
 31
0.0
  0
LINE
  5
13CC0
330
13D7A
100
AcDbEntity
  8
springs2 - Level 26
  6
Continuous
 62
     7
370
    13
100
AcDbLine
 10
4869.574424
 20
2911.570746
 30
0.0
 11
4879.574424
 21
2901.570746
 31
0.0
  0
LINE
  5
13CC1
330
13D7A
100
AcDbEntity
  8
springs2 - Level 26
  6
Continuous
 62
     7
370
    13
100
AcDbLine
 10
4879.574424
 20
2846.570746
 30
0.0
 11
4869.574424
 21
2836.570746
 31
0.0
  0
LINE
  5
13CC2
330
13D7A
100
AcDbEntity
  8
springs2 - Level 26
  6
Continuous
 62
     7
370
    13
100
AcDbLine
 10
4869.574424
 20
3006.570746
 30
0.0
 11
4869.574424
 21
2931.570746
 31
0.0
  0
LINE
  5
13CC3
330
13D7A
100
AcDbEntity
  8
springs2 - Level 26
  6
Continuous
 62
     7
370
    13
100
AcDbLine
 10
4852.927843
 20
2931.570746
 30
0.0
 11
4869.574424
 21
2931.570746
 31
0.0
  0
LINE
  5
13CC4
330
13D7A
100
AcDbEntity
  8
springs2 - Level 26
  6
Continuous
 62
     7
370
    13
100
AcDbLine
 10
4879.574424
 20
2996.570746
 30
0.0
 11
4879.574424
 21
2941.570746
 31
0.0
  0
LINE
  5
13CC5
330
13D7A
100
AcDbEntity
  8
springs2 - Level 26
  6
Continuous
 62
     7
370
    13
100
AcDbLine
 10
4869.574424
 20
3006.570746
 30
0.0
 11
4852.927843
 21
3006.570746
 31
0.0
  0
LINE
  5
13CC6
330
13D7A
100
AcDbEntity
  8
springs2 - Level 26
  6
Continuous
 62
     7
370
    13
100
AcDbLine
 10
4852.927843
 20
3006.570746
 30
0.0
 11
4852.927843
 21
2931.570746
 31
0.0
  0
LINE
  5
13CC7
330
13D7A
100
AcDbEntity
  8
springs2 - Level 26
  6
Continuous
 62
     7
370
    13
100
AcDbLine
 10
4869.574424
 20
3006.570746
 30
0.0
 11
4879.574424
 21
2996.570746
 31
0.0
  0
LINE
  5
13CC8
330
13D7A
100
AcDbEntity
  8
springs2 - Level 26
  6
Continuous
 62
     7
370
    13
100
AcDbLine
 10
4879.574424
 20
2941.570746
 30
0.0
 11
4869.574424
 21
2931.570746
 31
0.0
  0
ARC
  5
13CC9
330
13D7A
100
AcDbEntity
  8
springs2 - Level 28
  6
Continuous
 62
     7
370
    13
100
AcDbCircle
 10
4272.927843
 20
2871.570746
 30
0.0
 40
8.000000000000001
100
AcDbArc
 50
0.0
 51
359.999994
  0
ARC
  5
13CCA
330
13D7A
100
AcDbEntity
  8
springs2 - Level 28
  6
Continuous
 62
     7
370
    13
100
AcDbCircle
 10
4272.927843
 20
2971.570746
 30
0.0
 40
8.000000000000001
100
AcDbArc
 50
0.0
 51
359.999994
  0
ARC
  5
13CCB
330
13D7A
100
AcDbEntity
  8
springs2 - Level 28
  6
Continuous
 62
     7
370
    13
100
AcDbCircle
 10
4267.927843
 20
2866.570746
 30
0.0
 40
20.00000000000001
100
AcDbArc
 50
180.0
 51
270.0
  0
LINE
  5
13CCC
330
13D7A
100
AcDbEntity
  8
springs2 - Level 28
  6
Continuous
 62
     7
370
    13
100
AcDbLine
 10
4247.927843
 20
2866.570746
 30
0.0
 11
4247.927843
 21
2976.570746
 31
0.0
  0
ARC
  5
13CCD
330
13D7A
100
AcDbEntity
  8
springs2 - Level 28
  6
Continuous
 62
     7
370
    13
100
AcDbCircle
 10
4267.927843
 20
2976.570746
 30
0.0
 40
20.00000000000001
100
AcDbArc
 50
90.0
 51
180.0
  0
LINE
  5
13CCE
330
13D7A
100
AcDbEntity
  8
springs2 - Level 28
  6
Continuous
 62
     7
370
    13
100
AcDbLine
 10
4267.927843
 20
2996.570746
 30
0.0
 11
4454.427843
 21
2996.570746
 31
0.0
  0
LINE
  5
13CCF
330
13D7A
100
AcDbEntity
  8
springs2 - Level 28
  6
Continuous
 62
     7
370
    13
100
AcDbLine
 10
4481.427843
 20
2996.570746
 30
0.0
 11
4527.927843
 21
2996.570746
 31
0.0
  0
ARC
  5
13CD0
330
13D7A
100
AcDbEntity
  8
springs2 - Level 28
  6
Continuous
 62
     7
370
    13
100
AcDbCircle
 10
-4527.927843
 20
2976.570746
 30
0.0
 40
20.00000000000001
210
0.0
220
0.0
230
-1.0
100
AcDbArc
 50
90.0
 51
180.0
  0
LINE
  5
13CD1
330
13D7A
100
AcDbEntity
  8
springs2 - Level 28
  6
Continuous
 62
     7
370
    13
100
AcDbLine
 10
4547.927843
 20
2866.570746
 30
0.0
 11
4547.927843
 21
2976.570746
 31
0.0
  0
ARC
  5
13CD2
330
13D7A
100
AcDbEntity
  8
springs2 - Level 28
  6
Continuous
 62
     7
370
    13
100
AcDbCircle
 10
-4527.927843
 20
2866.570746
 30
0.0
 40
20.00000000000001
210
0.0
220
0.0
230
-1.0
100
AcDbArc
 50
180.0
 51
270.0
  0
LINE
  5
13CD3
330
13D7A
100
AcDbEntity
  8
springs2 - Level 28
  6
Continuous
 62
     7
370
    13
100
AcDbLine
 10
4527.927843
 20
2846.570746
 30
0.0
 11
4481.427843
 21
2846.570746
 31
0.0
  0
LINE
  5
13CD4
330
13D7A
100
AcDbEntity
  8
springs2 - Level 28
  6
Continuous
 62
     7
370
    13
100
AcDbLine
 10
4454.427843
 20
2846.570746
 30
0.0
 11
4267.927843
 21
2846.570746
 31
0.0
  0
ARC
  5
13CD5
330
13D7A
100
AcDbEntity
  8
springs2 - Level 28
  6
Continuous
 62
     7
370
    13
100
AcDbCircle
 10
-4522.927843
 20
2871.570746
 30
0.0
 40
8.000000000000001
210
0.0
220
0.0
230
-1.0
100
AcDbArc
 50
0.0
 51
359.999994
  0
ARC
  5
13CD6
330
13D7A
100
AcDbEntity
  8
springs2 - Level 28
  6
Continuous
 62
     7
370
    13
100
AcDbCircle
 10
-4522.927843
 20
2971.570746
 30
0.0
 40
8.000000000000001
210
0.0
220
0.0
230
-1.0
100
AcDbArc
 50
0.0
 51
359.999994
  0
LINE
  5
13CD7
330
13D7A
100
AcDbEntity
  8
springs2 - Level 42
  6
Continuous
 62
     7
370
    13
100
AcDbLine
 10
4828.927843
 20
2828.570746
 30
0.0
 11
4828.927843
 21
3014.570746
 31
0.0
  0
LINE
  5
13CD8
330
13D7A
100
AcDbEntity
  8
springs2 - Level 42
  6
Continuous
 62
     7
370
    13
100
AcDbLine
 10
4556.927843
 20
2828.570746
 30
0.0
 11
4828.927843
 21
2828.570746
 31
0.0
  0
LINE
  5
13CD9
330
13D7A
100
AcDbEntity
  8
springs2 - Level 42
  6
Continuous
 62
     7
370
    13
100
AcDbLine
 10
4556.927843
 20
3014.570746
 30
0.0
 11
4556.927843
 21
2828.570746
 31
0.0
  0
LINE
  5
13CDA
330
13D7A
100
AcDbEntity
  8
springs2 - Level 42
  6
Continuous
 62
     7
370
    13
100
AcDbLine
 10
4828.927843
 20
3014.570746
 30
0.0
 11
4556.927843
 21
3014.570746
 31
0.0
  0
ARC
  5
13CDB
330
13D7A
100
AcDbEntity
  8
springs2 - Level 42
  6
Continuous
 62
     7
370
    13
100
AcDbCircle
 10
-4577.927843
 20
2874.070746
 30
0.0
 40
7.999999999999997
210
0.0
220
0.0
230
-1.0
100
AcDbArc
 50
0.0
 51
359.999994
  0
ARC
  5
13CDC
330
13D7A
100
AcDbEntity
  8
springs2 - Level 42
  6
Continuous
 62
     7
370
    13
100
AcDbCircle
 10
-4577.927843
 20
2969.070746
 30
0.0
 40
7.999999999999997
210
0.0
220
0.0
230
-1.0
100
AcDbArc
 50
0.0
 51
359.999994
  0
ARC
  5
13CDD
330
13D7A
100
AcDbEntity
  8
springs2 - Level 42
  6
Continuous
 62
     7
370
    13
100
AcDbCircle
 10
-4807.927843
 20
2969.070746
 30
0.0
 40
7.999999999999997
210
0.0
220
0.0
230
-1.0
100
AcDbArc
 50
0.0
 51
359.999994
  0
ARC
  5
13CDE
330
13D7A
100
AcDbEntity
  8
springs2 - Level 42
  6
Continuous
 62
     7
370
    13
100
AcDbCircle
 10
-4807.927843
 20
2874.070746
 30
0.0
 40
7.999999999999997
210
0.0
220
0.0
230
-1.0
100
AcDbArc
 50
0.0
 51
359.999994
  0
LINE
  5
13CDF
330
13D7A
100
AcDbEntity
  8
springs2 - Level 42
  6
Continuous
 62
     7
370
    13
100
AcDbLine
 10
4828.927843
 20
3014.570746
 30
0.0
 11
4828.927843
 21
3019.570746
 31
0.0
  0
LINE
  5
13CE0
330
13D7A
100
AcDbEntity
  8
springs2 - Level 42
  6
Continuous
 62
     7
370
    13
100
AcDbLine
 10
4556.927843
 20
3014.570746
 30
0.0
 11
4556.927843
 21
3019.570746
 31
0.0
  0
LINE
  5
13CE1
330
13D7A
100
AcDbEntity
  8
springs2 - Level 42
  6
Continuous
 62
     7
370
    13
100
AcDbLine
 10
4556.927843
 20
3019.570746
 30
0.0
 11
4828.927843
 21
3019.570746
 31
0.0
  0
ARC
  5
13CE2
330
13D7A
100
AcDbEntity
  8
springs2 - Level 42
  6
Continuous
 62
     7
370
    13
100
AcDbCircle
 10
-4828.927843
 20
3014.570746
 30
0.0
 40
4.999999999999999
210
0.0
220
0.0
230
-1.0
100
AcDbArc
 50
90.0
 51
180.0
  0
LINE
  5
13CE3
330
13D7A
100
AcDbEntity
  8
springs2 - Level 42
  6
Continuous
 62
     7
370
    13
100
AcDbLine
 10
4828.927843
 20
3014.570746
 30
0.0
 11
4833.927843
 21
3014.570746
 31
0.0
  0
LINE
  5
13CE4
330
13D7A
100
AcDbEntity
  8
springs2 - Level 42
  6
Continuous
 62
     7
370
    13
100
AcDbLine
 10
4828.927843
 20
2828.570746
 30
0.0
 11
4833.927843
 21
2828.570746
 31
0.0
  0
LINE
  5
13CE5
330
13D7A
100
AcDbEntity
  8
springs2 - Level 42
  6
Continuous
 62
     7
370
    13
100
AcDbLine
 10
4833.927843
 20
3014.570746
 30
0.0
 11
4833.927843
 21
2828.570746
 31
0.0
  0
ARC
  5
13CE6
330
13D7A
100
AcDbEntity
  8
springs2 - Level 42
  6
Continuous
 62
     7
370
    13
100
AcDbCircle
 10
-4828.927843
 20
2828.570746
 30
0.0
 40
4.999999999999999
210
0.0
220
0.0
230
-1.0
100
AcDbArc
 50
180.0
 51
270.0
  0
LINE
  5
13CE7
330
13D7A
100
AcDbEntity
  8
springs2 - Level 42
  6
Continuous
 62
     7
370
    13
100
AcDbLine
 10
4828.927843
 20
2828.570746
 30
0.0
 11
4828.927843
 21
2823.570746
 31
0.0
  0
LINE
  5
13CE8
330
13D7A
100
AcDbEntity
  8
springs2 - Level 42
  6
Continuous
 62
     7
370
    13
100
AcDbLine
 10
4551.927843
 20
2828.570746
 30
0.0
 11
4551.927843
 21
3014.570746
 31
0.0
  0
LINE
  5
13CE9
330
13D7A
100
AcDbEntity
  8
springs2 - Level 42
  6
Continuous
 62
     7
370
    13
100
AcDbLine
 10
4556.927843
 20
3014.570746
 30
0.0
 11
4551.927843
 21
3014.570746
 31
0.0
  0
LINE
  5
13CEA
330
13D7A
100
AcDbEntity
  8
springs2 - Level 42
  6
Continuous
 62
     7
370
    13
100
AcDbLine
 10
4551.927843
 20
2828.570746
 30
0.0
 11
4556.927843
 21
2828.570746
 31
0.0
  0
LINE
  5
13CEB
330
13D7A
100
AcDbEntity
  8
springs2 - Level 42
  6
Continuous
 62
     7
370
    13
100
AcDbLine
 10
4828.927843
 20
2823.570746
 30
0.0
 11
4556.927843
 21
2823.570746
 31
0.0
  0
LINE
  5
13CEC
330
13D7A
100
AcDbEntity
  8
springs2 - Level 42
  6
Continuous
 62
     7
370
    13
100
AcDbLine
 10
4556.927843
 20
2823.570746
 30
0.0
 11
4556.927843
 21
2828.570746
 31
0.0
  0
ARC
  5
13CED
330
13D7A
100
AcDbEntity
  8
springs2 - Level 42
  6
Continuous
 62
     7
370
    13
100
AcDbCircle
 10
-4556.927843
 20
2828.570746
 30
0.0
 40
4.999999999999999
210
0.0
220
0.0
230
-1.0
100
AcDbArc
 50
270.0
 51
0.0
  0
ARC
  5
13CEE
330
13D7A
100
AcDbEntity
  8
springs2 - Level 42
  6
Continuous
 62
     7
370
    13
100
AcDbCircle
 10
-4556.927843
 20
3014.570746
 30
0.0
 40
4.999999999999999
210
0.0
220
0.0
230
-1.0
100
AcDbArc
 50
0.0
 51
90.0
  0
LINE
  5
13CEF
330
13D7A
100
AcDbEntity
  8
springs2 - Level 28
  6
Continuous
 62
     7
370
    13
100
AcDbLine
 10
4485.427843
 20
2954.070746
 30
0.0
 11
4485.427843
 21
2889.070746
 31
0.0
  0
LINE
  5
13CF0
330
13D7A
100
AcDbEntity
  8
springs2 - Level 28
  6
Continuous
 62
     7
370
    13
100
AcDbLine
 10
4485.427843
 20
2889.070746
 30
0.0
 11
4481.427843
 21
2889.070746
 31
0.0
  0
LINE
  5
13CF1
330
13D7A
100
AcDbEntity
  8
springs2 - Level 28
  6
Continuous
 62
     7
370
    13
100
AcDbLine
 10
4454.427843
 20
2889.070746
 30
0.0
 11
4450.427843
 21
2889.070746
 31
0.0
  0
LINE
  5
13CF2
330
13D7A
100
AcDbEntity
  8
springs2 - Level 28
  6
Continuous
 62
     7
370
    13
100
AcDbLine
 10
4450.427843
 20
2954.070746
 30
0.0
 11
4454.427843
 21
2954.070746
 31
0.0
  0
LINE
  5
13CF3
330
13D7A
100
AcDbEntity
  8
springs2 - Level 28
  6
Continuous
 62
     7
370
    13
100
AcDbLine
 10
4481.427843
 20
2954.070746
 30
0.0
 11
4485.427843
 21
2954.070746
 31
0.0
  0
LINE
  5
13CF4
330
13D7A
100
AcDbEntity
  8
springs2 - Level 28
  6
Continuous
 62
     7
370
    13
100
AcDbLine
 10
4450.427843
 20
2889.070746
 30
0.0
 11
4450.427843
 21
2954.070746
 31
0.0
  0
ARC
  5
13CF5
330
13D7A
100
AcDbEntity
  8
springs2 - Level 28
  6
Continuous
 62
     7
370
    13
100
AcDbCircle
 10
4467.927843
 20
2770.070746
 30
0.0
 40
13.5
100
AcDbArc
 50
180.0
 51
0.0
  0
ARC
  5
13CF6
330
13D7A
100
AcDbEntity
  8
springs2 - Level 28
  6
Continuous
 62
     7
370
    13
100
AcDbCircle
 10
4467.927843
 20
3073.070746
 30
0.0
 40
13.5
100
AcDbArc
 50
0.0
 51
180.0
  0
LINE
  5
13CF7
330
13D7A
100
AcDbEntity
  8
springs2 - Level 28
  6
Continuous
 62
     7
370
    13
100
AcDbLine
 10
4481.427843
 20
3073.070746
 30
0.0
 11
4481.427843
 21
2770.070746
 31
0.0
  0
LINE
  5
13CF8
330
13D7A
100
AcDbEntity
  8
springs2 - Level 28
  6
Continuous
 62
     7
370
    13
100
AcDbLine
 10
4454.427843
 20
2770.070746
 30
0.0
 11
4454.427843
 21
3073.070746
 31
0.0
  0
LINE
  5
13CF9
330
13D7A
100
AcDbEntity
  8
springs2 - Level 26
  6
Continuous
 62
     7
370
    13
100
AcDbLine
 10
3282.238337
 20
4423.906833
 30
0.0
 11
3357.238337
 21
4423.906833
 31
0.0
  0
LINE
  5
13CFA
330
13D7A
100
AcDbEntity
  8
springs2 - Level 26
  6
Continuous
 62
     7
370
    13
100
AcDbLine
 10
3357.238337
 20
4407.260252
 30
0.0
 11
3357.238337
 21
4423.906833
 31
0.0
  0
LINE
  5
13CFB
330
13D7A
100
AcDbEntity
  8
springs2 - Level 26
  6
Continuous
 62
     7
370
    13
100
AcDbLine
 10
3292.238337
 20
4433.906833
 30
0.0
 11
3347.238337
 21
4433.906833
 31
0.0
  0
LINE
  5
13CFC
330
13D7A
100
AcDbEntity
  8
springs2 - Level 26
  6
Continuous
 62
     7
370
    13
100
AcDbLine
 10
3282.238337
 20
4423.906833
 30
0.0
 11
3282.238337
 21
4407.260252
 31
0.0
  0
LINE
  5
13CFD
330
13D7A
100
AcDbEntity
  8
springs2 - Level 26
  6
Continuous
 62
     7
370
    13
100
AcDbLine
 10
3282.238337
 20
4407.260252
 30
0.0
 11
3357.238337
 21
4407.260252
 31
0.0
  0
LINE
  5
13CFE
330
13D7A
100
AcDbEntity
  8
springs2 - Level 26
  6
Continuous
 62
     7
370
    13
100
AcDbLine
 10
3282.238337
 20
4423.906833
 30
0.0
 11
3292.238337
 21
4433.906833
 31
0.0
  0
LINE
  5
13CFF
330
13D7A
100
AcDbEntity
  8
springs2 - Level 26
  6
Continuous
 62
     7
370
    13
100
AcDbLine
 10
3347.238337
 20
4433.906833
 30
0.0
 11
3357.238337
 21
4423.906833
 31
0.0
  0
LINE
  5
13D00
330
13D7A
100
AcDbEntity
  8
springs2 - Level 26
  6
Continuous
 62
     7
370
    13
100
AcDbLine
 10
3377.238337
 20
4423.906833
 30
0.0
 11
3452.238337
 21
4423.906833
 31
0.0
  0
LINE
  5
13D01
330
13D7A
100
AcDbEntity
  8
springs2 - Level 26
  6
Continuous
 62
     7
370
    13
100
AcDbLine
 10
3452.238337
 20
4407.260252
 30
0.0
 11
3452.238337
 21
4423.906833
 31
0.0
  0
LINE
  5
13D02
330
13D7A
100
AcDbEntity
  8
springs2 - Level 26
  6
Continuous
 62
     7
370
    13
100
AcDbLine
 10
3387.238337
 20
4433.906833
 30
0.0
 11
3442.238337
 21
4433.906833
 31
0.0
  0
LINE
  5
13D03
330
13D7A
100
AcDbEntity
  8
springs2 - Level 26
  6
Continuous
 62
     7
370
    13
100
AcDbLine
 10
3377.238337
 20
4423.906833
 30
0.0
 11
3377.238337
 21
4407.260252
 31
0.0
  0
LINE
  5
13D04
330
13D7A
100
AcDbEntity
  8
springs2 - Level 26
  6
Continuous
 62
     7
370
    13
100
AcDbLine
 10
3377.238337
 20
4407.260252
 30
0.0
 11
3452.238337
 21
4407.260252
 31
0.0
  0
LINE
  5
13D05
330
13D7A
100
AcDbEntity
  8
springs2 - Level 26
  6
Continuous
 62
     7
370
    13
100
AcDbLine
 10
3377.238337
 20
4423.906833
 30
0.0
 11
3387.238337
 21
4433.906833
 31
0.0
  0
LINE
  5
13D06
330
13D7A
100
AcDbEntity
  8
springs2 - Level 26
  6
Continuous
 62
     7
370
    13
100
AcDbLine
 10
3442.238337
 20
4433.906833
 30
0.0
 11
3452.238337
 21
4423.906833
 31
0.0
  0
ARC
  5
13D07
330
13D7A
100
AcDbEntity
  8
springs2 - Level 27
  6
Continuous
 62
     7
370
    13
100
AcDbCircle
 10
3417.238337
 20
3827.260252
 30
0.0
 40
8.000000000000001
100
AcDbArc
 50
0.0
 51
359.999994
  0
ARC
  5
13D08
330
13D7A
100
AcDbEntity
  8
springs2 - Level 27
  6
Continuous
 62
     7
370
    13
100
AcDbCircle
 10
3317.238337
 20
3827.260252
 30
0.0
 40
8.000000000000001
100
AcDbArc
 50
0.0
 51
359.999994
  0
ARC
  5
13D09
330
13D7A
100
AcDbEntity
  8
springs2 - Level 27
  6
Continuous
 62
     7
370
    13
100
AcDbCircle
 10
3422.238337
 20
3822.260252
 30
0.0
 40
20.00000000000001
100
AcDbArc
 50
270.0
 51
0.0
  0
LINE
  5
13D0A
330
13D7A
100
AcDbEntity
  8
springs2 - Level 27
  6
Continuous
 62
     7
370
    13
100
AcDbLine
 10
3422.238337
 20
3802.260252
 30
0.0
 11
3312.238337
 21
3802.260252
 31
0.0
  0
ARC
  5
13D0B
330
13D7A
100
AcDbEntity
  8
springs2 - Level 27
  6
Continuous
 62
     7
370
    13
100
AcDbCircle
 10
3312.238337
 20
3822.260252
 30
0.0
 40
20.00000000000001
100
AcDbArc
 50
180.0
 51
270.0
  0
LINE
  5
13D0C
330
13D7A
100
AcDbEntity
  8
springs2 - Level 27
  6
Continuous
 62
     7
370
    13
100
AcDbLine
 10
3292.238337
 20
3822.260252
 30
0.0
 11
3292.238337
 21
4008.760252
 31
0.0
  0
LINE
  5
13D0D
330
13D7A
100
AcDbEntity
  8
springs2 - Level 27
  6
Continuous
 62
     7
370
    13
100
AcDbLine
 10
3292.238337
 20
4035.760252
 30
0.0
 11
3292.238337
 21
4082.260252
 31
0.0
  0
ARC
  5
13D0E
330
13D7A
100
AcDbEntity
  8
springs2 - Level 27
  6
Continuous
 62
     7
370
    13
100
AcDbCircle
 10
-3312.238337
 20
4082.260252
 30
0.0
 40
20.00000000000001
210
0.0
220
0.0
230
-1.0
100
AcDbArc
 50
0.0
 51
90.0
  0
LINE
  5
13D0F
330
13D7A
100
AcDbEntity
  8
springs2 - Level 27
  6
Continuous
 62
     7
370
    13
100
AcDbLine
 10
3422.238337
 20
4102.260252
 30
0.0
 11
3312.238337
 21
4102.260252
 31
0.0
  0
ARC
  5
13D10
330
13D7A
100
AcDbEntity
  8
springs2 - Level 27
  6
Continuous
 62
     7
370
    13
100
AcDbCircle
 10
-3422.238337
 20
4082.260252
 30
0.0
 40
20.00000000000001
210
0.0
220
0.0
230
-1.0
100
AcDbArc
 50
90.0
 51
180.0
  0
LINE
  5
13D11
330
13D7A
100
AcDbEntity
  8
springs2 - Level 27
  6
Continuous
 62
     7
370
    13
100
AcDbLine
 10
3442.238337
 20
4082.260252
 30
0.0
 11
3442.238337
 21
4035.760252
 31
0.0
  0
LINE
  5
13D12
330
13D7A
100
AcDbEntity
  8
springs2 - Level 27
  6
Continuous
 62
     7
370
    13
100
AcDbLine
 10
3442.238337
 20
4008.760252
 30
0.0
 11
3442.238337
 21
3822.260252
 31
0.0
  0
ARC
  5
13D13
330
13D7A
100
AcDbEntity
  8
springs2 - Level 27
  6
Continuous
 62
     7
370
    13
100
AcDbCircle
 10
-3417.238337
 20
4077.260252
 30
0.0
 40
8.000000000000001
210
0.0
220
0.0
230
-1.0
100
AcDbArc
 50
0.0
 51
359.999994
  0
ARC
  5
13D14
330
13D7A
100
AcDbEntity
  8
springs2 - Level 27
  6
Continuous
 62
     7
370
    13
100
AcDbCircle
 10
-3317.238337
 20
4077.260252
 30
0.0
 40
8.000000000000001
210
0.0
220
0.0
230
-1.0
100
AcDbArc
 50
0.0
 51
359.999994
  0
LINE
  5
13D15
330
13D7A
100
AcDbEntity
  8
springs2 - Level 41
  6
Continuous
 62
     7
370
    13
100
AcDbLine
 10
3460.238337
 20
4383.260252
 30
0.0
 11
3274.238337
 21
4383.260252
 31
0.0
  0
LINE
  5
13D16
330
13D7A
100
AcDbEntity
  8
springs2 - Level 41
  6
Continuous
 62
     7
370
    13
100
AcDbLine
 10
3460.238337
 20
4111.260252
 30
0.0
 11
3460.238337
 21
4383.260252
 31
0.0
  0
LINE
  5
13D17
330
13D7A
100
AcDbEntity
  8
springs2 - Level 41
  6
Continuous
 62
     7
370
    13
100
AcDbLine
 10
3274.238337
 20
4111.260252
 30
0.0
 11
3460.238337
 21
4111.260252
 31
0.0
  0
LINE
  5
13D18
330
13D7A
100
AcDbEntity
  8
springs2 - Level 41
  6
Continuous
 62
     7
370
    13
100
AcDbLine
 10
3274.238337
 20
4383.260252
 30
0.0
 11
3274.238337
 21
4111.260252
 31
0.0
  0
ARC
  5
13D19
330
13D7A
100
AcDbEntity
  8
springs2 - Level 41
  6
Continuous
 62
     7
370
    13
100
AcDbCircle
 10
-3414.738337
 20
4132.260252
 30
0.0
 40
7.999999999999999
210
0.0
220
0.0
230
-1.0
100
AcDbArc
 50
0.0
 51
359.999994
  0
ARC
  5
13D1A
330
13D7A
100
AcDbEntity
  8
springs2 - Level 41
  6
Continuous
 62
     7
370
    13
100
AcDbCircle
 10
-3319.738337
 20
4132.260252
 30
0.0
 40
7.999999999999999
210
0.0
220
0.0
230
-1.0
100
AcDbArc
 50
0.0
 51
359.999994
  0
ARC
  5
13D1B
330
13D7A
100
AcDbEntity
  8
springs2 - Level 41
  6
Continuous
 62
     7
370
    13
100
AcDbCircle
 10
-3319.738337
 20
4362.260252
 30
0.0
 40
7.999999999999999
210
0.0
220
0.0
230
-1.0
100
AcDbArc
 50
0.0
 51
359.999994
  0
ARC
  5
13D1C
330
13D7A
100
AcDbEntity
  8
springs2 - Level 41
  6
Continuous
 62
     7
370
    13
100
AcDbCircle
 10
-3414.738337
 20
4362.260252
 30
0.0
 40
7.999999999999999
210
0.0
220
0.0
230
-1.0
100
AcDbArc
 50
0.0
 51
359.999994
  0
LINE
  5
13D1D
330
13D7A
100
AcDbEntity
  8
springs2 - Level 41
  6
Continuous
 62
     7
370
    13
100
AcDbLine
 10
3274.238337
 20
4383.260252
 30
0.0
 11
3269.238337
 21
4383.260252
 31
0.0
  0
LINE
  5
13D1E
330
13D7A
100
AcDbEntity
  8
springs2 - Level 41
  6
Continuous
 62
     7
370
    13
100
AcDbLine
 10
3274.238337
 20
4111.260252
 30
0.0
 11
3269.238337
 21
4111.260252
 31
0.0
  0
LINE
  5
13D1F
330
13D7A
100
AcDbEntity
  8
springs2 - Level 41
  6
Continuous
 62
     7
370
    13
100
AcDbLine
 10
3269.238337
 20
4111.260252
 30
0.0
 11
3269.238337
 21
4383.260252
 31
0.0
  0
ARC
  5
13D20
330
13D7A
100
AcDbEntity
  8
springs2 - Level 41
  6
Continuous
 62
     7
370
    13
100
AcDbCircle
 10
-3274.238337
 20
4383.260252
 30
0.0
 40
5.0
210
0.0
220
0.0
230
-1.0
100
AcDbArc
 50
0.0
 51
90.0
  0
LINE
  5
13D21
330
13D7A
100
AcDbEntity
  8
springs2 - Level 41
  6
Continuous
 62
     7
370
    13
100
AcDbLine
 10
3274.238337
 20
4383.260252
 30
0.0
 11
3274.238337
 21
4388.260252
 31
0.0
  0
LINE
  5
13D22
330
13D7A
100
AcDbEntity
  8
springs2 - Level 41
  6
Continuous
 62
     7
370
    13
100
AcDbLine
 10
3460.238337
 20
4383.260252
 30
0.0
 11
3460.238337
 21
4388.260252
 31
0.0
  0
LINE
  5
13D23
330
13D7A
100
AcDbEntity
  8
springs2 - Level 41
  6
Continuous
 62
     7
370
    13
100
AcDbLine
 10
3274.238337
 20
4388.260252
 30
0.0
 11
3460.238337
 21
4388.260252
 31
0.0
  0
ARC
  5
13D24
330
13D7A
100
AcDbEntity
  8
springs2 - Level 41
  6
Continuous
 62
     7
370
    13
100
AcDbCircle
 10
-3460.238337
 20
4383.260252
 30
0.0
 40
5.0
210
0.0
220
0.0
230
-1.0
100
AcDbArc
 50
90.0
 51
180.0
  0
LINE
  5
13D25
330
13D7A
100
AcDbEntity
  8
springs2 - Level 41
  6
Continuous
 62
     7
370
    13
100
AcDbLine
 10
3460.238337
 20
4383.260252
 30
0.0
 11
3465.238337
 21
4383.260252
 31
0.0
  0
LINE
  5
13D26
330
13D7A
100
AcDbEntity
  8
springs2 - Level 41
  6
Continuous
 62
     7
370
    13
100
AcDbLine
 10
3460.238337
 20
4106.260252
 30
0.0
 11
3274.238337
 21
4106.260252
 31
0.0
  0
LINE
  5
13D27
330
13D7A
100
AcDbEntity
  8
springs2 - Level 41
  6
Continuous
 62
     7
370
    13
100
AcDbLine
 10
3274.238337
 20
4111.260252
 30
0.0
 11
3274.238337
 21
4106.260252
 31
0.0
  0
LINE
  5
13D28
330
13D7A
100
AcDbEntity
  8
springs2 - Level 41
  6
Continuous
 62
     7
370
    13
100
AcDbLine
 10
3460.238337
 20
4106.260252
 30
0.0
 11
3460.238337
 21
4111.260252
 31
0.0
  0
LINE
  5
13D29
330
13D7A
100
AcDbEntity
  8
springs2 - Level 41
  6
Continuous
 62
     7
370
    13
100
AcDbLine
 10
3465.238337
 20
4383.260252
 30
0.0
 11
3465.238337
 21
4111.260252
 31
0.0
  0
LINE
  5
13D2A
330
13D7A
100
AcDbEntity
  8
springs2 - Level 41
  6
Continuous
 62
     7
370
    13
100
AcDbLine
 10
3465.238337
 20
4111.260252
 30
0.0
 11
3460.238337
 21
4111.260252
 31
0.0
  0
ARC
  5
13D2B
330
13D7A
100
AcDbEntity
  8
springs2 - Level 41
  6
Continuous
 62
     7
370
    13
100
AcDbCircle
 10
-3460.238337
 20
4111.260252
 30
0.0
 40
5.0
210
0.0
220
0.0
230
-1.0
100
AcDbArc
 50
180.0
 51
270.0
  0
ARC
  5
13D2C
330
13D7A
100
AcDbEntity
  8
springs2 - Level 41
  6
Continuous
 62
     7
370
    13
100
AcDbCircle
 10
-3274.238337
 20
4111.260252
 30
0.0
 40
5.0
210
0.0
220
0.0
230
-1.0
100
AcDbArc
 50
270.0
 51
0.0
  0
LINE
  5
13D2D
330
13D7A
100
AcDbEntity
  8
springs2 - Level 27
  6
Continuous
 62
     7
370
    13
100
AcDbLine
 10
3334.738337
 20
4039.760252
 30
0.0
 11
3399.738337
 21
4039.760252
 31
0.0
  0
LINE
  5
13D2E
330
13D7A
100
AcDbEntity
  8
springs2 - Level 27
  6
Continuous
 62
     7
370
    13
100
AcDbLine
 10
3399.738337
 20
4039.760252
 30
0.0
 11
3399.738337
 21
4035.760252
 31
0.0
  0
LINE
  5
13D2F
330
13D7A
100
AcDbEntity
  8
springs2 - Level 27
  6
Continuous
 62
     7
370
    13
100
AcDbLine
 10
3399.738337
 20
4008.760252
 30
0.0
 11
3399.738337
 21
4004.760252
 31
0.0
  0
LINE
  5
13D30
330
13D7A
100
AcDbEntity
  8
springs2 - Level 27
  6
Continuous
 62
     7
370
    13
100
AcDbLine
 10
3334.738337
 20
4004.760252
 30
0.0
 11
3334.738337
 21
4008.760252
 31
0.0
  0
LINE
  5
13D31
330
13D7A
100
AcDbEntity
  8
springs2 - Level 27
  6
Continuous
 62
     7
370
    13
100
AcDbLine
 10
3334.738337
 20
4035.760252
 30
0.0
 11
3334.738337
 21
4039.760252
 31
0.0
  0
LINE
  5
13D32
330
13D7A
100
AcDbEntity
  8
springs2 - Level 27
  6
Continuous
 62
     7
370
    13
100
AcDbLine
 10
3399.738337
 20
4004.760252
 30
0.0
 11
3334.738337
 21
4004.760252
 31
0.0
  0
ARC
  5
13D33
330
13D7A
100
AcDbEntity
  8
springs2 - Level 27
  6
Continuous
 62
     7
370
    13
100
AcDbCircle
 10
3518.738337
 20
4022.260252
 30
0.0
 40
13.5
100
AcDbArc
 50
270.0
 51
90.0
  0
ARC
  5
13D34
330
13D7A
100
AcDbEntity
  8
springs2 - Level 27
  6
Continuous
 62
     7
370
    13
100
AcDbCircle
 10
3215.738337
 20
4022.260252
 30
0.0
 40
13.5
100
AcDbArc
 50
90.0
 51
270.0
  0
LINE
  5
13D35
330
13D7A
100
AcDbEntity
  8
springs2 - Level 27
  6
Continuous
 62
     7
370
    13
100
AcDbLine
 10
3215.738337
 20
4035.760252
 30
0.0
 11
3518.738337
 21
4035.760252
 31
0.0
  0
LINE
  5
13D36
330
13D7A
100
AcDbEntity
  8
springs2 - Level 27
  6
Continuous
 62
     7
370
    13
100
AcDbLine
 10
3518.738337
 20
4008.760252
 30
0.0
 11
3215.738337
 21
4008.760252
 31
0.0
  0
LINE
  5
13D37
330
13D7A
100
AcDbEntity
  8
springs2 - Level 25
  6
Continuous
 62
     7
370
    13
100
AcDbLine
 10
3736.548832
 20
2931.570746
 30
0.0
 11
4247.927843
 21
2931.570746
 31
0.0
  0
LINE
  5
13D38
330
13D7A
100
AcDbEntity
  8
springs2 - Level 25
  6
Continuous
 62
     7
370
    13
100
AcDbLine
 10
4547.927843
 20
2931.570746
 30
0.0
 11
4551.927843
 21
2931.570746
 31
0.0
  0
LINE
  5
13D39
330
13D7A
100
AcDbEntity
  8
springs2 - Level 25
  6
Continuous
 62
     7
370
    13
100
AcDbLine
 10
4833.927843
 20
2931.570746
 30
0.0
 11
4852.927843
 21
2931.570746
 31
0.0
  0
LINE
  5
13D3A
330
13D7A
100
AcDbEntity
  8
springs2 - Level 25
  6
Continuous
 62
     7
370
    13
100
AcDbLine
 10
3458.927843
 20
3006.570746
 30
0.0
 11
4454.427843
 21
3006.570746
 31
0.0
  0
LINE
  5
13D3B
330
13D7A
100
AcDbEntity
  8
springs2 - Level 25
  6
Continuous
 62
     7
370
    13
100
AcDbLine
 10
4481.427843
 20
3006.570746
 30
0.0
 11
4551.927843
 21
3006.570746
 31
0.0
  0
LINE
  5
13D3C
330
13D7A
100
AcDbEntity
  8
springs2 - Level 25
  6
Continuous
 62
     7
370
    13
100
AcDbLine
 10
4833.927843
 20
3006.570746
 30
0.0
 11
4852.927843
 21
3006.570746
 31
0.0
  0
ARC
  5
13D3D
330
13D7A
100
AcDbEntity
  8
springs2 - Level 25
  6
Continuous
 62
     7
370
    13
100
AcDbCircle
 10
-4807.927843
 20
2969.070746
 30
0.0
 40
6.499999999999999
210
0.0
220
0.0
230
-1.0
100
AcDbArc
 50
0.0
 51
359.999994
  0
ARC
  5
13D3E
330
13D7A
100
AcDbEntity
  8
springs2 - Level 25
  6
Continuous
 62
     7
370
    13
100
AcDbCircle
 10
-4577.927843
 20
2969.070746
 30
0.0
 40
6.499999999999999
210
0.0
220
0.0
230
-1.0
100
AcDbArc
 50
0.0
 51
359.999994
  0
ARC
  5
13D3F
330
13D7A
100
AcDbEntity
  8
springs2 - Level 25
  6
Continuous
 62
     7
370
    13
100
AcDbCircle
 10
-3712.927843
 20
2969.070746
 30
0.0
 40
7.999999999999999
210
0.0
220
0.0
230
-1.0
100
AcDbArc
 50
0.0
 51
140.839517
  0
ARC
  5
13D40
330
13D7A
100
AcDbEntity
  8
springs2 - Level 25
  6
Continuous
 62
     7
370
    13
100
AcDbCircle
 10
-3712.927843
 20
2969.070746
 30
0.0
 40
7.999999999999999
210
0.0
220
0.0
230
-1.0
100
AcDbArc
 50
341.397862
 51
0.0
  0
ARC
  5
13D41
330
13D7A
100
AcDbEntity
  8
springs2 - Level 25
  6
Continuous
 62
     7
370
    13
100
AcDbCircle
 10
-3482.927843
 20
2969.070746
 30
0.0
 40
7.999999999999999
210
0.0
220
0.0
230
-1.0
100
AcDbArc
 50
0.0
 51
140.839517
  0
ARC
  5
13D42
330
13D7A
100
AcDbEntity
  8
springs2 - Level 25
  6
Continuous
 62
     7
370
    13
100
AcDbCircle
 10
-3482.927843
 20
2969.070746
 30
0.0
 40
7.999999999999999
210
0.0
220
0.0
230
-1.0
100
AcDbArc
 50
341.397862
 51
0.0
  0
ARC
  5
13D43
330
13D7A
100
AcDbEntity
  8
springs2 - Level 25
  6
Continuous
 62
     7
370
    13
100
AcDbCircle
 10
4522.927843
 20
2971.570746
 30
0.0
 40
6.499999999999999
100
AcDbArc
 50
0.0
 51
359.999994
  0
ARC
  5
13D44
330
13D7A
100
AcDbEntity
  8
springs2 - Level 25
  6
Continuous
 62
     7
370
    13
100
AcDbCircle
 10
4272.927843
 20
2971.570746
 30
0.0
 40
6.499999999999999
100
AcDbArc
 50
0.0
 51
359.999994
  0
ARC
  5
13D45
330
13D7A
100
AcDbEntity
  8
springs2 - Level 26
  6
Continuous
 62
     7
370
    13
100
AcDbCircle
 10
-3711.548832
 20
2874.070746
 30
0.0
 40
6.499999999999999
210
0.0
220
0.0
230
-1.0
100
AcDbArc
 50
0.0
 51
28.484635
  0
ARC
  5
13D46
330
13D7A
100
AcDbEntity
  8
springs2 - Level 26
  6
Continuous
 62
     7
370
    13
100
AcDbCircle
 10
-3711.548832
 20
2874.070746
 30
0.0
 40
6.499999999999999
210
0.0
220
0.0
230
-1.0
100
AcDbArc
 50
151.515365
 51
0.0
  0
ARC
  5
13D47
330
13D7A
100
AcDbEntity
  8
springs2 - Level 26
  6
Continuous
 62
     7
370
    13
100
AcDbCircle
 10
-3711.548832
 20
2969.070746
 30
0.0
 40
6.499999999999999
210
0.0
220
0.0
230
-1.0
100
AcDbArc
 50
0.0
 51
208.484635
  0
ARC
  5
13D48
330
13D7A
100
AcDbEntity
  8
springs2 - Level 26
  6
Continuous
 62
     7
370
    13
100
AcDbCircle
 10
-3711.548832
 20
2969.070746
 30
0.0
 40
6.499999999999999
210
0.0
220
0.0
230
-1.0
100
AcDbArc
 50
331.515365
 51
0.0
  0
ARC
  5
13D49
330
13D7A
100
AcDbEntity
  8
springs2 - Level 26
  6
Continuous
 62
     7
370
    13
100
AcDbCircle
 10
-3481.548832
 20
2874.070746
 30
0.0
 40
6.499999999999999
210
0.0
220
0.0
230
-1.0
100
AcDbArc
 50
0.0
 51
28.484635
  0
ARC
  5
13D4A
330
13D7A
100
AcDbEntity
  8
springs2 - Level 26
  6
Continuous
 62
     7
370
    13
100
AcDbCircle
 10
-3481.548832
 20
2874.070746
 30
0.0
 40
6.499999999999999
210
0.0
220
0.0
230
-1.0
100
AcDbArc
 50
151.515365
 51
0.0
  0
ARC
  5
13D4B
330
13D7A
100
AcDbEntity
  8
springs2 - Level 26
  6
Continuous
 62
     7
370
    13
100
AcDbCircle
 10
-3481.548832
 20
2969.070746
 30
0.0
 40
6.499999999999999
210
0.0
220
0.0
230
-1.0
100
AcDbArc
 50
0.0
 51
208.484635
  0
ARC
  5
13D4C
330
13D7A
100
AcDbEntity
  8
springs2 - Level 26
  6
Continuous
 62
     7
370
    13
100
AcDbCircle
 10
-3481.548832
 20
2969.070746
 30
0.0
 40
6.499999999999999
210
0.0
220
0.0
230
-1.0
100
AcDbArc
 50
331.515365
 51
0.0
  0
ARC
  5
13D4D
330
13D7A
100
AcDbEntity
  8
springs2 - Level 26
  6
Continuous
 62
     7
370
    13
100
AcDbCircle
 10
-3414.738337
 20
3265.881241
 30
0.0
 40
6.499999999999999
210
0.0
220
0.0
230
-1.0
100
AcDbArc
 50
61.515365
 51
298.484635
  0
ARC
  5
13D4E
330
13D7A
100
AcDbEntity
  8
springs2 - Level 26
  6
Continuous
 62
     7
370
    13
100
AcDbCircle
 10
-3319.738337
 20
3265.881241
 30
0.0
 40
6.499999999999999
210
0.0
220
0.0
230
-1.0
100
AcDbArc
 50
0.0
 51
118.484635
  0
ARC
  5
13D4F
330
13D7A
100
AcDbEntity
  8
springs2 - Level 26
  6
Continuous
 62
     7
370
    13
100
AcDbCircle
 10
-3319.738337
 20
3265.881241
 30
0.0
 40
6.499999999999999
210
0.0
220
0.0
230
-1.0
100
AcDbArc
 50
241.515365
 51
0.0
  0
ARC
  5
13D50
330
13D7A
100
AcDbEntity
  8
springs2 - Level 26
  6
Continuous
 62
     7
370
    13
100
AcDbCircle
 10
-3414.738337
 20
3035.881241
 30
0.0
 40
6.499999999999999
210
0.0
220
0.0
230
-1.0
100
AcDbArc
 50
61.515365
 51
298.484635
  0
ARC
  5
13D51
330
13D7A
100
AcDbEntity
  8
springs2 - Level 26
  6
Continuous
 62
     7
370
    13
100
AcDbCircle
 10
-3319.738337
 20
3035.881241
 30
0.0
 40
6.499999999999999
210
0.0
220
0.0
230
-1.0
100
AcDbArc
 50
0.0
 51
118.484635
  0
ARC
  5
13D52
330
13D7A
100
AcDbEntity
  8
springs2 - Level 26
  6
Continuous
 62
     7
370
    13
100
AcDbCircle
 10
-3319.738337
 20
3035.881241
 30
0.0
 40
6.499999999999999
210
0.0
220
0.0
230
-1.0
100
AcDbArc
 50
241.515365
 51
0.0
  0
ARC
  5
13D53
330
13D7A
100
AcDbEntity
  8
springs2 - Level 26
  6
Continuous
 62
     7
370
    13
100
AcDbCircle
 10
-3319.738337
 20
2575.881241
 30
0.0
 40
6.499999999999999
210
0.0
220
0.0
230
-1.0
100
AcDbArc
 50
0.0
 51
118.484635
  0
ARC
  5
13D54
330
13D7A
100
AcDbEntity
  8
springs2 - Level 26
  6
Continuous
 62
     7
370
    13
100
AcDbCircle
 10
-3319.738337
 20
2575.881241
 30
0.0
 40
6.499999999999999
210
0.0
220
0.0
230
-1.0
100
AcDbArc
 50
241.515365
 51
0.0
  0
ARC
  5
13D55
330
13D7A
100
AcDbEntity
  8
springs2 - Level 26
  6
Continuous
 62
     7
370
    13
100
AcDbCircle
 10
-3414.738337
 20
2575.881241
 30
0.0
 40
6.499999999999999
210
0.0
220
0.0
230
-1.0
100
AcDbArc
 50
61.515365
 51
298.484635
  0
ARC
  5
13D56
330
13D7A
100
AcDbEntity
  8
springs2 - Level 26
  6
Continuous
 62
     7
370
    13
100
AcDbCircle
 10
-3319.738337
 20
2805.881241
 30
0.0
 40
6.499999999999999
210
0.0
220
0.0
230
-1.0
100
AcDbArc
 50
0.0
 51
118.484635
  0
ARC
  5
13D57
330
13D7A
100
AcDbEntity
  8
springs2 - Level 26
  6
Continuous
 62
     7
370
    13
100
AcDbCircle
 10
-3319.738337
 20
2805.881241
 30
0.0
 40
6.499999999999999
210
0.0
220
0.0
230
-1.0
100
AcDbArc
 50
241.515365
 51
0.0
  0
ARC
  5
13D58
330
13D7A
100
AcDbEntity
  8
springs2 - Level 26
  6
Continuous
 62
     7
370
    13
100
AcDbCircle
 10
-3414.738337
 20
2805.881241
 30
0.0
 40
6.499999999999999
210
0.0
220
0.0
230
-1.0
100
AcDbArc
 50
61.515365
 51
298.484635
  0
LINE
  5
13D59
330
13D7A
100
AcDbEntity
  8
springs2 - Level 31
  6
Continuous
 62
     7
370
    13
100
AcDbLine
 10
3197.238337
 20
3899.260252
 30
0.0
 11
3197.238337
 21
3865.260252
 31
0.0
  0
ENDSEC
  0
SECTION
  2
OBJECTS
  0
DICTIONARY
  5
13D83
330
0
100
AcDbDictionary
281
     1
  3
ACAD_COLOR
350
13DDE
  3
ACAD_DETAILVIEWSTYLE
350
13F88
  3
ACAD_GROUP
350
13DCB
  3
ACAD_LAYOUT
350
13DAD
  3
ACAD_MATERIAL
350
13D85
  3
ACAD_MLEADERSTYLE
350
13DE1
  3
ACAD_MLINESTYLE
350
13DCC
  3
ACAD_PLOTSETTINGS
350
13DCD
  3
ACAD_PLOTSTYLENAME
350
13D82
  3
ACAD_SCALELIST
350
13DDF
  3
ACAD_SECTIONVIEWSTYLE
350
13F86
  3
ACAD_TABLESTYLE
350
13DE0
  3
ACAD_VISUALSTYLE
350
13DC5
  3
AcadDim
350
13F5F
  3
ACDB_RECOMPOSE_DATA
350
1442D
  3
AcDbVariableDictionary
350
13DE2
  3
AcDsDecomposeData
350
14433
  3
MicroStation
350
13F5E
  0
DICTIONARY
  5
13DB6
330
13DB5
100
AcDbDictionary
280
     1
281
     1
  3
ACAD_LAYERFILTERS
360
13DB7
  3
ACAD_LAYERSTATES
360
13DB8
  3
ACLYDICTIONARY
360
13DB9
  0
DICTIONARY
  5
13D7F
330
13D7E
100
AcDbDictionary
280
     1
281
     1
  3
ADSK_XREC_LAYER_RECONCILED
360
13D80
  0
DICTIONARY
  5
13D7B
330
13D7A
100
AcDbDictionary
280
     1
281
     1
  3
ACAD_SORTENTS
360
13F57
  0
DICTIONARY
  5
13DDE
102
{ACAD_REACTORS
330
13D83
102
}
330
13D83
100
AcDbDictionary
281
     1
  0
DICTIONARY
  5
13F88
102
{ACAD_REACTORS
330
13D83
102
}
330
13D83
100
AcDbDictionary
281
     1
  3
Imperial24
350
13F89
  0
DICTIONARY
  5
13DCB
102
{ACAD_REACTORS
330
13D83
102
}
330
13D83
100
AcDbDictionary
281
     1
  0
DICTIONARY
  5
13DAD
102
{ACAD_REACTORS
330
13D83
102
}
330
13D83
100
AcDbDictionary
281
     1
  3
Layout1
350
13DB2
  3
Model
350
13DAC
  0
DICTIONARY
  5
13D85
102
{ACAD_REACTORS
330
13D83
102
}
330
13D83
100
AcDbDictionary
281
     1
  3
ByBlock
350
13DD6
  3
ByLayer
350
13DCE
  3
Chrome
350
8DC
  3
Global
350
13D84
  0
DICTIONARY
  5
13DE1
102
{ACAD_REACTORS
330
13D83
102
}
330
13D83
100
AcDbDictionary
281
     1
  3
Standard
350
13F60
  0
DICTIONARY
  5
13DCC
102
{ACAD_REACTORS
330
13D83
102
}
330
13D83
100
AcDbDictionary
281
     1
  3
Standard
350
13DF3
  0
DICTIONARY
  5
13DCD
102
{ACAD_REACTORS
330
13D83
102
}
330
13D83
100
AcDbDictionary
281
     1
  0
ACDBDICTIONARYWDFLT
  5
13D82
102
{ACAD_REACTORS
330
13D83
102
}
330
13D83
100
AcDbDictionary
281
     1
  3
Normal
350
13D81
100
AcDbDictionaryWithDefault
340
13D81
  0
DICTIONARY
  5
13DDF
102
{ACAD_REACTORS
330
13D83
102
}
330
13D83
100
AcDbDictionary
281
     1
  3
A0
350
13DF8
  3
A1
350
13DF9
  3
A2
350
13DFA
  3
A3
350
13DFB
  3
A4
350
13DFC
  3
A5
350
13DFD
  3
A6
350
13DFE
  3
A7
350
13DFF
  3
A8
350
13E00
  3
A9
350
13E01
  3
B0
350
13E02
  3
B1
350
13E03
  3
B2
350
13E04
  3
B3
350
13E05
  3
B4
350
13E06
  3
B5
350
13E07
  3
B6
350
13E08
  3
B7
350
13E09
  3
B8
350
13E0A
  3
B9
350
13E0B
  3
C0
350
13E0C
  3
C1
350
13E0D
  3
C2
350
13E0E
  3
C3
350
13E0F
  3
C4
350
13E10
  3
C5
350
13E11
  3
C6
350
13E12
  3
C7
350
13E13
  3
C8
350
13E14
  3
C9
350
13E15
  3
D0
350
13E16
  3
D1
350
13E17
  3
D2
350
13E18
  0
DICTIONARY
  5
13F86
102
{ACAD_REACTORS
330
13D83
102
}
330
13D83
100
AcDbDictionary
281
     1
  3
Imperial24
350
13F87
  0
DICTIONARY
  5
13DE0
102
{ACAD_REACTORS
330
13D83
102
}
330
13D83
100
AcDbDictionary
281
     1
  3
Standard
350
13DF4
  0
DICTIONARY
  5
13DC5
102
{ACAD_REACTORS
330
13D83
102
}
330
13D83
100
AcDbDictionary
281
     1
  3
2dWireframe
350
13DC4
  3
Basic
350
13F75
  3
Brighten
350
13F79
  3
ColorChange
350
13F7D
  3
Conceptual
350
13F77
  3
Dim
350
13F78
  3
EdgeColorOff
350
13F85
  3
Facepattern
350
13F7C
  3
Flat
350
13F71
  3
FlatWithEdges
350
13F72
  3
Gouraud
350
13F73
  3
GouraudWithEdges
350
13F74
  3
Hidden
350
13F76
  3
JitterOff
350
13F83
  3
Linepattern
350
13F7B
  3
OverhangOff
350
13F84
  3
Realistic
350
13DF6
  3
Shaded
350
13F82
  3
Shaded with edges
350
13F81
  3
Shades of Gray
350
13F7E
  3
Sketchy
350
13F7F
  3
Thicken
350
13F7A
  3
Wireframe
350
13DF7
  3
X-Ray
350
13F80
  0
XRECORD
  5
13F5F
102
{ACAD_REACTORS
330
13D83
102
}
330
13D83
100
AcDbXrecord
280
     1
 90
   990106
  3
 
 60
     0
 61
     0
 62
     1
 63
     1
 64
     0
 65
     0
 66
     0
 67
     3
 68
     1
 69
     1
 70
     0
 71
     0
 72
     0
 40
0.0
170
     0
  0
XRECORD
  5
1442D
102
{ACAD_REACTORS
330
13D83
102
}
330
13D83
100
AcDbXrecord
280
     1
 90
        1
330
13DF4
  0
DICTIONARY
  5
13DE2
102
{ACAD_REACTORS
330
13D83
102
}
330
13D83
100
AcDbDictionary
281
     1
  3
CANNOSCALE
350
13DE3
  3
CMLEADERSTYLE
350
13DE4
  3
CTABLESTYLE
350
13DE5
  3
CVIEWDETAILSTYLE
350
13DE6
  3
CVIEWSECTIONSTYLE
350
13DE7
  3
LAYEREVAL
350
13DE8
  3
LAYERNOTIFY
350
13DE9
  3
MSLTSCALE
350
13DEA
  3
PDFFRAME
350
13DEB
  0
DICTIONARY
  5
14433
102
{ACAD_REACTORS
330
13D83
102
}
330
13D83
100
AcDbDictionary
281
     1
  3
AcDsRecords
350
14435
  3
AcDsSchemas
350
14434
1001
ACAD
1070
     2
  0
DICTIONARY
  5
13F5E
102
{ACAD_REACTORS
330
13D83
102
}
330
13D83
100
AcDbDictionary
281
     1
  0
DICTIONARY
  5
13DB7
102
{ACAD_REACTORS
330
13DB6
102
}
330
13DB6
100
AcDbDictionary
281
     1
  0
DICTIONARY
  5
13DB8
102
{ACAD_REACTORS
330
13DB6
102
}
330
13DB6
100
AcDbDictionary
281
     1
  0
DICTIONARY
  5
13DB9
102
{ACAD_REACTORS
330
13DB6
102
}
330
13DB6
100
AcDbDictionary
281
     1
  0
XRECORD
  5
13D80
102
{ACAD_REACTORS
330
13D7F
102
}
330
13D7F
100
AcDbXrecord
280
     1
290
     1
  0
SORTENTSTABLE
  5
13F57
102
{ACAD_REACTORS
330
13D7B
102
}
330
13D7B
100
AcDbSortentsTable
330
13D7A
  0
ACDBDETAILVIEWSTYLE
  5
13F89
102
{ACAD_XDICTIONARY
360
14438
102
}
102
{ACAD_REACTORS
330
13F88
102
}
330
13F88
100
AcDbModelDocViewStyle
 70
     0
  3
Imperial24
290
     0
100
AcDbDetailViewStyle
 70
     0
 71
     0
 90
        3
 71
     1
340
13DBB
 62
   256
 40
0.24
340
0
 62
   256
 40
0.24
300

 40
0.36
280
     3
 71
     2
340
13D8D
 90
       25
 62
   256
 71
     3
340
13DBB
 62
   256
 40
0.24
 90
        1
 40
0.75
 90
        1
300
%<\AcVar ViewType \f "%tc1">% %<\AcVar ViewDetailId>%\PSCALE %<\AcVar ViewScale \f "%sn">%
 71
     4
340
13D8D
 90
       25
 62
   256
340
13D8D
 90
       25
 62
   256
280
     0
  0
LAYOUT
  5
13DB2
102
{ACAD_XDICTIONARY
360
13DB3
102
}
102
{ACAD_REACTORS
330
13DAD
102
}
330
13DAD
100
AcDbPlotSettings
  1

  2
none_device
  4
Letter_(8.50_x_11.00_Inches)
  6

 40
6.35
 41
6.35
 42
6.350006
 43
6.350006
 44
215.899994
 45
279.399994
 46
0.0
 47
0.0
 48
0.0
 49
0.0
140
0.0
141
0.0
142
1.0
143
1.0
 70
   688
 72
     0
 73
     1
 74
     5
  7

 75
    16
147
1.0
 76
     0
 77
     2
 78
   300
148
0.0
149
0.0
100
AcDbLayout
  1
Layout1
 70
     1
 71
     1
 10
-0.25
 20
-0.25
 11
10.75
 21
8.25
 12
0.0
 22
0.0
 32
0.0
 14
1.05
 24
0.8
 34
0.0
 15
9.45
 25
7.2
 35
0.0
146
0.0
 13
0.0
 23
0.0
 33
0.0
 16
1.0
 26
0.0
 36
0.0
 17
0.0
 27
1.0
 37
0.0
 76
     0
330
13DAF
1001
ACAD_PSEXT
1000
None
1000
None
1000
Not applicable
1000
The layout will not be plotted unless a new plotter configuration name is selected.
1070
     0
  0
LAYOUT
  5
13DAC
102
{ACAD_XDICTIONARY
360
13DAE
102
}
102
{ACAD_REACTORS
330
13DAD
102
}
330
13DAD
100
AcDbPlotSettings
  1

  2
none_device
  4
ANSI_A_(8.50_x_11.00_Inches)
  6

 40
6.35
 41
19.049999
 42
6.350006
 43
19.049988
 44
215.899994
 45
279.399994
 46
0.0
 47
0.0
 48
0.0
 49
0.0
140
0.0
141
0.0
142
1.0
143
2.584895
 70
 11952
 72
     0
 73
     1
 74
     0
  7

 75
     0
147
0.386863
 76
     0
 77
     2
 78
   300
148
0.0
149
0.0
100
AcDbLayout
  1
Model
 70
     1
 71
     0
 10
0.0
 20
0.0
 11
12.0
 21
9.0
 12
0.0
 22
0.0
 32
0.0
 14
0.0
 24
0.0
 34
0.0
 15
0.0
 25
0.0
 35
0.0
146
0.0
 13
0.0
 23
0.0
 33
0.0
 16
1.0
 26
0.0
 36
0.0
 17
0.0
 27
1.0
 37
0.0
 76
     0
330
13D7A
  0
MATERIAL
  5
13DD6
102
{ACAD_XDICTIONARY
360
13DD7
102
}
102
{ACAD_REACTORS
330
13D85
102
}
330
13D85
100
AcDbMaterial
  1
ByBlock
 72
     0
 43
0.020833
 43
0.0
 43
0.0
 43
0.0
 43
0.0
 43
0.020833
 43
0.0
 43
0.0
 43
0.0
 43
0.0
 43
1.0
 43
0.0
 43
0.0
 43
0.0
 43
0.0
 43
1.0
 77
     0
 47
0.020833
 47
0.0
 47
0.0
 47
0.0
 47
0.0
 47
0.020833
 47
0.0
 47
0.0
 47
0.0
 47
0.0
 47
1.0
 47
0.0
 47
0.0
 47
0.0
 47
0.0
 47
1.0
171
     0
 49
0.020833
 49
0.0
 49
0.0
 49
0.0
 49
0.0
 49
0.020833
 49
0.0
 49
0.0
 49
0.0
 49
0.0
 49
1.0
 49
0.0
 49
0.0
 49
0.0
 49
0.0
 49
1.0
175
     0
142
0.020833
142
0.0
142
0.0
142
0.0
142
0.0
142
0.020833
142
0.0
142
0.0
142
0.0
142
0.0
142
1.0
142
0.0
142
0.0
142
0.0
142
0.0
142
1.0
179
     0
144
0.020833
144
0.0
144
0.0
144
0.0
144
0.0
144
0.020833
144
0.0
144
0.0
144
0.0
144
0.0
144
1.0
144
0.0
144
0.0
144
0.0
144
0.0
144
1.0
147
0.020833
147
0.0
147
0.0
147
0.0
147
0.0
147
0.020833
147
0.0
147
0.0
147
0.0
147
0.0
147
1.0
147
0.0
147
0.0
147
0.0
147
0.0
147
1.0
  0
MATERIAL
  5
13DCE
102
{ACAD_XDICTIONARY
360
13DCF
102
}
102
{ACAD_REACTORS
330
13D85
102
}
330
13D85
100
AcDbMaterial
  1
ByLayer
 72
     0
 43
0.020833
 43
0.0
 43
0.0
 43
0.0
 43
0.0
 43
0.020833
 43
0.0
 43
0.0
 43
0.0
 43
0.0
 43
1.0
 43
0.0
 43
0.0
 43
0.0
 43
0.0
 43
1.0
 77
     0
 47
0.020833
 47
0.0
 47
0.0
 47
0.0
 47
0.0
 47
0.020833
 47
0.0
 47
0.0
 47
0.0
 47
0.0
 47
1.0
 47
0.0
 47
0.0
 47
0.0
 47
0.0
 47
1.0
171
     0
 49
0.020833
 49
0.0
 49
0.0
 49
0.0
 49
0.0
 49
0.020833
 49
0.0
 49
0.0
 49
0.0
 49
0.0
 49
1.0
 49
0.0
 49
0.0
 49
0.0
 49
0.0
 49
1.0
175
     0
142
0.020833
142
0.0
142
0.0
142
0.0
142
0.0
142
0.020833
142
0.0
142
0.0
142
0.0
142
0.0
142
1.0
142
0.0
142
0.0
142
0.0
142
0.0
142
1.0
179
     0
144
0.020833
144
0.0
144
0.0
144
0.0
144
0.0
144
0.020833
144
0.0
144
0.0
144
0.0
144
0.0
144
1.0
144
0.0
144
0.0
144
0.0
144
0.0
144
1.0
147
0.020833
147
0.0
147
0.0
147
0.0
147
0.0
147
0.020833
147
0.0
147
0.0
147
0.0
147
0.0
147
1.0
147
0.0
147
0.0
147
0.0
147
0.0
147
1.0
  0
MATERIAL
  5
8DC
102
{ACAD_XDICTIONARY
360
13F59
102
}
102
{ACAD_REACTORS
330
13D85
102
}
330
13D85
100
AcDbMaterial
  1
Chrome
 71
     1
 41
0.2
 91
-1026370853
 72
     0
 44
10.0
 76
     1
 45
0.76
 92
-1026299413
 77
     0
175
     0
468
0.5
 93
        1
 94
       39
  0
MATERIAL
  5
13D84
102
{ACAD_XDICTIONARY
360
13D86
102
}
102
{ACAD_REACTORS
330
13D85
102
}
330
13D85
100
AcDbMaterial
  1
Global
 72
     0
 43
0.020833
 43
0.0
 43
0.0
 43
0.0
 43
0.0
 43
0.020833
 43
0.0
 43
0.0
 43
0.0
 43
0.0
 43
1.0
 43
0.0
 43
0.0
 43
0.0
 43
0.0
 43
1.0
 77
     0
 47
0.020833
 47
0.0
 47
0.0
 47
0.0
 47
0.0
 47
0.020833
 47
0.0
 47
0.0
 47
0.0
 47
0.0
 47
1.0
 47
0.0
 47
0.0
 47
0.0
 47
0.0
 47
1.0
171
     0
 49
0.020833
 49
0.0
 49
0.0
 49
0.0
 49
0.0
 49
0.020833
 49
0.0
 49
0.0
 49
0.0
 49
0.0
 49
1.0
 49
0.0
 49
0.0
 49
0.0
 49
0.0
 49
1.0
175
     0
142
0.020833
142
0.0
142
0.0
142
0.0
142
0.0
142
0.020833
142
0.0
142
0.0
142
0.0
142
0.0
142
1.0
142
0.0
142
0.0
142
0.0
142
0.0
142
1.0
179
     0
144
0.020833
144
0.0
144
0.0
144
0.0
144
0.0
144
0.020833
144
0.0
144
0.0
144
0.0
144
0.0
144
1.0
144
0.0
144
0.0
144
0.0
144
0.0
144
1.0
147
0.020833
147
0.0
147
0.0
147
0.0
147
0.0
147
0.020833
147
0.0
147
0.0
147
0.0
147
0.0
147
1.0
147
0.0
147
0.0
147
0.0
147
0.0
147
1.0
  0
MLEADERSTYLE
  5
13F60
102
{ACAD_REACTORS
330
13DE1
102
}
330
13DE1
100
AcDbMLeaderStyle
179
     2
170
     2
171
     1
172
     0
 90
        2
 40
0.0
 41
0.0
173
     1
 91
-1073741824
 92
       -2
290
     1
 42
1.5
291
     1
 43
3.0
  3

 44
3.0
300

342
313
174
     1
178
     1
175
     1
176
     0
 93
-1073741824
 45
3.0
292
     0
297
     1
 46
5.0
 94
-1073741824
 47
1.0
 49
1.0
140
1.0
293
     1
141
0.0
294
     1
177
     0
142
1.0
295
     0
296
     0
143
0.125
271
     0
272
     9
273
     9
298
     0
  0
MLINESTYLE
  5
13DF3
102
{ACAD_REACTORS
330
13DCC
102
}
330
13DCC
100
AcDbMlineStyle
  2
STANDARD
 70
     0
  3

 62
   256
 51
90.0
 52
90.0
 71
     2
 49
0.5
 62
   256
  6
BYLAYER
 49
-0.5
 62
   256
  6
BYLAYER
  0
ACDBPLACEHOLDER
  5
13D81
102
{ACAD_REACTORS
330
13D82
102
}
330
13D82
  0
SCALE
  5
13DF8
102
{ACAD_REACTORS
330
13DDF
102
}
330
13DDF
100
AcDbScale
 70
     0
300
1:1
140
1.0
141
1.0
290
     1
  0
SCALE
  5
13DF9
102
{ACAD_REACTORS
330
13DDF
102
}
330
13DDF
100
AcDbScale
 70
     0
300
1:2
140
1.0
141
2.0
290
     0
  0
SCALE
  5
13DFA
102
{ACAD_REACTORS
330
13DDF
102
}
330
13DDF
100
AcDbScale
 70
     0
300
1:4
140
1.0
141
4.0
290
     0
  0
SCALE
  5
13DFB
102
{ACAD_REACTORS
330
13DDF
102
}
330
13DDF
100
AcDbScale
 70
     0
300
1:5
140
1.0
141
5.0
290
     0
  0
SCALE
  5
13DFC
102
{ACAD_REACTORS
330
13DDF
102
}
330
13DDF
100
AcDbScale
 70
     0
300
1:8
140
1.0
141
8.0
290
     0
  0
SCALE
  5
13DFD
102
{ACAD_REACTORS
330
13DDF
102
}
330
13DDF
100
AcDbScale
 70
     0
300
1:10
140
1.0
141
10.0
290
     0
  0
SCALE
  5
13DFE
102
{ACAD_REACTORS
330
13DDF
102
}
330
13DDF
100
AcDbScale
 70
     0
300
1:16
140
1.0
141
16.0
290
     0
  0
SCALE
  5
13DFF
102
{ACAD_REACTORS
330
13DDF
102
}
330
13DDF
100
AcDbScale
 70
     0
300
1:20
140
1.0
141
20.0
290
     0
  0
SCALE
  5
13E00
102
{ACAD_REACTORS
330
13DDF
102
}
330
13DDF
100
AcDbScale
 70
     0
300
1:30
140
1.0
141
30.0
290
     0
  0
SCALE
  5
13E01
102
{ACAD_REACTORS
330
13DDF
102
}
330
13DDF
100
AcDbScale
 70
     0
300
1:40
140
1.0
141
40.0
290
     0
  0
SCALE
  5
13E02
102
{ACAD_REACTORS
330
13DDF
102
}
330
13DDF
100
AcDbScale
 70
     0
300
1:50
140
1.0
141
50.0
290
     0
  0
SCALE
  5
13E03
102
{ACAD_REACTORS
330
13DDF
102
}
330
13DDF
100
AcDbScale
 70
     0
300
1:100
140
1.0
141
100.0
290
     0
  0
SCALE
  5
13E04
102
{ACAD_REACTORS
330
13DDF
102
}
330
13DDF
100
AcDbScale
 70
     0
300
2:1
140
2.0
141
1.0
290
     0
  0
SCALE
  5
13E05
102
{ACAD_REACTORS
330
13DDF
102
}
330
13DDF
100
AcDbScale
 70
     0
300
4:1
140
4.0
141
1.0
290
     0
  0
SCALE
  5
13E06
102
{ACAD_REACTORS
330
13DDF
102
}
330
13DDF
100
AcDbScale
 70
     0
300
8:1
140
8.0
141
1.0
290
     0
  0
SCALE
  5
13E07
102
{ACAD_REACTORS
330
13DDF
102
}
330
13DDF
100
AcDbScale
 70
     0
300
10:1
140
10.0
141
1.0
290
     0
  0
SCALE
  5
13E08
102
{ACAD_REACTORS
330
13DDF
102
}
330
13DDF
100
AcDbScale
 70
     0
300
100:1
140
100.0
141
1.0
290
     0
  0
SCALE
  5
13E09
102
{ACAD_REACTORS
330
13DDF
102
}
330
13DDF
100
AcDbScale
 70
     0
300
1/128" = 1'-0"
140
0.007813
141
12.0
290
     0
  0
SCALE
  5
13E0A
102
{ACAD_REACTORS
330
13DDF
102
}
330
13DDF
100
AcDbScale
 70
     0
300
1/64" = 1'-0"
140
0.015625
141
12.0
290
     0
  0
SCALE
  5
13E0B
102
{ACAD_REACTORS
330
13DDF
102
}
330
13DDF
100
AcDbScale
 70
     0
300
1/32" = 1'-0"
140
0.03125
141
12.0
290
     0
  0
SCALE
  5
13E0C
102
{ACAD_REACTORS
330
13DDF
102
}
330
13DDF
100
AcDbScale
 70
     0
300
1/16" = 1'-0"
140
0.0625
141
12.0
290
     0
  0
SCALE
  5
13E0D
102
{ACAD_REACTORS
330
13DDF
102
}
330
13DDF
100
AcDbScale
 70
     0
300
3/32" = 1'-0"
140
0.09375
141
12.0
290
     0
  0
SCALE
  5
13E0E
102
{ACAD_REACTORS
330
13DDF
102
}
330
13DDF
100
AcDbScale
 70
     0
300
1/8" = 1'-0"
140
0.125
141
12.0
290
     0
  0
SCALE
  5
13E0F
102
{ACAD_REACTORS
330
13DDF
102
}
330
13DDF
100
AcDbScale
 70
     0
300
3/16" = 1'-0"
140
0.1875
141
12.0
290
     0
  0
SCALE
  5
13E10
102
{ACAD_REACTORS
330
13DDF
102
}
330
13DDF
100
AcDbScale
 70
     0
300
1/4" = 1'-0"
140
0.25
141
12.0
290
     0
  0
SCALE
  5
13E11
102
{ACAD_REACTORS
330
13DDF
102
}
330
13DDF
100
AcDbScale
 70
     0
300
3/8" = 1'-0"
140
0.375
141
12.0
290
     0
  0
SCALE
  5
13E12
102
{ACAD_REACTORS
330
13DDF
102
}
330
13DDF
100
AcDbScale
 70
     0
300
1/2" = 1'-0"
140
0.5
141
12.0
290
     0
  0
SCALE
  5
13E13
102
{ACAD_REACTORS
330
13DDF
102
}
330
13DDF
100
AcDbScale
 70
     0
300
3/4" = 1'-0"
140
0.75
141
12.0
290
     0
  0
SCALE
  5
13E14
102
{ACAD_REACTORS
330
13DDF
102
}
330
13DDF
100
AcDbScale
 70
     0
300
1" = 1'-0"
140
1.0
141
12.0
290
     0
  0
SCALE
  5
13E15
102
{ACAD_REACTORS
330
13DDF
102
}
330
13DDF
100
AcDbScale
 70
     0
300
1-1/2" = 1'-0"
140
1.5
141
12.0
290
     0
  0
SCALE
  5
13E16
102
{ACAD_REACTORS
330
13DDF
102
}
330
13DDF
100
AcDbScale
 70
     0
300
3" = 1'-0"
140
3.0
141
12.0
290
     0
  0
SCALE
  5
13E17
102
{ACAD_REACTORS
330
13DDF
102
}
330
13DDF
100
AcDbScale
 70
     0
300
6" = 1'-0"
140
6.0
141
12.0
290
     0
  0
SCALE
  5
13E18
102
{ACAD_REACTORS
330
13DDF
102
}
330
13DDF
100
AcDbScale
 70
     0
300
1'-0" = 1'-0"
140
12.0
141
12.0
290
     0
  0
ACDBSECTIONVIEWSTYLE
  5
13F87
102
{ACAD_XDICTIONARY
360
14436
102
}
102
{ACAD_REACTORS
330
13F86
102
}
330
13F86
100
AcDbModelDocViewStyle
 70
     0
  3
Imperial24
290
     0
100
AcDbSectionViewStyle
 70
     0
 71
     0
 90
       78
 71
     1
340
13DBB
 62
   256
 40
0.24
340
0
340
0
 62
   256
 40
0.24
300
I, O, Q, S, X, Z
 40
0.48
 90
        3
 40
0.18
 90
        1
 71
     2
340
13D8D
 90
       25
 62
   256
340
13D8D
 90
       50
 62
   256
 40
0.24
 40
0.0
 40
0.24
 71
     3
340
13DBB
 62
   256
 40
0.24
 90
        1
 40
0.75
 90
        1
300
%<\AcVar ViewType \f "%tc1">% %<\AcVar ViewSectionStartId>%-%<\AcVar ViewSectionEndId>%\PSCALE %<\AcVar ViewScale \f "%sn">%
 71
     4
 62
   256
 62
   257
300
ANSI31
 40
1.0
 90
        0
290
     0
290
     0
 90
        6
 40
0.0
 40
1.570796
 40
0.261799
 40
1.308997
 40
-0.261799
 40
1.832596
  0
TABLESTYLE
  5
13DF4
102
{ACAD_XDICTIONARY
360
13DF5
102
}
102
{ACAD_REACTORS
330
13DE0
102
}
330
13DE0
100
AcDbTableStyle
280
     0
  3
Standard
 70
     0
 71
     0
 40
0.06
 41
0.06
280
     0
281
     0
  7
Standard
140
0.18
170
     2
 62
     0
 63
     7
283
     0
 90
        4
 91
        0
  1

274
    -2
284
     1
 64
     0
275
    -2
285
     1
 65
     0
276
    -2
286
     1
 66
     0
277
    -2
287
     1
 67
     0
278
    -2
288
     1
 68
     0
279
    -2
289
     1
 69
     0
  7
Standard
140
0.25
170
     5
 62
     0
 63
     7
283
     0
 90
        4
 91
        0
  1

274
    -2
284
     1
 64
     0
275
    -2
285
     1
 65
     0
276
    -2
286
     1
 66
     0
277
    -2
287
     1
 67
     0
278
    -2
288
     1
 68
     0
279
    -2
289
     1
 69
     0
  7
Standard
140
0.18
170
     5
 62
     0
 63
     7
283
     0
 90
        4
 91
        0
  1

274
    -2
284
     1
 64
     0
275
    -2
285
     1
 65
     0
276
    -2
286
     1
 66
     0
277
    -2
287
     1
 67
     0
278
    -2
288
     1
 68
     0
279
    -2
289
     1
 69
     0
  0
VISUALSTYLE
  5
13DC4
102
{ACAD_REACTORS
330
13DC5
102
}
330
13DC5
100
AcDbVisualStyle
  2
2dWireframe
 70
     4
177
     3
291
     0
 70
    58
 90
        0
176
     1
 90
        2
176
     1
 90
        0
176
     1
 90
        0
176
     1
 40
0.6
176
     1
 40
30.0
176
     1
 62
     7
420
 16777215
176
     1
 90
        1
176
     1
 90
        4
176
     1
 62
     7
176
     1
 62
   257
176
     1
 90
        1
176
     1
 90
        1
176
     1
 40
1.0
176
     1
 90
        0
176
     1
 62
   257
176
     1
 40
1.0
176
     1
 90
        1
176
     1
 90
        6
176
     1
 90
        2
176
     1
 62
     7
176
     1
 90
        5
176
     1
 90
        0
176
     1
 90
        0
176
     1
290
     0
176
     1
 90
        1
176
     1
 40
0.0
176
     1
 90
        0
176
     1
290
     1
176
     1
290
     1
176
     1
290
     0
176
     1
290
     0
176
     1
290
     0
176
     1
290
     0
176
     1
290
     0
176
     1
290
     0
176
     1
290
     0
176
     1
 90
       50
176
     1
 40
0.0
176
     1
 40
1.0
176
     1
 90
        0
176
     1
 62
    18
176
     1
 90
       50
176
     1
 90
        3
176
     1
 62
     5
420
      255
176
     1
290
     0
176
     1
 90
       50
176
     1
 90
       50
176
     1
 90
       50
176
     1
290
     0
176
     1
 90
       50
176
     1
 62
   256
176
     0
 40
1.0
176
     0
 90
        2
176
     1
  1
strokes_ogs.tif
176
     1
290
     0
176
     1
 40
1.0
176
     1
 40
1.0
176
     1
1001
ACAD
1000
AcDbSavedByObjectVersion
1070
     0
  0
VISUALSTYLE
  5
13F75
102
{ACAD_REACTORS
330
13DC5
102
}
330
13DC5
100
AcDbVisualStyle
  2
Basic
 70
     7
177
     3
291
     1
 70
    58
 90
        1
176
     1
 90
        0
176
     1
 90
        1
176
     1
 90
        0
176
     1
 40
0.6
176
     1
 40
30.0
176
     1
 62
     7
420
 16777215
176
     1
 90
        0
176
     1
 90
        4
176
     1
 62
     7
176
     1
 62
   257
176
     1
 90
        1
176
     1
 90
        1
176
     1
 40
1.0
176
     1
 90
        8
176
     1
 62
     7
176
     1
 40
1.0
176
     1
 90
        1
176
     1
 90
        6
176
     1
 90
        2
176
     1
 62
     7
176
     1
 90
        5
176
     1
 90
        0
176
     1
 90
        0
176
     1
290
     0
176
     1
 90
        1
176
     1
 40
0.0
176
     1
 90
        0
176
     1
290
     0
176
     1
290
     1
176
     1
290
     1
176
     1
290
     0
176
     1
290
     0
176
     1
290
     0
176
     1
290
     0
176
     1
290
     0
176
     1
290
     0
176
     1
 90
       50
176
     1
 40
0.0
176
     1
 40
1.0
176
     1
 90
        0
176
     1
 62
    18
420
        0
176
     1
 90
       50
176
     1
 90
        3
176
     1
 62
     5
420
      255
176
     1
290
     0
176
     1
 90
       50
176
     1
 90
       50
176
     1
 90
       50
176
     1
290
     0
176
     1
 90
       50
176
     1
 62
   256
176
     0
 40
1.0
176
     0
 90
        2
176
     1
  1
strokes_ogs.tif
176
     1
290
     0
176
     1
 40
1.0
176
     1
 40
1.0
176
     1
1001
ACAD
1000
AcDbSavedByObjectVersion
1070
     0
  0
VISUALSTYLE
  5
13F79
102
{ACAD_REACTORS
330
13DC5
102
}
330
13DC5
100
AcDbVisualStyle
  2
Brighten
 70
    12
177
     3
291
     1
 70
    58
 90
        2
176
     1
 90
        2
176
     1
 90
        0
176
     1
 90
        0
176
     1
 40
0.6
176
     1
 40
30.0
176
     1
 62
     7
420
 16777215
176
     1
 90
        1
176
     1
 90
        4
176
     1
 62
     7
176
     1
 62
   257
176
     1
 90
        1
176
     1
 90
        1
176
     1
 40
1.0
176
     1
 90
        8
176
     1
 62
     7
176
     1
 40
1.0
176
     1
 90
        1
176
     1
 90
        6
176
     1
 90
        2
176
     1
 62
     7
176
     1
 90
        5
176
     1
 90
        0
176
     1
 90
        0
176
     1
290
     0
176
     1
 90
        1
176
     1
 40
50.0
176
     1
 90
        0
176
     1
290
     0
176
     1
290
     1
176
     1
290
     1
176
     1
290
     0
176
     1
290
     0
176
     1
290
     0
176
     1
290
     0
176
     1
290
     0
176
     1
290
     0
176
     1
 90
       50
176
     1
 40
0.0
176
     1
 40
1.0
176
     1
 90
        0
176
     1
 62
    18
420
        0
176
     1
 90
       50
176
     1
 90
        3
176
     1
 62
     5
420
      255
176
     1
290
     0
176
     1
 90
       50
176
     1
 90
       50
176
     1
 90
       50
176
     1
290
     0
176
     1
 90
       50
176
     1
 62
   256
176
     0
 40
1.0
176
     0
 90
        2
176
     1
  1
strokes_ogs.tif
176
     1
290
     0
176
     1
 40
1.0
176
     1
 40
1.0
176
     1
1001
ACAD
1000
AcDbSavedByObjectVersion
1070
     0
  0
VISUALSTYLE
  5
13F7D
102
{ACAD_REACTORS
330
13DC5
102
}
330
13DC5
100
AcDbVisualStyle
  2
ColorChange
 70
    16
177
     3
291
     1
 70
    58
 90
        2
176
     1
 90
        2
176
     1
 90
        3
176
     1
 90
        0
176
     1
 40
0.6
176
     1
 40
30.0
176
     1
 62
     8
420
  8421504
176
     1
 90
        1
176
     1
 90
        4
176
     1
 62
     7
176
     1
 62
   257
176
     1
 90
        1
176
     1
 90
        1
176
     1
 40
1.0
176
     1
 90
        8
176
     1
 62
     8
420
  8421504
176
     1
 40
1.0
176
     1
 90
        1
176
     1
 90
        6
176
     1
 90
        2
176
     1
 62
     7
176
     1
 90
        5
176
     1
 90
        0
176
     1
 90
        0
176
     1
290
     0
176
     1
 90
        1
176
     1
 40
0.0
176
     1
 90
        0
176
     1
290
     0
176
     1
290
     1
176
     1
290
     1
176
     1
290
     0
176
     1
290
     0
176
     1
290
     0
176
     1
290
     0
176
     1
290
     0
176
     1
290
     0
176
     1
 90
       50
176
     1
 40
0.0
176
     1
 40
1.0
176
     1
 90
        0
176
     1
 62
    18
420
        0
176
     1
 90
       50
176
     1
 90
        3
176
     1
 62
     5
420
      255
176
     1
290
     0
176
     1
 90
       50
176
     1
 90
       50
176
     1
 90
       50
176
     1
290
     0
176
     1
 90
       50
176
     1
 62
   256
176
     0
 40
1.0
176
     0
 90
        2
176
     1
  1
strokes_ogs.tif
176
     1
290
     0
176
     1
 40
1.0
176
     1
 40
1.0
176
     1
1001
ACAD
1000
AcDbSavedByObjectVersion
1070
     0
  0
VISUALSTYLE
  5
13F77
102
{ACAD_REACTORS
330
13DC5
102
}
330
13DC5
100
AcDbVisualStyle
  2
Conceptual
 70
     9
177
     3
291
     0
 70
    58
 90
        3
176
     1
 90
        2
176
     1
 90
        0
176
     1
 90
        0
176
     1
 40
0.6
176
     1
 40
30.0
176
     1
 62
     7
420
 16777215
176
     1
 90
        2
176
     1
 90
        2
176
     1
 62
     7
176
     1
 62
   257
176
     1
 90
        1
176
     1
 90
        1
176
     1
 40
179.0
176
     1
 90
        8
176
     1
 62
     7
176
     1
 40
1.0
176
     1
 90
        1
176
     1
 90
        6
176
     1
 90
        2
176
     1
 62
     7
176
     1
 90
        3
176
     1
 90
        0
176
     1
 90
        0
176
     1
290
     0
176
     1
 90
        1
176
     1
 40
0.0
176
     1
 90
        0
176
     1
290
     0
176
     1
290
     1
176
     1
290
     1
176
     1
290
     0
176
     1
290
     0
176
     1
290
     0
176
     1
290
     0
176
     1
290
     0
176
     1
290
     0
176
     1
 90
       50
176
     1
 40
0.0
176
     1
 40
1.0
176
     1
 90
        0
176
     1
 62
    18
420
        0
176
     1
 90
       50
176
     1
 90
        3
176
     1
 62
     5
420
      255
176
     1
290
     0
176
     1
 90
       50
176
     1
 90
       50
176
     1
 90
       50
176
     1
290
     0
176
     1
 90
       50
176
     1
 62
   256
176
     0
 40
1.0
176
     0
 90
        2
176
     1
  1
strokes_ogs.tif
176
     1
290
     0
176
     1
 40
1.0
176
     1
 40
1.0
176
     1
1001
ACAD
1000
AcDbSavedByObjectVersion
1070
     0
  0
VISUALSTYLE
  5
13F78
102
{ACAD_REACTORS
330
13DC5
102
}
330
13DC5
100
AcDbVisualStyle
  2
Dim
 70
    11
177
     3
291
     1
 70
    58
 90
        2
176
     1
 90
        2
176
     1
 90
        0
176
     1
 90
        0
176
     1
 40
0.6
176
     1
 40
30.0
176
     1
 62
     7
420
 16777215
176
     1
 90
        1
176
     1
 90
        4
176
     1
 62
     7
176
     1
 62
   257
176
     1
 90
        1
176
     1
 90
        1
176
     1
 40
1.0
176
     1
 90
        8
176
     1
 62
     7
176
     1
 40
1.0
176
     1
 90
        1
176
     1
 90
        6
176
     1
 90
        2
176
     1
 62
     7
176
     1
 90
        5
176
     1
 90
        0
176
     1
 90
        0
176
     1
290
     0
176
     1
 90
        1
176
     1
 40
-50.0
176
     1
 90
        0
176
     1
290
     0
176
     1
290
     1
176
     1
290
     1
176
     1
290
     0
176
     1
290
     0
176
     1
290
     0
176
     1
290
     0
176
     1
290
     0
176
     1
290
     0
176
     1
 90
       50
176
     1
 40
0.0
176
     1
 40
1.0
176
     1
 90
        0
176
     1
 62
    18
420
        0
176
     1
 90
       50
176
     1
 90
        3
176
     1
 62
     5
420
      255
176
     1
290
     0
176
     1
 90
       50
176
     1
 90
       50
176
     1
 90
       50
176
     1
290
     0
176
     1
 90
       50
176
     1
 62
   256
176
     0
 40
1.0
176
     0
 90
        2
176
     1
  1
strokes_ogs.tif
176
     1
290
     0
176
     1
 40
1.0
176
     1
 40
1.0
176
     1
1001
ACAD
1000
AcDbSavedByObjectVersion
1070
     0
  0
VISUALSTYLE
  5
13F85
102
{ACAD_REACTORS
330
13DC5
102
}
330
13DC5
100
AcDbVisualStyle
  2
EdgeColorOff
 70
    22
177
     3
291
     1
 70
    58
 90
        2
176
     0
 90
        2
176
     0
 90
        0
176
     0
 90
        0
176
     0
 40
0.6
176
     0
 40
30.0
176
     0
 62
     7
420
 16777215
176
     0
 90
        1
176
     0
 90
        4
176
     0
 62
     7
176
     0
 62
   257
176
     0
 90
        1
176
     0
 90
        1
176
     0
 40
1.0
176
     0
 90
        8
176
     2
 62
     7
176
     0
 40
1.0
176
     0
 90
        1
176
     0
 90
        6
176
     0
 90
        2
176
     0
 62
     7
176
     0
 90
        5
176
     0
 90
        0
176
     0
 90
        0
176
     0
290
     0
176
     0
 90
        1
176
     0
 40
0.0
176
     0
 90
        0
176
     0
290
     0
176
     0
290
     1
176
     0
290
     1
176
     0
290
     0
176
     0
290
     0
176
     0
290
     0
176
     0
290
     0
176
     0
290
     0
176
     0
290
     0
176
     0
 90
       50
176
     0
 40
0.0
176
     0
 40
1.0
176
     0
 90
        0
176
     0
 62
    18
420
        0
176
     0
 90
       50
176
     0
 90
        3
176
     0
 62
     5
420
      255
176
     0
290
     0
176
     0
 90
       50
176
     0
 90
       50
176
     0
 90
       50
176
     0
290
     0
176
     0
 90
       50
176
     0
 62
   256
176
     0
 40
1.0
176
     0
 90
        2
176
     0
  1
strokes_ogs.tif
176
     0
290
     0
176
     0
 40
1.0
176
     0
 40
1.0
176
     0
1001
ACAD
1000
AcDbSavedByObjectVersion
1070
     0
  0
VISUALSTYLE
  5
13F7C
102
{ACAD_REACTORS
330
13DC5
102
}
330
13DC5
100
AcDbVisualStyle
  2
Facepattern
 70
    15
177
     3
291
     1
 70
    58
 90
        2
176
     1
 90
        2
176
     1
 90
        0
176
     1
 90
        0
176
     1
 40
0.6
176
     1
 40
30.0
176
     1
 62
     7
420
 16777215
176
     1
 90
        1
176
     1
 90
        4
176
     1
 62
     7
176
     1
 62
   257
176
     1
 90
        1
176
     1
 90
        1
176
     1
 40
1.0
176
     1
 90
        8
176
     1
 62
     7
176
     1
 40
1.0
176
     1
 90
        1
176
     1
 90
        6
176
     1
 90
        2
176
     1
 62
     7
176
     1
 90
        5
176
     1
 90
        0
176
     1
 90
        0
176
     1
290
     0
176
     1
 90
        1
176
     1
 40
0.0
176
     1
 90
        0
176
     1
290
     0
176
     1
290
     1
176
     1
290
     1
176
     1
290
     0
176
     1
290
     0
176
     1
290
     0
176
     1
290
     0
176
     1
290
     0
176
     1
290
     0
176
     1
 90
       50
176
     1
 40
0.0
176
     1
 40
1.0
176
     1
 90
        0
176
     1
 62
    18
420
        0
176
     1
 90
       50
176
     1
 90
        3
176
     1
 62
     5
420
      255
176
     1
290
     0
176
     1
 90
       50
176
     1
 90
       50
176
     1
 90
       50
176
     1
290
     0
176
     1
 90
       50
176
     1
 62
   256
176
     0
 40
1.0
176
     0
 90
        2
176
     1
  1
strokes_ogs.tif
176
     1
290
     0
176
     1
 40
1.0
176
     1
 40
1.0
176
     1
1001
ACAD
1000
AcDbSavedByObjectVersion
1070
     0
  0
VISUALSTYLE
  5
13F71
102
{ACAD_REACTORS
330
13DC5
102
}
330
13DC5
100
AcDbVisualStyle
  2
Flat
 70
     0
177
     3
291
     1
 70
    58
 90
        2
176
     1
 90
        1
176
     1
 90
        1
176
     1
 90
        2
176
     1
 40
0.6
176
     1
 40
30.0
176
     1
 62
     7
420
 16777215
176
     1
 90
        0
176
     1
 90
        0
176
     1
 62
     7
176
     1
 62
   257
176
     1
 90
        1
176
     1
 90
        1
176
     1
 40
1.0
176
     1
 90
        8
176
     1
 62
     7
176
     1
 40
1.0
176
     1
 90
        1
176
     1
 90
        6
176
     1
 90
        2
176
     1
 62
     7
176
     1
 90
        5
176
     1
 90
        0
176
     1
 90
        0
176
     1
290
     0
176
     1
 90
       13
176
     1
 40
0.0
176
     1
 90
        0
176
     1
290
     0
176
     1
290
     1
176
     1
290
     1
176
     1
290
     0
176
     1
290
     0
176
     1
290
     0
176
     1
290
     0
176
     1
290
     0
176
     1
290
     0
176
     1
 90
       50
176
     1
 40
0.0
176
     1
 40
1.0
176
     1
 90
        0
176
     1
 62
    18
420
        0
176
     1
 90
       50
176
     1
 90
        3
176
     1
 62
     5
420
      255
176
     1
290
     0
176
     1
 90
       50
176
     1
 90
       50
176
     1
 90
       50
176
     1
290
     0
176
     1
 90
       50
176
     1
 62
   256
176
     0
 40
1.0
176
     0
 90
        2
176
     1
  1
strokes_ogs.tif
176
     1
290
     0
176
     1
 40
1.0
176
     1
 40
1.0
176
     1
1001
ACAD
1000
AcDbSavedByObjectVersion
1070
     0
  0
VISUALSTYLE
  5
13F72
102
{ACAD_REACTORS
330
13DC5
102
}
330
13DC5
100
AcDbVisualStyle
  2
FlatWithEdges
 70
     1
177
     3
291
     1
 70
    58
 90
        2
176
     1
 90
        1
176
     1
 90
        1
176
     1
 90
        2
176
     1
 40
0.6
176
     1
 40
30.0
176
     1
 62
     7
420
 16777215
176
     1
 90
        1
176
     1
 90
        0
176
     1
 62
     7
176
     1
 62
   257
176
     1
 90
        1
176
     1
 90
        1
176
     1
 40
1.0
176
     1
 90
        0
176
     1
 62
   257
176
     1
 40
1.0
176
     1
 90
        1
176
     1
 90
        6
176
     1
 90
        2
176
     1
 62
     7
176
     1
 90
        5
176
     1
 90
        0
176
     1
 90
        0
176
     1
290
     0
176
     1
 90
       13
176
     1
 40
0.0
176
     1
 90
        0
176
     1
290
     0
176
     1
290
     1
176
     1
290
     1
176
     1
290
     0
176
     1
290
     0
176
     1
290
     0
176
     1
290
     0
176
     1
290
     0
176
     1
290
     0
176
     1
 90
       50
176
     1
 40
0.0
176
     1
 40
1.0
176
     1
 90
        0
176
     1
 62
    18
420
        0
176
     1
 90
       50
176
     1
 90
        3
176
     1
 62
     5
420
      255
176
     1
290
     0
176
     1
 90
       50
176
     1
 90
       50
176
     1
 90
       50
176
     1
290
     0
176
     1
 90
       50
176
     1
 62
   256
176
     0
 40
1.0
176
     0
 90
        2
176
     1
  1
strokes_ogs.tif
176
     1
290
     0
176
     1
 40
1.0
176
     1
 40
1.0
176
     1
1001
ACAD
1000
AcDbSavedByObjectVersion
1070
     0
  0
VISUALSTYLE
  5
13F73
102
{ACAD_REACTORS
330
13DC5
102
}
330
13DC5
100
AcDbVisualStyle
  2
Gouraud
 70
     2
177
     3
291
     1
 70
    58
 90
        2
176
     1
 90
        2
176
     1
 90
        1
176
     1
 90
        2
176
     1
 40
0.6
176
     1
 40
30.0
176
     1
 62
     7
420
 16777215
176
     1
 90
        0
176
     1
 90
        0
176
     1
 62
     7
176
     1
 62
   257
176
     1
 90
        1
176
     1
 90
        1
176
     1
 40
1.0
176
     1
 90
        0
176
     1
 62
     7
176
     1
 40
1.0
176
     1
 90
        1
176
     1
 90
        6
176
     1
 90
        2
176
     1
 62
     7
176
     1
 90
        5
176
     1
 90
        0
176
     1
 90
        0
176
     1
290
     0
176
     1
 90
       13
176
     1
 40
0.0
176
     1
 90
        0
176
     1
290
     0
176
     1
290
     1
176
     1
290
     1
176
     1
290
     0
176
     1
290
     0
176
     1
290
     0
176
     1
290
     0
176
     1
290
     0
176
     1
290
     0
176
     1
 90
       50
176
     1
 40
0.0
176
     1
 40
1.0
176
     1
 90
        0
176
     1
 62
    18
420
        0
176
     1
 90
       50
176
     1
 90
        3
176
     1
 62
     5
420
      255
176
     1
290
     0
176
     1
 90
       50
176
     1
 90
       50
176
     1
 90
       50
176
     1
290
     0
176
     1
 90
       50
176
     1
 62
   256
176
     0
 40
1.0
176
     0
 90
        2
176
     1
  1
strokes_ogs.tif
176
     1
290
     0
176
     1
 40
1.0
176
     1
 40
1.0
176
     1
1001
ACAD
1000
AcDbSavedByObjectVersion
1070
     0
  0
VISUALSTYLE
  5
13F74
102
{ACAD_REACTORS
330
13DC5
102
}
330
13DC5
100
AcDbVisualStyle
  2
GouraudWithEdges
 70
     3
177
     3
291
     1
 70
    58
 90
        2
176
     1
 90
        2
176
     1
 90
        1
176
     1
 90
        2
176
     1
 40
0.6
176
     1
 40
30.0
176
     1
 62
     7
420
 16777215
176
     1
 90
        1
176
     1
 90
        0
176
     1
 62
     7
176
     1
 62
   257
176
     1
 90
        1
176
     1
 90
        1
176
     1
 40
1.0
176
     1
 90
        0
176
     1
 62
   257
176
     1
 40
1.0
176
     1
 90
        1
176
     1
 90
        6
176
     1
 90
        2
176
     1
 62
     7
176
     1
 90
        5
176
     1
 90
        0
176
     1
 90
        0
176
     1
290
     0
176
     1
 90
       13
176
     1
 40
0.0
176
     1
 90
        0
176
     1
290
     0
176
     1
290
     1
176
     1
290
     1
176
     1
290
     0
176
     1
290
     0
176
     1
290
     0
176
     1
290
     0
176
     1
290
     0
176
     1
290
     0
176
     1
 90
       50
176
     1
 40
0.0
176
     1
 40
1.0
176
     1
 90
        0
176
     1
 62
    18
420
        0
176
     1
 90
       50
176
     1
 90
        3
176
     1
 62
     5
420
      255
176
     1
290
     0
176
     1
 90
       50
176
     1
 90
       50
176
     1
 90
       50
176
     1
290
     0
176
     1
 90
       50
176
     1
 62
   256
176
     0
 40
1.0
176
     0
 90
        2
176
     1
  1
strokes_ogs.tif
176
     1
290
     0
176
     1
 40
1.0
176
     1
 40
1.0
176
     1
1001
ACAD
1000
AcDbSavedByObjectVersion
1070
     0
  0
VISUALSTYLE
  5
13F76
102
{ACAD_REACTORS
330
13DC5
102
}
330
13DC5
100
AcDbVisualStyle
  2
Hidden
 70
     6
177
     3
291
     0
 70
    58
 90
        1
176
     1
 90
        2
176
     1
 90
        2
176
     1
 90
        0
176
     1
 40
0.6
176
     1
 40
30.0
176
     1
 62
     7
420
 16777215
176
     1
 90
        2
176
     1
 90
        2
176
     1
 62
     7
176
     1
 62
   257
176
     1
 90
        2
176
     1
 90
        1
176
     1
 40
40.0
176
     1
 90
        0
176
     1
 62
   257
176
     1
 40
1.0
176
     1
 90
        1
176
     1
 90
        6
176
     1
 90
        2
176
     1
 62
     7
176
     1
 90
        3
176
     1
 90
        0
176
     1
 90
        0
176
     1
290
     0
176
     1
 90
        1
176
     1
 40
0.0
176
     1
 90
        0
176
     1
290
     0
176
     1
290
     1
176
     1
290
     1
176
     1
290
     0
176
     1
290
     0
176
     1
290
     0
176
     1
290
     0
176
     1
290
     0
176
     1
290
     0
176
     1
 90
       50
176
     1
 40
0.0
176
     1
 40
1.0
176
     1
 90
        0
176
     1
 62
    18
420
        0
176
     1
 90
       50
176
     1
 90
        3
176
     1
 62
     5
420
      255
176
     1
290
     0
176
     1
 90
       50
176
     1
 90
       50
176
     1
 90
       50
176
     1
290
     0
176
     1
 90
       50
176
     1
 62
   256
176
     0
 40
1.0
176
     0
 90
        2
176
     1
  1
strokes_ogs.tif
176
     1
290
     0
176
     1
 40
1.0
176
     1
 40
1.0
176
     1
1001
ACAD
1000
AcDbSavedByObjectVersion
1070
     0
  0
VISUALSTYLE
  5
13F83
102
{ACAD_REACTORS
330
13DC5
102
}
330
13DC5
100
AcDbVisualStyle
  2
JitterOff
 70
    20
177
     3
291
     1
 70
    58
 90
        2
176
     0
 90
        2
176
     0
 90
        0
176
     0
 90
        0
176
     0
 40
0.6
176
     0
 40
30.0
176
     0
 62
     7
420
 16777215
176
     0
 90
        1
176
     0
 90
        4
176
     0
 62
     7
176
     0
 62
   257
176
     0
 90
        1
176
     0
 90
        1
176
     0
 40
1.0
176
     0
 90
       10
176
     2
 62
     7
176
     0
 40
1.0
176
     0
 90
        1
176
     0
 90
        6
176
     0
 90
        2
176
     0
 62
     7
176
     0
 90
        5
176
     0
 90
        0
176
     0
 90
        0
176
     0
290
     0
176
     0
 90
        1
176
     0
 40
0.0
176
     0
 90
        0
176
     0
290
     0
176
     0
290
     1
176
     0
290
     1
176
     0
290
     0
176
     0
290
     0
176
     0
290
     0
176
     0
290
     0
176
     0
290
     0
176
     0
290
     0
176
     0
 90
       50
176
     0
 40
0.0
176
     0
 40
1.0
176
     0
 90
        0
176
     0
 62
    18
420
        0
176
     0
 90
       50
176
     0
 90
        3
176
     0
 62
     5
420
      255
176
     0
290
     0
176
     0
 90
       50
176
     0
 90
       50
176
     0
 90
       50
176
     0
290
     0
176
     0
 90
       50
176
     0
 62
   256
176
     0
 40
1.0
176
     0
 90
        2
176
     0
  1
strokes_ogs.tif
176
     0
290
     0
176
     0
 40
1.0
176
     0
 40
1.0
176
     0
1001
ACAD
1000
AcDbSavedByObjectVersion
1070
     0
  0
VISUALSTYLE
  5
13F7B
102
{ACAD_REACTORS
330
13DC5
102
}
330
13DC5
100
AcDbVisualStyle
  2
Linepattern
 70
    14
177
     3
291
     1
 70
    58
 90
        2
176
     1
 90
        2
176
     1
 90
        0
176
     1
 90
        0
176
     1
 40
0.6
176
     1
 40
30.0
176
     1
 62
     7
420
 16777215
176
     1
 90
        1
176
     1
 90
        4
176
     1
 62
     7
176
     1
 62
   257
176
     1
 90
        7
176
     1
 90
        7
176
     1
 40
1.0
176
     1
 90
        8
176
     1
 62
     7
176
     1
 40
1.0
176
     1
 90
        1
176
     1
 90
        6
176
     1
 90
        2
176
     1
 62
     7
176
     1
 90
        5
176
     1
 90
        0
176
     1
 90
        0
176
     1
290
     0
176
     1
 90
        1
176
     1
 40
0.0
176
     1
 90
        0
176
     1
290
     0
176
     1
290
     1
176
     1
290
     1
176
     1
290
     0
176
     1
290
     0
176
     1
290
     0
176
     1
290
     0
176
     1
290
     0
176
     1
290
     0
176
     1
 90
       50
176
     1
 40
0.0
176
     1
 40
1.0
176
     1
 90
        0
176
     1
 62
    18
420
        0
176
     1
 90
       50
176
     1
 90
        3
176
     1
 62
     5
420
      255
176
     1
290
     0
176
     1
 90
       50
176
     1
 90
       50
176
     1
 90
       50
176
     1
290
     0
176
     1
 90
       50
176
     1
 62
   256
176
     0
 40
1.0
176
     0
 90
        2
176
     1
  1
strokes_ogs.tif
176
     1
290
     0
176
     1
 40
1.0
176
     1
 40
1.0
176
     1
1001
ACAD
1000
AcDbSavedByObjectVersion
1070
     0
  0
VISUALSTYLE
  5
13F84
102
{ACAD_REACTORS
330
13DC5
102
}
330
13DC5
100
AcDbVisualStyle
  2
OverhangOff
 70
    21
177
     3
291
     1
 70
    58
 90
        2
176
     0
 90
        2
176
     0
 90
        0
176
     0
 90
        0
176
     0
 40
0.6
176
     0
 40
30.0
176
     0
 62
     7
420
 16777215
176
     0
 90
        1
176
     0
 90
        4
176
     0
 62
     7
176
     0
 62
   257
176
     0
 90
        1
176
     0
 90
        1
176
     0
 40
1.0
176
     0
 90
        9
176
     2
 62
     7
176
     0
 40
1.0
176
     0
 90
        1
176
     0
 90
        6
176
     0
 90
        2
176
     0
 62
     7
176
     0
 90
        5
176
     0
 90
        0
176
     0
 90
        0
176
     0
290
     0
176
     0
 90
        1
176
     0
 40
0.0
176
     0
 90
        0
176
     0
290
     0
176
     0
290
     1
176
     0
290
     1
176
     0
290
     0
176
     0
290
     0
176
     0
290
     0
176
     0
290
     0
176
     0
290
     0
176
     0
290
     0
176
     0
 90
       50
176
     0
 40
0.0
176
     0
 40
1.0
176
     0
 90
        0
176
     0
 62
    18
420
        0
176
     0
 90
       50
176
     0
 90
        3
176
     0
 62
     5
420
      255
176
     0
290
     0
176
     0
 90
       50
176
     0
 90
       50
176
     0
 90
       50
176
     0
290
     0
176
     0
 90
       50
176
     0
 62
   256
176
     0
 40
1.0
176
     0
 90
        2
176
     0
  1
strokes_ogs.tif
176
     0
290
     0
176
     0
 40
1.0
176
     0
 40
1.0
176
     0
1001
ACAD
1000
AcDbSavedByObjectVersion
1070
     0
  0
VISUALSTYLE
  5
13DF6
102
{ACAD_REACTORS
330
13DC5
102
}
330
13DC5
100
AcDbVisualStyle
  2
Realistic
 70
     8
177
     3
291
     0
 70
    58
 90
        2
176
     1
 90
        2
176
     1
 90
        0
176
     1
 90
        0
176
     1
 40
0.6
176
     1
 40
30.0
176
     1
 62
     7
420
 16777215
176
     1
 90
        1
176
     1
 90
        0
176
     1
 62
     7
176
     1
 62
   257
176
     1
 90
        1
176
     1
 90
        1
176
     1
 40
1.0
176
     1
 90
        8
176
     1
 62
     8
420
  7895160
176
     1
 40
1.0
176
     1
 90
        1
176
     1
 90
        6
176
     1
 90
        2
176
     1
 62
     7
176
     1
 90
        5
176
     1
 90
        0
176
     1
 90
        0
176
     1
290
     0
176
     1
 90
       13
176
     1
 40
0.0
176
     1
 90
        0
176
     1
290
     0
176
     1
290
     1
176
     1
290
     1
176
     1
290
     0
176
     1
290
     0
176
     1
290
     0
176
     1
290
     0
176
     1
290
     0
176
     1
290
     0
176
     1
 90
       50
176
     1
 40
0.0
176
     1
 40
1.0
176
     1
 90
        0
176
     1
 62
    18
176
     1
 90
       50
176
     1
 90
        3
176
     1
 62
     5
420
      255
176
     1
290
     0
176
     1
 90
       50
176
     1
 90
       50
176
     1
 90
       50
176
     1
290
     0
176
     1
 90
       50
176
     1
 62
   256
176
     0
 40
1.0
176
     0
 90
        2
176
     1
  1
strokes_ogs.tif
176
     1
290
     0
176
     1
 40
1.0
176
     1
 40
1.0
176
     1
1001
ACAD
1000
AcDbSavedByObjectVersion
1070
     0
  0
VISUALSTYLE
  5
13F82
102
{ACAD_REACTORS
330
13DC5
102
}
330
13DC5
100
AcDbVisualStyle
  2
Shaded
 70
    27
177
     3
291
     0
 70
    58
 90
        2
176
     1
 90
        2
176
     1
 90
        1
176
     1
 90
        2
176
     1
 40
0.6
176
     1
 40
30.0
176
     1
 62
     7
420
 16777215
176
     1
 90
        0
176
     1
 90
        4
176
     1
 62
     7
176
     1
 62
   257
176
     1
 90
        1
176
     1
 90
        1
176
     1
 40
1.0
176
     1
 90
        8
176
     1
 62
   257
176
     1
 40
1.0
176
     1
 90
        1
176
     1
 90
        6
176
     1
 90
        2
176
     1
 62
     8
420
  7895160
176
     1
 90
        3
176
     1
 90
        0
176
     1
 90
        0
176
     1
290
     0
176
     1
 90
        5
176
     1
 40
0.0
176
     1
 90
        0
176
     1
290
     0
176
     1
290
     1
176
     1
290
     1
176
     1
290
     0
176
     1
290
     0
176
     1
290
     0
176
     1
290
     0
176
     1
290
     0
176
     1
290
     0
176
     1
 90
       50
176
     1
 40
0.0
176
     1
 40
1.0
176
     1
 90
        0
176
     1
 62
    18
420
        0
176
     1
 90
       50
176
     1
 90
        3
176
     1
 62
     5
420
      255
176
     1
290
     0
176
     1
 90
       50
176
     1
 90
       50
176
     1
 90
       50
176
     1
290
     0
176
     1
 90
       50
176
     1
 62
   256
176
     0
 40
1.0
176
     0
 90
        2
176
     1
  1
strokes_ogs.tif
176
     1
290
     0
176
     1
 40
1.0
176
     1
 40
1.0
176
     1
1001
ACAD
1000
AcDbSavedByObjectVersion
1070
     0
  0
VISUALSTYLE
  5
13F81
102
{ACAD_REACTORS
330
13DC5
102
}
330
13DC5
100
AcDbVisualStyle
  2
Shaded with edges
 70
    26
177
     3
291
     0
 70
    58
 90
        2
176
     1
 90
        2
176
     1
 90
        1
176
     1
 90
        2
176
     1
 40
0.6
176
     1
 40
30.0
176
     1
 62
     7
420
 16777215
176
     1
 90
        1
176
     1
 90
        2
176
     1
 62
     7
176
     1
 62
   257
176
     1
 90
        2
176
     1
 90
        1
176
     1
 40
1.0
176
     1
 90
        8
176
     1
 62
   257
176
     1
 40
1.0
176
     1
 90
        1
176
     1
 90
        6
176
     1
 90
        2
176
     1
 62
     7
176
     1
 90
        3
176
     1
 90
        0
176
     1
 90
        0
176
     1
290
     0
176
     1
 90
        5
176
     1
 40
0.0
176
     1
 90
        0
176
     1
290
     0
176
     1
290
     1
176
     1
290
     1
176
     1
290
     0
176
     1
290
     0
176
     1
290
     0
176
     1
290
     0
176
     1
290
     0
176
     1
290
     0
176
     1
 90
       50
176
     1
 40
0.0
176
     1
 40
1.0
176
     1
 90
        0
176
     1
 62
    18
420
        0
176
     1
 90
       50
176
     1
 90
        3
176
     1
 62
     5
420
      255
176
     1
290
     0
176
     1
 90
       50
176
     1
 90
       50
176
     1
 90
       50
176
     1
290
     0
176
     1
 90
       50
176
     1
 62
   256
176
     0
 40
1.0
176
     0
 90
        2
176
     1
  1
strokes_ogs.tif
176
     1
290
     0
176
     1
 40
1.0
176
     1
 40
1.0
176
     1
1001
ACAD
1000
AcDbSavedByObjectVersion
1070
     0
  0
VISUALSTYLE
  5
13F7E
102
{ACAD_REACTORS
330
13DC5
102
}
330
13DC5
100
AcDbVisualStyle
  2
Shades of Gray
 70
    23
177
     3
291
     0
 70
    58
 90
        2
176
     1
 90
        2
176
     1
 90
        3
176
     1
 90
        0
176
     1
 40
0.6
176
     1
 40
30.0
176
     1
 62
     7
420
 16777215
176
     1
 90
        2
176
     1
 90
        2
176
     1
 62
     7
176
     1
 62
     7
176
     1
 90
        1
176
     1
 90
        1
176
     1
 40
40.0
176
     1
 90
        8
176
     1
 62
     7
176
     1
 40
1.0
176
     1
 90
        1
176
     1
 90
        6
176
     1
 90
        2
176
     1
 62
     7
176
     1
 90
        3
176
     1
 90
        0
176
     1
 90
        0
176
     1
290
     0
176
     1
 90
        1
176
     1
 40
0.0
176
     1
 90
        0
176
     1
290
     0
176
     1
290
     1
176
     1
290
     1
176
     1
290
     0
176
     1
290
     0
176
     1
290
     0
176
     1
290
     0
176
     1
290
     0
176
     1
290
     0
176
     1
 90
       50
176
     1
 40
0.0
176
     1
 40
1.0
176
     1
 90
        0
176
     1
 62
    18
420
        0
176
     1
 90
       50
176
     1
 90
        3
176
     1
 62
     5
420
      255
176
     1
290
     0
176
     1
 90
       50
176
     1
 90
       50
176
     1
 90
       50
176
     1
290
     0
176
     1
 90
       50
176
     1
 62
   256
176
     0
 40
1.0
176
     0
 90
        2
176
     1
  1
strokes_ogs.tif
176
     1
290
     0
176
     1
 40
1.0
176
     1
 40
1.0
176
     1
1001
ACAD
1000
AcDbSavedByObjectVersion
1070
     0
  0
VISUALSTYLE
  5
13F7F
102
{ACAD_REACTORS
330
13DC5
102
}
330
13DC5
100
AcDbVisualStyle
  2
Sketchy
 70
    24
177
     3
291
     0
 70
    58
 90
        1
176
     1
 90
        2
176
     1
 90
        2
176
     1
 90
        0
176
     1
 40
0.6
176
     1
 40
30.0
176
     1
 62
     7
420
 16777215
176
     1
 90
        2
176
     1
 90
        2
176
     1
 62
     7
176
     1
 62
     7
176
     1
 90
        1
176
     1
 90
        1
176
     1
 40
40.0
176
     1
 90
       11
176
     1
 62
     7
176
     1
 40
1.0
176
     1
 90
        1
176
     1
 90
        6
176
     1
 90
        2
176
     1
 62
     7
176
     1
 90
        6
176
     1
 90
        0
176
     1
 90
        0
176
     1
290
     0
176
     1
 90
        1
176
     1
 40
0.0
176
     1
 90
        0
176
     1
290
     0
176
     1
290
     1
176
     1
290
     1
176
     1
290
     0
176
     1
290
     0
176
     1
290
     0
176
     1
290
     0
176
     1
290
     0
176
     1
290
     0
176
     1
 90
       50
176
     1
 40
0.0
176
     1
 40
1.0
176
     1
 90
        0
176
     1
 62
    18
420
        0
176
     1
 90
       50
176
     1
 90
        3
176
     1
 62
     5
420
      255
176
     1
290
     0
176
     1
 90
       50
176
     1
 90
       50
176
     1
 90
       50
176
     1
290
     0
176
     1
 90
       50
176
     1
 62
   256
176
     0
 40
1.0
176
     0
 90
        2
176
     1
  1
strokes_ogs.tif
176
     1
290
     0
176
     1
 40
1.0
176
     1
 40
1.0
176
     1
1001
ACAD
1000
AcDbSavedByObjectVersion
1070
     0
  0
VISUALSTYLE
  5
13F7A
102
{ACAD_REACTORS
330
13DC5
102
}
330
13DC5
100
AcDbVisualStyle
  2
Thicken
 70
    13
177
     3
291
     1
 70
    58
 90
        2
176
     1
 90
        2
176
     1
 90
        0
176
     1
 90
        0
176
     1
 40
0.6
176
     1
 40
30.0
176
     1
 62
     7
420
 16777215
176
     1
 90
        1
176
     1
 90
        4
176
     1
 62
     7
176
     1
 62
   257
176
     1
 90
        1
176
     1
 90
        1
176
     1
 40
1.0
176
     1
 90
       12
176
     1
 62
     7
176
     1
 40
1.0
176
     1
 90
        1
176
     1
 90
        6
176
     1
 90
        2
176
     1
 62
     7
176
     1
 90
        5
176
     1
 90
        0
176
     1
 90
        0
176
     1
290
     0
176
     1
 90
        1
176
     1
 40
0.0
176
     1
 90
        0
176
     1
290
     0
176
     1
290
     1
176
     1
290
     1
176
     1
290
     0
176
     1
290
     0
176
     1
290
     0
176
     1
290
     0
176
     1
290
     0
176
     1
290
     0
176
     1
 90
       50
176
     1
 40
0.0
176
     1
 40
1.0
176
     1
 90
        0
176
     1
 62
    18
420
        0
176
     1
 90
       50
176
     1
 90
        3
176
     1
 62
     5
420
      255
176
     1
290
     0
176
     1
 90
       50
176
     1
 90
       50
176
     1
 90
       50
176
     1
290
     0
176
     1
 90
       50
176
     1
 62
   256
176
     0
 40
1.0
176
     0
 90
        2
176
     1
  1
strokes_ogs.tif
176
     1
290
     0
176
     1
 40
1.0
176
     1
 40
1.0
176
     1
1001
ACAD
1000
AcDbSavedByObjectVersion
1070
     0
  0
VISUALSTYLE
  5
13DF7
102
{ACAD_REACTORS
330
13DC5
102
}
330
13DC5
100
AcDbVisualStyle
  2
Wireframe
 70
     5
177
     3
291
     0
 70
    58
 90
        0
176
     1
 90
        2
176
     1
 90
        0
176
     1
 90
        0
176
     1
 40
0.6
176
     1
 40
30.0
176
     1
 62
     7
420
 16777215
176
     1
 90
        1
176
     1
 90
        4
176
     1
 62
     7
176
     1
 62
   257
176
     1
 90
        1
176
     1
 90
        1
176
     1
 40
1.0
176
     1
 90
        0
176
     1
 62
   257
176
     1
 40
1.0
176
     1
 90
        1
176
     1
 90
        6
176
     1
 90
        2
176
     1
 62
     7
176
     1
 90
        3
176
     1
 90
        0
176
     1
 90
        0
176
     1
290
     0
176
     1
 90
        1
176
     1
 40
0.0
176
     1
 90
        0
176
     1
290
     0
176
     1
290
     1
176
     1
290
     1
176
     1
290
     0
176
     1
290
     0
176
     1
290
     0
176
     1
290
     0
176
     1
290
     0
176
     1
290
     0
176
     1
 90
       50
176
     1
 40
0.0
176
     1
 40
1.0
176
     1
 90
        0
176
     1
 62
    18
176
     1
 90
       50
176
     1
 90
        3
176
     1
 62
     5
420
      255
176
     1
290
     0
176
     1
 90
       50
176
     1
 90
       50
176
     1
 90
       50
176
     1
290
     0
176
     1
 90
       50
176
     1
 62
   256
176
     0
 40
1.0
176
     0
 90
        2
176
     1
  1
strokes_ogs.tif
176
     1
290
     0
176
     1
 40
1.0
176
     1
 40
1.0
176
     1
1001
ACAD
1000
AcDbSavedByObjectVersion
1070
     0
  0
VISUALSTYLE
  5
13F80
102
{ACAD_REACTORS
330
13DC5
102
}
330
13DC5
100
AcDbVisualStyle
  2
X-Ray
 70
    25
177
     3
291
     0
 70
    58
 90
        2
176
     1
 90
        2
176
     1
 90
        1
176
     1
 90
        1
176
     1
 40
0.5
176
     1
 40
30.0
176
     1
 62
     7
420
 16777215
176
     1
 90
        1
176
     1
 90
        0
176
     1
 62
     7
176
     1
 62
   257
176
     1
 90
        1
176
     1
 90
        1
176
     1
 40
1.0
176
     1
 90
        8
176
     1
 62
     7
176
     1
 40
1.0
176
     1
 90
        1
176
     1
 90
        6
176
     1
 90
        2
176
     1
 62
     7
176
     1
 90
        3
176
     1
 90
        0
176
     1
 90
        0
176
     1
290
     0
176
     1
 90
       13
176
     1
 40
0.0
176
     1
 90
        0
176
     1
290
     0
176
     1
290
     1
176
     1
290
     1
176
     1
290
     0
176
     1
290
     0
176
     1
290
     0
176
     1
290
     0
176
     1
290
     0
176
     1
290
     0
176
     1
 90
       50
176
     1
 40
0.0
176
     1
 40
1.0
176
     1
 90
        0
176
     1
 62
    18
420
        0
176
     1
 90
       50
176
     1
 90
        3
176
     1
 62
     5
420
      255
176
     1
290
     0
176
     1
 90
       50
176
     1
 90
       50
176
     1
 90
       50
176
     1
290
     0
176
     1
 90
       50
176
     1
 62
   256
176
     0
 40
1.0
176
     0
 90
        2
176
     1
  1
strokes_ogs.tif
176
     1
290
     0
176
     1
 40
1.0
176
     1
 40
1.0
176
     1
1001
ACAD
1000
AcDbSavedByObjectVersion
1070
     0
  0
DICTIONARYVAR
  5
13DE3
102
{ACAD_REACTORS
330
13DE2
102
}
330
13DE2
100
DictionaryVariables
280
     0
  1
1:1
  0
DICTIONARYVAR
  5
13DE4
102
{ACAD_REACTORS
330
13DE2
102
}
330
13DE2
100
DictionaryVariables
280
     0
  1
STANDARD
  0
DICTIONARYVAR
  5
13DE5
102
{ACAD_REACTORS
330
13DE2
102
}
330
13DE2
100
DictionaryVariables
280
     0
  1
STANDARD
  0
DICTIONARYVAR
  5
13DE6
102
{ACAD_REACTORS
330
13DE2
102
}
330
13DE2
100
DictionaryVariables
280
     0
  1
Imperial24
  0
DICTIONARYVAR
  5
13DE7
102
{ACAD_REACTORS
330
13DE2
102
}
330
13DE2
100
DictionaryVariables
280
     0
  1
Imperial24
  0
DICTIONARYVAR
  5
13DE8
102
{ACAD_REACTORS
330
13DE2
102
}
330
13DE2
100
DictionaryVariables
280
     0
  1
1
  0
DICTIONARYVAR
  5
13DE9
102
{ACAD_REACTORS
330
13DE2
102
}
330
13DE2
100
DictionaryVariables
280
     0
  1
15
  0
DICTIONARYVAR
  5
13DEA
102
{ACAD_REACTORS
330
13DE2
102
}
330
13DE2
100
DictionaryVariables
280
     0
  1
0
  0
DICTIONARYVAR
  5
13DEB
102
{ACAD_REACTORS
330
13DE2
102
}
330
13DE2
100
DictionaryVariables
280
     0
  1
0
  0
DICTIONARY
  5
14435
102
{ACAD_REACTORS
330
14433
102
}
330
14433
100
AcDbDictionary
281
     1
  0
DICTIONARY
  5
14434
102
{ACAD_REACTORS
330
14433
102
}
330
14433
100
AcDbDictionary
281
     1
  3
2661920181344
350
1442E
  3
2661920181360
350
1442F
  3
2661920181376
350
14430
  3
2661920181392
350
14431
  3
2661920181408
350
14432
  0
DICTIONARY
  5
14438
330
13F89
100
AcDbDictionary
280
     1
281
     1
  3
ACAD_XREC_ROUNDTRIP
360
14439
  0
DICTIONARY
  5
13DB3
330
13DB2
100
AcDbDictionary
280
     1
281
     1
  0
DICTIONARY
  5
13DAE
330
13DAC
100
AcDbDictionary
280
     1
281
     1
  0
DICTIONARY
  5
13DD7
330
13DD6
100
AcDbDictionary
280
     1
281
     1
  3
BUMPTILE
360
13DD8
  3
DIFFUSETILE
360
13DD9
  3
OPACITYTILE
360
13DDA
  3
REFLECTIONTILE
360
13DDB
  3
REFRACTIONTILE
360
13DDC
  3
SPECULARTILE
360
13DDD
  0
DICTIONARY
  5
13DCF
330
13DCE
100
AcDbDictionary
280
     1
281
     1
  3
BUMPTILE
360
13DD0
  3
DIFFUSETILE
360
13DD1
  3
OPACITYTILE
360
13DD2
  3
REFLECTIONTILE
360
13DD3
  3
REFRACTIONTILE
360
13DD4
  3
SPECULARTILE
360
13DD5
  0
DICTIONARY
  5
13F59
330
8DC
100
AcDbDictionary
280
     1
281
     1
  3
ADVMATERIAL
360
13F5C
  3
DIFFUSETILE
360
13F5A
  3
OPACITYTILE
360
13F5D
  3
SPECULARTILE
360
13F5B
  0
DICTIONARY
  5
13D86
330
13D84
100
AcDbDictionary
280
     1
281
     1
  3
BUMPTILE
360
13D87
  3
DIFFUSETILE
360
13D88
  3
OPACITYTILE
360
13D89
  3
REFLECTIONTILE
360
13D8A
  3
REFRACTIONTILE
360
13D8B
  3
SPECULARTILE
360
13D8C
  0
DICTIONARY
  5
14436
330
13F87
100
AcDbDictionary
280
     1
281
     1
  3
ACAD_XREC_ROUNDTRIP
360
14437
  0
DICTIONARY
  5
13DF5
330
13DF4
100
AcDbDictionary
280
     1
281
     1
  3
ACAD_ROUNDTRIP_2008_TABLESTYLE_CELLSTYLEMAP
360
1442C
  0
XRECORD
  5
1442E
102
{ACAD_REACTORS
330
14434
102
}
330
14434
100
AcDbXrecord
280
     1
  1
AcDb_Thumbnail_Schema
102
{ATTRRECORD
341
1442F
  2
AcDbDs::TreatedAsObjectData
280
     1
291
     1
102
ATTRRECORD}
102
{ATTRRECORD
341
14430
  2
AcDbDs::Legacy
280
     1
291
     1
102
ATTRRECORD}
  2
AcDbDs::ID
280
    10
 91
        8
102
{ATTRRECORD
341
14431
  2
AcDs:Indexable
280
     1
291
     1
102
ATTRRECORD}
102
{ATTRRECORD
341
14432
  2
AcDbDs::HandleAttribute
280
     7
282
     1
102
ATTRRECORD}
  2
Thumbnail_Data
280
    15
 91
        0
  0
XRECORD
  5
1442F
102
{ACAD_REACTORS
330
14434
102
}
330
14434
100
AcDbXrecord
280
     1
  1
AcDbDs::TreatedAsObjectDataSchema
  2
AcDbDs::TreatedAsObjectData
280
     1
 91
        0
  0
XRECORD
  5
14430
102
{ACAD_REACTORS
330
14434
102
}
330
14434
100
AcDbXrecord
280
     1
  1
AcDbDs::LegacySchema
  2
AcDbDs::Legacy
280
     1
 91
        0
  0
XRECORD
  5
14431
102
{ACAD_REACTORS
330
14434
102
}
330
14434
100
AcDbXrecord
280
     1
  1
AcDbDs::IndexedPropertySchema
  2
AcDs:Indexable
280
     1
 91
        0
  0
XRECORD
  5
14432
102
{ACAD_REACTORS
330
14434
102
}
330
14434
100
AcDbXrecord
280
     1
  1
AcDbDs::HandleAttributeSchema
  2
AcDbDs::HandleAttribute
280
     7
 91
        1
284
     1
  0
XRECORD
  5
14439
102
{ACAD_REACTORS
330
14438
102
}
330
14438
100
AcDbXrecord
280
     1
102
DISPLAYNAME
  1
Imperial24
102
FLAGS
 90
        0
  0
XRECORD
  5
13DD8
102
{ACAD_REACTORS
330
13DD7
102
}
330
13DD7
100
AcDbXrecord
280
     1
270
     1
271
     1
  0
XRECORD
  5
13DD9
102
{ACAD_REACTORS
330
13DD7
102
}
330
13DD7
100
AcDbXrecord
280
     1
270
     1
271
     1
  0
XRECORD
  5
13DDA
102
{ACAD_REACTORS
330
13DD7
102
}
330
13DD7
100
AcDbXrecord
280
     1
270
     1
271
     1
  0
XRECORD
  5
13DDB
102
{ACAD_REACTORS
330
13DD7
102
}
330
13DD7
100
AcDbXrecord
280
     1
270
     1
271
     1
  0
XRECORD
  5
13DDC
102
{ACAD_REACTORS
330
13DD7
102
}
330
13DD7
100
AcDbXrecord
280
     1
270
     1
271
     1
  0
XRECORD
  5
13DDD
102
{ACAD_REACTORS
330
13DD7
102
}
330
13DD7
100
AcDbXrecord
280
     1
270
     1
271
     1
  0
XRECORD
  5
13DD0
102
{ACAD_REACTORS
330
13DCF
102
}
330
13DCF
100
AcDbXrecord
280
     1
270
     1
271
     1
  0
XRECORD
  5
13DD1
102
{ACAD_REACTORS
330
13DCF
102
}
330
13DCF
100
AcDbXrecord
280
     1
270
     1
271
     1
  0
XRECORD
  5
13DD2
102
{ACAD_REACTORS
330
13DCF
102
}
330
13DCF
100
AcDbXrecord
280
     1
270
     1
271
     1
  0
XRECORD
  5
13DD3
102
{ACAD_REACTORS
330
13DCF
102
}
330
13DCF
100
AcDbXrecord
280
     1
270
     1
271
     1
  0
XRECORD
  5
13DD4
102
{ACAD_REACTORS
330
13DCF
102
}
330
13DCF
100
AcDbXrecord
280
     1
270
     1
271
     1
  0
XRECORD
  5
13DD5
102
{ACAD_REACTORS
330
13DCF
102
}
330
13DCF
100
AcDbXrecord
280
     1
270
     1
271
     1
  0
XRECORD
  5
13F5C
102
{ACAD_REACTORS
330
13F59
102
}
330
13F59
100
AcDbXrecord
280
     1
460
100.0
461
100.0
462
100.0
463
100.0
290
     0
270
     0
464
0.0
293
     0
272
     3
273
     3
  0
XRECORD
  5
13F5A
102
{ACAD_REACTORS
330
13F59
102
}
330
13F59
100
AcDbXrecord
280
     1
270
     1
271
     1
  0
XRECORD
  5
13F5D
102
{ACAD_REACTORS
330
13F59
102
}
330
13F59
100
AcDbXrecord
280
     1
270
     1
271
     1
  0
XRECORD
  5
13F5B
102
{ACAD_REACTORS
330
13F59
102
}
330
13F59
100
AcDbXrecord
280
     1
270
     1
271
     1
  0
XRECORD
  5
13D87
102
{ACAD_REACTORS
330
13D86
102
}
330
13D86
100
AcDbXrecord
280
     1
270
     1
271
     1
  0
XRECORD
  5
13D88
102
{ACAD_REACTORS
330
13D86
102
}
330
13D86
100
AcDbXrecord
280
     1
270
     1
271
     1
  0
XRECORD
  5
13D89
102
{ACAD_REACTORS
330
13D86
102
}
330
13D86
100
AcDbXrecord
280
     1
270
     1
271
     1
  0
XRECORD
  5
13D8A
102
{ACAD_REACTORS
330
13D86
102
}
330
13D86
100
AcDbXrecord
280
     1
270
     1
271
     1
  0
XRECORD
  5
13D8B
102
{ACAD_REACTORS
330
13D86
102
}
330
13D86
100
AcDbXrecord
280
     1
270
     1
271
     1
  0
XRECORD
  5
13D8C
102
{ACAD_REACTORS
330
13D86
102
}
330
13D86
100
AcDbXrecord
280
     1
270
     1
271
     1
  0
XRECORD
  5
14437
102
{ACAD_REACTORS
330
14436
102
}
330
14436
100
AcDbXrecord
280
     1
102
DISPLAYNAME
  1
Imperial24
102
FLAGS
 90
        0
  0
CELLSTYLEMAP
  5
1442C
102
{ACAD_REACTORS
330
13DF5
102
}
330
13DF5
100
AcDbCellStyleMap
 90
        3
300
CELLSTYLE
  1
TABLEFORMAT_BEGIN
 90
        5
170
     1
 91
        0
 92
    32768
 62
   257
 93
        1
300
CONTENTFORMAT
  1
CONTENTFORMAT_BEGIN
 90
        0
 91
        0
 92
        4
 93
        0
300

 40
0.0
140
1.0
 94
        5
 62
     0
340
13DBB
144
0.25
309
CONTENTFORMAT_END
171
     1
301
MARGIN
  1
CELLMARGIN_BEGIN
 40
0.06
 40
0.06
 40
0.06
 40
0.06
 40
0.18
 40
0.18
309
CELLMARGIN_END
 94
        6
 95
        1
302
GRIDFORMAT
  1
GRIDFORMAT_BEGIN
 90
        0
 91
        1
 62
     0
 92
       -2
340
0
 93
        0
 40
0.045
309
GRIDFORMAT_END
 95
        2
302
GRIDFORMAT
  1
GRIDFORMAT_BEGIN
 90
        0
 91
        1
 62
     0
 92
       -2
340
0
 93
        0
 40
0.045
309
GRIDFORMAT_END
 95
        4
302
GRIDFORMAT
  1
GRIDFORMAT_BEGIN
 90
        0
 91
        1
 62
     0
 92
       -2
340
0
 93
        0
 40
0.045
309
GRIDFORMAT_END
 95
        8
302
GRIDFORMAT
  1
GRIDFORMAT_BEGIN
 90
        0
 91
        1
 62
     0
 92
       -2
340
0
 93
        0
 40
0.045
309
GRIDFORMAT_END
 95
       16
302
GRIDFORMAT
  1
GRIDFORMAT_BEGIN
 90
        0
 91
        1
 62
     0
 92
       -2
340
0
 93
        0
 40
0.045
309
GRIDFORMAT_END
 95
       32
302
GRIDFORMAT
  1
GRIDFORMAT_BEGIN
 90
        0
 91
        1
 62
     0
 92
       -2
340
0
 93
        0
 40
0.045
309
GRIDFORMAT_END
309
TABLEFORMAT_END
  1
CELLSTYLE_BEGIN
 90
        1
 91
        1
300
_TITLE
309
CELLSTYLE_END
300
CELLSTYLE
  1
TABLEFORMAT_BEGIN
 90
        5
170
     1
 91
        0
 92
        0
 62
   257
 93
        1
300
CONTENTFORMAT
  1
CONTENTFORMAT_BEGIN
 90
        0
 91
        0
 92
        4
 93
        0
300

 40
0.0
140
1.0
 94
        5
 62
     0
340
13DBB
144
0.18
309
CONTENTFORMAT_END
171
     1
301
MARGIN
  1
CELLMARGIN_BEGIN
 40
0.06
 40
0.06
 40
0.06
 40
0.06
 40
0.18
 40
0.18
309
CELLMARGIN_END
 94
        6
 95
        1
302
GRIDFORMAT
  1
GRIDFORMAT_BEGIN
 90
        0
 91
        1
 62
     0
 92
       -2
340
0
 93
        0
 40
0.045
309
GRIDFORMAT_END
 95
        2
302
GRIDFORMAT
  1
GRIDFORMAT_BEGIN
 90
        0
 91
        1
 62
     0
 92
       -2
340
0
 93
        0
 40
0.045
309
GRIDFORMAT_END
 95
        4
302
GRIDFORMAT
  1
GRIDFORMAT_BEGIN
 90
        0
 91
        1
 62
     0
 92
       -2
340
0
 93
        0
 40
0.045
309
GRIDFORMAT_END
 95
        8
302
GRIDFORMAT
  1
GRIDFORMAT_BEGIN
 90
        0
 91
        1
 62
     0
 92
       -2
340
0
 93
        0
 40
0.045
309
GRIDFORMAT_END
 95
       16
302
GRIDFORMAT
  1
GRIDFORMAT_BEGIN
 90
        0
 91
        1
 62
     0
 92
       -2
340
0
 93
        0
 40
0.045
309
GRIDFORMAT_END
 95
       32
302
GRIDFORMAT
  1
GRIDFORMAT_BEGIN
 90
        0
 91
        1
 62
     0
 92
       -2
340
0
 93
        0
 40
0.045
309
GRIDFORMAT_END
309
TABLEFORMAT_END
  1
CELLSTYLE_BEGIN
 90
        2
 91
        1
300
_HEADER
309
CELLSTYLE_END
300
CELLSTYLE
  1
TABLEFORMAT_BEGIN
 90
        5
170
     1
 91
        0
 92
        0
 62
   257
 93
        1
300
CONTENTFORMAT
  1
CONTENTFORMAT_BEGIN
 90
        0
 91
        0
 92
        4
 93
        0
300

 40
0.0
140
1.0
 94
        2
 62
     0
340
13DBB
144
0.18
309
CONTENTFORMAT_END
171
     1
301
MARGIN
  1
CELLMARGIN_BEGIN
 40
0.06
 40
0.06
 40
0.06
 40
0.06
 40
0.18
 40
0.18
309
CELLMARGIN_END
 94
        6
 95
        1
302
GRIDFORMAT
  1
GRIDFORMAT_BEGIN
 90
        0
 91
        1
 62
     0
 92
       -2
340
0
 93
        0
 40
0.045
309
GRIDFORMAT_END
 95
        2
302
GRIDFORMAT
  1
GRIDFORMAT_BEGIN
 90
        0
 91
        1
 62
     0
 92
       -2
340
0
 93
        0
 40
0.045
309
GRIDFORMAT_END
 95
        4
302
GRIDFORMAT
  1
GRIDFORMAT_BEGIN
 90
        0
 91
        1
 62
     0
 92
       -2
340
0
 93
        0
 40
0.045
309
GRIDFORMAT_END
 95
        8
302
GRIDFORMAT
  1
GRIDFORMAT_BEGIN
 90
        0
 91
        1
 62
     0
 92
       -2
340
0
 93
        0
 40
0.045
309
GRIDFORMAT_END
 95
       16
302
GRIDFORMAT
  1
GRIDFORMAT_BEGIN
 90
        0
 91
        1
 62
     0
 92
       -2
340
0
 93
        0
 40
0.045
309
GRIDFORMAT_END
 95
       32
302
GRIDFORMAT
  1
GRIDFORMAT_BEGIN
 90
        0
 91
        1
 62
     0
 92
       -2
340
0
 93
        0
 40
0.045
309
GRIDFORMAT_END
309
TABLEFORMAT_END
  1
CELLSTYLE_BEGIN
 90
        3
 91
        2
300
_DATA
309
CELLSTYLE_END
  0
ENDSEC
  0
SECTION
  2
ACDSDATA
 70
     2
 71
     8
  0
ACDSSCHEMA
 90
        0
  1
AcDb_Thumbnail_Schema
  2
AcDbDs::ID
280
    10
 91
        8
  2
Thumbnail_Data
280
    15
 91
        0
101
ACDSRECORD
 95
        0
 90
        1
  2
AcDbDs::TreatedAsObjectData
280
     1
291
     1
101
ACDSRECORD
 95
        0
 90
        2
  2
AcDbDs::Legacy
280
     1
291
     1
101
ACDSRECORD
  1
AcDbDs::ID
 90
        3
  2
AcDs:Indexable
280
     1
291
     1
101
ACDSRECORD
  1
AcDbDs::ID
 90
        4
  2
AcDbDs::HandleAttribute
280
     7
282
     1
  0
ACDSSCHEMA
 90
        1
  1
AcDbDs::TreatedAsObjectDataSchema
  2
AcDbDs::TreatedAsObjectData
280
     1
 91
        0
  0
ACDSSCHEMA
 90
        2
  1
AcDbDs::LegacySchema
  2
AcDbDs::Legacy
280
     1
 91
        0
  0
ACDSSCHEMA
 90
        3
  1
AcDbDs::IndexedPropertySchema
  2
AcDs:Indexable
280
     1
 91
        0
  0
ACDSSCHEMA
 90
        4
  1
AcDbDs::HandleAttributeSchema
  2
AcDbDs::HandleAttribute
280
     7
 91
        1
284
     1
  0
ACDSRECORD
 90
        0
  2
AcDbDs::ID
280
    10
320
13DAC
  2
Thumbnail_Data
280
    15
 94
     1017
310
89504E470D0A1A0A0000000D4948445200000100000000890803000000F46416F000000300504C5445FEFCF0000000FFFFFF0000000000000000000000000000000000000000000000000000330000660000990000CC0000FF0033000033330033660033990033CC0033FF0066000066330066660066990066CC0066FF0099
310
000099330099660099990099CC0099FF00CC0000CC3300CC6600CC9900CCCC00CCFF00FF0000FF3300FF6600FF9900FFCC00FFFF3300003300333300663300993300CC3300FF3333003333333333663333993333CC3333FF3366003366333366663366993366CC3366FF3399003399333399663399993399CC3399FF33CC00
310
33CC3333CC6633CC9933CCCC33CCFF33FF0033FF3333FF6633FF9933FFCC33FFFF6600006600336600666600996600CC6600FF6633006633336633666633996633CC6633FF6666006666336666666666996666CC6666FF6699006699336699666699996699CC6699FF66CC0066CC3366CC6666CC9966CCCC66CCFF66FF0066
310
FF3366FF6666FF9966FFCC66FFFF9900009900339900669900999900CC9900FF9933009933339933669933999933CC9933FF9966009966339966669966999966CC9966FF9999009999339999669999999999CC9999FF99CC0099CC3399CC6699CC9999CCCC99CCFF99FF0099FF3399FF6699FF9999FFCC99FFFFCC0000CC00
310
33CC0066CC0099CC00CCCC00FFCC3300CC3333CC3366CC3399CC33CCCC33FFCC6600CC6633CC6666CC6699CC66CCCC66FFCC9900CC9933CC9966CC9999CC99CCCC99FFCCCC00CCCC33CCCC66CCCC99CCCCCCCCCCFFCCFF00CCFF33CCFF66CCFF99CCFFCCCCFFFFFF0000FF0033FF0066FF0099FF00CCFF00FFFF3300FF3333
310
FF3366FF3399FF33CCFF33FFFF6600FF6633FF6666FF6699FF66CCFF66FFFF9900FF9933FF9966FF9999FF99CCFF99FFFFCC00FFCC33FFCC66FFCC99FFCCCCFFCCFFFFFF00FFFF33FFFF66FFFF99FFFFCCFFFFFF0000000D0D0D1A1A1A2828283535354343435050505D5D5D6B6B6B787878868686939393A1A1A1AEAEAEBB
310
BBBBC9C9C9D6D6D6E4E4E4F1F1F1FFFFFF0000000000000000000000000000000000000000000000000000000000007C77BAA7000000B44944415478DAEDD0310100000C0220FBB7B48931760C22903E1701020408102040800001020408102040800001020408102040800001020408102040800001020408102040800001
310
020408102040800001020408102040800001020408102040800001020408102040800001020408102040800001020408102040800001020408102040800001020408102040800001020408102040800001020408102040800001020408102040800001020408102040C099016B33700943E05F3C0000000049454E44AE4260
310
82
  0
ACDSRECORD
 90
        0
  2
AcDbDs::ID
280
    10
320
13DB2
  2
Thumbnail_Data
280
    15
 94
     1183
310
89504E470D0A1A0A0000000D4948445200000100000000C508030000008CFEDCE700000300504C5445FFFFFF000000FFFFFF0000000000000000000000000000000000000000000000000000330000660000990000CC0000FF0033000033330033660033990033CC0033FF0066000066330066660066990066CC0066FF0099
310
000099330099660099990099CC0099FF00CC0000CC3300CC6600CC9900CCCC00CCFF00FF0000FF3300FF6600FF9900FFCC00FFFF3300003300333300663300993300CC3300FF3333003333333333663333993333CC3333FF3366003366333366663366993366CC3366FF3399003399333399663399993399CC3399FF33CC00
310
33CC3333CC6633CC9933CCCC33CCFF33FF0033FF3333FF6633FF9933FFCC33FFFF6600006600336600666600996600CC6600FF6633006633336633666633996633CC6633FF6666006666336666666666996666CC6666FF6699006699336699666699996699CC6699FF66CC0066CC3366CC6666CC9966CCCC66CCFF66FF0066
310
FF3366FF6666FF9966FFCC66FFFF9900009900339900669900999900CC9900FF9933009933339933669933999933CC9933FF9966009966339966669966999966CC9966FF9999009999339999669999999999CC9999FF99CC0099CC3399CC6699CC9999CCCC99CCFF99FF0099FF3399FF6699FF9999FFCC99FFFFCC0000CC00
310
33CC0066CC0099CC00CCCC00FFCC3300CC3333CC3366CC3399CC33CCCC33FFCC6600CC6633CC6666CC6699CC66CCCC66FFCC9900CC9933CC9966CC9999CC99CCCC99FFCCCC00CCCC33CCCC66CCCC99CCCCCCCCCCFFCCFF00CCFF33CCFF66CCFF99CCFFCCCCFFFFFF0000FF0033FF0066FF0099FF00CCFF00FFFF3300FF3333
310
FF3366FF3399FF33CCFF33FFFF6600FF6633FF6666FF6699FF66CCFF66FFFF9900FF9933FF9966FF9999FF99CCFF99FFFFCC00FFCC33FFCC66FFCC99FFCCCCFFCCFFFFFF00FFFF33FFFF66FFFF99FFFFCCFFFFFF0000000D0D0D1A1A1A2828283535354343435050505D5D5D6B6B6B787878868686939393A1A1A1AEAEAEBB
310
BBBBC9C9C9D6D6D6E4E4E4F1F1F1FFFFFF000000000000000000000000000000000000000000000000000000000000790CAC0F0000015A4944415478DAEDD8410A8340100440FFFFCCF9C09EE61E104224896014844D579F64F420A587DE592A3A632CD5C101100F500500C0F36ACDF6D636BFCEEBAEF9E9177D0788FBF600
310
000000000000004D1000000000000000100F50FB4F4C9E8B5578FAFF0300000000000000000000000000000000B00BD069000D0000000000000000A009020000000000000000000000000000000052013A0DA001000000000000000000A8C2000000000000000000000000000000402A40FC420400000000000000002016C0
310
5900000000000000000000000000000000C803885F88000000000000000000C402380B0000000000000000000000000000000000E2003A0DA0010000000000000000344100000000000000000000000000000000C0E7C660F21C04080D0000000000000000C01F54DE73151900000000000000D0AFCDCFB6227CDDAB1C9CD7
310
5DF3D32FAA0902000000C00A109E658C110DF0000E6CC6FBCCF8EC2E0000000049454E44AE426082
  0
ENDSEC
  0
SECTION
  2
THUMBNAILIMAGE
 90
    24432
310
28000000B80000007F0000000100080000000000485B000001000000010000000001000000000000FFFFFF005858584030303000F8F8F83F50505000A8A8A80048484800404040003838380088888840B8B8B8008080803F6868680098989800A0A0A000D0D0D000E8E8E800FFFFFF40FFFFFF00FFFFFF3FFFFFFF6CFFFFFF
310
00FFFFFF00FFFFFF00FFFFFF00FFFFFF40FFFFFF00FFFFFF3FFFFFFF00FFFFFF00FFFFFF00FFFFFF00FFFFFF00FFFFFF40FFFFFF00FFFFFF3FFFFFFF6CFFFFFF00FFFFFF00FFFFFF00FFFFFF00FFFFFF40FFFFFF00FFFFFF3FFFFFFF00FFFFFF00FFFFFF00FFFFFF00FFFFFF00FFFFFF40FFFFFF00FFFFFF3FFFFFFF00FFFF
310
FF00FFFFFF00FFFFFF00FFFFFF00FFFFFF40FFFFFF00FFFFFF3FFFFFFF00FFFFFF00FFFFFF00FFFFFF00FFFFFF00FFFFFF40FFFFFF00FFFFFF3FFFFFFF00FFFFFF00FFFFFF00FFFFFF00FFFFFF00FFFFFF40FFFFFF00FFFFFF3FFFFFFF00FFFFFF00FFFFFF00FFFFFF00FFFFFF00FFFFFF40FFFFFF00FFFFFF3FFFFFFF00FF
310
FFFF00FFFFFF00FFFFFF00FFFFFF00FFFFFF40FFFFFF00FFFFFF3FFFFFFF00FFFFFF00FFFFFF00FFFFFF00FFFFFF00FFFFFF40FFFFFF00FFFFFF3FFFFFFF00FFFFFF00FFFFFF00FFFFFF00FFFFFF00FFFFFF40FFFFFF00FFFFFF3FFFFFFF00FFFFFF00FFFFFF00FFFFFF00FFFFFF00FFFFFF40FFFFFF00FFFFFF3FFFFFFFDE
310
FFFFFF00FFFFFF00FFFFFF00FFFFFF00FFFFFF40FFFFFF00FFFFFF3FFFFFFFBAFFFFFF00FFFFFF00FFFFFF00FFFFFF00FFFFFF40FFFFFF00FFFFFF3FFFFFFFDEFFFFFF00FFFFFF00FFFFFF00FFFFFF00FFFFFF40FFFFFF00FFFFFF3FFFFFFFDEFFFFFF00FFFFFF00FFFFFF00FFFFFF00FFFFFF40FFFFFF00FFFFFF3FFFFFFF
310
00FFFFFF00FFFFFF00FFFFFF00FFFFFF00FFFFFF40FFFFFF00FFFFFF3FFFFFFF00FFFFFF00FFFFFF00FFFFFF00FFFFFF00FFFFFF40FFFFFF00FFFFFF3FFFFFFFDEFFFFFF00FFFFFF00FFFFFF00FFFFFF00FFFFFF40FFFFFF00FFFFFF3FFFFFFF00FFFFFF00FFFFFF00FFFFFF00FFFFFF00FFFFFF40FFFFFF00FFFFFF3FFFFF
310
FFCEFFFFFF41FFFFFF00FFFFFF00FFFFFF00FFFFFF40FFFFFF00FFFFFF3FFFFFFF00FFFFFF00FFFFFF00FFFFFF00FFFFFF00FFFFFF40FFFFFF00FFFFFF3FFFFFFF00FFFFFF00FFFFFF00FFFFFF00FFFFFF00FFFFFF40FFFFFF00FFFFFF3FFFFFFF00FFFFFF00FFFFFF00FFFFFF00FFFFFF00FFFFFF40FFFFFF00FFFFFF3FFF
310
FFFF00FFFFFF00FFFFFF00FFFFFF00FFFFFF00FFFFFF40FFFFFF00FFFFFF3FFFFFFF00FFFFFF00FFFFFF00FFFFFF00FFFFFF00FFFFFF40FFFFFF00FFFFFF3FFFFFFF00FFFFFF00FFFFFF00FFFFFF00FFFFFF00FFFFFF40FFFFFF00FFFFFF3FFFFFFF00FFFFFF00FFFFFF00FFFFFF00FFFFFF00FFFFFF40FFFFFF00FFFFFF3F
310
FFFFFF00FFFFFF00FFFFFF00FFFFFF00FFFFFF00FFFFFF40FFFFFF00FFFFFF3FFFFFFF72FFFFFF79FFFFFF00FFFFFF0000000000000000000000000000000000000000000000000000000000000000000000000000000000000000000000000000000000000000000000000000000000000000000000000000000000000000
310
00000000000000000000000000000000000000000000000000000000000000000000000000000000000000000000000000000000000000000000000000000000000000000000000000000000000000000000000000000000000000000000000000000000000000000000000000000000000000000000000000000000000000
310
00000000000000000000000000000000000000000000000000000000000000000000000000000000000000000000000000000000000000000000000000000000000000000000000000000000000000000000000000000000000000000000000000000000000000000000000000000000000000000000000000000000000000
310
00000000000000000000000000000000000000000000000000000000000000000000000000000000000000000000000000000000000000000000000000000000000000000000000000000000000000000000000000000000000000000000000000000000000000000000000000000000000007000009030003030303030303
310
03030303030900000700000000000000000000000000000000000000000000000000000000000000000000000000000000000000000000000000000000000000000000000000000000000000000000000000000000000000000000000000000000000000000000000000000000000000000000000000000000000000000000
310
00000000000000000000000000000000000000000000000000000000000000000000000000000000000000000303030309000000000000000000000000090303030300000000000000000000000000000000000000000000000000000000000000000000000000000000000000000000000000000000000000000000000000
310
00000000000000000000000000000000000000000000000000000000000000000000000000000000000000000000000000000000000000000000000000000000000000000000000000000000000000000000000000000000000000000000000000040303030700000000000000000000000000000000000000000703030304
310
00000000000000000000000000000000000000000000000000000000000000000000000000000000000000000000000000000000000000000000000000000000000000000000000000000000000000000000000000000000000000000000000000000000000000000000000000000000000000000000000000000000000000
310
00000000000000000000000000000000000000000000000000040A0300000000000000000000000000000000000000000000000000000000030A040000000000000000000000000000000000000000000000000000000000000000000000000000000000000000000000000000000000000000000000000000000000000000
310
00000000000000000000000000000000000000000000000000000000000000000000000000000000000000000000000000000000000000000000000000000000000000000000000000000000000000000000030A0400000000000000000000000000000000000000000000000000000000040A030300000000000000000000
310
00000000000000000000000000000000000000000000000000000000000000000000000000000000000000000000000000000000000000000000000000000000000000000000000000000000000000000000000000000000000000000000000000000000000000000000000000000000000000000000000000000000000000
310
00000000000000000000090304000000000000000000000000000000000000000000000000000000000000000004030900000000000000000000000000000000000000000000000000000000000000000000000000000000000000000000000000000000000000000000000000000000000000000000000000000000000000
310
00000000000000000000000000000000000000000000000000000000000000000000000000000000000000000000000000000000000000000000000000000000000903030900000000000000000000000000000000000000000000000000000000000000000000090303090000000000000000000000000000000000000000
310
00000000000000000000000000000000000000000000000000000000000000000000000000000000000000000000000000000000000000000000000000000000000000000000000000000000000000000000000000000000000000000000000000000000000000000000000000000000000000000000000000000309000000
310
00000000000000000000000000000000000000000000000000000000000000000000000903000000000000000000000000000000000000000000000000000000000000000000000000000000000000000000000000000000000000000000000000000000000000000000000000000000000000000000000000000000000000
310
00000000000000000000000000000000000000000000000000000000000000000000000000000000000000000000000000000903030000000000000000000000000000000000000000000000000000000000000000000000000000000000030900000000000000000000000000000000000000000000000000000000000000
310
00000000000000000000000000000000000000000000000000000000000000000000000000000000000000000000000000000000000000000000000000000000000000000000000000000000000000000000000000000000000000000000000000000000000000000000090309000000000000000000000000000000000000
310
00000000000000000000000000000000000000000000000009030900000000000000000000000000000000000000000000000000000000000000000000000000000000000000000000000000000000000000000000000000000000000000000000000000000000000000000000000000000000000000000000000000000000
310
00000000000000000000000000000000000000000000000000000000000000000000000003090000000000000000000000000000000000000000000000000000000000000000000000000000000000000000090300000000000000000000000000000000000000000000000000000000000000000000000000000000000000
310
00000000000000000000000000000000000000000000000000000000000000000000000000000000000000000000000000000000000000000000000000000000000000000000000000000000000000000000000000000000000000000903000000000000000000000000000000000000000000000000000000000000000000
310
00000000000000000000000000030900000000000000000000000000000000000000000000000000000000000000000000000000000000000000000000000000000000000000000000000000000000000000000000000000000000000000000000000000000000000000000000000000000000000000000000000000000000
310
00000000000000000000000000000000000000000000030900000000000000000000000000000000000000000000000000000000000000000000000000000000000000000000090300000000000000000000000000000000000000000000000000000000000000000000000000000000000000000000000000000000000000
310
00000000000000000000000000000000000000000000000000000000000000000000000000000000000000000000000000000000000000000000000000000000000000000000000000000000000000000000000000000000000000000000000000000000000000000000000000000000000000000000000000000000000000
310
00000300000000000000000000000000000000000000000000000000000000000000000000000000000000000000000000000000000000000000000000000000000000000000000000000000000000000000000000000000000000000000000000000000000000000000000000000000000000000000000000000000000000
310
00000000000000090300000000000000000000000000000000000000000000000000000000000000000000000000000000000000000000000000000309000000000000000000000000000000000000000000000000000000000000000000000000000000000000000000000000000000000000000000000000000000000000
310
00000000000000000000000000000000000000000000000000000000000000000000000000000000000000000000000000000000000000000000000000000000030900000000000000000000000000000000000000000000000000000000000000000000000000000000000000000000000000000903000000000000000000
310
00000000000000000000000000000000000000000000000000000000000000000000000000000000000000000000000000000000000000000000000000000000000000000000000000000000000000000000000000000000000000000000000000000000000000000000000000000000000000000000000009030000000000
310
00000000000000000000000000000000000000000000000000000000000000000000000000000000000000000000000309000000000000000000000000000000000000000000000000000000000000000000000000000000000000000000000000000000000000000000000000000000000000000000000000000000000000
310
00000000000000000000000000000000000000000000000000000000000000000000000000000000000000000000000000000309000000000000000000000000000000000000000000000000000000000000000000000000000000000000000000000000000000000E03020000000000000000000000000000000000000000
310
00000000000000000000000000000000000000000000000000000000000000000000000000000000000000000000000000000000000000000000000000000000000000000000000000000000000000000000000000000000000000000000000000000000000000000000020302000000000000000000000000000000000000
310
00000000000000000000000000000000000000000000000000000000000000000000000000000000000000000000000000000000000000000000000000000000000000000000000000000000000000000000000000000000000000000000000000000000000000000000000000000000000000000000000000000000000000
310
00000000000000000000000000000000000000000000000000000000000000000000000004030400000000000000000000000000000000000000000000000000000000000000000000000000000000000000000000000000000000040304000000000000000000000000000000000000000000000000000000000000000000
310
0000000000000000000000000000000000000000000000000000000000000000000000000000000000000000000000000000000000000000000000000000000000000000000000000000000000000000000000000000000000000000000A0A0000000000000000000000000000000000000000000000000000000000000000
310
000000000000000000000000000000000000000000000A0A00000000000000000000000000000000000000000000000000000000000000000000000000000000000000000000000000000000000000000000000000000000000000000000000000000000000000000000000000000000000000000000000000000000000000
310
00000000000000000000000000000000000000000000040304000000000000000000000000000000000000000000000000000000000000000000000000000000000000000000000000000000000000040304000000000000000000000000000000000000000000000000000000000000000000000000000000000000000000
310
00000000000000000000000000000000000000000000000000000000000000000000000000000000000000000000000000000000000000000000000000000000000000000000000000000000000000000300000000000000000000000000000000000000000000000000000000000000000000000000000000000000000000
310
00000000000000000000030000000000000000000000000000000000000000000000000000000000000000000000000000000000000000000000000000000000000000000000000000000000000000000000000000000000000000000000000000000000000000000000000000000000000000000000000000000000000000
310
00000000000000000003000000000000000000000000000000000000000000000000000000000000000000000000000000000000000000000000000000000000000000000300000000000000000000000000000000000000000000000000000000000000000000000000000000000000000000000000000000000000000000
310
00000000000000000000000000000000000000000000000000000000000000000000000000000000000000000000000000000000000000000000000000000000000003000000000000000000000000000000000000000000000000000000000000000000000000000000000000000000000000000000000000000000000300
310
00000000000000000000000000000000000000000000000000000000000000000000000000000000000000000000000000000000000000000000000000000000000000000000000000000000000000000000000000000000000000000000000000000000000000000000000000000000000000000000000000000003000000
310
00000000000000000000000000000000000000000000000000000000000000000000000000000000000000000000000000000000000000030000000000000000000000000000000000000000000000000000000000000000000000000000000000000000000000000000000000000000000000000000000000000000000000
310
00000000000000000000000000000000000000000000000000000000000000000000000000000000000000000000000000000000040304000000000000000000000000000000000000000000000000000000000000000000000000000000000000000000000000000000000000000004030400000000000000000000000000
310
000000000000000000000000000000000000000000000000000000000000000000000000000000000000000000000000000000000000000000000000000000000000000000000000000000000000000000000000000000000000000000000000000000000000000000000000000A0A00000000000000000000000000000000
310
0000000000000000000000030303030000000000000000000000000000000000000000000000000000000A0A0000000000000000000000000000000000000000000000000000000000000000000000000000000000000000000000000000000000000000000000000000000000000000000000000000000000000000000000
310
00000000000000000000000000000000000000000000000000000000000000000000000000000403040000000000000000000000000000000000000000000000000000030303030303000000000000000000000000000000000000000000000000000004030400000000000000000000000000000000000000000000000000
310
00000000000000000000000000000000000000000000000000000000000000000000000000000000000000000000000000000000000000000000000000000000000000000000000000000000000000000000000000000000000000000000000000000000000000000000000000000000000000000000000000000000030303
310
03030300000000000000000000000000000000000000000000000000000003000000000000000000000000000000000000000000000000000000000000000000000000000000000000000000000000000000000000000000000000000000000000000000000000000000000000000000000000000000000000000000000000
310
00000000000000000000000000000000000000000000000000000300000000000000000000000000000000000000000000000000000003000D01010300000000000000000000000000000000000000000000000000000003000000000000000000000000000000000000000000000000000000000000000000000000000000
310
00000000000000000000000000000000000000000000000000000000000000000000000000000000000000000000000000000000000000000000000000000000000000000000000000000400000000030303030000000000000000000000000000000000000000000000000000000003000000000300000000000000000000
310
00000000000000000000000000000000000000030303000000000400000000000000000000000000000000000000000000000000000000000000000000000000000000000000000000000000000000000000000000000000000000000000000000000000000000000000000000000000000000000000000000000000000000
310
0000040A03030303030000000000000000000000000000000000000000000000000000000000000000030000000003000000000000000000000000000000000000000000000000000000000000000003030303030A040002000000000000000000000000000000000000000000000000000000000000000000000000000000
310
0000000000000000000000000000000000000000000000000000000000000000000000000000000000000000000000000000000000000000000200030A04000000000000000000000000000000000000000000000000000000000000000000000000030D0D0D0D030000000000000000000000000000000000000000000000
310
00000000000000000000000000040A03000300000000000000000000000000000000000000000000000000000000000000000000000000000000000000000000000000000000000000000000000000000000000000000000000000000000000000000000000000000000000000000000000303000400000000000000000000
310
00000000000000000000000000000000000000000000000000000000030303030303000000000000000000000000000000000000000000000000000000000000000000000000000004000303000000000000000000000000000000000000000000000000000000000000000000000000000000000000000000000000000000
310
00000000000000000000000000000000000000000000000000000000000000000000000000000004030303000200000000000000000000000000000000000000000000000000000000000000000000000000000000000303030300000000000000000000000000000000000000000000000000000000000000000000000000
310
00000000000003030304000000000000000000000000000000000000000000000000000000000000000000000000000000000000000000000000000000000000000000000000000000000000000000000000000000000000000000000000040A03000000000000000000000000000000000000000000000000000000000000
310
000000000000000000000000000003030303030303030000000000000000000000000000000000000000000000000000000000000000000000000000000000000000030A0400000000000000000000000000000000000000000000000000000000000000000000000000000000000000000000000000000000000000000000
310
000000000000000000000000000000000000000000000000030A04000000000000000000000000000000000000000000000000000000000000000000000000000000000000000003030303030303030000000000000000000000000000000000000000000000000000000000000000000000000000000000000000040A0300
310
00000000000000000000000000000000000000000000000000000000000000000000000000000000000000000000000000000000000000000000000000000000000000000000000000000000000000090304000000000000000000000000000000000000000000000000000000000000000000000000000000000000000000
310
00000003000003000000000000000000000000000000000000000000000000000000000000000000000000000000000000000000000000040309000000000000000000000000000000000000000000000000000000000000000000000000000000000000000000000000000000000000000000000000000000000000000000
310
00000000000000000003090000000000000000000000000000000000000000000000000000000000000000000000000000000000000000000703030303000003030303070000000000000000000000000000000000000000000000000000000000000000000000000000000000000000000903000000000000000000000000
310
000000000000000000000000000000000000000000000000000000000000000000000000000000000000000000000000000000000000000000000000000000000903000000000000000000000000000000000000000000000000000000000000000000000000000000000000000000000007030303030D0003030303070000
310
00000000000000000000000000000000000000000000000000000000000000000000000000000000000000000003090000000000000000000000000000000000000000000000000000000000000000000000000000000000000000000000000000000000000000000000000000000000000000000000000000030900000000
310
00000000000000000000000000000000000000000000000000000000000000000000000000000000000000000000000303030300000000000000000000000000000000000000000000000000000000000000000000000000000000000000000000000000000009030000000000000000000000000000000000000000000000
310
00000000000000000000000000000000000000000000000000000000000000000000000000000000000000000000000000040304000000000000000000000000000000000000000000000000000000000000000000000000000000000000000000000000000000000303030300000000000000000000000000000000000000
310
000000000000000000000000000000000000000000000000000000000000000000040304000000000000000000000000000000000000000000000000000000000000000000000000000000000000000000000000000000000000000000000000000000000000000000000A0A00000000000000000000000000000000000000
310
000000000000000000000000000000000000000000000000000000000000000000000303030300000000000000000000000000000000000000000000000000000000000000000000000000000000000000000000000000000000000A0A00000000000000000000000000000000000000000000000000000000000000000000
310
00000000000000000000000000000000000000000000000000000000000000000000000403040000000000000000000000000000000000000000000000000000000000000000000000000000000000000000000000000000000000030303030000000000000000000000000000000000000000000000000000000000000000
310
00000000000000000000000000000000000000000004030400000000000000000000000000000000000000000000000000000000000000000000000000000000000000000000000000000000000000000000000000000000000000040304000000000000000000000000000000000000000000000000000000000000000000
310
00000000000000000000000000000000000000000003030303000000000000000000000000000000000000000000000000000000000000000000000000000000000000000000000000000000000000040304000000000000000000000000000000000000000000000000000000000000000000000000000000000000000000
310
0000000000000000000000000000000000000000000A0A0000000000000000000000000000000000000000000000000000000000000000000000000000000000000000000000000000000000000003030303000000000000000000000000000000000000000000000000000000000000000000000000000000000000000000
310
000000000000000000000A0A00000000000000000000000000000000000000000000000000000000000000000000000000000000000000000000000000000000000000000000000000000000000403040000000000000000000000000000000000000000000000000000000000000000000000000000000000000000000000
310
00000000000000000303030300000000000000000000000000000000000000000000000000000000000000000000000000000000000000000000000000000000000000040304000000000000000000000000000000000000000000000000000000000000000000000000000000000000000000000000000000000000000000
310
00000000000000090300000000000000000000000000000000000000000000000000000000000000000000000000000000000000000000000000000000000000000303030300000000000000000000000000000000000000000000000000000000000000000000000000000000000000000000000000000000000000000309
310
00000000000000000000000000000000000000000000000000000000000000000000000000000000000000000000000000000000000000000000000000000000030900000000000000000000000000000000000000000000000000000000000000000000000000000000000000000000000000000000000000000303030300
310
00000000000000000000000000000000000000000000000000000000000000000000000000000000000000000000000000000000000000090300000000000000000000000000000000000000000000000000000000000000000000000000000000000000000000000000000000000000000000000000000000000000000000
310
00000000000000000000000000000000000000000000000000000000000000000000000000000000000000000000000000000000030303030000000000000000000000000000000000000000000000000000000000000000000000000000000000000000000000000000000000000000000000000000000000000000000000
310
00000000000000000000000000000000000000000000000000000000000000000000000000000000000000000000000000000503070000000000000000000000000000000000000000000000000000000000000000000000000000000000000000000000000000000000000000030303030000000000000000000000000000
310
00000000000000000000000000000000000000000000000000000000000000000000000000000000000007030500000000000000000000000000000000000000000000000000000000000000000000000000000000000000000000000000000000000000000000000000000309000000000000000000000000000000000000
310
00000000000000000000000000000000000000000000000000000000000000000000000000000003030303000000000000000000000000000000000000000000000000000000000000000000000000000000000000000000000000000000000000000000090300000000000000000000000000000000000000000000000000
310
00000000000000000000000000000000000000000000000000000000000000000000000000000000000000000000000000000000000000000000000000000000000000000000000000000000000000000000000000000000000000000000000003030303000000000000000000000000000000000000000000000000000000
310
00000000000000000000000000000000000000000000000000000000000000000000000000000000000000000000000000000000000000000000000000000000000000000000000000000000000000000000000000000000000000000000030000000000000000000000000000000000000000000000000000000000000000
310
00000000000000000000000000000000000000000000000000000301000300000000000000000000000000000000000000000000000000000000000000000000000000000000000000000000000000000000000000000000030000000000000000000000000000000000000000000000000000000000000000000000000000
310
000000000000000000000000000000000000000000000000030000000000000000000000000000000000000000000000000000000000000000000000000007070000000000000000000000000000000000000003000003000000000000000000000000000000000000000C0000000000000000000000000000000000000000
310
00000000000000000000000000000000000003000000000000000000000000000000000000000000000000000000000000000000000000000000000000000000000000000000000000000000000000000000000000000000000000000000000000000000000000000000000000000000000000000000000303040000000000
310
00000000000000000000000000030000030000000000000000000000000000000000000003030400000000000000000000000000000000000000000000000000000000000000000000000000000000000000000000000000000000000000000000000000000000000000000000000000000000000000000000000000000000
310
00000000000000000000040304000000000000000000000000000000000000000000000000000000000000000000000300030303060000000000000000000000000000000000030100030000000000000000000000000000000000000003030603000000000000000000000000000000000000000000000000000000000000
310
000000000403040000000000000000000000000000000000000000000000000000000000000000000000000000000000000000000000000000000000000000000000000A0A00000000000000000000000000000000000000000000000000000000000000000000030300030300000000000000000000000000000000000003
310
03030003030000000000000000000000000000000000000303000303000000000000000000000000000000000000000000000000000000000000000000000A0A000000000000000000000000000000000000000000000000000000000000000000000000000000000000000000000000000000000000000000000004030400
310
00000000000000000000000000000000000000000000000003030303030303030303030303030303030303030303030303030303030303030303010303030303030303030303030303030303030303030303030303030303030303030303000000000000000000000000000000000000000000000000000403040000000000
310
00000000000000000000000000000000000000000000000000000000000000000000000000000000000000000000000000000000000003000000000000000000000000000000000000000000000000000003030300000000030303030000000303000000000000000000000303060000060306000006030600000603030000
310
00000000000000000303000000030303030000000003030300000000000000000000000000000000000000000000000000000300000000000000000000000000000000000000000000000000000000000000000000000000000000000000000000000000000000000000000000000000000000000000000000000000000000
310
00000000000000000000000303030000000003030303000000030303030303030303030303030F000000000F0000000010000000001003030303030303030303030303000000030303030000000003030300000000000000000000000000000000000000000000000000000000000000000000000000000000000000000000
310
00000000000000000000000000000000000000000000000000000000000000000000000000000000000300000000000000000000000000000000000000000000000000000303030000000003030303000000030300000000000000000000030306000006030900000903060000060303000000000000000000000303000000
310
03030303000000000303030000000000000000000000000000000000000000000000000000030000000000000000000000000000000000000000000000000000000000000000000000000000000000000000000000000000000000000000000000040304000000000000000000000000000000000000000000000000000303
310
03030303030303030303030303030303030303030303030303030303030303030300030303030303030303030303030303030303030303030303030303030303030303030000000000000000000000000000000000000000000000000004030400000000000000000000000000000000000000000000000000000000000000
310
000000000000000000000000000000000000000000000000000000000A0A00000000000000000000000000000000000000000000000000000000000000000000030300030300000000000000000000000000000000000003030303030300000000000000000000000000000000000003030003030000000000000000000000
310
00000000000000000000000000000000000000000000000A0A000000000000000000000000000000000000000000000000000000000000000000000000000000000000000000000000000000000000000000000000040304000000000000000000000000000000000000000000000000000000000000000000000300030303
310
040000000000000000000000000000000000030100030000000000000000000000000000000000000003030B0300000000000000000000000000000000000000000000000000000000000000000000040304000000000000000000000000000000000000000000000000000000000000000000000000000000000000000000
310
00000000000000000000000000000000000000000000000000000000000000000000000000000000000000000000000000000000000003030000000000000000000000000000000000000003000003000000000000000000000000000000000000000303000000000000000000000000000000000000000000000000000000
310
000000000000000000000000000000000000000000000000000000000000000000000000000000000000000000000000000000000000000000000000000000000000000000000000000300000000000000000000000000000000000000000000000000000000000000000000000000000C0000000000000000000000000000
310
00000000000300000300000000000000000000000000000000000000070700000000000000000000000000000000000000000000000000000000000000000000000000030000000000000000000000000000000000000000000000000000000000000000000000000000000000000000000000000000000000000000000000
310
00000003000000000000000000000000000000000000000000000000000000000000000000000000000000000000000000000000000000000000000000000301000300000000000000000000000000000000000000000000000000000000000000000000000000000000000000000000000000000000000000000000030000
310
00000000000000000000000000000000000000000000000000000000000000000000000000000000000000000000000000000000000000000000000000000000000000000000000000000000000000000000000000000000000000000000000000000000000000000000000000000000000000000000000303030300000000
310
00000000000000000000000000000000000000000000000000000000000000000000000000000000000000000000000000000000000000000000000000000000000000000000000000000000000000000000000000000000000000000000000000000000000000000000000000000000000000000003090000000000000000
310
00000000000000000000000000000000000000000000000000000000000000000000000000000000000000000000000000030303030000000000000000000000000000000000000000000000000000000000000000000000000000000000000000000000000000000000000000000903000000000000000000000000000000
310
00000000000000000000000000000000000000000000000000000000000000000000000000000000000000000000000503070000000000000000000000000000000000000000000000000000000000000000000000000000000000000000000000000000000000000000030303030000000000000000000000000000000000
310
00000000000000000000000000000000000000000000000000000000000000000000000000000007030500000000000000000000000000000000000000000000000000000000000000000000000000000000000000000000000000000000000000000000000000000000000000000000000000000000000000000000000000
310
00000000000000000000000000000000000000000000000000000000000000000000000003030303000000000000000000000000000000000000000000000000000000000000000000000000000000000000000000000000000000000000000000000000000000000000000000000000000000000000000000000000000000
310
00000000000000000000000000000000000000000000000000000000000000000000000309000000000000000000000000000000000000000000000000000000000000000000000000000000000000000000000000000000000000000003030303000000000000000000000000000000000000000000000000000000000000
310
00000000000000000000000000000000000000000000000000000903000000000000000000000000000000000000000000000000000000000000000000000000000000000000000000000000000000000000000000000000000000000903000000000000000000000000000000000000000000000000000000000000000000
310
00000000000000000000000000000000000000000000000303030300000000000000000000000000000000000000000000000000000000000000000000000000000000000000000000000000000000000000000309000000000000000000000000000000000000000000000000000000000000000000000000000000000000
310
00000000000000000000000000000000000000000000040304000000000000000000000000000000000000000000000000000000000000000000000000000000000000000000000000000000000000000303030300000000000000000000000000000000000000000000000000000000000000000000000000000000000000
310
00000000000000000000000004030400000000000000000000000000000000000000000000000000000000000000000000000000000000000000000000000000000000000000000000000000000000000A0A000000000000000000000000000000000000000000000000000000000000000000000000000000000000000000
310
0000000000000000000003030303000000000000000000000000000000000000000000000000000000000000000000000000000000000000000000000000000000000000000A0A0000000000000000000000000000000000000000000000000000000000000000000000000000000000000000000000000000000000000000
310
00000000000000000000040304000000000000000000000000000000000000000000000000000000000000000000000000000000000000000000000000000000000000030303030000000000000000000000000000000000000000000000000000000000000000000000000000000000000000000000000000000000000403
310
04000000000000000000000000000000000000000000000000000000000000000000000000000000000000000000000000000000000000000000000000000000000000000403040000000000000000000000000000000000000000000000000000000000000000000000000000000000000000000000000000000000030303
310
0300000000000000000000000000000000000000000000000000000000000000000000000000000000000000000000000000000000000403040000000000000000000000000000000000000000000000000000000000000000000000000000000000000000000000000000000000000000000000000000000000000000000A
310
0A00000000000000000000000000000000000000000000000000000000000000000000000000000000000000000000000000000000000303030300000000000000000000000000000000000000000000000000000000000000000000000000000000000000000000000000000000000A0A0000000000000000000000000000
310
00000000000000000000000000000000000000000000000000000000000000000000000000000000000000000000000000000000000000000403040000000000000000000000000000000000000000000000000000000000000000000000000000000000000000000000000000000003030303000000000000000000000000
310
00000000000000000000000000000000000000000000000000000000000000000000000000000000040304000000000000000000000000000000000000000000000000000000000000000000000000000000000000000000000000000000000000000000000000000000000000000000000000030900000000000000000000
310
00000000000000000000000000000000000000000000000000000000000000000000000000000000000303030300000000000000000000000000000000000000000000000000000000000000000000000000000000000000000000000000000009030000000000000000000000000000000000000000000000000000000000
310
0000000000000000000000000000000000000000000000000000000000000000000000000000000000000000000903000000000000000000000000000000000000000000000000000000000000000000000000000000000000000000000007030303030D000303030307000000000000000000000000000000000000000000
310
00000000000000000000000000000000000000000000000000000309000000000000000000000000000000000000000000000000000000000000000000000000000000000000000000000000000000000000000000000000000000000000000000000000000000000309000000000000000000000000000000000000000000
310
00000000000000000000000000000000000000000000000007030303030000030303030700000000000000000000000000000000000000000000000000000000000000000000000000000000000000000009030000000000000000000000000000000000000000000000000000000000000000000000000000000000000000
310
00000000000000000000000000000000000000000000000000000000000000000000090304000000000000000000000000000000000000000000000000000000000000000000000000000000000000000000000000030000030000000000000000000000000000000000000000000000000000000000000000000000000000
310
000000000000000000000403090000000000000000000000000000000000000000000000000000000000000000000000000000000000000000000000000000000000000000000000000000000000000000000000000000000000000000030A0400000000000000000000000000000000000000000000000000000000000000
310
0000000000000000000000000003030303030303030000000000000000000000000000000000000000000000000000000000000000000000000000000000000000040A030000000000000000000000000000000000000000000000000000000000000000000000000000000000000000000000000000000000000000000000
310
0000000000000000000000000000000000000000000000040A03000000000000000000000000000000000000000000000000000000000000000000000000000000000000000003030303030303030000000000000000000000000000000000000000000000000000000000000000000000000000000000000000030A040000
310
00000000000000000000000000000000000000000000000000000000000000000000000000000000000000000000000000000000000000000000000000000000000000000000000000000000000000000000040303030000000000000000000000000000000000000000000000000000000000000000000000000000000000
310
00000303030300000000000000000000000000000000000000000000000000000000000000000000000000000000000200030303040000000000000000000000000000000000000000000000000000000000000000000000000000000000000000000000000000000000000000000000000000000000000000000000000000
310
00000000000000000000000000000000030300040000000000000000000000000000000000000000000000000000000000000000000000000000030303030303000000000000000000000000000000000000000000000000000000000000000000000000000004000303000000000000000000000000000000000000000000
310
00000000000000000000000000000000000000000000000000000000000000000000000000000000000000000000000000000000000000000000000000000000000000000000000000000300030A04000000000000000000000000000000000000000000000000000000000000000000000000030D0D0D0D03000000000000
310
000000000000000000000000000000000000000000000000000000000000040A0300020000000000000000000000000000000000000000000000000000000000000000000000000000000000000000000000000000000000000000000000000000000000000000000000000000000000000000000000000000000000000000
310
000000000200040A03030303030000000000000000000000000000000000000000000000000000000000000000030000000003000000000000000000000000000000000000000000000000000000000000000003030303030A0400000000000000000000000000000000000000000000000000000000000000000000000000
310
00000000000000000000000000000000000000000000000000000000000000000000000000000000000000000000000000000000000000000000000000000000000400000000030303000000000000000000000000000000000000000000000000000000000003000000000300000000000000000000000000000000000000
310
00000000000000000003030303000000000400000000000000000000000000000000000000000000000000000000000000000000000000000000000000000000000000000000000000000000000000000000000000000000000000000000000000000000000000000000000000000000000000000000000000000000000000
310
0000000003000000000000000000000000000000000000000000000000000000030D0D0D0D030000000000000000000000000000000000000000000000000000000300000000000000000000000000000000000000000000000000000000000000000000000000000000000000000000000000000000000000000000000000
310
00000000000000000000000000000000000000000000000000000000000000000000000000000000000000000000000000000000000000000000000000030000000000000000000000000000000000000000000000000000000303030303030000000000000000000000000000000000000000000000000000000000000000
310
00000000000000000000000000000000000000000000000000000000000000000000000000000000000000000000000000000000000000000000000000000000000000000000000000000000000000000000000000000000000000000000000000000000000000000000000000000000000000000004030400000000000000
310
00000000000000000000000000000000000000030303030303000000000000000000000000000000000000000000000000000004030400000000000000000000000000000000000000000000000000000000000000000000000000000000000000000000000000000000000000000000000000000000000000000000000000
310
0000000000000000000000000000000000000000000000000000000000000000000000000000000000000000000000000A0A000000000000000000000000000000000000000000000000000000030303030000000000000000000000000000000000000000000000000000000A0A0000000000000000000000000000000000
310
00000000000000000000000000000000000000000000000000000000000000000000000000000000000000000000000000000000000000000000000000000000000000000000000000000000000000000000000000000000000000000000000000000000000000000004030400000000000000000000000000000000000000
310
00000000000000000000000000000000000000000000000000000000000000000000000000040304000000000000000000000000000000000000000000000000000000000000000000000000000000000000000000000000000000000000000000000000000000000000000000000000000000000000000000000000000000
310
00000000000000000000000000000000000000000000000000000000000000000000000003000000000000000000000000000000000000000000000000000000000000000000000000000000000000000000000000000000000000000000000300000000000000000000000000000000000000000000000000000000000000
310
00000000000000000000000000000000000000000000000000000000000000000000000000000000000000000000000000000000000000000000000000000000000000000000000000000000000000000000000000000000000000000003000000000000000000000000000000000000000000000000000000000000000000
310
00000000000000000000000000000000000000000000000000030000000000000000000000000000000000000000000000000000000000000000000000000000000000000000000000000000000000000000000000000000000000000000000000000000000000000000000000000000000000000000000000000000000000
310
00000000000000000000000000000000000000000000000300000000000000000000000000000000000000000000000000000000000000000000000000000000000000000000000000000000000000000000030000000000000000000000000000000000000000000000000000000000000000000000000000000000000000
310
00000000000000000000000000000000000000000000000000000000000000000000000000000000000000000000000000000000000000000000000000000000000000000000000000000000000000000003000000000000000000000000000000000000000000000000000000000000000000000000000000000000000000
310
00000000000000000000000300000000000000000000000000000000000000000000000000000000000000000000000000000000000000000000000000000000000000000000000000000000000000000000000000000000000000000000000000000000000000000000000000000000000000000000000000000000000000
310
00000000000000000000040304000000000000000000000000000000000000000000000000000000000000000000000000000000000000000000000000000000000000040304000000000000000000000000000000000000000000000000000000000000000000000000000000000000000000000000000000000000000000
310
00000000000000000000000000000000000000000000000000000000000000000000000000000000000000000000000000000000000000000000000000000000000000000A0A0000000000000000000000000000000000000000000000000000000000000000000000000000000000000000000000000000000000000A0A00
310
00000000000000000000000000000000000000000000000000000000000000000000000000000000000000000000000000000000000000000000000000000000000000000000000000000000000000000000000000000000000000000000000000000000000000000000000000000000000000000000000000000000000403
310
04000000000000000000000000000000000000000000000000000000000000000000000000000000000000000000000000000000000403040000000000000000000000000000000000000000000000000000000000000000000000000000000000000000000000000000000000000000000000000000000000000000000000
310
00000000000000000000000000000000000000000000000000000000000000000000000000000000000000000000000000000000000000000000000000000000000000000000000000000000000000000000000000000000000000000000000000000000000000000000000000000203020000000000000000000000000000
310
0000000000000000000000000000000000000000000000000000000000000000000000000000000000000000000000000000000000000000000000000000000000000000000000000000000000000000000000000000000000000000000000000000000000000000000000000000000002030E000000000000000000000000
310
00000000000000000000000000000000000000000000000000000000000000000000000000000000090300000000000000000000000000000000000000000000000000000000000000000000000000000000000000000000000000000000000000000000000000000000000000000000000000000000000000000000000000
310
00000000000000000000000000000000000000000000000000000000000000000000000000000000000000090300000000000000000000000000000000000000000000000000000000000000000000000000000000000000000000000000000000030900000000000000000000000000000000000000000000000000000000
310
00000000000000000000000000000000000000000000000000000000000000000000000000000000000000000000000000000000000000000000000000000000000000000000000000000000000000000000000000000000000000000000000000000000000309000000000000000000000000000000000000000000000000
310
00000000000000000000000000000000000000000000000000000903000000000000000000000000000000000000000000000000000000000000000000000000000000000000000000000000000000000000000000000000000000000000000000000000000000000000000000000000000000000000000000000000000000
310
00000000000000000000000000000000000000000000000000000000000000090300000000000000000000000000000000000000000000000000000000000000000000000000000000000000000000000000000309000000000000000000000000000000000000000000000000000000000000000000000000000000000000
310
00000000000000000000000000000000000000000000000000000000000000000000000000000000000000000000000000000000000000000000000000000000000000000000000000000000000000000000000000000000000300000000000000000000000000000000000000000000000000000000000000000000000000
310
00000000000000000000000000000000000000000000000000000000000000000000000000000000000000000000000000000000000000000000000000000000000000000000000000000000000000000000000000000000000000000000000000000000000000000000000000000000000000000000000000000000000000
310
00000000000000000000000000000000000000000309000000000000000000000000000000000000000000000000000000000000000000000000000000000000000000000903000000000000000000000000000000000000000000000000000000000000000000000000000000000000000000000000000000000000000000
310
00000000000000000000000000000000000000000000000000000000000000000000000000000000000000000000000000000000000000000000000000000000000000000000000000000000000903000000000000000000000000000000000000000000000000000000000000000000000000000000000000000000000309
310
00000000000000000000000000000000000000000000000000000000000000000000000000000000000000000000000000000000000000000000000000000000000000000000000000000000000000000000000000000000000000000000000000000000000000000000000000000000000000000000000000000000000000
310
00000000000000000309000000000000000000000000000000000000000000000000000000000000000000000000000000000000000009030000000000000000000000000000000000000000000000000000000000000000000000000000000000000000000000000000000000000000000000000000000000000000000000
310
00000000000000000000000000000000000000000000000000000000000000000000000000000000000000000000000000000000000000000000000000000000000903090000000000000000000000000000000000000000000000000000000000000000000000000000000000000903090000000000000000000000000000
310
00000000000000000000000000000000000000000000000000000000000000000000000000000000000000000000000000000000000000000000000000000000000000000000000000000000000000000000000000000000000000000000000000000000000000000000000000000000000000000000000000000009030000
310
00000000000000000000000000000000000000000000000000000000000000000000000000000003030900000000000000000000000000000000000000000000000000000000000000000000000000000000000000000000000000000000000000000000000000000000000000000000000000000000000000000000000000
310
00000000000000000000000000000000000000000000000000000000000000000000000000000000000000000000000000000000000000030900000000000000000000000000000000000000000000000000000000000000000000000000000903000000000000000000000000000000000000000000000000000000000000
310
00000000000000000000000000000000000000000000000000000000000000000000000000000000000000000000000000000000000000000000000000000000000000000000000000000000000000000000000000000000000000000000000000000000000000000000000000000000090303090000000000000000000000
310
00000000000000000000000000000000000000000000000903030900000000000000000000000000000000000000000000000000000000000000000000000000000000000000000000000000000000000000000000000000000000000000000000000000000000000000000000000000000000000000000000000000000000
310
00000000000000000000000000000000000000000000000000000000000000000000000000000000000000000903040000000000000000000000000000000000000000000000000000000000000000040309000000000000000000000000000000000000000000000000000000000000000000000000000000000000000000
310
00000000000000000000000000000000000000000000000000000000000000000000000000000000000000000000000000000000000000000000000000000000000000000000000000000000000000000000000000000000000000000000000000000000000003030A04000000000000000000000000000000000000000000
310
00000000000000040A03000000000000000000000000000000000000000000000000000000000000000000000000000000000000000000000000000000000000000000000000000000000000000000000000000000000000000000000000000000000000000000000000000000000000000000000000000000000000000000
310
000000000000000000000000000000000000000000000000000000000000000000040A0300000000000000000000000000000000000000000000000000000000030A04000000000000000000000000000000000000000000000000000000000000000000000000000000000000000000000000000000000000000000000000
310
00000000000000000000000000000000000000000000000000000000000000000000000000000000000000000000000000000000000000000000000000000000000000000000000000000000000000000000000000000000000000000403030307000000000000000000000000000000000000000007030303040000000000
310
00000000000000000000000000000000000000000000000000000000000000000000000000000000000000000000000000000000000000000000000000000000000000000000000000000000000000000000000000000000000000000000000000000000000000000000000000000000000000000000000000000000000000
310
00000000000000000000000000000000000000000000000000000303030309000000000000000000000000090303030300000000000000000000000000000000000000000000000000000000000000000000000000000000000000000000000000000000000000000000000000000000000000000000000000000000000000
310
00000000000000000000000000000000000000000000000000000000000000000000000000000000000000000000000000000000000000000000000000000000000000000000000000000000000000000000000700000903030303030303030303030300030900000700000000000000000000000000000000000000000000
310
00000000000000000000000000000000000000000000000000000000000000000000000000000000000000000000000000000000000000000000000000000000000000000000000000000000000000000000000000000000000000000000000000000000000000000000000000000000000000000000000000000000000000
310
00000000000000000000000000000000000000000000000000000000000000000000000000000000000000000000000000000000000000000000000000000000000000000000000000000000000000000000000000000000000000000000000000000000000000000000000000000000000000000000000000000000000000
310
00000000000000000000000000000000000000000000000000000000000000000000000000000000000000000000000000000000000000000000000000000000000000000000000000000000000000000000000000000000000000000000000000000000000000000000000000000000000000000000000000000000000000
310
000000000000000000000000000000000000000000000000000000000000000000000000000000000000000000000000
  0
ENDSEC
  0
EOF
