  0
SECTION
  2
HEADER
  9
$ACADVER
  1
AC1027
  9
$ACADMAINTVER
 70
   125
  9
$DWGCODEPAGE
  3
ANSI_1252
  9
$AUTHOR
  1
WAEngineering2
  9
$LASTSAVEDBY
  1
WAEngineering2
  9
$CUSTOMPROPERTYTAG
  1
BentleyWorkSetProperties
  9
$CUSTOMPROPERTY
  1
02050000000B000000540200000000000000000200000057006F0072006B005300650074004E0061006D00650000000000000001000109040000000200000000000000000000000100000057006F0072006B005300650074004400650073006300720069007000740069006F006E0000000000000001000109080000000000000000000000000000000200000057006F0072006B00530070006100630065004E0061006D006500000000000000010001090C0000000200000000000000000000000400000043006F006E006E00650063007400500072006F006A006500630074004700550049004400000000000000010001091000000000000000000000000000000008000000500072006F006A00650063007400410073007300650074005400790070006500000000000000010001091400000000000000000000000000000010000000500072006F006A0065006300740049006E00640075007300740072007900000000000000010001091800000000000000000000000000000020000000500072006F006A006500630074004C006F0063006100740069006F006E00000000000000010001091C00000000000000000000000000000040000000500072006F006A006500630074004E0075006D00620065007200000000000000010001092000000000000000000000000000000080000000500072006F006A00650063007400530074006100740075007300000000000000010001092400000000000000000000000000000000010000500072006F006A006500630074004E0061006D00650000000000000001000109280000000000000000000000000000000002000031010000000000050002FCFFFF300000004A0000004A0000005A000000A4000000D2000000F4000000F600000004010000120100002C0100004D006500740072006F00530074006100740069006F006E0000004500780061006D0070006C0065000000350039003800370063003200620065002D0066003000660064002D0034003300660038002D0039006100610031002D00620039003100360035006200350030003400650032003300000050006C006100740066006F0072006D007300200061006E0064002000530074006100740069006F006E00730000005200610069006C00200061006E00640020005400720061006E0073006900740000000000310030003000310030003000000041006300740069007600650000004D006500740072006F00530074006100740069006F006E000000
  9
$REQUIREDVERSIONS
160
                 0
  9
$INSBASE
 10
0.0
 20
0.0
 30
0.0
  9
$EXTMIN
 10
0.0123
 20
-0.6883
 30
0.0
  9
$EXTMAX
 10
13.9781
 20
8.2859
 30
0.0
  9
$LIMMIN
 10
-26.205995
 20
-29.402395
  9
$LIMMAX
 10
40.196395
 20
36.999995
  9
$ORTHOMODE
 70
     0
  9
$REGENMODE
 70
     1
  9
$FILLMODE
 70
     1
  9
$QTEXTMODE
 70
     0
  9
$MIRRTEXT
 70
     0
  9
$LTSCALE
 40
1.0
  9
$ATTMODE
 70
     1
  9
$TEXTSIZE
 40
0.25
  9
$TRACEWID
 40
0.05
  9
$TEXTSTYLE
  7
Standard
  9
$CLAYER
  8
0
  9
$CELTYPE
  6
ByLayer
  9
$CECOLOR
 62
   256
  9
$CELTSCALE
 40
1.0
  9
$DISPSILH
 70
     0
  9
$DIMSCALE
 40
1.0
  9
$DIMASZ
 40
0.25
  9
$DIMEXO
 40
0.125
  9
$DIMDLI
 40
0.0
  9
$DIMRND
 40
0.0
  9
$DIMDLE
 40
0.0
  9
$DIMEXE
 40
0.125
  9
$DIMTP
 40
0.0
  9
$DIMTM
 40
0.0
  9
$DIMTXT
 40
0.25
  9
$DIMCEN
 40
0.0
  9
$DIMTSZ
 40
0.0
  9
$DIMTOL
 70
     0
  9
$DIMLIM
 70
     0
  9
$DIMTIH
 70
     0
  9
$DIMTOH
 70
     0
  9
$DIMSE1
 70
     0
  9
$DIMSE2
 70
     0
  9
$DIMTAD
 70
     1
  9
$DIMZIN
 70
     8
  9
$DIMBLK
  1
TerminatorOpen_0.5
  9
$DIMASO
 70
     1
  9
$DIMSHO
 70
     1
  9
$DIMPOST
  1

  9
$DIMAPOST
  1

  9
$DIMALT
 70
     0
  9
$DIMALTD
 70
     4
  9
$DIMALTF
 40
1.0
  9
$DIMLFAC
 40
1.0
  9
$DIMTOFL
 70
     0
  9
$DIMTVP
 40
0.0
  9
$DIMTIX
 70
     0
  9
$DIMSOXD
 70
     0
  9
$DIMSAH
 70
     0
  9
$DIMBLK1
  1

  9
$DIMBLK2
  1

  9
$DIMSTYLE
  2
Standard
  9
$DIMCLRD
 70
     0
  9
$DIMCLRE
 70
     0
  9
$DIMCLRT
 70
     0
  9
$DIMTFAC
 40
1.0
  9
$DIMGAP
 40
0.125
  9
$DIMJUST
 70
     0
  9
$DIMSD1
 70
     0
  9
$DIMSD2
 70
     0
  9
$DIMTOLJ
 70
     1
  9
$DIMTZIN
 70
     8
  9
$DIMALTZ
 70
    12
  9
$DIMALTTZ
 70
    12
  9
$DIMUPT
 70
     0
  9
$DIMDEC
 70
     4
  9
$DIMTDEC
 70
     0
  9
$DIMALTU
 70
     2
  9
$DIMALTTD
 70
     0
  9
$DIMTXSTY
  7
Style-Arial
  9
$DIMAUNIT
 70
     0
  9
$DIMADEC
 70
     4
  9
$DIMALTRND
 40
0.0
  9
$DIMAZIN
 70
     3
  9
$DIMDSEP
 70
     0
  9
$DIMATFIT
 70
     1
  9
$DIMFRAC
 70
     2
  9
$DIMLDRBLK
  1
TerminatorOpen_0.5
  9
$DIMLUNIT
 70
     2
  9
$DIMLWD
 70
    -2
  9
$DIMLWE
 70
    -2
  9
$DIMTMOVE
 70
     0
  9
$DIMFXL
 40
1.0
  9
$DIMFXLON
 70
     0
  9
$DIMJOGANG
 40
0.785398
  9
$DIMTFILL
 70
     0
  9
$DIMTFILLCLR
 70
     0
  9
$DIMARCSYM
 70
     0
  9
$DIMLTYPE
  6
ByBlock
  9
$DIMLTEX1
  6
ByBlock
  9
$DIMLTEX2
  6
ByBlock
  9
$DIMTXTDIRECTION
 70
     0
  9
$LUNITS
 70
     2
  9
$LUPREC
 70
     3
  9
$SKETCHINC
 40
0.1
  9
$FILLETRAD
 40
0.0
  9
$AUNITS
 70
     0
  9
$AUPREC
 70
     3
  9
$MENU
  1
.
  9
$ELEVATION
 40
0.0
  9
$PELEVATION
 40
0.0
  9
$THICKNESS
 40
0.0
  9
$LIMCHECK
 70
     0
  9
$CHAMFERA
 40
0.0
  9
$CHAMFERB
 40
0.0
  9
$CHAMFERC
 40
0.0
  9
$CHAMFERD
 40
0.0
  9
$SKPOLY
 70
     0
  9
$TDCREATE
 40
2454145.111354167
  9
$TDUCREATE
 40
2454144.778024017
  9
$TDUPDATE
 40
2459864.437997686
  9
$TDUUPDATE
 40
2459864.104664352
  9
$TDINDWG
 40
0.0058159144
  9
$TDUSRTIMER
 40
0.0058157292
  9
$USRTIMER
 70
     1
  9
$ANGBASE
 50
0.0
  9
$ANGDIR
 70
     0
  9
$PDMODE
 70
     0
  9
$PDSIZE
 40
0.0
  9
$PLINEWID
 40
0.0
  9
$SPLFRAME
 70
     0
  9
$SPLINETYPE
 70
     6
  9
$SPLINESEGS
 70
     8
  9
$HANDSEED
  5
A71
  9
$SURFTAB1
 70
     6
  9
$SURFTAB2
 70
     6
  9
$SURFTYPE
 70
     6
  9
$SURFU
 70
     6
  9
$SURFV
 70
     6
  9
$UCSBASE
  2

  9
$UCSNAME
  2

  9
$UCSORG
 10
0.0
 20
0.0
 30
0.0
  9
$UCSXDIR
 10
1.0
 20
0.0
 30
0.0
  9
$UCSYDIR
 10
0.0
 20
1.0
 30
0.0
  9
$UCSORTHOREF
  2

  9
$UCSORTHOVIEW
 70
     0
  9
$UCSORGTOP
 10
0.0
 20
0.0
 30
0.0
  9
$UCSORGBOTTOM
 10
0.0
 20
0.0
 30
0.0
  9
$UCSORGLEFT
 10
0.0
 20
0.0
 30
0.0
  9
$UCSORGRIGHT
 10
0.0
 20
0.0
 30
0.0
  9
$UCSORGFRONT
 10
0.0
 20
0.0
 30
0.0
  9
$UCSORGBACK
 10
0.0
 20
0.0
 30
0.0
  9
$PUCSBASE
  2

  9
$PUCSNAME
  2

  9
$PUCSORG
 10
0.0
 20
0.0
 30
0.0
  9
$PUCSXDIR
 10
1.0
 20
0.0
 30
0.0
  9
$PUCSYDIR
 10
0.0
 20
1.0
 30
0.0
  9
$PUCSORTHOREF
  2

  9
$PUCSORTHOVIEW
 70
     0
  9
$PUCSORGTOP
 10
0.0
 20
0.0
 30
0.0
  9
$PUCSORGBOTTOM
 10
0.0
 20
0.0
 30
0.0
  9
$PUCSORGLEFT
 10
0.0
 20
0.0
 30
0.0
  9
$PUCSORGRIGHT
 10
0.0
 20
0.0
 30
0.0
  9
$PUCSORGFRONT
 10
0.0
 20
0.0
 30
0.0
  9
$PUCSORGBACK
 10
0.0
 20
0.0
 30
0.0
  9
$USERI1
 70
     0
  9
$USERI2
 70
     0
  9
$USERI3
 70
     0
  9
$USERI4
 70
     0
  9
$USERI5
 70
     0
  9
$USERR1
 40
0.0
  9
$USERR2
 40
0.0
  9
$USERR3
 40
0.0
  9
$USERR4
 40
0.0
  9
$USERR5
 40
0.0
  9
$WORLDVIEW
 70
     1
  9
$SHADEDGE
 70
     3
  9
$SHADEDIF
 70
    70
  9
$TILEMODE
 70
     1
  9
$MAXACTVP
 70
    64
  9
$PINSBASE
 10
0.0
 20
0.0
 30
0.0
  9
$PLIMCHECK
 70
     0
  9
$PEXTMIN
 10
1.05
 20
0.8
 30
0.0
  9
$PEXTMAX
 10
9.45
 20
7.2
 30
0.0
  9
$PLIMMIN
 10
-0.25
 20
-0.25
  9
$PLIMMAX
 10
10.75
 20
8.25
  9
$UNITMODE
 70
     0
  9
$VISRETAIN
 70
     1
  9
$PLINEGEN
 70
     0
  9
$PSLTSCALE
 70
     0
  9
$TREEDEPTH
 70
  3020
  9
$CMLSTYLE
  2
Standard
  9
$CMLJUST
 70
     0
  9
$CMLSCALE
 40
1.0
  9
$PROXYGRAPHICS
 70
     1
  9
$MEASUREMENT
 70
     0
  9
$CELWEIGHT
370
    -1
  9
$ENDCAPS
280
     0
  9
$JOINSTYLE
280
     0
  9
$LWDISPLAY
290
     1
  9
$INSUNITS
 70
     6
  9
$HYPERLINKBASE
  1

  9
$STYLESHEET
  1

  9
$XEDIT
290
     1
  9
$CEPSNTYPE
380
     0
  9
$PSTYLEMODE
290
     1
  9
$FINGERPRINTGUID
  2
{947769D3-844A-4041-BAE2-2FEA0381D7EF}
  9
$VERSIONGUID
  2
{38E7CD85-556C-4D6E-9C4C-B935CE7E055D}
  9
$EXTNAMES
290
     1
  9
$PSVPSCALE
 40
0.0
  9
$OLESTARTUP
290
     0
  9
$SORTENTS
280
   127
  9
$INDEXCTL
280
     0
  9
$HIDETEXT
280
     1
  9
$XCLIPFRAME
280
     0
  9
$HALOGAP
280
     0
  9
$OBSCOLOR
 70
   257
  9
$OBSLTYPE
280
     0
  9
$INTERSECTIONDISPLAY
280
     0
  9
$INTERSECTIONCOLOR
 70
   257
  9
$DIMASSOC
280
     2
  9
$PROJECTNAME
  1

  9
$CAMERADISPLAY
290
     0
  9
$LENSLENGTH
 40
50.0
  9
$CAMERAHEIGHT
 40
0.0
  9
$STEPSPERSEC
 40
2.0
  9
$STEPSIZE
 40
6.0
  9
$3DDWFPREC
 40
2.0
  9
$PSOLWIDTH
 40
0.25
  9
$PSOLHEIGHT
 40
4.0
  9
$LOFTANG1
 40
1.570796
  9
$LOFTANG2
 40
1.570796
  9
$LOFTMAG1
 40
0.0
  9
$LOFTMAG2
 40
0.0
  9
$LOFTPARAM
 70
     7
  9
$LOFTNORMALS
280
     1
  9
$LATITUDE
 40
37.795
  9
$LONGITUDE
 40
-122.394
  9
$NORTHDIRECTION
 40
0.0
  9
$TIMEZONE
 70
 -8000
  9
$LIGHTGLYPHDISPLAY
280
     1
  9
$TILEMODELIGHTSYNCH
280
     1
  9
$CMATERIAL
347
415
  9
$SOLIDHIST
280
     1
  9
$SHOWHIST
280
     1
  9
$DWFFRAME
280
     2
  9
$DGNFRAME
280
     0
  9
$REALWORLDSCALE
290
     1
  9
$INTERFERECOLOR
 62
     1
  9
$INTERFEREOBJVS
345
43E
  9
$INTERFEREVPVS
346
43F
  9
$CSHADOW
280
     0
  9
$SHADOWPLANELOCATION
 40
0.0
  0
ENDSEC
  0
SECTION
  2
CLASSES
  0
CLASS
  1
ACDBDICTIONARYWDFLT
  2
AcDbDictionaryWithDefault
  3
ObjectDBX Classes
 90
        0
 91
        1
280
     0
281
     0
  0
CLASS
  1
DICTIONARYVAR
  2
AcDbDictionaryVar
  3
ObjectDBX Classes
 90
        0
 91
        9
280
     0
281
     0
  0
CLASS
  1
TABLESTYLE
  2
AcDbTableStyle
  3
ObjectDBX Classes
 90
     4095
 91
        1
280
     0
281
     0
  0
CLASS
  1
MATERIAL
  2
AcDbMaterial
  3
ObjectDBX Classes
 90
     1153
 91
        3
280
     0
281
     0
  0
CLASS
  1
VISUALSTYLE
  2
AcDbVisualStyle
  3
ObjectDBX Classes
 90
     4095
 91
       24
280
     0
281
     0
  0
CLASS
  1
SCALE
  2
AcDbScale
  3
ObjectDBX Classes
 90
     1153
 91
       33
280
     0
281
     0
  0
CLASS
  1
MLEADERSTYLE
  2
AcDbMLeaderStyle
  3
ACDB_MLEADERSTYLE_CLASS
 90
     4095
 91
        1
280
     0
281
     0
  0
CLASS
  1
EXACXREFPANELOBJECT
  2
ExAcXREFPanelObject
  3
EXAC_ESW
 90
     1025
 91
        0
280
     1
281
     0
  0
CLASS
  1
NPOCOLLECTION
  2
AcDbImpNonPersistentObjectsCollection
  3
ObjectDBX Classes
 90
     1153
 91
        0
280
     0
281
     0
  0
CLASS
  1
CELLSTYLEMAP
  2
AcDbCellStyleMap
  3
ObjectDBX Classes
 90
     1152
 91
        1
280
     0
281
     0
  0
CLASS
  1
ACDBSECTIONVIEWSTYLE
  2
AcDbSectionViewStyle
  3
ObjectDBX Classes
 90
     1025
 91
        1
280
     0
281
     0
  0
CLASS
  1
ACDBDETAILVIEWSTYLE
  2
AcDbDetailViewStyle
  3
ObjectDBX Classes
 90
     1025
 91
        1
280
     0
281
     0
  0
CLASS
  1
SORTENTSTABLE
  2
AcDbSortentsTable
  3
ObjectDBX Classes
 90
        0
 91
        1
280
     0
281
     0
  0
ENDSEC
  0
SECTION
  2
TABLES
  0
TABLE
  2
VPORT
  5
409
330
0
100
AcDbSymbolTable
 70
     1
1001
ACAD
1000
DbSaveVer
1071
      253
  0
VPORT
  5
4B
330
409
100
AcDbSymbolTableRecord
100
AcDbViewportTableRecord
  2
*ACTIVE
 70
     0
 10
0.0
 20
0.0
 11
1.0
 21
1.0
 12
6.995203
 22
3.798783
 13
0.0
 23
0.0
 14
0.1
 24
0.1
 15
1.0
 25
1.0
 16
0.0
 26
0.0
 36
1.0
 17
0.0
 27
0.0
 37
0.0
 40
9.333093
 41
2.437741
 42
50.0
 43
0.0
 44
0.0
 50
0.0
 51
0.0
 71
     0
 72
 20000
 73
     1
 74
     1
 75
     0
 76
     0
 77
     0
 78
     1
281
     0
 65
     1
110
0.0
120
0.0
130
0.0
111
1.0
121
0.0
131
0.0
112
0.0
122
1.0
132
0.0
 79
     0
146
0.0
348
40B
 60
     3
 61
    10
292
     0
282
     1
141
0.0
142
0.0
 63
     7
421
 16777215
  0
ENDTAB
  0
TABLE
  2
LTYPE
  5
404
330
0
100
AcDbSymbolTable
 70
     2
  0
LTYPE
  5
405
330
404
100
AcDbSymbolTableRecord
100
AcDbLinetypeTableRecord
  2
ByBlock
 70
     0
  3

 72
    65
 73
     0
 40
0.0
  0
LTYPE
  5
406
330
404
100
AcDbSymbolTableRecord
100
AcDbLinetypeTableRecord
  2
ByLayer
 70
     0
  3

 72
    65
 73
     0
 40
0.0
  0
LTYPE
  5
3DA
330
404
100
AcDbSymbolTableRecord
100
AcDbLinetypeTableRecord
  2
Continuous
 70
     0
  3
Solid line
 72
    65
 73
     0
 40
0.0
  0
LTYPE
  5
5A6
330
404
100
AcDbSymbolTableRecord
100
AcDbLinetypeTableRecord
  2
DGN Style 2
 70
     0
  3
Dgn Style 2
 72
    65
 73
     2
 40
0.227517
 49
0.13651
 74
     0
 49
-0.091007
 74
     0
  0
ENDTAB
  0
TABLE
  2
LAYER
  5
3FB
102
{ACAD_XDICTIONARY
360
3FC
102
}
330
0
100
AcDbSymbolTable
 70
   324
  0
LAYER
  5
3CB
102
{ACAD_XDICTIONARY
360
3CC
102
}
330
3FB
100
AcDbSymbolTableRecord
100
AcDbLayerTableRecord
  2
0
 70
     0
 62
     7
  6
Continuous
370
    -3
390
3CE
347
3D1
348
0
1001
AcCmTransparency
1071
 33554687
  0
LAYER
  5
433
330
3FB
100
AcDbSymbolTableRecord
100
AcDbLayerTableRecord
  2
Level 1
 70
     0
 62
     7
  6
Continuous
370
     0
390
3CE
347
3D1
348
0
1001
AcCmTransparency
1071
 33554687
  0
LAYER
  5
3C2
330
3FB
100
AcDbSymbolTableRecord
100
AcDbLayerTableRecord
  2
Level 8
 70
     0
 62
    30
  6
Continuous
370
     0
390
3CE
347
3D1
348
0
1001
AcAecLayerStandard
1000

1000
Assembly Label Text
1001
AcCmTransparency
1071
 33554687
  0
LAYER
  5
3C3
330
3FB
100
AcDbSymbolTableRecord
100
AcDbLayerTableRecord
  2
Level 15
 70
     0
 62
     7
  6
Continuous
370
     0
390
3CE
347
3D1
348
0
1001
AcAecLayerStandard
1000

1000
Fall Zone Combined
1001
AcCmTransparency
1071
 33554687
  0
LAYER
  5
3C4
330
3FB
100
AcDbSymbolTableRecord
100
AcDbLayerTableRecord
  2
ninja1 - Level 25
 70
     0
 62
     7
  6
Continuous
370
     0
390
3CE
347
3D1
348
0
1001
AcAecLayerStandard
1000

1000
Assemblies - Base
1001
AcCmTransparency
1071
 33554687
  0
LAYER
  5
3C5
330
3FB
100
AcDbSymbolTableRecord
100
AcDbLayerTableRecord
  2
ninja1 - Level 26
 70
     0
 62
     7
  6
Continuous
370
     0
390
3CE
347
3D1
348
0
1001
AcAecLayerStandard
1000

1000
Assemblies - Colour Locked
1001
AcCmTransparency
1071
 33554687
  0
ENDTAB
  0
TABLE
  2
STYLE
  5
400
330
0
100
AcDbSymbolTable
 70
     4
  0
STYLE
  5
401
330
400
100
AcDbSymbolTableRecord
100
AcDbTextStyleTableRecord
  2
Standard
 70
     0
 40
0.0
 41
1.0
 50
0.0
 71
     0
 42
0.25
  3
txt.shx
  4

1001
AcadAnnotative
1000
AnnotativeData
1002
{
1070
     1
1070
     1
1002
}
  0
STYLE
  5
434
330
400
100
AcDbSymbolTableRecord
100
AcDbTextStyleTableRecord
  2
Style-STANDARD
 70
     0
 40
0.0
 41
1.0
 50
0.0
 71
     0
 42
3.5
  3
STANDARD.shx
  4

1001
AcadAnnotative
1000
AnnotativeData
1002
{
1070
     1
1070
     1
1002
}
  0
STYLE
  5
5A2
330
400
100
AcDbSymbolTableRecord
100
AcDbTextStyleTableRecord
  2
Style-Arial
 70
     0
 40
0.0
 41
1.0
 50
0.0
 71
     0
 42
0.25
  3
arial.ttf
  4

1001
ACAD
1000
Arial
1071
       39
  0
STYLE
  5
5A5
330
400
100
AcDbSymbolTableRecord
100
AcDbTextStyleTableRecord
  2
Style-Calibri
 70
     0
 40
0.0
 41
1.0
 50
0.0
 71
     0
 42
0.25
  3
calibri.ttf
  4

1001
ACAD
1000
Calibri
1071
       39
  0
ENDTAB
  0
TABLE
  2
VIEW
  5
407
330
0
100
AcDbSymbolTable
 70
     0
  0
ENDTAB
  0
TABLE
  2
UCS
  5
408
330
0
100
AcDbSymbolTable
 70
     0
  0
ENDTAB
  0
TABLE
  2
APPID
  5
40D
330
0
100
AcDbSymbolTable
 70
     6
  0
APPID
  5
40E
330
40D
100
AcDbSymbolTableRecord
100
AcDbRegAppTableRecord
  2
ACAD
 70
     0
  0
APPID
  5
3FA
330
40D
100
AcDbSymbolTableRecord
100
AcDbRegAppTableRecord
  2
ACAD_PSEXT
 70
     0
  0
APPID
  5
3DB
330
40D
100
AcDbSymbolTableRecord
100
AcDbRegAppTableRecord
  2
AcCmTransparency
 70
     0
  0
APPID
  5
402
330
40D
100
AcDbSymbolTableRecord
100
AcDbRegAppTableRecord
  2
AcadAnnotative
 70
     0
  0
APPID
  5
3E0
330
40D
100
AcDbSymbolTableRecord
100
AcDbRegAppTableRecord
  2
MStation
 70
     0
  0
APPID
  5
5A0
330
40D
100
AcDbSymbolTableRecord
100
AcDbRegAppTableRecord
  2
AcAecLayerStandard
 70
     0
  0
ENDTAB
  0
TABLE
  2
DIMSTYLE
  5
40F
330
0
100
AcDbSymbolTable
 70
     1
100
AcDbDimStyleTable
 71
     1
340
410
  0
DIMSTYLE
105
410
330
40F
100
AcDbSymbolTableRecord
100
AcDbDimStyleTableRecord
  2
Standard
 70
     0
 42
0.0625
 44
0.18
 78
     3
272
     0
274
     0
278
     0
284
     3
285
     3
286
     3
289
     1
340
401
345
3DA
346
3DA
347
3DA
  0
ENDTAB
  0
TABLE
  2
BLOCK_RECORD
  5
3C6
330
0
100
AcDbSymbolTable
 70
     6
  0
BLOCK_RECORD
  5
3C7
102
{ACAD_XDICTIONARY
360
3C8
102
}
330
3C6
100
AcDbSymbolTableRecord
100
AcDbBlockTableRecord
  2
*Model_Space
340
3F2
 70
     0
280
     1
281
     0
  0
BLOCK_RECORD
  5
3F5
330
3C6
100
AcDbSymbolTableRecord
100
AcDbBlockTableRecord
  2
*Paper_Space
340
3F8
 70
     0
280
     1
281
     0
  0
BLOCK_RECORD
  5
435
330
3C6
100
AcDbSymbolTableRecord
100
AcDbBlockTableRecord
  2
TerminatorOpen_0.5
340
0
 70
     0
280
     1
281
     0
  0
ENDTAB
  0
ENDSEC
  0
SECTION
  2
BLOCKS
  0
BLOCK
  5
3CA
330
3C7
100
AcDbEntity
  8
0
100
AcDbBlockBegin
  2
*Model_Space
 70
     0
 10
0.0
 20
0.0
 30
0.0
  3
*Model_Space
  1

  0
ENDBLK
  5
3F1
330
3C7
100
AcDbEntity
  8
0
100
AcDbBlockEnd
  0
BLOCK
  5
3F6
330
3F5
100
AcDbEntity
 67
     1
  8
0
100
AcDbBlockBegin
  2
*Paper_Space
 70
     0
 10
0.0
 20
0.0
 30
0.0
  3
*Paper_Space
  1

  0
ENDBLK
  5
3F7
330
3F5
100
AcDbEntity
 67
     1
  8
0
100
AcDbBlockEnd
  0
BLOCK
  5
436
330
435
100
AcDbEntity
  8
0
 62
     7
370
    30
100
AcDbBlockBegin
  2
TerminatorOpen_0.5
 70
     0
 10
0.0
 20
0.0
 30
0.0
  3
TerminatorOpen_0.5
  1

  0
LINE
  5
437
330
435
100
AcDbEntity
  8
0
  6
ByBlock
 62
     0
370
    -2
100
AcDbLine
 10
0.0
 20
0.0
 30
0.0
 11
-1.0
 21
0.0
 31
0.0
  0
LINE
  5
438
330
435
100
AcDbEntity
  8
0
  6
ByBlock
 62
     0
370
    -2
100
AcDbLine
 10
0.0
 20
0.0
 30
0.0
 11
-1.0
 21
0.25
 31
0.0
  0
LINE
  5
439
330
435
100
AcDbEntity
  8
0
  6
ByBlock
 62
     0
370
    -2
100
AcDbLine
 10
0.0
 20
0.0
 30
0.0
 11
-1.0
 21
-0.25
 31
0.0
  0
ENDBLK
  5
43A
330
435
100
AcDbEntity
  8
0
 62
     7
370
    30
100
AcDbBlockEnd
  0
ENDSEC
  0
SECTION
  2
ENTITIES
  0
MTEXT
  5
24A
330
3C7
100
AcDbEntity
  8
Level 8
  6
Continuous
 62
     7
370
    13
100
AcDbMText
 10
11.776575
 20
0.228921
 30
0.0
 40
0.1
 41
0.0
 46
0.0
 71
     5
 72
     1
  1
\H1x;\W0.8;NINJA PEG DIAGONAL TRAVERSE\P2100 HIGH
  7
Style-Calibri
 73
     2
 44
0.79998
  0
MTEXT
  5
24D
330
3C7
100
AcDbEntity
  8
Level 8
  6
Continuous
 62
     7
370
    13
100
AcDbMText
 10
3.345509
 20
-0.538283
 30
0.0
 40
0.1
 41
0.0
 46
0.0
 71
     5
 72
     1
  1
\H1x;\W0.8;NINJA PEG DIAGONAL TRAVERSE\P2300 HIGH
  7
Style-Calibri
 73
     2
 44
0.79998
  0
LWPOLYLINE
  5
250
330
3C7
100
AcDbEntity
  8
Level 15
  6
DGN Style 2
 62
     7
370
    13
100
AcDbPolyline
 90
        9
 70
   128
 43
0.0
 10
1.185172
 20
7.273483
 42
0.414214
 10
0.203628
 20
4.569619
 10
1.61364
 20
1.552484
 42
0.414214
 10
4.317505
 20
0.57094
 10
4.502719
 20
0.657497
 42
0.414214
 10
5.484264
 20
3.361361
 10
4.074251
 20
6.378496
 42
0.414214
 10
1.370387
 20
7.36004
 10
1.185172
 20
7.273483
  0
LINE
  5
259
330
3C7
100
AcDbEntity
  8
ninja1 - Level 25
  6
Continuous
 62
     7
370
    13
100
AcDbLine
 10
3.445803
 20
2.441928
 30
0.0
 11
3.445803
 21
2.436928
 31
0.0
  0
LINE
  5
25A
330
3C7
100
AcDbEntity
  8
ninja1 - Level 25
  6
Continuous
 62
     7
370
    13
100
AcDbLine
 10
3.460803
 20
2.441928
 30
0.0
 11
3.445803
 21
2.441928
 31
0.0
  0
LINE
  5
25B
330
3C7
100
AcDbEntity
  8
ninja1 - Level 25
  6
Continuous
 62
     7
370
    13
100
AcDbLine
 10
3.460803
 20
2.441928
 30
0.0
 11
3.460803
 21
2.436928
 31
0.0
  0
LINE
  5
25C
330
3C7
100
AcDbEntity
  8
ninja1 - Level 25
  6
Continuous
 62
     7
370
    13
100
AcDbLine
 10
3.460803
 20
2.436928
 30
0.0
 11
3.445803
 21
2.436928
 31
0.0
  0
LINE
  5
25D
330
3C7
100
AcDbEntity
  8
ninja1 - Level 25
  6
Continuous
 62
     7
370
    13
100
AcDbLine
 10
3.500803
 20
2.441928
 30
0.0
 11
3.500803
 21
2.436928
 31
0.0
  0
LINE
  5
25E
330
3C7
100
AcDbEntity
  8
ninja1 - Level 25
  6
Continuous
 62
     7
370
    13
100
AcDbLine
 10
3.515803
 20
2.441928
 30
0.0
 11
3.500803
 21
2.441928
 31
0.0
  0
LINE
  5
25F
330
3C7
100
AcDbEntity
  8
ninja1 - Level 25
  6
Continuous
 62
     7
370
    13
100
AcDbLine
 10
3.515803
 20
2.441928
 30
0.0
 11
3.515803
 21
2.436928
 31
0.0
  0
LINE
  5
260
330
3C7
100
AcDbEntity
  8
ninja1 - Level 25
  6
Continuous
 62
     7
370
    13
100
AcDbLine
 10
3.515803
 20
2.436928
 30
0.0
 11
3.500803
 21
2.436928
 31
0.0
  0
LINE
  5
261
330
3C7
100
AcDbEntity
  8
ninja1 - Level 25
  6
Continuous
 62
     7
370
    13
100
AcDbLine
 10
3.460803
 20
2.441928
 30
0.0
 11
3.500803
 21
2.441928
 31
0.0
  0
LINE
  5
262
330
3C7
100
AcDbEntity
  8
ninja1 - Level 25
  6
Continuous
 62
     7
370
    13
100
AcDbLine
 10
3.508408
 20
2.441928
 30
0.0
 11
2.108408
 21
5.431928
 31
0.0
  0
LINE
  5
263
330
3C7
100
AcDbEntity
  8
ninja1 - Level 25
  6
Continuous
 62
     7
370
    13
100
AcDbLine
 10
2.053199
 20
5.431928
 30
0.0
 11
3.453199
 21
2.441928
 31
0.0
  0
LINE
  5
264
330
3C7
100
AcDbEntity
  8
ninja1 - Level 25
  6
Continuous
 62
     7
370
    13
100
AcDbLine
 10
2.108408
 20
5.431928
 30
0.0
 11
2.100803
 21
5.431928
 31
0.0
  0
LINE
  5
265
330
3C7
100
AcDbEntity
  8
ninja1 - Level 25
  6
Continuous
 62
     7
370
    13
100
AcDbLine
 10
3.453199
 20
2.441928
 30
0.0
 11
3.460803
 21
2.441928
 31
0.0
  0
LINE
  5
266
330
3C7
100
AcDbEntity
  8
ninja1 - Level 25
  6
Continuous
 62
     7
370
    13
100
AcDbLine
 10
3.500803
 20
2.441928
 30
0.0
 11
3.508408
 21
2.441928
 31
0.0
  0
LINE
  5
267
330
3C7
100
AcDbEntity
  8
ninja1 - Level 26
  6
Continuous
 62
     7
370
    13
100
AcDbLine
 10
3.181618
 20
2.783391
 30
0.0
 11
3.165335
 21
2.818168
 31
0.0
  0
LINE
  5
268
330
3C7
100
AcDbEntity
  8
ninja1 - Level 26
  6
Continuous
 62
     7
370
    13
100
AcDbLine
 10
3.139866
 20
2.763842
 30
0.0
 11
3.123583
 21
2.798618
 31
0.0
  0
ARC
  5
269
330
3C7
100
AcDbEntity
  8
ninja1 - Level 26
  6
Continuous
 62
     7
370
    13
100
AcDbCircle
 10
3.152601
 20
2.791005
 30
0.0
 40
0.03
100
AcDbArc
 50
244.882102
 51
345.298463
  0
ARC
  5
26A
330
3C7
100
AcDbEntity
  8
ninja1 - Level 26
  6
Continuous
 62
     7
370
    13
100
AcDbCircle
 10
3.152601
 20
2.791005
 30
0.0
 40
0.03
100
AcDbArc
 50
64.882102
 51
165.298463
  0
ARC
  5
26B
330
3C7
100
AcDbEntity
  8
ninja1 - Level 26
  6
Continuous
 62
     7
370
    13
100
AcDbCircle
 10
3.141989
 20
2.768369
 30
0.0
 40
0.005
100
AcDbArc
 50
205.090282
 51
244.882102
  0
ARC
  5
26C
330
3C7
100
AcDbEntity
  8
ninja1 - Level 26
  6
Continuous
 62
     7
370
    13
100
AcDbCircle
 10
3.128419
 20
2.797349
 30
0.0
 40
0.005
100
AcDbArc
 50
165.298463
 51
205.090282
  0
LINE
  5
26D
330
3C7
100
AcDbEntity
  8
ninja1 - Level 26
  6
Continuous
 62
     7
370
    13
100
AcDbLine
 10
3.13746
 20
2.766249
 30
0.0
 11
3.123891
 21
2.795229
 31
0.0
  0
ARC
  5
26E
330
3C7
100
AcDbEntity
  8
ninja1 - Level 26
  6
Continuous
 62
     7
370
    13
100
AcDbCircle
 10
3.163213
 20
2.813641
 30
0.0
 40
0.005
100
AcDbArc
 50
25.090282
 51
64.882102
  0
ARC
  5
26F
330
3C7
100
AcDbEntity
  8
ninja1 - Level 26
  6
Continuous
 62
     7
370
    13
100
AcDbCircle
 10
3.176782
 20
2.78466
 30
0.0
 40
0.005
100
AcDbArc
 50
345.298463
 51
25.090282
  0
LINE
  5
270
330
3C7
100
AcDbEntity
  8
ninja1 - Level 26
  6
Continuous
 62
     7
370
    13
100
AcDbLine
 10
3.167741
 20
2.815761
 30
0.0
 11
3.18131
 21
2.78678
 31
0.0
  0
LINE
  5
271
330
3C7
100
AcDbEntity
  8
ninja1 - Level 26
  6
Continuous
 62
     7
370
    13
100
AcDbLine
 10
2.978076
 20
3.218099
 30
0.0
 11
2.961793
 21
3.252875
 31
0.0
  0
LINE
  5
272
330
3C7
100
AcDbEntity
  8
ninja1 - Level 26
  6
Continuous
 62
     7
370
    13
100
AcDbLine
 10
2.936324
 20
3.198549
 30
0.0
 11
2.920041
 21
3.233326
 31
0.0
  0
ARC
  5
273
330
3C7
100
AcDbEntity
  8
ninja1 - Level 26
  6
Continuous
 62
     7
370
    13
100
AcDbCircle
 10
2.949059
 20
3.225712
 30
0.0
 40
0.03
100
AcDbArc
 50
244.882102
 51
345.298463
  0
ARC
  5
274
330
3C7
100
AcDbEntity
  8
ninja1 - Level 26
  6
Continuous
 62
     7
370
    13
100
AcDbCircle
 10
2.949059
 20
3.225712
 30
0.0
 40
0.03
100
AcDbArc
 50
64.882102
 51
165.298463
  0
ARC
  5
275
330
3C7
100
AcDbEntity
  8
ninja1 - Level 26
  6
Continuous
 62
     7
370
    13
100
AcDbCircle
 10
2.938447
 20
3.203076
 30
0.0
 40
0.005
100
AcDbArc
 50
205.090282
 51
244.882102
  0
ARC
  5
276
330
3C7
100
AcDbEntity
  8
ninja1 - Level 26
  6
Continuous
 62
     7
370
    13
100
AcDbCircle
 10
2.924877
 20
3.232057
 30
0.0
 40
0.005
100
AcDbArc
 50
165.298463
 51
205.090282
  0
LINE
  5
277
330
3C7
100
AcDbEntity
  8
ninja1 - Level 26
  6
Continuous
 62
     7
370
    13
100
AcDbLine
 10
2.933918
 20
3.200956
 30
0.0
 11
2.920349
 21
3.229937
 31
0.0
  0
ARC
  5
278
330
3C7
100
AcDbEntity
  8
ninja1 - Level 26
  6
Continuous
 62
     7
370
    13
100
AcDbCircle
 10
2.959671
 20
3.248348
 30
0.0
 40
0.005
100
AcDbArc
 50
25.090282
 51
64.882102
  0
ARC
  5
279
330
3C7
100
AcDbEntity
  8
ninja1 - Level 26
  6
Continuous
 62
     7
370
    13
100
AcDbCircle
 10
2.97324
 20
3.219368
 30
0.0
 40
0.005
100
AcDbArc
 50
345.298463
 51
25.090282
  0
LINE
  5
27A
330
3C7
100
AcDbEntity
  8
ninja1 - Level 26
  6
Continuous
 62
     7
370
    13
100
AcDbLine
 10
2.964199
 20
3.250468
 30
0.0
 11
2.977768
 21
3.221488
 31
0.0
  0
LINE
  5
27B
330
3C7
100
AcDbEntity
  8
ninja1 - Level 26
  6
Continuous
 62
     7
370
    13
100
AcDbLine
 10
2.774534
 20
3.652806
 30
0.0
 11
2.758251
 21
3.687583
 31
0.0
  0
LINE
  5
27C
330
3C7
100
AcDbEntity
  8
ninja1 - Level 26
  6
Continuous
 62
     7
370
    13
100
AcDbLine
 10
2.732782
 20
3.633257
 30
0.0
 11
2.716499
 21
3.668033
 31
0.0
  0
ARC
  5
27D
330
3C7
100
AcDbEntity
  8
ninja1 - Level 26
  6
Continuous
 62
     7
370
    13
100
AcDbCircle
 10
2.745517
 20
3.66042
 30
0.0
 40
0.03
100
AcDbArc
 50
244.882102
 51
345.298463
  0
ARC
  5
27E
330
3C7
100
AcDbEntity
  8
ninja1 - Level 26
  6
Continuous
 62
     7
370
    13
100
AcDbCircle
 10
2.745517
 20
3.66042
 30
0.0
 40
0.03
100
AcDbArc
 50
64.882102
 51
165.298463
  0
ARC
  5
27F
330
3C7
100
AcDbEntity
  8
ninja1 - Level 26
  6
Continuous
 62
     7
370
    13
100
AcDbCircle
 10
2.734905
 20
3.637784
 30
0.0
 40
0.005
100
AcDbArc
 50
205.090282
 51
244.882102
  0
ARC
  5
280
330
3C7
100
AcDbEntity
  8
ninja1 - Level 26
  6
Continuous
 62
     7
370
    13
100
AcDbCircle
 10
2.721335
 20
3.666764
 30
0.0
 40
0.005
100
AcDbArc
 50
165.298463
 51
205.090282
  0
LINE
  5
281
330
3C7
100
AcDbEntity
  8
ninja1 - Level 26
  6
Continuous
 62
     7
370
    13
100
AcDbLine
 10
2.730376
 20
3.635664
 30
0.0
 11
2.716807
 21
3.664644
 31
0.0
  0
ARC
  5
282
330
3C7
100
AcDbEntity
  8
ninja1 - Level 26
  6
Continuous
 62
     7
370
    13
100
AcDbCircle
 10
2.756129
 20
3.683056
 30
0.0
 40
0.005
100
AcDbArc
 50
25.090282
 51
64.882102
  0
ARC
  5
283
330
3C7
100
AcDbEntity
  8
ninja1 - Level 26
  6
Continuous
 62
     7
370
    13
100
AcDbCircle
 10
2.769698
 20
3.654075
 30
0.0
 40
0.005
100
AcDbArc
 50
345.298463
 51
25.090282
  0
LINE
  5
284
330
3C7
100
AcDbEntity
  8
ninja1 - Level 26
  6
Continuous
 62
     7
370
    13
100
AcDbLine
 10
2.760657
 20
3.685176
 30
0.0
 11
2.774226
 21
3.656195
 31
0.0
  0
LINE
  5
285
330
3C7
100
AcDbEntity
  8
ninja1 - Level 25
  6
Continuous
 62
     7
370
    13
100
AcDbLine
 10
3.259365
 20
2.855901
 30
0.0
 11
3.270814
 21
2.831449
 31
0.0
  0
LINE
  5
286
330
3C7
100
AcDbEntity
  8
ninja1 - Level 25
  6
Continuous
 62
     7
370
    13
100
AcDbLine
 10
3.18025
 20
2.789044
 30
0.0
 11
3.270814
 21
2.831449
 31
0.0
  0
LINE
  5
287
330
3C7
100
AcDbEntity
  8
ninja1 - Level 25
  6
Continuous
 62
     7
370
    13
100
AcDbLine
 10
3.259365
 20
2.855901
 30
0.0
 11
3.168801
 21
2.813497
 31
0.0
  0
LINE
  5
288
330
3C7
100
AcDbEntity
  8
ninja1 - Level 25
  6
Continuous
 62
     7
370
    13
100
AcDbLine
 10
2.976708
 20
3.223752
 30
0.0
 11
3.067272
 21
3.266157
 31
0.0
  0
LINE
  5
289
330
3C7
100
AcDbEntity
  8
ninja1 - Level 25
  6
Continuous
 62
     7
370
    13
100
AcDbLine
 10
3.055823
 20
3.290609
 30
0.0
 11
2.965259
 21
3.248204
 31
0.0
  0
LINE
  5
28A
330
3C7
100
AcDbEntity
  8
ninja1 - Level 25
  6
Continuous
 62
     7
370
    13
100
AcDbLine
 10
2.773166
 20
3.65846
 30
0.0
 11
2.86373
 21
3.700864
 31
0.0
  0
LINE
  5
28B
330
3C7
100
AcDbEntity
  8
ninja1 - Level 25
  6
Continuous
 62
     7
370
    13
100
AcDbLine
 10
2.852281
 20
3.725316
 30
0.0
 11
2.761717
 21
3.682912
 31
0.0
  0
LINE
  5
28C
330
3C7
100
AcDbEntity
  8
ninja1 - Level 25
  6
Continuous
 62
     7
370
    13
100
AcDbLine
 10
2.115803
 20
5.431928
 30
0.0
 11
2.115803
 21
5.436928
 31
0.0
  0
LINE
  5
28D
330
3C7
100
AcDbEntity
  8
ninja1 - Level 25
  6
Continuous
 62
     7
370
    13
100
AcDbLine
 10
2.100803
 20
5.431928
 30
0.0
 11
2.115803
 21
5.431928
 31
0.0
  0
LINE
  5
28E
330
3C7
100
AcDbEntity
  8
ninja1 - Level 25
  6
Continuous
 62
     7
370
    13
100
AcDbLine
 10
2.100803
 20
5.431928
 30
0.0
 11
2.100803
 21
5.436928
 31
0.0
  0
LINE
  5
28F
330
3C7
100
AcDbEntity
  8
ninja1 - Level 25
  6
Continuous
 62
     7
370
    13
100
AcDbLine
 10
2.100803
 20
5.436928
 30
0.0
 11
2.115803
 21
5.436928
 31
0.0
  0
LINE
  5
290
330
3C7
100
AcDbEntity
  8
ninja1 - Level 25
  6
Continuous
 62
     7
370
    13
100
AcDbLine
 10
2.060803
 20
5.431928
 30
0.0
 11
2.060803
 21
5.436928
 31
0.0
  0
LINE
  5
291
330
3C7
100
AcDbEntity
  8
ninja1 - Level 25
  6
Continuous
 62
     7
370
    13
100
AcDbLine
 10
2.045803
 20
5.431928
 30
0.0
 11
2.060803
 21
5.431928
 31
0.0
  0
LINE
  5
292
330
3C7
100
AcDbEntity
  8
ninja1 - Level 25
  6
Continuous
 62
     7
370
    13
100
AcDbLine
 10
2.045803
 20
5.431928
 30
0.0
 11
2.045803
 21
5.436928
 31
0.0
  0
LINE
  5
293
330
3C7
100
AcDbEntity
  8
ninja1 - Level 25
  6
Continuous
 62
     7
370
    13
100
AcDbLine
 10
2.045803
 20
5.436928
 30
0.0
 11
2.060803
 21
5.436928
 31
0.0
  0
LINE
  5
294
330
3C7
100
AcDbEntity
  8
ninja1 - Level 25
  6
Continuous
 62
     7
370
    13
100
AcDbLine
 10
2.100803
 20
5.431928
 30
0.0
 11
2.060803
 21
5.431928
 31
0.0
  0
LINE
  5
295
330
3C7
100
AcDbEntity
  8
ninja1 - Level 26
  6
Continuous
 62
     7
370
    13
100
AcDbLine
 10
2.787072
 20
4.22105
 30
0.0
 11
2.803356
 21
4.186274
 31
0.0
  0
LINE
  5
296
330
3C7
100
AcDbEntity
  8
ninja1 - Level 26
  6
Continuous
 62
     7
370
    13
100
AcDbLine
 10
2.828825
 20
4.2406
 30
0.0
 11
2.845108
 21
4.205823
 31
0.0
  0
ARC
  5
297
330
3C7
100
AcDbEntity
  8
ninja1 - Level 26
  6
Continuous
 62
     7
370
    13
100
AcDbCircle
 10
2.81609
 20
4.213437
 30
0.0
 40
0.03
100
AcDbArc
 50
244.882102
 51
345.298463
  0
ARC
  5
298
330
3C7
100
AcDbEntity
  8
ninja1 - Level 26
  6
Continuous
 62
     7
370
    13
100
AcDbCircle
 10
2.81609
 20
4.213437
 30
0.0
 40
0.03
100
AcDbArc
 50
64.882102
 51
165.298463
  0
ARC
  5
299
330
3C7
100
AcDbEntity
  8
ninja1 - Level 26
  6
Continuous
 62
     7
370
    13
100
AcDbCircle
 10
2.826702
 20
4.236073
 30
0.0
 40
0.005
100
AcDbArc
 50
25.090282
 51
64.882102
  0
ARC
  5
29A
330
3C7
100
AcDbEntity
  8
ninja1 - Level 26
  6
Continuous
 62
     7
370
    13
100
AcDbCircle
 10
2.840272
 20
4.207092
 30
0.0
 40
0.005
100
AcDbArc
 50
345.298463
 51
25.090282
  0
LINE
  5
29B
330
3C7
100
AcDbEntity
  8
ninja1 - Level 26
  6
Continuous
 62
     7
370
    13
100
AcDbLine
 10
2.83123
 20
4.238193
 30
0.0
 11
2.8448
 21
4.209212
 31
0.0
  0
ARC
  5
29C
330
3C7
100
AcDbEntity
  8
ninja1 - Level 26
  6
Continuous
 62
     7
370
    13
100
AcDbCircle
 10
2.805478
 20
4.190801
 30
0.0
 40
0.005
100
AcDbArc
 50
205.090282
 51
244.882102
  0
ARC
  5
29D
330
3C7
100
AcDbEntity
  8
ninja1 - Level 26
  6
Continuous
 62
     7
370
    13
100
AcDbCircle
 10
2.791909
 20
4.219781
 30
0.0
 40
0.005
100
AcDbArc
 50
165.298463
 51
205.090282
  0
LINE
  5
29E
330
3C7
100
AcDbEntity
  8
ninja1 - Level 26
  6
Continuous
 62
     7
370
    13
100
AcDbLine
 10
2.80095
 20
4.18868
 30
0.0
 11
2.78738
 21
4.217661
 31
0.0
  0
LINE
  5
29F
330
3C7
100
AcDbEntity
  8
ninja1 - Level 26
  6
Continuous
 62
     7
370
    13
100
AcDbLine
 10
2.58353
 20
4.655758
 30
0.0
 11
2.599814
 21
4.620981
 31
0.0
  0
LINE
  5
2A0
330
3C7
100
AcDbEntity
  8
ninja1 - Level 26
  6
Continuous
 62
     7
370
    13
100
AcDbLine
 10
2.625283
 20
4.675307
 30
0.0
 11
2.641566
 21
4.640531
 31
0.0
  0
ARC
  5
2A1
330
3C7
100
AcDbEntity
  8
ninja1 - Level 26
  6
Continuous
 62
     7
370
    13
100
AcDbCircle
 10
2.612548
 20
4.648144
 30
0.0
 40
0.03
100
AcDbArc
 50
244.882102
 51
345.298463
  0
ARC
  5
2A2
330
3C7
100
AcDbEntity
  8
ninja1 - Level 26
  6
Continuous
 62
     7
370
    13
100
AcDbCircle
 10
2.612548
 20
4.648144
 30
0.0
 40
0.03
100
AcDbArc
 50
64.882102
 51
165.298463
  0
ARC
  5
2A3
330
3C7
100
AcDbEntity
  8
ninja1 - Level 26
  6
Continuous
 62
     7
370
    13
100
AcDbCircle
 10
2.62316
 20
4.67078
 30
0.0
 40
0.005
100
AcDbArc
 50
25.090282
 51
64.882102
  0
ARC
  5
2A4
330
3C7
100
AcDbEntity
  8
ninja1 - Level 26
  6
Continuous
 62
     7
370
    13
100
AcDbCircle
 10
2.63673
 20
4.6418
 30
0.0
 40
0.005
100
AcDbArc
 50
345.298463
 51
25.090282
  0
LINE
  5
2A5
330
3C7
100
AcDbEntity
  8
ninja1 - Level 26
  6
Continuous
 62
     7
370
    13
100
AcDbLine
 10
2.627688
 20
4.6729
 30
0.0
 11
2.641258
 21
4.64392
 31
0.0
  0
ARC
  5
2A6
330
3C7
100
AcDbEntity
  8
ninja1 - Level 26
  6
Continuous
 62
     7
370
    13
100
AcDbCircle
 10
2.601936
 20
4.625508
 30
0.0
 40
0.005
100
AcDbArc
 50
205.090282
 51
244.882102
  0
ARC
  5
2A7
330
3C7
100
AcDbEntity
  8
ninja1 - Level 26
  6
Continuous
 62
     7
370
    13
100
AcDbCircle
 10
2.588367
 20
4.654489
 30
0.0
 40
0.005
100
AcDbArc
 50
165.298463
 51
205.090282
  0
LINE
  5
2A8
330
3C7
100
AcDbEntity
  8
ninja1 - Level 26
  6
Continuous
 62
     7
370
    13
100
AcDbLine
 10
2.597408
 20
4.623388
 30
0.0
 11
2.583838
 21
4.652369
 31
0.0
  0
LINE
  5
2A9
330
3C7
100
AcDbEntity
  8
ninja1 - Level 26
  6
Continuous
 62
     7
370
    13
100
AcDbLine
 10
2.379988
 20
5.090465
 30
0.0
 11
2.396272
 21
5.055689
 31
0.0
  0
LINE
  5
2AA
330
3C7
100
AcDbEntity
  8
ninja1 - Level 26
  6
Continuous
 62
     7
370
    13
100
AcDbLine
 10
2.421741
 20
5.110015
 30
0.0
 11
2.438024
 21
5.075238
 31
0.0
  0
ARC
  5
2AB
330
3C7
100
AcDbEntity
  8
ninja1 - Level 26
  6
Continuous
 62
     7
370
    13
100
AcDbCircle
 10
2.409006
 20
5.082852
 30
0.0
 40
0.03
100
AcDbArc
 50
244.882102
 51
345.298463
  0
ARC
  5
2AC
330
3C7
100
AcDbEntity
  8
ninja1 - Level 26
  6
Continuous
 62
     7
370
    13
100
AcDbCircle
 10
2.409006
 20
5.082852
 30
0.0
 40
0.03
100
AcDbArc
 50
64.882102
 51
165.298463
  0
ARC
  5
2AD
330
3C7
100
AcDbEntity
  8
ninja1 - Level 26
  6
Continuous
 62
     7
370
    13
100
AcDbCircle
 10
2.419618
 20
5.105488
 30
0.0
 40
0.005
100
AcDbArc
 50
25.090282
 51
64.882102
  0
ARC
  5
2AE
330
3C7
100
AcDbEntity
  8
ninja1 - Level 26
  6
Continuous
 62
     7
370
    13
100
AcDbCircle
 10
2.433188
 20
5.076507
 30
0.0
 40
0.005
100
AcDbArc
 50
345.298463
 51
25.090282
  0
LINE
  5
2AF
330
3C7
100
AcDbEntity
  8
ninja1 - Level 26
  6
Continuous
 62
     7
370
    13
100
AcDbLine
 10
2.424146
 20
5.107608
 30
0.0
 11
2.437716
 21
5.078627
 31
0.0
  0
ARC
  5
2B0
330
3C7
100
AcDbEntity
  8
ninja1 - Level 26
  6
Continuous
 62
     7
370
    13
100
AcDbCircle
 10
2.398394
 20
5.060216
 30
0.0
 40
0.005
100
AcDbArc
 50
205.090282
 51
244.882102
  0
ARC
  5
2B1
330
3C7
100
AcDbEntity
  8
ninja1 - Level 26
  6
Continuous
 62
     7
370
    13
100
AcDbCircle
 10
2.384825
 20
5.089196
 30
0.0
 40
0.005
100
AcDbArc
 50
165.298463
 51
205.090282
  0
LINE
  5
2B2
330
3C7
100
AcDbEntity
  8
ninja1 - Level 26
  6
Continuous
 62
     7
370
    13
100
AcDbLine
 10
2.393866
 20
5.058096
 30
0.0
 11
2.380296
 21
5.087076
 31
0.0
  0
LINE
  5
2B3
330
3C7
100
AcDbEntity
  8
ninja1 - Level 25
  6
Continuous
 62
     7
370
    13
100
AcDbLine
 10
2.788441
 20
4.215397
 30
0.0
 11
2.697877
 21
4.172992
 31
0.0
  0
LINE
  5
2B4
330
3C7
100
AcDbEntity
  8
ninja1 - Level 25
  6
Continuous
 62
     7
370
    13
100
AcDbLine
 10
2.709326
 20
4.14854
 30
0.0
 11
2.79989
 21
4.190945
 31
0.0
  0
LINE
  5
2B5
330
3C7
100
AcDbEntity
  8
ninja1 - Level 25
  6
Continuous
 62
     7
370
    13
100
AcDbLine
 10
2.584899
 20
4.650104
 30
0.0
 11
2.494335
 21
4.6077
 31
0.0
  0
LINE
  5
2B6
330
3C7
100
AcDbEntity
  8
ninja1 - Level 25
  6
Continuous
 62
     7
370
    13
100
AcDbLine
 10
2.505784
 20
4.583248
 30
0.0
 11
2.596348
 21
4.625652
 31
0.0
  0
LINE
  5
2B7
330
3C7
100
AcDbEntity
  8
ninja1 - Level 25
  6
Continuous
 62
     7
370
    13
100
AcDbLine
 10
2.381357
 20
5.084812
 30
0.0
 11
2.290793
 21
5.042407
 31
0.0
  0
LINE
  5
2B8
330
3C7
100
AcDbEntity
  8
ninja1 - Level 25
  6
Continuous
 62
     7
370
    13
100
AcDbLine
 10
2.302242
 20
5.017955
 30
0.0
 11
2.392806
 21
5.06036
 31
0.0
  0
LWPOLYLINE
  5
2B9
330
3C7
100
AcDbEntity
  8
Level 15
  6
DGN Style 2
 62
     7
370
    13
100
AcDbPolyline
 90
        9
 70
   128
 43
0.0
 10
9.678419
 20
8.020596
 42
0.414214
 10
8.761539
 20
5.494863
 10
10.171551
 20
2.477728
 42
0.414214
 10
12.697285
 20
1.560848
 10
12.8825
 20
1.647405
 42
0.414214
 10
13.79938
 20
4.173139
 10
12.389367
 20
7.190274
 42
0.414214
 10
9.863634
 20
8.107154
 10
9.678419
 20
8.020596
  0
LINE
  5
2C2
330
3C7
100
AcDbEntity
  8
ninja1 - Level 25
  6
Continuous
 62
     7
370
    13
100
AcDbLine
 10
11.882317
 20
3.310439
 30
0.0
 11
11.882317
 21
3.305439
 31
0.0
  0
LINE
  5
2C3
330
3C7
100
AcDbEntity
  8
ninja1 - Level 25
  6
Continuous
 62
     7
370
    13
100
AcDbLine
 10
11.897317
 20
3.310439
 30
0.0
 11
11.882317
 21
3.310439
 31
0.0
  0
LINE
  5
2C4
330
3C7
100
AcDbEntity
  8
ninja1 - Level 25
  6
Continuous
 62
     7
370
    13
100
AcDbLine
 10
11.897317
 20
3.310439
 30
0.0
 11
11.897317
 21
3.305439
 31
0.0
  0
LINE
  5
2C5
330
3C7
100
AcDbEntity
  8
ninja1 - Level 25
  6
Continuous
 62
     7
370
    13
100
AcDbLine
 10
11.897317
 20
3.305439
 30
0.0
 11
11.882317
 21
3.305439
 31
0.0
  0
LINE
  5
2C6
330
3C7
100
AcDbEntity
  8
ninja1 - Level 25
  6
Continuous
 62
     7
370
    13
100
AcDbLine
 10
11.937317
 20
3.310439
 30
0.0
 11
11.937317
 21
3.305439
 31
0.0
  0
LINE
  5
2C7
330
3C7
100
AcDbEntity
  8
ninja1 - Level 25
  6
Continuous
 62
     7
370
    13
100
AcDbLine
 10
11.952317
 20
3.310439
 30
0.0
 11
11.937317
 21
3.310439
 31
0.0
  0
LINE
  5
2C8
330
3C7
100
AcDbEntity
  8
ninja1 - Level 25
  6
Continuous
 62
     7
370
    13
100
AcDbLine
 10
11.952317
 20
3.310439
 30
0.0
 11
11.952317
 21
3.305439
 31
0.0
  0
LINE
  5
2C9
330
3C7
100
AcDbEntity
  8
ninja1 - Level 25
  6
Continuous
 62
     7
370
    13
100
AcDbLine
 10
11.952317
 20
3.305439
 30
0.0
 11
11.937317
 21
3.305439
 31
0.0
  0
LINE
  5
2CA
330
3C7
100
AcDbEntity
  8
ninja1 - Level 25
  6
Continuous
 62
     7
370
    13
100
AcDbLine
 10
11.897317
 20
3.310439
 30
0.0
 11
11.937317
 21
3.310439
 31
0.0
  0
LINE
  5
2CB
330
3C7
100
AcDbEntity
  8
ninja1 - Level 25
  6
Continuous
 62
     7
370
    13
100
AcDbLine
 10
11.944922
 20
3.310439
 30
0.0
 11
10.544922
 21
6.300439
 31
0.0
  0
LINE
  5
2CC
330
3C7
100
AcDbEntity
  8
ninja1 - Level 25
  6
Continuous
 62
     7
370
    13
100
AcDbLine
 10
10.489713
 20
6.300439
 30
0.0
 11
11.889713
 21
3.310439
 31
0.0
  0
LINE
  5
2CD
330
3C7
100
AcDbEntity
  8
ninja1 - Level 25
  6
Continuous
 62
     7
370
    13
100
AcDbLine
 10
10.544922
 20
6.300439
 30
0.0
 11
10.537317
 21
6.300439
 31
0.0
  0
LINE
  5
2CE
330
3C7
100
AcDbEntity
  8
ninja1 - Level 25
  6
Continuous
 62
     7
370
    13
100
AcDbLine
 10
10.497317
 20
6.300439
 30
0.0
 11
10.489713
 21
6.300439
 31
0.0
  0
LINE
  5
2CF
330
3C7
100
AcDbEntity
  8
ninja1 - Level 25
  6
Continuous
 62
     7
370
    13
100
AcDbLine
 10
11.889713
 20
3.310439
 30
0.0
 11
11.897317
 21
3.310439
 31
0.0
  0
LINE
  5
2D0
330
3C7
100
AcDbEntity
  8
ninja1 - Level 25
  6
Continuous
 62
     7
370
    13
100
AcDbLine
 10
11.937317
 20
3.310439
 30
0.0
 11
11.944922
 21
3.310439
 31
0.0
  0
LINE
  5
2D1
330
3C7
100
AcDbEntity
  8
ninja1 - Level 26
  6
Continuous
 62
     7
370
    13
100
AcDbLine
 10
11.618132
 20
3.651902
 30
0.0
 11
11.601849
 21
3.686678
 31
0.0
  0
LINE
  5
2D2
330
3C7
100
AcDbEntity
  8
ninja1 - Level 26
  6
Continuous
 62
     7
370
    13
100
AcDbLine
 10
11.57638
 20
3.632352
 30
0.0
 11
11.560097
 21
3.667129
 31
0.0
  0
ARC
  5
2D3
330
3C7
100
AcDbEntity
  8
ninja1 - Level 26
  6
Continuous
 62
     7
370
    13
100
AcDbCircle
 10
11.589115
 20
3.659515
 30
0.0
 40
0.03
100
AcDbArc
 50
244.882102
 51
345.298463
  0
ARC
  5
2D4
330
3C7
100
AcDbEntity
  8
ninja1 - Level 26
  6
Continuous
 62
     7
370
    13
100
AcDbCircle
 10
11.589115
 20
3.659515
 30
0.0
 40
0.03
100
AcDbArc
 50
64.882102
 51
165.298463
  0
ARC
  5
2D5
330
3C7
100
AcDbEntity
  8
ninja1 - Level 26
  6
Continuous
 62
     7
370
    13
100
AcDbCircle
 10
11.578502
 20
3.636879
 30
0.0
 40
0.005
100
AcDbArc
 50
205.090282
 51
244.882102
  0
ARC
  5
2D6
330
3C7
100
AcDbEntity
  8
ninja1 - Level 26
  6
Continuous
 62
     7
370
    13
100
AcDbCircle
 10
11.564933
 20
3.66586
 30
0.0
 40
0.005
100
AcDbArc
 50
165.298463
 51
205.090282
  0
LINE
  5
2D7
330
3C7
100
AcDbEntity
  8
ninja1 - Level 26
  6
Continuous
 62
     7
370
    13
100
AcDbLine
 10
11.573974
 20
3.634759
 30
0.0
 11
11.560405
 21
3.66374
 31
0.0
  0
ARC
  5
2D8
330
3C7
100
AcDbEntity
  8
ninja1 - Level 26
  6
Continuous
 62
     7
370
    13
100
AcDbCircle
 10
11.599727
 20
3.682151
 30
0.0
 40
0.005
100
AcDbArc
 50
25.090282
 51
64.882102
  0
ARC
  5
2D9
330
3C7
100
AcDbEntity
  8
ninja1 - Level 26
  6
Continuous
 62
     7
370
    13
100
AcDbCircle
 10
11.613296
 20
3.653171
 30
0.0
 40
0.005
100
AcDbArc
 50
345.298463
 51
25.090282
  0
LINE
  5
2DA
330
3C7
100
AcDbEntity
  8
ninja1 - Level 26
  6
Continuous
 62
     7
370
    13
100
AcDbLine
 10
11.604255
 20
3.684271
 30
0.0
 11
11.617824
 21
3.655291
 31
0.0
  0
LINE
  5
2DB
330
3C7
100
AcDbEntity
  8
ninja1 - Level 26
  6
Continuous
 62
     7
370
    13
100
AcDbLine
 10
11.41459
 20
4.086609
 30
0.0
 11
11.398307
 21
4.121386
 31
0.0
  0
LINE
  5
2DC
330
3C7
100
AcDbEntity
  8
ninja1 - Level 26
  6
Continuous
 62
     7
370
    13
100
AcDbLine
 10
11.372838
 20
4.06706
 30
0.0
 11
11.356555
 21
4.101836
 31
0.0
  0
ARC
  5
2DD
330
3C7
100
AcDbEntity
  8
ninja1 - Level 26
  6
Continuous
 62
     7
370
    13
100
AcDbCircle
 10
11.385573
 20
4.094223
 30
0.0
 40
0.03
100
AcDbArc
 50
244.882102
 51
345.298463
  0
ARC
  5
2DE
330
3C7
100
AcDbEntity
  8
ninja1 - Level 26
  6
Continuous
 62
     7
370
    13
100
AcDbCircle
 10
11.385573
 20
4.094223
 30
0.0
 40
0.03
100
AcDbArc
 50
64.882102
 51
165.298463
  0
ARC
  5
2DF
330
3C7
100
AcDbEntity
  8
ninja1 - Level 26
  6
Continuous
 62
     7
370
    13
100
AcDbCircle
 10
11.37496
 20
4.071587
 30
0.0
 40
0.005
100
AcDbArc
 50
205.090282
 51
244.882102
  0
ARC
  5
2E0
330
3C7
100
AcDbEntity
  8
ninja1 - Level 26
  6
Continuous
 62
     7
370
    13
100
AcDbCircle
 10
11.361391
 20
4.100567
 30
0.0
 40
0.005
100
AcDbArc
 50
165.298463
 51
205.090282
  0
LINE
  5
2E1
330
3C7
100
AcDbEntity
  8
ninja1 - Level 26
  6
Continuous
 62
     7
370
    13
100
AcDbLine
 10
11.370432
 20
4.069467
 30
0.0
 11
11.356863
 21
4.098447
 31
0.0
  0
ARC
  5
2E2
330
3C7
100
AcDbEntity
  8
ninja1 - Level 26
  6
Continuous
 62
     7
370
    13
100
AcDbCircle
 10
11.396185
 20
4.116859
 30
0.0
 40
0.005
100
AcDbArc
 50
25.090282
 51
64.882102
  0
ARC
  5
2E3
330
3C7
100
AcDbEntity
  8
ninja1 - Level 26
  6
Continuous
 62
     7
370
    13
100
AcDbCircle
 10
11.409754
 20
4.087878
 30
0.0
 40
0.005
100
AcDbArc
 50
345.298463
 51
25.090282
  0
LINE
  5
2E4
330
3C7
100
AcDbEntity
  8
ninja1 - Level 26
  6
Continuous
 62
     7
370
    13
100
AcDbLine
 10
11.400713
 20
4.118979
 30
0.0
 11
11.414282
 21
4.089999
 31
0.0
  0
LINE
  5
2E5
330
3C7
100
AcDbEntity
  8
ninja1 - Level 26
  6
Continuous
 62
     7
370
    13
100
AcDbLine
 10
11.211048
 20
4.521317
 30
0.0
 11
11.194765
 21
4.556094
 31
0.0
  0
LINE
  5
2E6
330
3C7
100
AcDbEntity
  8
ninja1 - Level 26
  6
Continuous
 62
     7
370
    13
100
AcDbLine
 10
11.169296
 20
4.501767
 30
0.0
 11
11.153013
 21
4.536544
 31
0.0
  0
ARC
  5
2E7
330
3C7
100
AcDbEntity
  8
ninja1 - Level 26
  6
Continuous
 62
     7
370
    13
100
AcDbCircle
 10
11.182031
 20
4.52893
 30
0.0
 40
0.03
100
AcDbArc
 50
244.882102
 51
345.298463
  0
ARC
  5
2E8
330
3C7
100
AcDbEntity
  8
ninja1 - Level 26
  6
Continuous
 62
     7
370
    13
100
AcDbCircle
 10
11.182031
 20
4.52893
 30
0.0
 40
0.03
100
AcDbArc
 50
64.882102
 51
165.298463
  0
ARC
  5
2E9
330
3C7
100
AcDbEntity
  8
ninja1 - Level 26
  6
Continuous
 62
     7
370
    13
100
AcDbCircle
 10
11.171418
 20
4.506295
 30
0.0
 40
0.005
100
AcDbArc
 50
205.090282
 51
244.882102
  0
ARC
  5
2EA
330
3C7
100
AcDbEntity
  8
ninja1 - Level 26
  6
Continuous
 62
     7
370
    13
100
AcDbCircle
 10
11.157849
 20
4.535275
 30
0.0
 40
0.005
100
AcDbArc
 50
165.298463
 51
205.090282
  0
LINE
  5
2EB
330
3C7
100
AcDbEntity
  8
ninja1 - Level 26
  6
Continuous
 62
     7
370
    13
100
AcDbLine
 10
11.16689
 20
4.504174
 30
0.0
 11
11.153321
 21
4.533155
 31
0.0
  0
ARC
  5
2EC
330
3C7
100
AcDbEntity
  8
ninja1 - Level 26
  6
Continuous
 62
     7
370
    13
100
AcDbCircle
 10
11.192643
 20
4.551566
 30
0.0
 40
0.005
100
AcDbArc
 50
25.090282
 51
64.882102
  0
ARC
  5
2ED
330
3C7
100
AcDbEntity
  8
ninja1 - Level 26
  6
Continuous
 62
     7
370
    13
100
AcDbCircle
 10
11.206212
 20
4.522586
 30
0.0
 40
0.005
100
AcDbArc
 50
345.298463
 51
25.090282
  0
LINE
  5
2EE
330
3C7
100
AcDbEntity
  8
ninja1 - Level 26
  6
Continuous
 62
     7
370
    13
100
AcDbLine
 10
11.197171
 20
4.553687
 30
0.0
 11
11.21074
 21
4.524706
 31
0.0
  0
LINE
  5
2EF
330
3C7
100
AcDbEntity
  8
ninja1 - Level 25
  6
Continuous
 62
     7
370
    13
100
AcDbLine
 10
11.695879
 20
3.724412
 30
0.0
 11
11.707328
 21
3.69996
 31
0.0
  0
LINE
  5
2F0
330
3C7
100
AcDbEntity
  8
ninja1 - Level 25
  6
Continuous
 62
     7
370
    13
100
AcDbLine
 10
11.616764
 20
3.657555
 30
0.0
 11
11.707328
 21
3.69996
 31
0.0
  0
LINE
  5
2F1
330
3C7
100
AcDbEntity
  8
ninja1 - Level 25
  6
Continuous
 62
     7
370
    13
100
AcDbLine
 10
11.695879
 20
3.724412
 30
0.0
 11
11.605315
 21
3.682007
 31
0.0
  0
LINE
  5
2F2
330
3C7
100
AcDbEntity
  8
ninja1 - Level 25
  6
Continuous
 62
     7
370
    13
100
AcDbLine
 10
11.413222
 20
4.092263
 30
0.0
 11
11.503786
 21
4.134667
 31
0.0
  0
LINE
  5
2F3
330
3C7
100
AcDbEntity
  8
ninja1 - Level 25
  6
Continuous
 62
     7
370
    13
100
AcDbLine
 10
11.492337
 20
4.15912
 30
0.0
 11
11.401773
 21
4.116715
 31
0.0
  0
LINE
  5
2F4
330
3C7
100
AcDbEntity
  8
ninja1 - Level 25
  6
Continuous
 62
     7
370
    13
100
AcDbLine
 10
11.20968
 20
4.52697
 30
0.0
 11
11.300244
 21
4.569375
 31
0.0
  0
LINE
  5
2F5
330
3C7
100
AcDbEntity
  8
ninja1 - Level 25
  6
Continuous
 62
     7
370
    13
100
AcDbLine
 10
11.288795
 20
4.593827
 30
0.0
 11
11.198231
 21
4.551422
 31
0.0
  0
LINE
  5
2F6
330
3C7
100
AcDbEntity
  8
ninja1 - Level 25
  6
Continuous
 62
     7
370
    13
100
AcDbLine
 10
10.552317
 20
6.300439
 30
0.0
 11
10.552317
 21
6.305439
 31
0.0
  0
LINE
  5
2F7
330
3C7
100
AcDbEntity
  8
ninja1 - Level 25
  6
Continuous
 62
     7
370
    13
100
AcDbLine
 10
10.537317
 20
6.300439
 30
0.0
 11
10.552317
 21
6.300439
 31
0.0
  0
LINE
  5
2F8
330
3C7
100
AcDbEntity
  8
ninja1 - Level 25
  6
Continuous
 62
     7
370
    13
100
AcDbLine
 10
10.537317
 20
6.300439
 30
0.0
 11
10.537317
 21
6.305439
 31
0.0
  0
LINE
  5
2F9
330
3C7
100
AcDbEntity
  8
ninja1 - Level 25
  6
Continuous
 62
     7
370
    13
100
AcDbLine
 10
10.497317
 20
6.300439
 30
0.0
 11
10.497317
 21
6.305439
 31
0.0
  0
LINE
  5
2FA
330
3C7
100
AcDbEntity
  8
ninja1 - Level 25
  6
Continuous
 62
     7
370
    13
100
AcDbLine
 10
10.482317
 20
6.300439
 30
0.0
 11
10.497317
 21
6.300439
 31
0.0
  0
LINE
  5
2FB
330
3C7
100
AcDbEntity
  8
ninja1 - Level 25
  6
Continuous
 62
     7
370
    13
100
AcDbLine
 10
10.482317
 20
6.300439
 30
0.0
 11
10.482317
 21
6.305439
 31
0.0
  0
LINE
  5
2FC
330
3C7
100
AcDbEntity
  8
ninja1 - Level 25
  6
Continuous
 62
     7
370
    13
100
AcDbLine
 10
10.537317
 20
6.300439
 30
0.0
 11
10.497317
 21
6.300439
 31
0.0
  0
LINE
  5
2FD
330
3C7
100
AcDbEntity
  8
ninja1 - Level 26
  6
Continuous
 62
     7
370
    13
100
AcDbLine
 10
11.223586
 20
5.089561
 30
0.0
 11
11.23987
 21
5.054784
 31
0.0
  0
LINE
  5
2FE
330
3C7
100
AcDbEntity
  8
ninja1 - Level 26
  6
Continuous
 62
     7
370
    13
100
AcDbLine
 10
11.265339
 20
5.10911
 30
0.0
 11
11.281622
 21
5.074334
 31
0.0
  0
ARC
  5
2FF
330
3C7
100
AcDbEntity
  8
ninja1 - Level 26
  6
Continuous
 62
     7
370
    13
100
AcDbCircle
 10
11.252604
 20
5.081947
 30
0.0
 40
0.03
100
AcDbArc
 50
244.882102
 51
345.298463
  0
ARC
  5
300
330
3C7
100
AcDbEntity
  8
ninja1 - Level 26
  6
Continuous
 62
     7
370
    13
100
AcDbCircle
 10
11.252604
 20
5.081947
 30
0.0
 40
0.03
100
AcDbArc
 50
64.882102
 51
165.298463
  0
ARC
  5
301
330
3C7
100
AcDbEntity
  8
ninja1 - Level 26
  6
Continuous
 62
     7
370
    13
100
AcDbCircle
 10
11.263216
 20
5.104583
 30
0.0
 40
0.005
100
AcDbArc
 50
25.090282
 51
64.882102
  0
ARC
  5
302
330
3C7
100
AcDbEntity
  8
ninja1 - Level 26
  6
Continuous
 62
     7
370
    13
100
AcDbCircle
 10
11.276786
 20
5.075603
 30
0.0
 40
0.005
100
AcDbArc
 50
345.298463
 51
25.090282
  0
LINE
  5
303
330
3C7
100
AcDbEntity
  8
ninja1 - Level 26
  6
Continuous
 62
     7
370
    13
100
AcDbLine
 10
11.267744
 20
5.106703
 30
0.0
 11
11.281314
 21
5.077723
 31
0.0
  0
ARC
  5
304
330
3C7
100
AcDbEntity
  8
ninja1 - Level 26
  6
Continuous
 62
     7
370
    13
100
AcDbCircle
 10
11.241992
 20
5.059311
 30
0.0
 40
0.005
100
AcDbArc
 50
205.090282
 51
244.882102
  0
ARC
  5
305
330
3C7
100
AcDbEntity
  8
ninja1 - Level 26
  6
Continuous
 62
     7
370
    13
100
AcDbCircle
 10
11.228423
 20
5.088292
 30
0.0
 40
0.005
100
AcDbArc
 50
165.298463
 51
205.090282
  0
LINE
  5
306
330
3C7
100
AcDbEntity
  8
ninja1 - Level 26
  6
Continuous
 62
     7
370
    13
100
AcDbLine
 10
11.237464
 20
5.057191
 30
0.0
 11
11.223894
 21
5.086172
 31
0.0
  0
LINE
  5
307
330
3C7
100
AcDbEntity
  8
ninja1 - Level 26
  6
Continuous
 62
     7
370
    13
100
AcDbLine
 10
11.020044
 20
5.524268
 30
0.0
 11
11.036328
 21
5.489492
 31
0.0
  0
LINE
  5
308
330
3C7
100
AcDbEntity
  8
ninja1 - Level 26
  6
Continuous
 62
     7
370
    13
100
AcDbLine
 10
11.061797
 20
5.543818
 30
0.0
 11
11.07808
 21
5.509041
 31
0.0
  0
ARC
  5
309
330
3C7
100
AcDbEntity
  8
ninja1 - Level 26
  6
Continuous
 62
     7
370
    13
100
AcDbCircle
 10
11.049062
 20
5.516655
 30
0.0
 40
0.03
100
AcDbArc
 50
244.882102
 51
345.298463
  0
ARC
  5
30A
330
3C7
100
AcDbEntity
  8
ninja1 - Level 26
  6
Continuous
 62
     7
370
    13
100
AcDbCircle
 10
11.049062
 20
5.516655
 30
0.0
 40
0.03
100
AcDbArc
 50
64.882102
 51
165.298463
  0
ARC
  5
30B
330
3C7
100
AcDbEntity
  8
ninja1 - Level 26
  6
Continuous
 62
     7
370
    13
100
AcDbCircle
 10
11.059674
 20
5.539291
 30
0.0
 40
0.005
100
AcDbArc
 50
25.090282
 51
64.882102
  0
ARC
  5
30C
330
3C7
100
AcDbEntity
  8
ninja1 - Level 26
  6
Continuous
 62
     7
370
    13
100
AcDbCircle
 10
11.073244
 20
5.51031
 30
0.0
 40
0.005
100
AcDbArc
 50
345.298463
 51
25.090282
  0
LINE
  5
30D
330
3C7
100
AcDbEntity
  8
ninja1 - Level 26
  6
Continuous
 62
     7
370
    13
100
AcDbLine
 10
11.064202
 20
5.541411
 30
0.0
 11
11.077772
 21
5.51243
 31
0.0
  0
ARC
  5
30E
330
3C7
100
AcDbEntity
  8
ninja1 - Level 26
  6
Continuous
 62
     7
370
    13
100
AcDbCircle
 10
11.03845
 20
5.494019
 30
0.0
 40
0.005
100
AcDbArc
 50
205.090282
 51
244.882102
  0
ARC
  5
30F
330
3C7
100
AcDbEntity
  8
ninja1 - Level 26
  6
Continuous
 62
     7
370
    13
100
AcDbCircle
 10
11.024881
 20
5.522999
 30
0.0
 40
0.005
100
AcDbArc
 50
165.298463
 51
205.090282
  0
LINE
  5
310
330
3C7
100
AcDbEntity
  8
ninja1 - Level 26
  6
Continuous
 62
     7
370
    13
100
AcDbLine
 10
11.033922
 20
5.491899
 30
0.0
 11
11.020352
 21
5.520879
 31
0.0
  0
LINE
  5
311
330
3C7
100
AcDbEntity
  8
ninja1 - Level 26
  6
Continuous
 62
     7
370
    13
100
AcDbLine
 10
10.816502
 20
5.958976
 30
0.0
 11
10.832786
 21
5.924199
 31
0.0
  0
LINE
  5
312
330
3C7
100
AcDbEntity
  8
ninja1 - Level 26
  6
Continuous
 62
     7
370
    13
100
AcDbLine
 10
10.858255
 20
5.978525
 30
0.0
 11
10.874538
 21
5.943749
 31
0.0
  0
ARC
  5
313
330
3C7
100
AcDbEntity
  8
ninja1 - Level 26
  6
Continuous
 62
     7
370
    13
100
AcDbCircle
 10
10.84552
 20
5.951362
 30
0.0
 40
0.03
100
AcDbArc
 50
244.882102
 51
345.298463
  0
ARC
  5
314
330
3C7
100
AcDbEntity
  8
ninja1 - Level 26
  6
Continuous
 62
     7
370
    13
100
AcDbCircle
 10
10.84552
 20
5.951362
 30
0.0
 40
0.03
100
AcDbArc
 50
64.882102
 51
165.298463
  0
ARC
  5
315
330
3C7
100
AcDbEntity
  8
ninja1 - Level 26
  6
Continuous
 62
     7
370
    13
100
AcDbCircle
 10
10.856132
 20
5.973998
 30
0.0
 40
0.005
100
AcDbArc
 50
25.090282
 51
64.882102
  0
ARC
  5
316
330
3C7
100
AcDbEntity
  8
ninja1 - Level 26
  6
Continuous
 62
     7
370
    13
100
AcDbCircle
 10
10.869702
 20
5.945018
 30
0.0
 40
0.005
100
AcDbArc
 50
345.298463
 51
25.090282
  0
LINE
  5
317
330
3C7
100
AcDbEntity
  8
ninja1 - Level 26
  6
Continuous
 62
     7
370
    13
100
AcDbLine
 10
10.86066
 20
5.976118
 30
0.0
 11
10.87423
 21
5.947138
 31
0.0
  0
ARC
  5
318
330
3C7
100
AcDbEntity
  8
ninja1 - Level 26
  6
Continuous
 62
     7
370
    13
100
AcDbCircle
 10
10.834908
 20
5.928726
 30
0.0
 40
0.005
100
AcDbArc
 50
205.090282
 51
244.882102
  0
ARC
  5
319
330
3C7
100
AcDbEntity
  8
ninja1 - Level 26
  6
Continuous
 62
     7
370
    13
100
AcDbCircle
 10
10.821339
 20
5.957707
 30
0.0
 40
0.005
100
AcDbArc
 50
165.298463
 51
205.090282
  0
LINE
  5
31A
330
3C7
100
AcDbEntity
  8
ninja1 - Level 26
  6
Continuous
 62
     7
370
    13
100
AcDbLine
 10
10.83038
 20
5.926606
 30
0.0
 11
10.81681
 21
5.955587
 31
0.0
  0
LINE
  5
31B
330
3C7
100
AcDbEntity
  8
ninja1 - Level 25
  6
Continuous
 62
     7
370
    13
100
AcDbLine
 10
11.224954
 20
5.083908
 30
0.0
 11
11.13439
 21
5.041503
 31
0.0
  0
LINE
  5
31C
330
3C7
100
AcDbEntity
  8
ninja1 - Level 25
  6
Continuous
 62
     7
370
    13
100
AcDbLine
 10
11.14584
 20
5.017051
 30
0.0
 11
11.236404
 21
5.059455
 31
0.0
  0
LINE
  5
31D
330
3C7
100
AcDbEntity
  8
ninja1 - Level 25
  6
Continuous
 62
     7
370
    13
100
AcDbLine
 10
11.021412
 20
5.518615
 30
0.0
 11
10.930848
 21
5.47621
 31
0.0
  0
LINE
  5
31E
330
3C7
100
AcDbEntity
  8
ninja1 - Level 25
  6
Continuous
 62
     7
370
    13
100
AcDbLine
 10
10.942298
 20
5.451758
 30
0.0
 11
11.032862
 21
5.494163
 31
0.0
  0
LINE
  5
31F
330
3C7
100
AcDbEntity
  8
ninja1 - Level 25
  6
Continuous
 62
     7
370
    13
100
AcDbLine
 10
10.81787
 20
5.953323
 30
0.0
 11
10.727306
 21
5.910918
 31
0.0
  0
LINE
  5
320
330
3C7
100
AcDbEntity
  8
ninja1 - Level 25
  6
Continuous
 62
     7
370
    13
100
AcDbLine
 10
10.738756
 20
5.886466
 30
0.0
 11
10.82932
 21
5.92887
 31
0.0
  0
LINE
  5
321
330
3C7
100
AcDbEntity
  8
ninja1 - Level 26
  6
Continuous
 62
     7
370
    13
100
AcDbLine
 10
10.467317
 20
6.315439
 30
0.0
 11
10.467317
 21
6.395439
 31
0.0
  0
LINE
  5
322
330
3C7
100
AcDbEntity
  8
ninja1 - Level 26
  6
Continuous
 62
     7
370
    13
100
AcDbLine
 10
10.474317
 20
6.395439
 30
0.0
 11
10.467317
 21
6.395439
 31
0.0
  0
LINE
  5
323
330
3C7
100
AcDbEntity
  8
ninja1 - Level 26
  6
Continuous
 62
     7
370
    13
100
AcDbLine
 10
10.474317
 20
6.395439
 30
0.0
 11
10.474317
 21
6.315439
 31
0.0
  0
LINE
  5
324
330
3C7
100
AcDbEntity
  8
ninja1 - Level 26
  6
Continuous
 62
     7
370
    13
100
AcDbLine
 10
10.474317
 20
6.315439
 30
0.0
 11
10.467317
 21
6.315439
 31
0.0
  0
LINE
  5
325
330
3C7
100
AcDbEntity
  8
ninja1 - Level 26
  6
Continuous
 62
     7
370
    13
100
AcDbLine
 10
10.557317
 20
6.305439
 30
0.0
 11
10.477317
 21
6.305439
 31
0.0
  0
LINE
  5
326
330
3C7
100
AcDbEntity
  8
ninja1 - Level 26
  6
Continuous
 62
     7
370
    13
100
AcDbLine
 10
10.477317
 20
6.312439
 30
0.0
 11
10.477317
 21
6.305439
 31
0.0
  0
LINE
  5
327
330
3C7
100
AcDbEntity
  8
ninja1 - Level 26
  6
Continuous
 62
     7
370
    13
100
AcDbLine
 10
10.477317
 20
6.312439
 30
0.0
 11
10.557317
 21
6.312439
 31
0.0
  0
LINE
  5
328
330
3C7
100
AcDbEntity
  8
ninja1 - Level 26
  6
Continuous
 62
     7
370
    13
100
AcDbLine
 10
10.557317
 20
6.305439
 30
0.0
 11
10.557317
 21
6.312439
 31
0.0
  0
ARC
  5
329
330
3C7
100
AcDbEntity
  8
ninja1 - Level 26
  6
Continuous
 62
     7
370
    13
100
AcDbCircle
 10
-10.477317
 20
6.315439
 30
0.0
 40
0.01
210
0.0
220
0.0
230
-1.0
100
AcDbArc
 50
270.0
 51
0.0
  0
ARC
  5
32A
330
3C7
100
AcDbEntity
  8
ninja1 - Level 26
  6
Continuous
 62
     7
370
    13
100
AcDbCircle
 10
10.477317
 20
6.315439
 30
0.0
 40
0.003
100
AcDbArc
 50
180.0
 51
270.0
  0
ARC
  5
32B
330
3C7
100
AcDbEntity
  8
ninja1 - Level 26
  6
Continuous
 62
     7
370
    13
100
AcDbCircle
 10
10.557317
 20
6.315439
 30
0.0
 40
0.003
100
AcDbArc
 50
270.0
 51
0.0
  0
LINE
  5
32C
330
3C7
100
AcDbEntity
  8
ninja1 - Level 26
  6
Continuous
 62
     7
370
    13
100
AcDbLine
 10
10.567317
 20
6.315439
 30
0.0
 11
10.560317
 21
6.315439
 31
0.0
  0
ARC
  5
32D
330
3C7
100
AcDbEntity
  8
ninja1 - Level 26
  6
Continuous
 62
     7
370
    13
100
AcDbCircle
 10
-10.557317
 20
6.315439
 30
0.0
 40
0.01
210
0.0
220
0.0
230
-1.0
100
AcDbArc
 50
180.0
 51
270.0
  0
LINE
  5
32E
330
3C7
100
AcDbEntity
  8
ninja1 - Level 26
  6
Continuous
 62
     7
370
    13
100
AcDbLine
 10
10.477317
 20
6.405439
 30
0.0
 11
10.557317
 21
6.405439
 31
0.0
  0
LINE
  5
32F
330
3C7
100
AcDbEntity
  8
ninja1 - Level 26
  6
Continuous
 62
     7
370
    13
100
AcDbLine
 10
10.557317
 20
6.405439
 30
0.0
 11
10.557317
 21
6.398439
 31
0.0
  0
LINE
  5
330
330
3C7
100
AcDbEntity
  8
ninja1 - Level 26
  6
Continuous
 62
     7
370
    13
100
AcDbLine
 10
10.557317
 20
6.398439
 30
0.0
 11
10.477317
 21
6.398439
 31
0.0
  0
LINE
  5
331
330
3C7
100
AcDbEntity
  8
ninja1 - Level 26
  6
Continuous
 62
     7
370
    13
100
AcDbLine
 10
10.477317
 20
6.398439
 30
0.0
 11
10.477317
 21
6.405439
 31
0.0
  0
LINE
  5
332
330
3C7
100
AcDbEntity
  8
ninja1 - Level 26
  6
Continuous
 62
     7
370
    13
100
AcDbLine
 10
10.560317
 20
6.315439
 30
0.0
 11
10.560317
 21
6.395439
 31
0.0
  0
LINE
  5
333
330
3C7
100
AcDbEntity
  8
ninja1 - Level 26
  6
Continuous
 62
     7
370
    13
100
AcDbLine
 10
10.567317
 20
6.395439
 30
0.0
 11
10.560317
 21
6.395439
 31
0.0
  0
LINE
  5
334
330
3C7
100
AcDbEntity
  8
ninja1 - Level 26
  6
Continuous
 62
     7
370
    13
100
AcDbLine
 10
10.567317
 20
6.395439
 30
0.0
 11
10.567317
 21
6.315439
 31
0.0
  0
ARC
  5
335
330
3C7
100
AcDbEntity
  8
ninja1 - Level 26
  6
Continuous
 62
     7
370
    13
100
AcDbCircle
 10
-10.477317
 20
6.395439
 30
0.0
 40
0.01
210
0.0
220
0.0
230
-1.0
100
AcDbArc
 50
0.0
 51
90.0
  0
ARC
  5
336
330
3C7
100
AcDbEntity
  8
ninja1 - Level 26
  6
Continuous
 62
     7
370
    13
100
AcDbCircle
 10
10.477317
 20
6.395439
 30
0.0
 40
0.003
100
AcDbArc
 50
90.0
 51
180.0
  0
ARC
  5
337
330
3C7
100
AcDbEntity
  8
ninja1 - Level 26
  6
Continuous
 62
     7
370
    13
100
AcDbCircle
 10
10.557317
 20
6.395439
 30
0.0
 40
0.003
100
AcDbArc
 50
0.0
 51
90.0
  0
ARC
  5
338
330
3C7
100
AcDbEntity
  8
ninja1 - Level 26
  6
Continuous
 62
     7
370
    13
100
AcDbCircle
 10
-10.557317
 20
6.395439
 30
0.0
 40
0.01
210
0.0
220
0.0
230
-1.0
100
AcDbArc
 50
90.0
 51
180.0
  0
LINE
  5
339
330
3C7
100
AcDbEntity
  8
ninja1 - Level 26
  6
Continuous
 62
     7
370
    13
100
AcDbLine
 10
11.957317
 20
3.205439
 30
0.0
 11
11.877317
 21
3.205439
 31
0.0
  0
LINE
  5
33A
330
3C7
100
AcDbEntity
  8
ninja1 - Level 26
  6
Continuous
 62
     7
370
    13
100
AcDbLine
 10
11.877317
 20
3.212439
 30
0.0
 11
11.877317
 21
3.205439
 31
0.0
  0
LINE
  5
33B
330
3C7
100
AcDbEntity
  8
ninja1 - Level 26
  6
Continuous
 62
     7
370
    13
100
AcDbLine
 10
11.877317
 20
3.212439
 30
0.0
 11
11.957317
 21
3.212439
 31
0.0
  0
LINE
  5
33C
330
3C7
100
AcDbEntity
  8
ninja1 - Level 26
  6
Continuous
 62
     7
370
    13
100
AcDbLine
 10
11.957317
 20
3.212439
 30
0.0
 11
11.957317
 21
3.205439
 31
0.0
  0
LINE
  5
33D
330
3C7
100
AcDbEntity
  8
ninja1 - Level 26
  6
Continuous
 62
     7
370
    13
100
AcDbLine
 10
11.967317
 20
3.295439
 30
0.0
 11
11.967317
 21
3.215439
 31
0.0
  0
LINE
  5
33E
330
3C7
100
AcDbEntity
  8
ninja1 - Level 26
  6
Continuous
 62
     7
370
    13
100
AcDbLine
 10
11.960317
 20
3.215439
 30
0.0
 11
11.967317
 21
3.215439
 31
0.0
  0
LINE
  5
33F
330
3C7
100
AcDbEntity
  8
ninja1 - Level 26
  6
Continuous
 62
     7
370
    13
100
AcDbLine
 10
11.960317
 20
3.215439
 30
0.0
 11
11.960317
 21
3.295439
 31
0.0
  0
LINE
  5
340
330
3C7
100
AcDbEntity
  8
ninja1 - Level 26
  6
Continuous
 62
     7
370
    13
100
AcDbLine
 10
11.967317
 20
3.295439
 30
0.0
 11
11.960317
 21
3.295439
 31
0.0
  0
ARC
  5
341
330
3C7
100
AcDbEntity
  8
ninja1 - Level 26
  6
Continuous
 62
     7
370
    13
100
AcDbCircle
 10
-11.957317
 20
3.215439
 30
0.0
 40
0.01
210
0.0
220
0.0
230
-1.0
100
AcDbArc
 50
180.0
 51
270.0
  0
ARC
  5
342
330
3C7
100
AcDbEntity
  8
ninja1 - Level 26
  6
Continuous
 62
     7
370
    13
100
AcDbCircle
 10
11.957317
 20
3.215439
 30
0.0
 40
0.003
100
AcDbArc
 50
270.0
 51
0.0
  0
ARC
  5
343
330
3C7
100
AcDbEntity
  8
ninja1 - Level 26
  6
Continuous
 62
     7
370
    13
100
AcDbCircle
 10
11.957317
 20
3.295439
 30
0.0
 40
0.003
100
AcDbArc
 50
0.0
 51
90.0
  0
LINE
  5
344
330
3C7
100
AcDbEntity
  8
ninja1 - Level 26
  6
Continuous
 62
     7
370
    13
100
AcDbLine
 10
11.957317
 20
3.305439
 30
0.0
 11
11.957317
 21
3.298439
 31
0.0
  0
ARC
  5
345
330
3C7
100
AcDbEntity
  8
ninja1 - Level 26
  6
Continuous
 62
     7
370
    13
100
AcDbCircle
 10
-11.957317
 20
3.295439
 30
0.0
 40
0.01
210
0.0
220
0.0
230
-1.0
100
AcDbArc
 50
90.0
 51
180.0
  0
LINE
  5
346
330
3C7
100
AcDbEntity
  8
ninja1 - Level 26
  6
Continuous
 62
     7
370
    13
100
AcDbLine
 10
11.867317
 20
3.215439
 30
0.0
 11
11.867317
 21
3.295439
 31
0.0
  0
LINE
  5
347
330
3C7
100
AcDbEntity
  8
ninja1 - Level 26
  6
Continuous
 62
     7
370
    13
100
AcDbLine
 10
11.867317
 20
3.295439
 30
0.0
 11
11.874317
 21
3.295439
 31
0.0
  0
LINE
  5
348
330
3C7
100
AcDbEntity
  8
ninja1 - Level 26
  6
Continuous
 62
     7
370
    13
100
AcDbLine
 10
11.874317
 20
3.295439
 30
0.0
 11
11.874317
 21
3.215439
 31
0.0
  0
LINE
  5
349
330
3C7
100
AcDbEntity
  8
ninja1 - Level 26
  6
Continuous
 62
     7
370
    13
100
AcDbLine
 10
11.874317
 20
3.215439
 30
0.0
 11
11.867317
 21
3.215439
 31
0.0
  0
LINE
  5
34A
330
3C7
100
AcDbEntity
  8
ninja1 - Level 26
  6
Continuous
 62
     7
370
    13
100
AcDbLine
 10
11.957317
 20
3.298439
 30
0.0
 11
11.877317
 21
3.298439
 31
0.0
  0
LINE
  5
34B
330
3C7
100
AcDbEntity
  8
ninja1 - Level 26
  6
Continuous
 62
     7
370
    13
100
AcDbLine
 10
11.877317
 20
3.305439
 30
0.0
 11
11.877317
 21
3.298439
 31
0.0
  0
LINE
  5
34C
330
3C7
100
AcDbEntity
  8
ninja1 - Level 26
  6
Continuous
 62
     7
370
    13
100
AcDbLine
 10
11.877317
 20
3.305439
 30
0.0
 11
11.957317
 21
3.305439
 31
0.0
  0
ARC
  5
34D
330
3C7
100
AcDbEntity
  8
ninja1 - Level 26
  6
Continuous
 62
     7
370
    13
100
AcDbCircle
 10
-11.877317
 20
3.215439
 30
0.0
 40
0.01
210
0.0
220
0.0
230
-1.0
100
AcDbArc
 50
270.0
 51
0.0
  0
ARC
  5
34E
330
3C7
100
AcDbEntity
  8
ninja1 - Level 26
  6
Continuous
 62
     7
370
    13
100
AcDbCircle
 10
11.877317
 20
3.215439
 30
0.0
 40
0.003
100
AcDbArc
 50
180.0
 51
270.0
  0
ARC
  5
34F
330
3C7
100
AcDbEntity
  8
ninja1 - Level 26
  6
Continuous
 62
     7
370
    13
100
AcDbCircle
 10
11.877317
 20
3.295439
 30
0.0
 40
0.003
100
AcDbArc
 50
90.0
 51
180.0
  0
ARC
  5
350
330
3C7
100
AcDbEntity
  8
ninja1 - Level 26
  6
Continuous
 62
     7
370
    13
100
AcDbCircle
 10
-11.877317
 20
3.295439
 30
0.0
 40
0.01
210
0.0
220
0.0
230
-1.0
100
AcDbArc
 50
0.0
 51
90.0
  0
LINE
  5
351
330
3C7
100
AcDbEntity
  8
ninja1 - Level 26
  6
Continuous
 62
     7
370
    13
100
AcDbLine
 10
3.520803
 20
2.429928
 30
0.0
 11
3.440803
 21
2.429928
 31
0.0
  0
ARC
  5
352
330
3C7
100
AcDbEntity
  8
ninja1 - Level 26
  6
Continuous
 62
     7
370
    13
100
AcDbCircle
 10
3.520803
 20
2.426928
 30
0.0
 40
0.003
100
AcDbArc
 50
0.0
 51
90.0
  0
LINE
  5
353
330
3C7
100
AcDbEntity
  8
ninja1 - Level 26
  6
Continuous
 62
     7
370
    13
100
AcDbLine
 10
3.523803
 20
2.346928
 30
0.0
 11
3.523803
 21
2.426928
 31
0.0
  0
ARC
  5
354
330
3C7
100
AcDbEntity
  8
ninja1 - Level 26
  6
Continuous
 62
     7
370
    13
100
AcDbCircle
 10
3.520803
 20
2.346928
 30
0.0
 40
0.003
100
AcDbArc
 50
270.0
 51
0.0
  0
LINE
  5
355
330
3C7
100
AcDbEntity
  8
ninja1 - Level 26
  6
Continuous
 62
     7
370
    13
100
AcDbLine
 10
3.440803
 20
2.343928
 30
0.0
 11
3.520803
 21
2.343928
 31
0.0
  0
ARC
  5
356
330
3C7
100
AcDbEntity
  8
ninja1 - Level 26
  6
Continuous
 62
     7
370
    13
100
AcDbCircle
 10
3.440803
 20
2.346928
 30
0.0
 40
0.003
100
AcDbArc
 50
180.0
 51
270.0
  0
LINE
  5
357
330
3C7
100
AcDbEntity
  8
ninja1 - Level 26
  6
Continuous
 62
     7
370
    13
100
AcDbLine
 10
3.437803
 20
2.426928
 30
0.0
 11
3.437803
 21
2.346928
 31
0.0
  0
ARC
  5
358
330
3C7
100
AcDbEntity
  8
ninja1 - Level 26
  6
Continuous
 62
     7
370
    13
100
AcDbCircle
 10
3.440803
 20
2.426928
 30
0.0
 40
0.003
100
AcDbArc
 50
90.0
 51
180.0
  0
LINE
  5
359
330
3C7
100
AcDbEntity
  8
ninja1 - Level 26
  6
Continuous
 62
     7
370
    13
100
AcDbLine
 10
3.530803
 20
2.426928
 30
0.0
 11
3.530803
 21
2.346928
 31
0.0
  0
LINE
  5
35A
330
3C7
100
AcDbEntity
  8
ninja1 - Level 26
  6
Continuous
 62
     7
370
    13
100
AcDbLine
 10
3.523803
 20
2.346928
 30
0.0
 11
3.530803
 21
2.346928
 31
0.0
  0
LINE
  5
35B
330
3C7
100
AcDbEntity
  8
ninja1 - Level 26
  6
Continuous
 62
     7
370
    13
100
AcDbLine
 10
3.530803
 20
2.426928
 30
0.0
 11
3.523803
 21
2.426928
 31
0.0
  0
ARC
  5
35C
330
3C7
100
AcDbEntity
  8
ninja1 - Level 26
  6
Continuous
 62
     7
370
    13
100
AcDbCircle
 10
-3.520803
 20
2.346928
 30
0.0
 40
0.01
210
0.0
220
0.0
230
-1.0
100
AcDbArc
 50
180.0
 51
270.0
  0
LINE
  5
35D
330
3C7
100
AcDbEntity
  8
ninja1 - Level 26
  6
Continuous
 62
     7
370
    13
100
AcDbLine
 10
3.520803
 20
2.343928
 30
0.0
 11
3.520803
 21
2.336928
 31
0.0
  0
LINE
  5
35E
330
3C7
100
AcDbEntity
  8
ninja1 - Level 26
  6
Continuous
 62
     7
370
    13
100
AcDbLine
 10
3.520803
 20
2.436928
 30
0.0
 11
3.520803
 21
2.429928
 31
0.0
  0
ARC
  5
35F
330
3C7
100
AcDbEntity
  8
ninja1 - Level 26
  6
Continuous
 62
     7
370
    13
100
AcDbCircle
 10
-3.520803
 20
2.426928
 30
0.0
 40
0.01
210
0.0
220
0.0
230
-1.0
100
AcDbArc
 50
90.0
 51
180.0
  0
LINE
  5
360
330
3C7
100
AcDbEntity
  8
ninja1 - Level 26
  6
Continuous
 62
     7
370
    13
100
AcDbLine
 10
3.430803
 20
2.346928
 30
0.0
 11
3.430803
 21
2.426928
 31
0.0
  0
LINE
  5
361
330
3C7
100
AcDbEntity
  8
ninja1 - Level 26
  6
Continuous
 62
     7
370
    13
100
AcDbLine
 10
3.430803
 20
2.426928
 30
0.0
 11
3.437803
 21
2.426928
 31
0.0
  0
LINE
  5
362
330
3C7
100
AcDbEntity
  8
ninja1 - Level 26
  6
Continuous
 62
     7
370
    13
100
AcDbLine
 10
3.437803
 20
2.346928
 30
0.0
 11
3.430803
 21
2.346928
 31
0.0
  0
LINE
  5
363
330
3C7
100
AcDbEntity
  8
ninja1 - Level 26
  6
Continuous
 62
     7
370
    13
100
AcDbLine
 10
3.440803
 20
2.436928
 30
0.0
 11
3.440803
 21
2.429928
 31
0.0
  0
LINE
  5
364
330
3C7
100
AcDbEntity
  8
ninja1 - Level 26
  6
Continuous
 62
     7
370
    13
100
AcDbLine
 10
3.440803
 20
2.436928
 30
0.0
 11
3.520803
 21
2.436928
 31
0.0
  0
ARC
  5
365
330
3C7
100
AcDbEntity
  8
ninja1 - Level 26
  6
Continuous
 62
     7
370
    13
100
AcDbCircle
 10
-3.440803
 20
2.346928
 30
0.0
 40
0.01
210
0.0
220
0.0
230
-1.0
100
AcDbArc
 50
270.0
 51
0.0
  0
LINE
  5
366
330
3C7
100
AcDbEntity
  8
ninja1 - Level 26
  6
Continuous
 62
     7
370
    13
100
AcDbLine
 10
3.440803
 20
2.343928
 30
0.0
 11
3.440803
 21
2.336928
 31
0.0
  0
ARC
  5
367
330
3C7
100
AcDbEntity
  8
ninja1 - Level 26
  6
Continuous
 62
     7
370
    13
100
AcDbCircle
 10
-3.440803
 20
2.426928
 30
0.0
 40
0.01
210
0.0
220
0.0
230
-1.0
100
AcDbArc
 50
0.0
 51
90.0
  0
LINE
  5
368
330
3C7
100
AcDbEntity
  8
ninja1 - Level 26
  6
Continuous
 62
     7
370
    13
100
AcDbLine
 10
3.520803
 20
2.336928
 30
0.0
 11
3.440803
 21
2.336928
 31
0.0
  0
LINE
  5
369
330
3C7
100
AcDbEntity
  8
ninja1 - Level 26
  6
Continuous
 62
     7
370
    13
100
AcDbLine
 10
2.123803
 20
5.446928
 30
0.0
 11
2.123803
 21
5.526928
 31
0.0
  0
ARC
  5
36A
330
3C7
100
AcDbEntity
  8
ninja1 - Level 26
  6
Continuous
 62
     7
370
    13
100
AcDbCircle
 10
2.120803
 20
5.446928
 30
0.0
 40
0.003
100
AcDbArc
 50
270.0
 51
0.0
  0
LINE
  5
36B
330
3C7
100
AcDbEntity
  8
ninja1 - Level 26
  6
Continuous
 62
     7
370
    13
100
AcDbLine
 10
2.040803
 20
5.443928
 30
0.0
 11
2.120803
 21
5.443928
 31
0.0
  0
ARC
  5
36C
330
3C7
100
AcDbEntity
  8
ninja1 - Level 26
  6
Continuous
 62
     7
370
    13
100
AcDbCircle
 10
2.040803
 20
5.446928
 30
0.0
 40
0.003
100
AcDbArc
 50
180.0
 51
270.0
  0
LINE
  5
36D
330
3C7
100
AcDbEntity
  8
ninja1 - Level 26
  6
Continuous
 62
     7
370
    13
100
AcDbLine
 10
2.037803
 20
5.526928
 30
0.0
 11
2.037803
 21
5.446928
 31
0.0
  0
ARC
  5
36E
330
3C7
100
AcDbEntity
  8
ninja1 - Level 26
  6
Continuous
 62
     7
370
    13
100
AcDbCircle
 10
2.040803
 20
5.526928
 30
0.0
 40
0.003
100
AcDbArc
 50
90.0
 51
180.0
  0
LINE
  5
36F
330
3C7
100
AcDbEntity
  8
ninja1 - Level 26
  6
Continuous
 62
     7
370
    13
100
AcDbLine
 10
2.120803
 20
5.529928
 30
0.0
 11
2.040803
 21
5.529928
 31
0.0
  0
ARC
  5
370
330
3C7
100
AcDbEntity
  8
ninja1 - Level 26
  6
Continuous
 62
     7
370
    13
100
AcDbCircle
 10
2.120803
 20
5.526928
 30
0.0
 40
0.003
100
AcDbArc
 50
0.0
 51
90.0
  0
LINE
  5
371
330
3C7
100
AcDbEntity
  8
ninja1 - Level 26
  6
Continuous
 62
     7
370
    13
100
AcDbLine
 10
2.120803
 20
5.436928
 30
0.0
 11
2.040803
 21
5.436928
 31
0.0
  0
LINE
  5
372
330
3C7
100
AcDbEntity
  8
ninja1 - Level 26
  6
Continuous
 62
     7
370
    13
100
AcDbLine
 10
2.040803
 20
5.443928
 30
0.0
 11
2.040803
 21
5.436928
 31
0.0
  0
LINE
  5
373
330
3C7
100
AcDbEntity
  8
ninja1 - Level 26
  6
Continuous
 62
     7
370
    13
100
AcDbLine
 10
2.120803
 20
5.436928
 30
0.0
 11
2.120803
 21
5.443928
 31
0.0
  0
ARC
  5
374
330
3C7
100
AcDbEntity
  8
ninja1 - Level 26
  6
Continuous
 62
     7
370
    13
100
AcDbCircle
 10
-2.040803
 20
5.446928
 30
0.0
 40
0.01
210
0.0
220
0.0
230
-1.0
100
AcDbArc
 50
270.0
 51
0.0
  0
LINE
  5
375
330
3C7
100
AcDbEntity
  8
ninja1 - Level 26
  6
Continuous
 62
     7
370
    13
100
AcDbLine
 10
2.037803
 20
5.446928
 30
0.0
 11
2.030803
 21
5.446928
 31
0.0
  0
LINE
  5
376
330
3C7
100
AcDbEntity
  8
ninja1 - Level 26
  6
Continuous
 62
     7
370
    13
100
AcDbLine
 10
2.130803
 20
5.446928
 30
0.0
 11
2.123803
 21
5.446928
 31
0.0
  0
ARC
  5
377
330
3C7
100
AcDbEntity
  8
ninja1 - Level 26
  6
Continuous
 62
     7
370
    13
100
AcDbCircle
 10
-2.120803
 20
5.446928
 30
0.0
 40
0.01
210
0.0
220
0.0
230
-1.0
100
AcDbArc
 50
180.0
 51
270.0
  0
LINE
  5
378
330
3C7
100
AcDbEntity
  8
ninja1 - Level 26
  6
Continuous
 62
     7
370
    13
100
AcDbLine
 10
2.040803
 20
5.536928
 30
0.0
 11
2.120803
 21
5.536928
 31
0.0
  0
LINE
  5
379
330
3C7
100
AcDbEntity
  8
ninja1 - Level 26
  6
Continuous
 62
     7
370
    13
100
AcDbLine
 10
2.120803
 20
5.536928
 30
0.0
 11
2.120803
 21
5.529928
 31
0.0
  0
LINE
  5
37A
330
3C7
100
AcDbEntity
  8
ninja1 - Level 26
  6
Continuous
 62
     7
370
    13
100
AcDbLine
 10
2.040803
 20
5.529928
 30
0.0
 11
2.040803
 21
5.536928
 31
0.0
  0
LINE
  5
37B
330
3C7
100
AcDbEntity
  8
ninja1 - Level 26
  6
Continuous
 62
     7
370
    13
100
AcDbLine
 10
2.130803
 20
5.526928
 30
0.0
 11
2.123803
 21
5.526928
 31
0.0
  0
LINE
  5
37C
330
3C7
100
AcDbEntity
  8
ninja1 - Level 26
  6
Continuous
 62
     7
370
    13
100
AcDbLine
 10
2.130803
 20
5.526928
 30
0.0
 11
2.130803
 21
5.446928
 31
0.0
  0
ARC
  5
37D
330
3C7
100
AcDbEntity
  8
ninja1 - Level 26
  6
Continuous
 62
     7
370
    13
100
AcDbCircle
 10
-2.040803
 20
5.526928
 30
0.0
 40
0.01
210
0.0
220
0.0
230
-1.0
100
AcDbArc
 50
0.0
 51
90.0
  0
LINE
  5
37E
330
3C7
100
AcDbEntity
  8
ninja1 - Level 26
  6
Continuous
 62
     7
370
    13
100
AcDbLine
 10
2.037803
 20
5.526928
 30
0.0
 11
2.030803
 21
5.526928
 31
0.0
  0
ARC
  5
37F
330
3C7
100
AcDbEntity
  8
ninja1 - Level 26
  6
Continuous
 62
     7
370
    13
100
AcDbCircle
 10
-2.120803
 20
5.526928
 30
0.0
 40
0.01
210
0.0
220
0.0
230
-1.0
100
AcDbArc
 50
90.0
 51
180.0
  0
LINE
  5
380
330
3C7
100
AcDbEntity
  8
ninja1 - Level 26
  6
Continuous
 62
     7
370
    13
100
AcDbLine
 10
2.030803
 20
5.446928
 30
0.0
 11
2.030803
 21
5.526928
 31
0.0
  0
ENDSEC
  0
SECTION
  2
OBJECTS
  0
DICTIONARY
  5
3D0
330
0
100
AcDbDictionary
281
     1
  3
ACAD_COLOR
350
425
  3
ACAD_DETAILVIEWSTYLE
350
5C9
  3
ACAD_GROUP
350
412
  3
ACAD_LAYOUT
350
3F3
  3
ACAD_MATERIAL
350
3D2
  3
ACAD_MLEADERSTYLE
350
428
  3
ACAD_MLINESTYLE
350
413
  3
ACAD_PLOTSETTINGS
350
414
  3
ACAD_PLOTSTYLENAME
350
3CF
  3
ACAD_SCALELIST
350
426
  3
ACAD_SECTIONVIEWSTYLE
350
5C7
  3
ACAD_TABLESTYLE
350
427
  3
ACAD_VISUALSTYLE
350
40C
  3
AcadDim
350
5A3
  3
ACDB_RECOMPOSE_DATA
350
A64
  3
AcDbVariableDictionary
350
429
  3
AcDsDecomposeData
350
A6A
  3
MicroStation
350
5A1
  0
DICTIONARY
  5
3FC
330
3FB
100
AcDbDictionary
280
     1
281
     1
  3
ACAD_LAYERFILTERS
360
3FD
  3
ACAD_LAYERSTATES
360
3FE
  3
ACLYDICTIONARY
360
3FF
  0
DICTIONARY
  5
3CC
330
3CB
100
AcDbDictionary
280
     1
281
     1
  3
ADSK_XREC_LAYER_RECONCILED
360
3CD
  0
DICTIONARY
  5
3C8
330
3C7
100
AcDbDictionary
280
     1
281
     1
  3
ACAD_SORTENTS
360
59F
  0
DICTIONARY
  5
425
102
{ACAD_REACTORS
330
3D0
102
}
330
3D0
100
AcDbDictionary
281
     1
  0
DICTIONARY
  5
5C9
102
{ACAD_REACTORS
330
3D0
102
}
330
3D0
100
AcDbDictionary
281
     1
  3
Imperial24
350
5CA
  0
DICTIONARY
  5
412
102
{ACAD_REACTORS
330
3D0
102
}
330
3D0
100
AcDbDictionary
281
     1
  0
DICTIONARY
  5
3F3
102
{ACAD_REACTORS
330
3D0
102
}
330
3D0
100
AcDbDictionary
281
     1
  3
Layout1
350
3F8
  3
Model
350
3F2
  0
DICTIONARY
  5
3D2
102
{ACAD_REACTORS
330
3D0
102
}
330
3D0
100
AcDbDictionary
281
     1
  3
ByBlock
350
41D
  3
ByLayer
350
415
  3
Global
350
3D1
  0
DICTIONARY
  5
428
102
{ACAD_REACTORS
330
3D0
102
}
330
3D0
100
AcDbDictionary
281
     1
  3
Standard
350
5A4
  0
DICTIONARY
  5
413
102
{ACAD_REACTORS
330
3D0
102
}
330
3D0
100
AcDbDictionary
281
     1
  3
Standard
350
43B
  0
DICTIONARY
  5
414
102
{ACAD_REACTORS
330
3D0
102
}
330
3D0
100
AcDbDictionary
281
     1
  0
ACDBDICTIONARYWDFLT
  5
3CF
102
{ACAD_REACTORS
330
3D0
102
}
330
3D0
100
AcDbDictionary
281
     1
  3
Normal
350
3CE
100
AcDbDictionaryWithDefault
340
3CE
  0
DICTIONARY
  5
426
102
{ACAD_REACTORS
330
3D0
102
}
330
3D0
100
AcDbDictionary
281
     1
  3
A0
350
440
  3
A1
350
441
  3
A2
350
442
  3
A3
350
443
  3
A4
350
444
  3
A5
350
445
  3
A6
350
446
  3
A7
350
447
  3
A8
350
448
  3
A9
350
449
  3
B0
350
44A
  3
B1
350
44B
  3
B2
350
44C
  3
B3
350
44D
  3
B4
350
44E
  3
B5
350
44F
  3
B6
350
450
  3
B7
350
451
  3
B8
350
452
  3
B9
350
453
  3
C0
350
454
  3
C1
350
455
  3
C2
350
456
  3
C3
350
457
  3
C4
350
458
  3
C5
350
459
  3
C6
350
45A
  3
C7
350
45B
  3
C8
350
45C
  3
C9
350
45D
  3
D0
350
45E
  3
D1
350
45F
  3
D2
350
460
  0
DICTIONARY
  5
5C7
102
{ACAD_REACTORS
330
3D0
102
}
330
3D0
100
AcDbDictionary
281
     1
  3
Imperial24
350
5C8
  0
DICTIONARY
  5
427
102
{ACAD_REACTORS
330
3D0
102
}
330
3D0
100
AcDbDictionary
281
     1
  3
Standard
350
43C
  0
DICTIONARY
  5
40C
102
{ACAD_REACTORS
330
3D0
102
}
330
3D0
100
AcDbDictionary
281
     1
  3
2dWireframe
350
40B
  3
Basic
350
5B6
  3
Brighten
350
5BA
  3
ColorChange
350
5BE
  3
Conceptual
350
5B8
  3
Dim
350
5B9
  3
EdgeColorOff
350
5C6
  3
Facepattern
350
5BD
  3
Flat
350
5B2
  3
FlatWithEdges
350
5B3
  3
Gouraud
350
5B4
  3
GouraudWithEdges
350
5B5
  3
Hidden
350
5B7
  3
JitterOff
350
5C4
  3
Linepattern
350
5BC
  3
OverhangOff
350
5C5
  3
Realistic
350
43E
  3
Shaded
350
5C3
  3
Shaded with edges
350
5C2
  3
Shades of Gray
350
5BF
  3
Sketchy
350
5C0
  3
Thicken
350
5BB
  3
Wireframe
350
43F
  3
X-Ray
350
5C1
  0
XRECORD
  5
5A3
102
{ACAD_REACTORS
330
3D0
102
}
330
3D0
100
AcDbXrecord
280
     1
 90
   990106
  3
 
 60
     0
 61
     0
 62
     1
 63
     1
 64
     0
 65
     0
 66
     0
 67
     3
 68
     1
 69
     1
 70
     0
 71
     0
 72
     0
 40
0.0
170
     0
  0
XRECORD
  5
A64
102
{ACAD_REACTORS
330
3D0
102
}
330
3D0
100
AcDbXrecord
280
     1
 90
        1
330
43C
  0
DICTIONARY
  5
429
102
{ACAD_REACTORS
330
3D0
102
}
330
3D0
100
AcDbDictionary
281
     1
  3
CANNOSCALE
350
42A
  3
CMLEADERSTYLE
350
42B
  3
CTABLESTYLE
350
42C
  3
CVIEWDETAILSTYLE
350
42D
  3
CVIEWSECTIONSTYLE
350
42E
  3
LAYEREVAL
350
42F
  3
LAYERNOTIFY
350
430
  3
MSLTSCALE
350
431
  3
PDFFRAME
350
432
  0
DICTIONARY
  5
A6A
102
{ACAD_REACTORS
330
3D0
102
}
330
3D0
100
AcDbDictionary
281
     1
  3
AcDsRecords
350
A6C
  3
AcDsSchemas
350
A6B
1001
ACAD
1070
     2
  0
DICTIONARY
  5
5A1
102
{ACAD_REACTORS
330
3D0
102
}
330
3D0
100
AcDbDictionary
281
     1
  3
ModelApplicationElement 0 92 702
350
5C
  0
DICTIONARY
  5
3FD
102
{ACAD_REACTORS
330
3FC
102
}
330
3FC
100
AcDbDictionary
281
     1
  0
DICTIONARY
  5
3FE
102
{ACAD_REACTORS
330
3FC
102
}
330
3FC
100
AcDbDictionary
281
     1
  0
DICTIONARY
  5
3FF
102
{ACAD_REACTORS
330
3FC
102
}
330
3FC
100
AcDbDictionary
281
     1
  0
XRECORD
  5
3CD
102
{ACAD_REACTORS
330
3CC
102
}
330
3CC
100
AcDbXrecord
280
     1
290
     1
  0
SORTENTSTABLE
  5
59F
102
{ACAD_REACTORS
330
3C8
102
}
330
3C8
100
AcDbSortentsTable
330
3C7
  0
ACDBDETAILVIEWSTYLE
  5
5CA
102
{ACAD_XDICTIONARY
360
A6F
102
}
102
{ACAD_REACTORS
330
5C9
102
}
330
5C9
100
AcDbModelDocViewStyle
 70
     0
  3
Imperial24
290
     0
100
AcDbDetailViewStyle
 70
     0
 71
     0
 90
        3
 71
     1
340
401
 62
   256
 40
0.24
340
0
 62
   256
 40
0.24
300

 40
0.36
280
     3
 71
     2
340
3DA
 90
       25
 62
   256
 71
     3
340
401
 62
   256
 40
0.24
 90
        1
 40
0.75
 90
        1
300
%<\AcVar ViewType \f "%tc1">% %<\AcVar ViewDetailId>%\PSCALE %<\AcVar ViewScale \f "%sn">%
 71
     4
340
3DA
 90
       25
 62
   256
340
3DA
 90
       25
 62
   256
280
     0
  0
LAYOUT
  5
3F8
102
{ACAD_XDICTIONARY
360
3F9
102
}
102
{ACAD_REACTORS
330
3F3
102
}
330
3F3
100
AcDbPlotSettings
  1

  2
none_device
  4
Letter_(8.50_x_11.00_Inches)
  6

 40
6.35
 41
6.35
 42
6.350006
 43
6.350006
 44
215.899994
 45
279.399994
 46
0.0
 47
0.0
 48
0.0
 49
0.0
140
0.0
141
0.0
142
1.0
143
1.0
 70
   688
 72
     0
 73
     1
 74
     5
  7

 75
    16
147
1.0
 76
     0
 77
     2
 78
   300
148
0.0
149
0.0
100
AcDbLayout
  1
Layout1
 70
     1
 71
     1
 10
-0.25
 20
-0.25
 11
10.75
 21
8.25
 12
0.0
 22
0.0
 32
0.0
 14
1.05
 24
0.8
 34
0.0
 15
9.45
 25
7.2
 35
0.0
146
0.0
 13
0.0
 23
0.0
 33
0.0
 16
1.0
 26
0.0
 36
0.0
 17
0.0
 27
1.0
 37
0.0
 76
     0
330
3F5
1001
ACAD_PSEXT
1000
None
1000
None
1000
Not applicable
1000
The layout will not be plotted unless a new plotter configuration name is selected.
1070
     0
  0
LAYOUT
  5
3F2
102
{ACAD_XDICTIONARY
360
3F4
102
}
102
{ACAD_REACTORS
330
3F3
102
}
330
3F3
100
AcDbPlotSettings
  1

  2
none_device
  4
ANSI_A_(8.50_x_11.00_Inches)
  6

 40
6.35
 41
19.049999
 42
6.350006
 43
19.049988
 44
215.899994
 45
279.399994
 46
0.0
 47
0.0
 48
0.0
 49
0.0
140
0.0
141
0.0
142
1.0
143
2.584895
 70
 11952
 72
     0
 73
     1
 74
     0
  7

 75
     0
147
0.386863
 76
     0
 77
     2
 78
   300
148
0.0
149
0.0
100
AcDbLayout
  1
Model
 70
     1
 71
     0
 10
0.0
 20
0.0
 11
12.0
 21
9.0
 12
0.0
 22
0.0
 32
0.0
 14
0.0
 24
0.0
 34
0.0
 15
0.0
 25
0.0
 35
0.0
146
0.0
 13
0.0
 23
0.0
 33
0.0
 16
1.0
 26
0.0
 36
0.0
 17
0.0
 27
1.0
 37
0.0
 76
     0
330
3C7
  0
MATERIAL
  5
41D
102
{ACAD_XDICTIONARY
360
41E
102
}
102
{ACAD_REACTORS
330
3D2
102
}
330
3D2
100
AcDbMaterial
  1
ByBlock
 72
     0
 43
0.020833
 43
0.0
 43
0.0
 43
0.0
 43
0.0
 43
0.020833
 43
0.0
 43
0.0
 43
0.0
 43
0.0
 43
1.0
 43
0.0
 43
0.0
 43
0.0
 43
0.0
 43
1.0
 77
     0
 47
0.020833
 47
0.0
 47
0.0
 47
0.0
 47
0.0
 47
0.020833
 47
0.0
 47
0.0
 47
0.0
 47
0.0
 47
1.0
 47
0.0
 47
0.0
 47
0.0
 47
0.0
 47
1.0
171
     0
 49
0.020833
 49
0.0
 49
0.0
 49
0.0
 49
0.0
 49
0.020833
 49
0.0
 49
0.0
 49
0.0
 49
0.0
 49
1.0
 49
0.0
 49
0.0
 49
0.0
 49
0.0
 49
1.0
175
     0
142
0.020833
142
0.0
142
0.0
142
0.0
142
0.0
142
0.020833
142
0.0
142
0.0
142
0.0
142
0.0
142
1.0
142
0.0
142
0.0
142
0.0
142
0.0
142
1.0
179
     0
144
0.020833
144
0.0
144
0.0
144
0.0
144
0.0
144
0.020833
144
0.0
144
0.0
144
0.0
144
0.0
144
1.0
144
0.0
144
0.0
144
0.0
144
0.0
144
1.0
147
0.020833
147
0.0
147
0.0
147
0.0
147
0.0
147
0.020833
147
0.0
147
0.0
147
0.0
147
0.0
147
1.0
147
0.0
147
0.0
147
0.0
147
0.0
147
1.0
  0
MATERIAL
  5
415
102
{ACAD_XDICTIONARY
360
416
102
}
102
{ACAD_REACTORS
330
3D2
102
}
330
3D2
100
AcDbMaterial
  1
ByLayer
 72
     0
 43
0.020833
 43
0.0
 43
0.0
 43
0.0
 43
0.0
 43
0.020833
 43
0.0
 43
0.0
 43
0.0
 43
0.0
 43
1.0
 43
0.0
 43
0.0
 43
0.0
 43
0.0
 43
1.0
 77
     0
 47
0.020833
 47
0.0
 47
0.0
 47
0.0
 47
0.0
 47
0.020833
 47
0.0
 47
0.0
 47
0.0
 47
0.0
 47
1.0
 47
0.0
 47
0.0
 47
0.0
 47
0.0
 47
1.0
171
     0
 49
0.020833
 49
0.0
 49
0.0
 49
0.0
 49
0.0
 49
0.020833
 49
0.0
 49
0.0
 49
0.0
 49
0.0
 49
1.0
 49
0.0
 49
0.0
 49
0.0
 49
0.0
 49
1.0
175
     0
142
0.020833
142
0.0
142
0.0
142
0.0
142
0.0
142
0.020833
142
0.0
142
0.0
142
0.0
142
0.0
142
1.0
142
0.0
142
0.0
142
0.0
142
0.0
142
1.0
179
     0
144
0.020833
144
0.0
144
0.0
144
0.0
144
0.0
144
0.020833
144
0.0
144
0.0
144
0.0
144
0.0
144
1.0
144
0.0
144
0.0
144
0.0
144
0.0
144
1.0
147
0.020833
147
0.0
147
0.0
147
0.0
147
0.0
147
0.020833
147
0.0
147
0.0
147
0.0
147
0.0
147
1.0
147
0.0
147
0.0
147
0.0
147
0.0
147
1.0
  0
MATERIAL
  5
3D1
102
{ACAD_XDICTIONARY
360
3D3
102
}
102
{ACAD_REACTORS
330
3D2
102
}
330
3D2
100
AcDbMaterial
  1
Global
 72
     0
 43
0.020833
 43
0.0
 43
0.0
 43
0.0
 43
0.0
 43
0.020833
 43
0.0
 43
0.0
 43
0.0
 43
0.0
 43
1.0
 43
0.0
 43
0.0
 43
0.0
 43
0.0
 43
1.0
 77
     0
 47
0.020833
 47
0.0
 47
0.0
 47
0.0
 47
0.0
 47
0.020833
 47
0.0
 47
0.0
 47
0.0
 47
0.0
 47
1.0
 47
0.0
 47
0.0
 47
0.0
 47
0.0
 47
1.0
171
     0
 49
0.020833
 49
0.0
 49
0.0
 49
0.0
 49
0.0
 49
0.020833
 49
0.0
 49
0.0
 49
0.0
 49
0.0
 49
1.0
 49
0.0
 49
0.0
 49
0.0
 49
0.0
 49
1.0
175
     0
142
0.020833
142
0.0
142
0.0
142
0.0
142
0.0
142
0.020833
142
0.0
142
0.0
142
0.0
142
0.0
142
1.0
142
0.0
142
0.0
142
0.0
142
0.0
142
1.0
179
     0
144
0.020833
144
0.0
144
0.0
144
0.0
144
0.0
144
0.020833
144
0.0
144
0.0
144
0.0
144
0.0
144
1.0
144
0.0
144
0.0
144
0.0
144
0.0
144
1.0
147
0.020833
147
0.0
147
0.0
147
0.0
147
0.0
147
0.020833
147
0.0
147
0.0
147
0.0
147
0.0
147
1.0
147
0.0
147
0.0
147
0.0
147
0.0
147
1.0
  0
MLEADERSTYLE
  5
5A4
102
{ACAD_REACTORS
330
428
102
}
330
428
100
AcDbMLeaderStyle
179
     2
170
     2
171
     1
172
     0
 90
        2
 40
0.0
 41
0.0
173
     1
 91
-1073741824
 92
       -2
290
     1
 42
0.125
291
     1
 43
0.5
  3

341
435
 44
0.25
300

342
5A2
174
     1
178
     1
175
     1
176
     0
 93
-1073741824
 45
0.25
292
     0
297
     1
 46
5.0
 94
-1073741824
 47
1.0
 49
1.0
140
1.0
293
     1
141
0.0
294
     1
177
     0
142
1.0
295
     0
296
     1
143
0.125
271
     0
272
     9
273
     9
298
     0
  0
MLINESTYLE
  5
43B
102
{ACAD_REACTORS
330
413
102
}
330
413
100
AcDbMlineStyle
  2
STANDARD
 70
     0
  3

 62
   256
 51
90.0
 52
90.0
 71
     2
 49
0.5
 62
   256
  6
BYLAYER
 49
-0.5
 62
   256
  6
BYLAYER
  0
ACDBPLACEHOLDER
  5
3CE
102
{ACAD_REACTORS
330
3CF
102
}
330
3CF
  0
SCALE
  5
440
102
{ACAD_REACTORS
330
426
102
}
330
426
100
AcDbScale
 70
     0
300
1:1
140
1.0
141
1.0
290
     1
  0
SCALE
  5
441
102
{ACAD_REACTORS
330
426
102
}
330
426
100
AcDbScale
 70
     0
300
1:2
140
1.0
141
2.0
290
     0
  0
SCALE
  5
442
102
{ACAD_REACTORS
330
426
102
}
330
426
100
AcDbScale
 70
     0
300
1:4
140
1.0
141
4.0
290
     0
  0
SCALE
  5
443
102
{ACAD_REACTORS
330
426
102
}
330
426
100
AcDbScale
 70
     0
300
1:5
140
1.0
141
5.0
290
     0
  0
SCALE
  5
444
102
{ACAD_REACTORS
330
426
102
}
330
426
100
AcDbScale
 70
     0
300
1:8
140
1.0
141
8.0
290
     0
  0
SCALE
  5
445
102
{ACAD_REACTORS
330
426
102
}
330
426
100
AcDbScale
 70
     0
300
1:10
140
1.0
141
10.0
290
     0
  0
SCALE
  5
446
102
{ACAD_REACTORS
330
426
102
}
330
426
100
AcDbScale
 70
     0
300
1:16
140
1.0
141
16.0
290
     0
  0
SCALE
  5
447
102
{ACAD_REACTORS
330
426
102
}
330
426
100
AcDbScale
 70
     0
300
1:20
140
1.0
141
20.0
290
     0
  0
SCALE
  5
448
102
{ACAD_REACTORS
330
426
102
}
330
426
100
AcDbScale
 70
     0
300
1:30
140
1.0
141
30.0
290
     0
  0
SCALE
  5
449
102
{ACAD_REACTORS
330
426
102
}
330
426
100
AcDbScale
 70
     0
300
1:40
140
1.0
141
40.0
290
     0
  0
SCALE
  5
44A
102
{ACAD_REACTORS
330
426
102
}
330
426
100
AcDbScale
 70
     0
300
1:50
140
1.0
141
50.0
290
     0
  0
SCALE
  5
44B
102
{ACAD_REACTORS
330
426
102
}
330
426
100
AcDbScale
 70
     0
300
1:100
140
1.0
141
100.0
290
     0
  0
SCALE
  5
44C
102
{ACAD_REACTORS
330
426
102
}
330
426
100
AcDbScale
 70
     0
300
2:1
140
2.0
141
1.0
290
     0
  0
SCALE
  5
44D
102
{ACAD_REACTORS
330
426
102
}
330
426
100
AcDbScale
 70
     0
300
4:1
140
4.0
141
1.0
290
     0
  0
SCALE
  5
44E
102
{ACAD_REACTORS
330
426
102
}
330
426
100
AcDbScale
 70
     0
300
8:1
140
8.0
141
1.0
290
     0
  0
SCALE
  5
44F
102
{ACAD_REACTORS
330
426
102
}
330
426
100
AcDbScale
 70
     0
300
10:1
140
10.0
141
1.0
290
     0
  0
SCALE
  5
450
102
{ACAD_REACTORS
330
426
102
}
330
426
100
AcDbScale
 70
     0
300
100:1
140
100.0
141
1.0
290
     0
  0
SCALE
  5
451
102
{ACAD_REACTORS
330
426
102
}
330
426
100
AcDbScale
 70
     0
300
1/128" = 1'-0"
140
0.007813
141
12.0
290
     0
  0
SCALE
  5
452
102
{ACAD_REACTORS
330
426
102
}
330
426
100
AcDbScale
 70
     0
300
1/64" = 1'-0"
140
0.015625
141
12.0
290
     0
  0
SCALE
  5
453
102
{ACAD_REACTORS
330
426
102
}
330
426
100
AcDbScale
 70
     0
300
1/32" = 1'-0"
140
0.03125
141
12.0
290
     0
  0
SCALE
  5
454
102
{ACAD_REACTORS
330
426
102
}
330
426
100
AcDbScale
 70
     0
300
1/16" = 1'-0"
140
0.0625
141
12.0
290
     0
  0
SCALE
  5
455
102
{ACAD_REACTORS
330
426
102
}
330
426
100
AcDbScale
 70
     0
300
3/32" = 1'-0"
140
0.09375
141
12.0
290
     0
  0
SCALE
  5
456
102
{ACAD_REACTORS
330
426
102
}
330
426
100
AcDbScale
 70
     0
300
1/8" = 1'-0"
140
0.125
141
12.0
290
     0
  0
SCALE
  5
457
102
{ACAD_REACTORS
330
426
102
}
330
426
100
AcDbScale
 70
     0
300
3/16" = 1'-0"
140
0.1875
141
12.0
290
     0
  0
SCALE
  5
458
102
{ACAD_REACTORS
330
426
102
}
330
426
100
AcDbScale
 70
     0
300
1/4" = 1'-0"
140
0.25
141
12.0
290
     0
  0
SCALE
  5
459
102
{ACAD_REACTORS
330
426
102
}
330
426
100
AcDbScale
 70
     0
300
3/8" = 1'-0"
140
0.375
141
12.0
290
     0
  0
SCALE
  5
45A
102
{ACAD_REACTORS
330
426
102
}
330
426
100
AcDbScale
 70
     0
300
1/2" = 1'-0"
140
0.5
141
12.0
290
     0
  0
SCALE
  5
45B
102
{ACAD_REACTORS
330
426
102
}
330
426
100
AcDbScale
 70
     0
300
3/4" = 1'-0"
140
0.75
141
12.0
290
     0
  0
SCALE
  5
45C
102
{ACAD_REACTORS
330
426
102
}
330
426
100
AcDbScale
 70
     0
300
1" = 1'-0"
140
1.0
141
12.0
290
     0
  0
SCALE
  5
45D
102
{ACAD_REACTORS
330
426
102
}
330
426
100
AcDbScale
 70
     0
300
1-1/2" = 1'-0"
140
1.5
141
12.0
290
     0
  0
SCALE
  5
45E
102
{ACAD_REACTORS
330
426
102
}
330
426
100
AcDbScale
 70
     0
300
3" = 1'-0"
140
3.0
141
12.0
290
     0
  0
SCALE
  5
45F
102
{ACAD_REACTORS
330
426
102
}
330
426
100
AcDbScale
 70
     0
300
6" = 1'-0"
140
6.0
141
12.0
290
     0
  0
SCALE
  5
460
102
{ACAD_REACTORS
330
426
102
}
330
426
100
AcDbScale
 70
     0
300
1'-0" = 1'-0"
140
12.0
141
12.0
290
     0
  0
ACDBSECTIONVIEWSTYLE
  5
5C8
102
{ACAD_XDICTIONARY
360
A6D
102
}
102
{ACAD_REACTORS
330
5C7
102
}
330
5C7
100
AcDbModelDocViewStyle
 70
     0
  3
Imperial24
290
     0
100
AcDbSectionViewStyle
 70
     0
 71
     0
 90
       78
 71
     1
340
401
 62
   256
 40
0.24
340
0
340
0
 62
   256
 40
0.24
300
I, O, Q, S, X, Z
 40
0.48
 90
        3
 40
0.18
 90
        1
 71
     2
340
3DA
 90
       25
 62
   256
340
3DA
 90
       50
 62
   256
 40
0.24
 40
0.0
 40
0.24
 71
     3
340
401
 62
   256
 40
0.24
 90
        1
 40
0.75
 90
        1
300
%<\AcVar ViewType \f "%tc1">% %<\AcVar ViewSectionStartId>%-%<\AcVar ViewSectionEndId>%\PSCALE %<\AcVar ViewScale \f "%sn">%
 71
     4
 62
   256
 62
   257
300
ANSI31
 40
1.0
 90
        0
290
     0
290
     0
 90
        6
 40
0.0
 40
1.570796
 40
0.261799
 40
1.308997
 40
-0.261799
 40
1.832596
  0
TABLESTYLE
  5
43C
102
{ACAD_XDICTIONARY
360
43D
102
}
102
{ACAD_REACTORS
330
427
102
}
330
427
100
AcDbTableStyle
280
     0
  3
Standard
 70
     0
 71
     0
 40
0.06
 41
0.06
280
     0
281
     0
  7
Standard
140
0.18
170
     2
 62
     0
 63
     7
283
     0
 90
        4
 91
        0
  1

274
    -2
284
     1
 64
     0
275
    -2
285
     1
 65
     0
276
    -2
286
     1
 66
     0
277
    -2
287
     1
 67
     0
278
    -2
288
     1
 68
     0
279
    -2
289
     1
 69
     0
  7
Standard
140
0.25
170
     5
 62
     0
 63
     7
283
     0
 90
        4
 91
        0
  1

274
    -2
284
     1
 64
     0
275
    -2
285
     1
 65
     0
276
    -2
286
     1
 66
     0
277
    -2
287
     1
 67
     0
278
    -2
288
     1
 68
     0
279
    -2
289
     1
 69
     0
  7
Standard
140
0.18
170
     5
 62
     0
 63
     7
283
     0
 90
        4
 91
        0
  1

274
    -2
284
     1
 64
     0
275
    -2
285
     1
 65
     0
276
    -2
286
     1
 66
     0
277
    -2
287
     1
 67
     0
278
    -2
288
     1
 68
     0
279
    -2
289
     1
 69
     0
  0
VISUALSTYLE
  5
40B
102
{ACAD_REACTORS
330
40C
102
}
330
40C
100
AcDbVisualStyle
  2
2dWireframe
 70
     4
177
     3
291
     0
 70
    58
 90
        0
176
     1
 90
        2
176
     1
 90
        0
176
     1
 90
        0
176
     1
 40
0.6
176
     1
 40
30.0
176
     1
 62
     7
420
 16777215
176
     1
 90
        1
176
     1
 90
        4
176
     1
 62
     7
176
     1
 62
   257
176
     1
 90
        1
176
     1
 90
        1
176
     1
 40
1.0
176
     1
 90
        0
176
     1
 62
   257
176
     1
 40
1.0
176
     1
 90
        1
176
     1
 90
        6
176
     1
 90
        2
176
     1
 62
     7
176
     1
 90
        5
176
     1
 90
        0
176
     1
 90
        0
176
     1
290
     0
176
     1
 90
        1
176
     1
 40
0.0
176
     1
 90
        0
176
     1
290
     1
176
     1
290
     1
176
     1
290
     0
176
     1
290
     0
176
     1
290
     0
176
     1
290
     0
176
     1
290
     0
176
     1
290
     0
176
     1
290
     0
176
     1
 90
       50
176
     1
 40
0.0
176
     1
 40
1.0
176
     1
 90
        0
176
     1
 62
    18
420
        0
176
     1
 90
       50
176
     1
 90
        3
176
     1
 62
     5
420
      255
176
     1
290
     0
176
     1
 90
       50
176
     1
 90
       50
176
     1
 90
       50
176
     1
290
     0
176
     1
 90
       50
176
     1
 62
   256
176
     0
 40
1.0
176
     0
 90
        2
176
     1
  1
strokes_ogs.tif
176
     1
290
     0
176
     1
 40
1.0
176
     1
 40
1.0
176
     1
1001
ACAD
1000
AcDbSavedByObjectVersion
1070
     0
  0
VISUALSTYLE
  5
5B6
102
{ACAD_REACTORS
330
40C
102
}
330
40C
100
AcDbVisualStyle
  2
Basic
 70
     7
177
     3
291
     1
 70
    58
 90
        1
176
     1
 90
        0
176
     1
 90
        1
176
     1
 90
        0
176
     1
 40
0.6
176
     1
 40
30.0
176
     1
 62
     7
420
 16777215
176
     1
 90
        0
176
     1
 90
        4
176
     1
 62
     7
176
     1
 62
   257
176
     1
 90
        1
176
     1
 90
        1
176
     1
 40
1.0
176
     1
 90
        8
176
     1
 62
     7
176
     1
 40
1.0
176
     1
 90
        1
176
     1
 90
        6
176
     1
 90
        2
176
     1
 62
     7
176
     1
 90
        5
176
     1
 90
        0
176
     1
 90
        0
176
     1
290
     0
176
     1
 90
        1
176
     1
 40
0.0
176
     1
 90
        0
176
     1
290
     0
176
     1
290
     1
176
     1
290
     1
176
     1
290
     0
176
     1
290
     0
176
     1
290
     0
176
     1
290
     0
176
     1
290
     0
176
     1
290
     0
176
     1
 90
       50
176
     1
 40
0.0
176
     1
 40
1.0
176
     1
 90
        0
176
     1
 62
    18
420
        0
176
     1
 90
       50
176
     1
 90
        3
176
     1
 62
     5
420
      255
176
     1
290
     0
176
     1
 90
       50
176
     1
 90
       50
176
     1
 90
       50
176
     1
290
     0
176
     1
 90
       50
176
     1
 62
   256
176
     0
 40
1.0
176
     0
 90
        2
176
     1
  1
strokes_ogs.tif
176
     1
290
     0
176
     1
 40
1.0
176
     1
 40
1.0
176
     1
1001
ACAD
1000
AcDbSavedByObjectVersion
1070
     0
  0
VISUALSTYLE
  5
5BA
102
{ACAD_REACTORS
330
40C
102
}
330
40C
100
AcDbVisualStyle
  2
Brighten
 70
    12
177
     3
291
     1
 70
    58
 90
        2
176
     1
 90
        2
176
     1
 90
        0
176
     1
 90
        0
176
     1
 40
0.6
176
     1
 40
30.0
176
     1
 62
     7
420
 16777215
176
     1
 90
        1
176
     1
 90
        4
176
     1
 62
     7
176
     1
 62
   257
176
     1
 90
        1
176
     1
 90
        1
176
     1
 40
1.0
176
     1
 90
        8
176
     1
 62
     7
176
     1
 40
1.0
176
     1
 90
        1
176
     1
 90
        6
176
     1
 90
        2
176
     1
 62
     7
176
     1
 90
        5
176
     1
 90
        0
176
     1
 90
        0
176
     1
290
     0
176
     1
 90
        1
176
     1
 40
50.0
176
     1
 90
        0
176
     1
290
     0
176
     1
290
     1
176
     1
290
     1
176
     1
290
     0
176
     1
290
     0
176
     1
290
     0
176
     1
290
     0
176
     1
290
     0
176
     1
290
     0
176
     1
 90
       50
176
     1
 40
0.0
176
     1
 40
1.0
176
     1
 90
        0
176
     1
 62
    18
420
        0
176
     1
 90
       50
176
     1
 90
        3
176
     1
 62
     5
420
      255
176
     1
290
     0
176
     1
 90
       50
176
     1
 90
       50
176
     1
 90
       50
176
     1
290
     0
176
     1
 90
       50
176
     1
 62
   256
176
     0
 40
1.0
176
     0
 90
        2
176
     1
  1
strokes_ogs.tif
176
     1
290
     0
176
     1
 40
1.0
176
     1
 40
1.0
176
     1
1001
ACAD
1000
AcDbSavedByObjectVersion
1070
     0
  0
VISUALSTYLE
  5
5BE
102
{ACAD_REACTORS
330
40C
102
}
330
40C
100
AcDbVisualStyle
  2
ColorChange
 70
    16
177
     3
291
     1
 70
    58
 90
        2
176
     1
 90
        2
176
     1
 90
        3
176
     1
 90
        0
176
     1
 40
0.6
176
     1
 40
30.0
176
     1
 62
     8
420
  8421504
176
     1
 90
        1
176
     1
 90
        4
176
     1
 62
     7
176
     1
 62
   257
176
     1
 90
        1
176
     1
 90
        1
176
     1
 40
1.0
176
     1
 90
        8
176
     1
 62
     8
420
  8421504
176
     1
 40
1.0
176
     1
 90
        1
176
     1
 90
        6
176
     1
 90
        2
176
     1
 62
     7
176
     1
 90
        5
176
     1
 90
        0
176
     1
 90
        0
176
     1
290
     0
176
     1
 90
        1
176
     1
 40
0.0
176
     1
 90
        0
176
     1
290
     0
176
     1
290
     1
176
     1
290
     1
176
     1
290
     0
176
     1
290
     0
176
     1
290
     0
176
     1
290
     0
176
     1
290
     0
176
     1
290
     0
176
     1
 90
       50
176
     1
 40
0.0
176
     1
 40
1.0
176
     1
 90
        0
176
     1
 62
    18
420
        0
176
     1
 90
       50
176
     1
 90
        3
176
     1
 62
     5
420
      255
176
     1
290
     0
176
     1
 90
       50
176
     1
 90
       50
176
     1
 90
       50
176
     1
290
     0
176
     1
 90
       50
176
     1
 62
   256
176
     0
 40
1.0
176
     0
 90
        2
176
     1
  1
strokes_ogs.tif
176
     1
290
     0
176
     1
 40
1.0
176
     1
 40
1.0
176
     1
1001
ACAD
1000
AcDbSavedByObjectVersion
1070
     0
  0
VISUALSTYLE
  5
5B8
102
{ACAD_REACTORS
330
40C
102
}
330
40C
100
AcDbVisualStyle
  2
Conceptual
 70
     9
177
     3
291
     0
 70
    58
 90
        3
176
     1
 90
        2
176
     1
 90
        0
176
     1
 90
        0
176
     1
 40
0.6
176
     1
 40
30.0
176
     1
 62
     7
420
 16777215
176
     1
 90
        2
176
     1
 90
        2
176
     1
 62
     7
176
     1
 62
   257
176
     1
 90
        1
176
     1
 90
        1
176
     1
 40
179.0
176
     1
 90
        8
176
     1
 62
     7
176
     1
 40
1.0
176
     1
 90
        1
176
     1
 90
        6
176
     1
 90
        2
176
     1
 62
     7
176
     1
 90
        3
176
     1
 90
        0
176
     1
 90
        0
176
     1
290
     0
176
     1
 90
        1
176
     1
 40
0.0
176
     1
 90
        0
176
     1
290
     0
176
     1
290
     1
176
     1
290
     1
176
     1
290
     0
176
     1
290
     0
176
     1
290
     0
176
     1
290
     0
176
     1
290
     0
176
     1
290
     0
176
     1
 90
       50
176
     1
 40
0.0
176
     1
 40
1.0
176
     1
 90
        0
176
     1
 62
    18
420
        0
176
     1
 90
       50
176
     1
 90
        3
176
     1
 62
     5
420
      255
176
     1
290
     0
176
     1
 90
       50
176
     1
 90
       50
176
     1
 90
       50
176
     1
290
     0
176
     1
 90
       50
176
     1
 62
   256
176
     0
 40
1.0
176
     0
 90
        2
176
     1
  1
strokes_ogs.tif
176
     1
290
     0
176
     1
 40
1.0
176
     1
 40
1.0
176
     1
1001
ACAD
1000
AcDbSavedByObjectVersion
1070
     0
  0
VISUALSTYLE
  5
5B9
102
{ACAD_REACTORS
330
40C
102
}
330
40C
100
AcDbVisualStyle
  2
Dim
 70
    11
177
     3
291
     1
 70
    58
 90
        2
176
     1
 90
        2
176
     1
 90
        0
176
     1
 90
        0
176
     1
 40
0.6
176
     1
 40
30.0
176
     1
 62
     7
420
 16777215
176
     1
 90
        1
176
     1
 90
        4
176
     1
 62
     7
176
     1
 62
   257
176
     1
 90
        1
176
     1
 90
        1
176
     1
 40
1.0
176
     1
 90
        8
176
     1
 62
     7
176
     1
 40
1.0
176
     1
 90
        1
176
     1
 90
        6
176
     1
 90
        2
176
     1
 62
     7
176
     1
 90
        5
176
     1
 90
        0
176
     1
 90
        0
176
     1
290
     0
176
     1
 90
        1
176
     1
 40
-50.0
176
     1
 90
        0
176
     1
290
     0
176
     1
290
     1
176
     1
290
     1
176
     1
290
     0
176
     1
290
     0
176
     1
290
     0
176
     1
290
     0
176
     1
290
     0
176
     1
290
     0
176
     1
 90
       50
176
     1
 40
0.0
176
     1
 40
1.0
176
     1
 90
        0
176
     1
 62
    18
420
        0
176
     1
 90
       50
176
     1
 90
        3
176
     1
 62
     5
420
      255
176
     1
290
     0
176
     1
 90
       50
176
     1
 90
       50
176
     1
 90
       50
176
     1
290
     0
176
     1
 90
       50
176
     1
 62
   256
176
     0
 40
1.0
176
     0
 90
        2
176
     1
  1
strokes_ogs.tif
176
     1
290
     0
176
     1
 40
1.0
176
     1
 40
1.0
176
     1
1001
ACAD
1000
AcDbSavedByObjectVersion
1070
     0
  0
VISUALSTYLE
  5
5C6
102
{ACAD_REACTORS
330
40C
102
}
330
40C
100
AcDbVisualStyle
  2
EdgeColorOff
 70
    22
177
     3
291
     1
 70
    58
 90
        2
176
     0
 90
        2
176
     0
 90
        0
176
     0
 90
        0
176
     0
 40
0.6
176
     0
 40
30.0
176
     0
 62
     7
420
 16777215
176
     0
 90
        1
176
     0
 90
        4
176
     0
 62
     7
176
     0
 62
   257
176
     0
 90
        1
176
     0
 90
        1
176
     0
 40
1.0
176
     0
 90
        8
176
     2
 62
     7
176
     0
 40
1.0
176
     0
 90
        1
176
     0
 90
        6
176
     0
 90
        2
176
     0
 62
     7
176
     0
 90
        5
176
     0
 90
        0
176
     0
 90
        0
176
     0
290
     0
176
     0
 90
        1
176
     0
 40
0.0
176
     0
 90
        0
176
     0
290
     0
176
     0
290
     1
176
     0
290
     1
176
     0
290
     0
176
     0
290
     0
176
     0
290
     0
176
     0
290
     0
176
     0
290
     0
176
     0
290
     0
176
     0
 90
       50
176
     0
 40
0.0
176
     0
 40
1.0
176
     0
 90
        0
176
     0
 62
    18
420
        0
176
     0
 90
       50
176
     0
 90
        3
176
     0
 62
     5
420
      255
176
     0
290
     0
176
     0
 90
       50
176
     0
 90
       50
176
     0
 90
       50
176
     0
290
     0
176
     0
 90
       50
176
     0
 62
   256
176
     0
 40
1.0
176
     0
 90
        2
176
     0
  1
strokes_ogs.tif
176
     0
290
     0
176
     0
 40
1.0
176
     0
 40
1.0
176
     0
1001
ACAD
1000
AcDbSavedByObjectVersion
1070
     0
  0
VISUALSTYLE
  5
5BD
102
{ACAD_REACTORS
330
40C
102
}
330
40C
100
AcDbVisualStyle
  2
Facepattern
 70
    15
177
     3
291
     1
 70
    58
 90
        2
176
     1
 90
        2
176
     1
 90
        0
176
     1
 90
        0
176
     1
 40
0.6
176
     1
 40
30.0
176
     1
 62
     7
420
 16777215
176
     1
 90
        1
176
     1
 90
        4
176
     1
 62
     7
176
     1
 62
   257
176
     1
 90
        1
176
     1
 90
        1
176
     1
 40
1.0
176
     1
 90
        8
176
     1
 62
     7
176
     1
 40
1.0
176
     1
 90
        1
176
     1
 90
        6
176
     1
 90
        2
176
     1
 62
     7
176
     1
 90
        5
176
     1
 90
        0
176
     1
 90
        0
176
     1
290
     0
176
     1
 90
        1
176
     1
 40
0.0
176
     1
 90
        0
176
     1
290
     0
176
     1
290
     1
176
     1
290
     1
176
     1
290
     0
176
     1
290
     0
176
     1
290
     0
176
     1
290
     0
176
     1
290
     0
176
     1
290
     0
176
     1
 90
       50
176
     1
 40
0.0
176
     1
 40
1.0
176
     1
 90
        0
176
     1
 62
    18
420
        0
176
     1
 90
       50
176
     1
 90
        3
176
     1
 62
     5
420
      255
176
     1
290
     0
176
     1
 90
       50
176
     1
 90
       50
176
     1
 90
       50
176
     1
290
     0
176
     1
 90
       50
176
     1
 62
   256
176
     0
 40
1.0
176
     0
 90
        2
176
     1
  1
strokes_ogs.tif
176
     1
290
     0
176
     1
 40
1.0
176
     1
 40
1.0
176
     1
1001
ACAD
1000
AcDbSavedByObjectVersion
1070
     0
  0
VISUALSTYLE
  5
5B2
102
{ACAD_REACTORS
330
40C
102
}
330
40C
100
AcDbVisualStyle
  2
Flat
 70
     0
177
     3
291
     1
 70
    58
 90
        2
176
     1
 90
        1
176
     1
 90
        1
176
     1
 90
        2
176
     1
 40
0.6
176
     1
 40
30.0
176
     1
 62
     7
420
 16777215
176
     1
 90
        0
176
     1
 90
        0
176
     1
 62
     7
176
     1
 62
   257
176
     1
 90
        1
176
     1
 90
        1
176
     1
 40
1.0
176
     1
 90
        8
176
     1
 62
     7
176
     1
 40
1.0
176
     1
 90
        1
176
     1
 90
        6
176
     1
 90
        2
176
     1
 62
     7
176
     1
 90
        5
176
     1
 90
        0
176
     1
 90
        0
176
     1
290
     0
176
     1
 90
       13
176
     1
 40
0.0
176
     1
 90
        0
176
     1
290
     0
176
     1
290
     1
176
     1
290
     1
176
     1
290
     0
176
     1
290
     0
176
     1
290
     0
176
     1
290
     0
176
     1
290
     0
176
     1
290
     0
176
     1
 90
       50
176
     1
 40
0.0
176
     1
 40
1.0
176
     1
 90
        0
176
     1
 62
    18
420
        0
176
     1
 90
       50
176
     1
 90
        3
176
     1
 62
     5
420
      255
176
     1
290
     0
176
     1
 90
       50
176
     1
 90
       50
176
     1
 90
       50
176
     1
290
     0
176
     1
 90
       50
176
     1
 62
   256
176
     0
 40
1.0
176
     0
 90
        2
176
     1
  1
strokes_ogs.tif
176
     1
290
     0
176
     1
 40
1.0
176
     1
 40
1.0
176
     1
1001
ACAD
1000
AcDbSavedByObjectVersion
1070
     0
  0
VISUALSTYLE
  5
5B3
102
{ACAD_REACTORS
330
40C
102
}
330
40C
100
AcDbVisualStyle
  2
FlatWithEdges
 70
     1
177
     3
291
     1
 70
    58
 90
        2
176
     1
 90
        1
176
     1
 90
        1
176
     1
 90
        2
176
     1
 40
0.6
176
     1
 40
30.0
176
     1
 62
     7
420
 16777215
176
     1
 90
        1
176
     1
 90
        0
176
     1
 62
     7
176
     1
 62
   257
176
     1
 90
        1
176
     1
 90
        1
176
     1
 40
1.0
176
     1
 90
        0
176
     1
 62
   257
176
     1
 40
1.0
176
     1
 90
        1
176
     1
 90
        6
176
     1
 90
        2
176
     1
 62
     7
176
     1
 90
        5
176
     1
 90
        0
176
     1
 90
        0
176
     1
290
     0
176
     1
 90
       13
176
     1
 40
0.0
176
     1
 90
        0
176
     1
290
     0
176
     1
290
     1
176
     1
290
     1
176
     1
290
     0
176
     1
290
     0
176
     1
290
     0
176
     1
290
     0
176
     1
290
     0
176
     1
290
     0
176
     1
 90
       50
176
     1
 40
0.0
176
     1
 40
1.0
176
     1
 90
        0
176
     1
 62
    18
420
        0
176
     1
 90
       50
176
     1
 90
        3
176
     1
 62
     5
420
      255
176
     1
290
     0
176
     1
 90
       50
176
     1
 90
       50
176
     1
 90
       50
176
     1
290
     0
176
     1
 90
       50
176
     1
 62
   256
176
     0
 40
1.0
176
     0
 90
        2
176
     1
  1
strokes_ogs.tif
176
     1
290
     0
176
     1
 40
1.0
176
     1
 40
1.0
176
     1
1001
ACAD
1000
AcDbSavedByObjectVersion
1070
     0
  0
VISUALSTYLE
  5
5B4
102
{ACAD_REACTORS
330
40C
102
}
330
40C
100
AcDbVisualStyle
  2
Gouraud
 70
     2
177
     3
291
     1
 70
    58
 90
        2
176
     1
 90
        2
176
     1
 90
        1
176
     1
 90
        2
176
     1
 40
0.6
176
     1
 40
30.0
176
     1
 62
     7
420
 16777215
176
     1
 90
        0
176
     1
 90
        0
176
     1
 62
     7
176
     1
 62
   257
176
     1
 90
        1
176
     1
 90
        1
176
     1
 40
1.0
176
     1
 90
        0
176
     1
 62
     7
176
     1
 40
1.0
176
     1
 90
        1
176
     1
 90
        6
176
     1
 90
        2
176
     1
 62
     7
176
     1
 90
        5
176
     1
 90
        0
176
     1
 90
        0
176
     1
290
     0
176
     1
 90
       13
176
     1
 40
0.0
176
     1
 90
        0
176
     1
290
     0
176
     1
290
     1
176
     1
290
     1
176
     1
290
     0
176
     1
290
     0
176
     1
290
     0
176
     1
290
     0
176
     1
290
     0
176
     1
290
     0
176
     1
 90
       50
176
     1
 40
0.0
176
     1
 40
1.0
176
     1
 90
        0
176
     1
 62
    18
420
        0
176
     1
 90
       50
176
     1
 90
        3
176
     1
 62
     5
420
      255
176
     1
290
     0
176
     1
 90
       50
176
     1
 90
       50
176
     1
 90
       50
176
     1
290
     0
176
     1
 90
       50
176
     1
 62
   256
176
     0
 40
1.0
176
     0
 90
        2
176
     1
  1
strokes_ogs.tif
176
     1
290
     0
176
     1
 40
1.0
176
     1
 40
1.0
176
     1
1001
ACAD
1000
AcDbSavedByObjectVersion
1070
     0
  0
VISUALSTYLE
  5
5B5
102
{ACAD_REACTORS
330
40C
102
}
330
40C
100
AcDbVisualStyle
  2
GouraudWithEdges
 70
     3
177
     3
291
     1
 70
    58
 90
        2
176
     1
 90
        2
176
     1
 90
        1
176
     1
 90
        2
176
     1
 40
0.6
176
     1
 40
30.0
176
     1
 62
     7
420
 16777215
176
     1
 90
        1
176
     1
 90
        0
176
     1
 62
     7
176
     1
 62
   257
176
     1
 90
        1
176
     1
 90
        1
176
     1
 40
1.0
176
     1
 90
        0
176
     1
 62
   257
176
     1
 40
1.0
176
     1
 90
        1
176
     1
 90
        6
176
     1
 90
        2
176
     1
 62
     7
176
     1
 90
        5
176
     1
 90
        0
176
     1
 90
        0
176
     1
290
     0
176
     1
 90
       13
176
     1
 40
0.0
176
     1
 90
        0
176
     1
290
     0
176
     1
290
     1
176
     1
290
     1
176
     1
290
     0
176
     1
290
     0
176
     1
290
     0
176
     1
290
     0
176
     1
290
     0
176
     1
290
     0
176
     1
 90
       50
176
     1
 40
0.0
176
     1
 40
1.0
176
     1
 90
        0
176
     1
 62
    18
420
        0
176
     1
 90
       50
176
     1
 90
        3
176
     1
 62
     5
420
      255
176
     1
290
     0
176
     1
 90
       50
176
     1
 90
       50
176
     1
 90
       50
176
     1
290
     0
176
     1
 90
       50
176
     1
 62
   256
176
     0
 40
1.0
176
     0
 90
        2
176
     1
  1
strokes_ogs.tif
176
     1
290
     0
176
     1
 40
1.0
176
     1
 40
1.0
176
     1
1001
ACAD
1000
AcDbSavedByObjectVersion
1070
     0
  0
VISUALSTYLE
  5
5B7
102
{ACAD_REACTORS
330
40C
102
}
330
40C
100
AcDbVisualStyle
  2
Hidden
 70
     6
177
     3
291
     0
 70
    58
 90
        1
176
     1
 90
        2
176
     1
 90
        2
176
     1
 90
        0
176
     1
 40
0.6
176
     1
 40
30.0
176
     1
 62
     7
420
 16777215
176
     1
 90
        2
176
     1
 90
        2
176
     1
 62
     7
176
     1
 62
   257
176
     1
 90
        2
176
     1
 90
        1
176
     1
 40
40.0
176
     1
 90
        0
176
     1
 62
   257
176
     1
 40
1.0
176
     1
 90
        1
176
     1
 90
        6
176
     1
 90
        2
176
     1
 62
     7
176
     1
 90
        3
176
     1
 90
        0
176
     1
 90
        0
176
     1
290
     0
176
     1
 90
        1
176
     1
 40
0.0
176
     1
 90
        0
176
     1
290
     0
176
     1
290
     1
176
     1
290
     1
176
     1
290
     0
176
     1
290
     0
176
     1
290
     0
176
     1
290
     0
176
     1
290
     0
176
     1
290
     0
176
     1
 90
       50
176
     1
 40
0.0
176
     1
 40
1.0
176
     1
 90
        0
176
     1
 62
    18
420
        0
176
     1
 90
       50
176
     1
 90
        3
176
     1
 62
     5
420
      255
176
     1
290
     0
176
     1
 90
       50
176
     1
 90
       50
176
     1
 90
       50
176
     1
290
     0
176
     1
 90
       50
176
     1
 62
   256
176
     0
 40
1.0
176
     0
 90
        2
176
     1
  1
strokes_ogs.tif
176
     1
290
     0
176
     1
 40
1.0
176
     1
 40
1.0
176
     1
1001
ACAD
1000
AcDbSavedByObjectVersion
1070
     0
  0
VISUALSTYLE
  5
5C4
102
{ACAD_REACTORS
330
40C
102
}
330
40C
100
AcDbVisualStyle
  2
JitterOff
 70
    20
177
     3
291
     1
 70
    58
 90
        2
176
     0
 90
        2
176
     0
 90
        0
176
     0
 90
        0
176
     0
 40
0.6
176
     0
 40
30.0
176
     0
 62
     7
420
 16777215
176
     0
 90
        1
176
     0
 90
        4
176
     0
 62
     7
176
     0
 62
   257
176
     0
 90
        1
176
     0
 90
        1
176
     0
 40
1.0
176
     0
 90
       10
176
     2
 62
     7
176
     0
 40
1.0
176
     0
 90
        1
176
     0
 90
        6
176
     0
 90
        2
176
     0
 62
     7
176
     0
 90
        5
176
     0
 90
        0
176
     0
 90
        0
176
     0
290
     0
176
     0
 90
        1
176
     0
 40
0.0
176
     0
 90
        0
176
     0
290
     0
176
     0
290
     1
176
     0
290
     1
176
     0
290
     0
176
     0
290
     0
176
     0
290
     0
176
     0
290
     0
176
     0
290
     0
176
     0
290
     0
176
     0
 90
       50
176
     0
 40
0.0
176
     0
 40
1.0
176
     0
 90
        0
176
     0
 62
    18
420
        0
176
     0
 90
       50
176
     0
 90
        3
176
     0
 62
     5
420
      255
176
     0
290
     0
176
     0
 90
       50
176
     0
 90
       50
176
     0
 90
       50
176
     0
290
     0
176
     0
 90
       50
176
     0
 62
   256
176
     0
 40
1.0
176
     0
 90
        2
176
     0
  1
strokes_ogs.tif
176
     0
290
     0
176
     0
 40
1.0
176
     0
 40
1.0
176
     0
1001
ACAD
1000
AcDbSavedByObjectVersion
1070
     0
  0
VISUALSTYLE
  5
5BC
102
{ACAD_REACTORS
330
40C
102
}
330
40C
100
AcDbVisualStyle
  2
Linepattern
 70
    14
177
     3
291
     1
 70
    58
 90
        2
176
     1
 90
        2
176
     1
 90
        0
176
     1
 90
        0
176
     1
 40
0.6
176
     1
 40
30.0
176
     1
 62
     7
420
 16777215
176
     1
 90
        1
176
     1
 90
        4
176
     1
 62
     7
176
     1
 62
   257
176
     1
 90
        7
176
     1
 90
        7
176
     1
 40
1.0
176
     1
 90
        8
176
     1
 62
     7
176
     1
 40
1.0
176
     1
 90
        1
176
     1
 90
        6
176
     1
 90
        2
176
     1
 62
     7
176
     1
 90
        5
176
     1
 90
        0
176
     1
 90
        0
176
     1
290
     0
176
     1
 90
        1
176
     1
 40
0.0
176
     1
 90
        0
176
     1
290
     0
176
     1
290
     1
176
     1
290
     1
176
     1
290
     0
176
     1
290
     0
176
     1
290
     0
176
     1
290
     0
176
     1
290
     0
176
     1
290
     0
176
     1
 90
       50
176
     1
 40
0.0
176
     1
 40
1.0
176
     1
 90
        0
176
     1
 62
    18
420
        0
176
     1
 90
       50
176
     1
 90
        3
176
     1
 62
     5
420
      255
176
     1
290
     0
176
     1
 90
       50
176
     1
 90
       50
176
     1
 90
       50
176
     1
290
     0
176
     1
 90
       50
176
     1
 62
   256
176
     0
 40
1.0
176
     0
 90
        2
176
     1
  1
strokes_ogs.tif
176
     1
290
     0
176
     1
 40
1.0
176
     1
 40
1.0
176
     1
1001
ACAD
1000
AcDbSavedByObjectVersion
1070
     0
  0
VISUALSTYLE
  5
5C5
102
{ACAD_REACTORS
330
40C
102
}
330
40C
100
AcDbVisualStyle
  2
OverhangOff
 70
    21
177
     3
291
     1
 70
    58
 90
        2
176
     0
 90
        2
176
     0
 90
        0
176
     0
 90
        0
176
     0
 40
0.6
176
     0
 40
30.0
176
     0
 62
     7
420
 16777215
176
     0
 90
        1
176
     0
 90
        4
176
     0
 62
     7
176
     0
 62
   257
176
     0
 90
        1
176
     0
 90
        1
176
     0
 40
1.0
176
     0
 90
        9
176
     2
 62
     7
176
     0
 40
1.0
176
     0
 90
        1
176
     0
 90
        6
176
     0
 90
        2
176
     0
 62
     7
176
     0
 90
        5
176
     0
 90
        0
176
     0
 90
        0
176
     0
290
     0
176
     0
 90
        1
176
     0
 40
0.0
176
     0
 90
        0
176
     0
290
     0
176
     0
290
     1
176
     0
290
     1
176
     0
290
     0
176
     0
290
     0
176
     0
290
     0
176
     0
290
     0
176
     0
290
     0
176
     0
290
     0
176
     0
 90
       50
176
     0
 40
0.0
176
     0
 40
1.0
176
     0
 90
        0
176
     0
 62
    18
420
        0
176
     0
 90
       50
176
     0
 90
        3
176
     0
 62
     5
420
      255
176
     0
290
     0
176
     0
 90
       50
176
     0
 90
       50
176
     0
 90
       50
176
     0
290
     0
176
     0
 90
       50
176
     0
 62
   256
176
     0
 40
1.0
176
     0
 90
        2
176
     0
  1
strokes_ogs.tif
176
     0
290
     0
176
     0
 40
1.0
176
     0
 40
1.0
176
     0
1001
ACAD
1000
AcDbSavedByObjectVersion
1070
     0
  0
VISUALSTYLE
  5
43E
102
{ACAD_REACTORS
330
40C
102
}
330
40C
100
AcDbVisualStyle
  2
Realistic
 70
     8
177
     3
291
     0
 70
    58
 90
        2
176
     1
 90
        2
176
     1
 90
        0
176
     1
 90
        0
176
     1
 40
0.6
176
     1
 40
30.0
176
     1
 62
     7
420
 16777215
176
     1
 90
        1
176
     1
 90
        0
176
     1
 62
     7
176
     1
 62
   257
176
     1
 90
        1
176
     1
 90
        1
176
     1
 40
1.0
176
     1
 90
        8
176
     1
 62
     8
420
  7895160
176
     1
 40
1.0
176
     1
 90
        1
176
     1
 90
        6
176
     1
 90
        2
176
     1
 62
     7
176
     1
 90
        5
176
     1
 90
        0
176
     1
 90
        0
176
     1
290
     0
176
     1
 90
       13
176
     1
 40
0.0
176
     1
 90
        0
176
     1
290
     0
176
     1
290
     1
176
     1
290
     1
176
     1
290
     0
176
     1
290
     0
176
     1
290
     0
176
     1
290
     0
176
     1
290
     0
176
     1
290
     0
176
     1
 90
       50
176
     1
 40
0.0
176
     1
 40
1.0
176
     1
 90
        0
176
     1
 62
    18
420
        0
176
     1
 90
       50
176
     1
 90
        3
176
     1
 62
     5
420
      255
176
     1
290
     0
176
     1
 90
       50
176
     1
 90
       50
176
     1
 90
       50
176
     1
290
     0
176
     1
 90
       50
176
     1
 62
   256
176
     0
 40
1.0
176
     0
 90
        2
176
     1
  1
strokes_ogs.tif
176
     1
290
     0
176
     1
 40
1.0
176
     1
 40
1.0
176
     1
1001
ACAD
1000
AcDbSavedByObjectVersion
1070
     0
  0
VISUALSTYLE
  5
5C3
102
{ACAD_REACTORS
330
40C
102
}
330
40C
100
AcDbVisualStyle
  2
Shaded
 70
    27
177
     3
291
     0
 70
    58
 90
        2
176
     1
 90
        2
176
     1
 90
        1
176
     1
 90
        2
176
     1
 40
0.6
176
     1
 40
30.0
176
     1
 62
     7
420
 16777215
176
     1
 90
        0
176
     1
 90
        4
176
     1
 62
     7
176
     1
 62
   257
176
     1
 90
        1
176
     1
 90
        1
176
     1
 40
1.0
176
     1
 90
        8
176
     1
 62
   257
176
     1
 40
1.0
176
     1
 90
        1
176
     1
 90
        6
176
     1
 90
        2
176
     1
 62
     8
420
  7895160
176
     1
 90
        3
176
     1
 90
        0
176
     1
 90
        0
176
     1
290
     0
176
     1
 90
        5
176
     1
 40
0.0
176
     1
 90
        0
176
     1
290
     0
176
     1
290
     1
176
     1
290
     1
176
     1
290
     0
176
     1
290
     0
176
     1
290
     0
176
     1
290
     0
176
     1
290
     0
176
     1
290
     0
176
     1
 90
       50
176
     1
 40
0.0
176
     1
 40
1.0
176
     1
 90
        0
176
     1
 62
    18
420
        0
176
     1
 90
       50
176
     1
 90
        3
176
     1
 62
     5
420
      255
176
     1
290
     0
176
     1
 90
       50
176
     1
 90
       50
176
     1
 90
       50
176
     1
290
     0
176
     1
 90
       50
176
     1
 62
   256
176
     0
 40
1.0
176
     0
 90
        2
176
     1
  1
strokes_ogs.tif
176
     1
290
     0
176
     1
 40
1.0
176
     1
 40
1.0
176
     1
1001
ACAD
1000
AcDbSavedByObjectVersion
1070
     0
  0
VISUALSTYLE
  5
5C2
102
{ACAD_REACTORS
330
40C
102
}
330
40C
100
AcDbVisualStyle
  2
Shaded with edges
 70
    26
177
     3
291
     0
 70
    58
 90
        2
176
     1
 90
        2
176
     1
 90
        1
176
     1
 90
        2
176
     1
 40
0.6
176
     1
 40
30.0
176
     1
 62
     7
420
 16777215
176
     1
 90
        1
176
     1
 90
        2
176
     1
 62
     7
176
     1
 62
   257
176
     1
 90
        2
176
     1
 90
        1
176
     1
 40
1.0
176
     1
 90
        8
176
     1
 62
   257
176
     1
 40
1.0
176
     1
 90
        1
176
     1
 90
        6
176
     1
 90
        2
176
     1
 62
     7
176
     1
 90
        3
176
     1
 90
        0
176
     1
 90
        0
176
     1
290
     0
176
     1
 90
        5
176
     1
 40
0.0
176
     1
 90
        0
176
     1
290
     0
176
     1
290
     1
176
     1
290
     1
176
     1
290
     0
176
     1
290
     0
176
     1
290
     0
176
     1
290
     0
176
     1
290
     0
176
     1
290
     0
176
     1
 90
       50
176
     1
 40
0.0
176
     1
 40
1.0
176
     1
 90
        0
176
     1
 62
    18
420
        0
176
     1
 90
       50
176
     1
 90
        3
176
     1
 62
     5
420
      255
176
     1
290
     0
176
     1
 90
       50
176
     1
 90
       50
176
     1
 90
       50
176
     1
290
     0
176
     1
 90
       50
176
     1
 62
   256
176
     0
 40
1.0
176
     0
 90
        2
176
     1
  1
strokes_ogs.tif
176
     1
290
     0
176
     1
 40
1.0
176
     1
 40
1.0
176
     1
1001
ACAD
1000
AcDbSavedByObjectVersion
1070
     0
  0
VISUALSTYLE
  5
5BF
102
{ACAD_REACTORS
330
40C
102
}
330
40C
100
AcDbVisualStyle
  2
Shades of Gray
 70
    23
177
     3
291
     0
 70
    58
 90
        2
176
     1
 90
        2
176
     1
 90
        3
176
     1
 90
        0
176
     1
 40
0.6
176
     1
 40
30.0
176
     1
 62
     7
420
 16777215
176
     1
 90
        2
176
     1
 90
        2
176
     1
 62
     7
176
     1
 62
     7
176
     1
 90
        1
176
     1
 90
        1
176
     1
 40
40.0
176
     1
 90
        8
176
     1
 62
     7
176
     1
 40
1.0
176
     1
 90
        1
176
     1
 90
        6
176
     1
 90
        2
176
     1
 62
     7
176
     1
 90
        3
176
     1
 90
        0
176
     1
 90
        0
176
     1
290
     0
176
     1
 90
        1
176
     1
 40
0.0
176
     1
 90
        0
176
     1
290
     0
176
     1
290
     1
176
     1
290
     1
176
     1
290
     0
176
     1
290
     0
176
     1
290
     0
176
     1
290
     0
176
     1
290
     0
176
     1
290
     0
176
     1
 90
       50
176
     1
 40
0.0
176
     1
 40
1.0
176
     1
 90
        0
176
     1
 62
    18
420
        0
176
     1
 90
       50
176
     1
 90
        3
176
     1
 62
     5
420
      255
176
     1
290
     0
176
     1
 90
       50
176
     1
 90
       50
176
     1
 90
       50
176
     1
290
     0
176
     1
 90
       50
176
     1
 62
   256
176
     0
 40
1.0
176
     0
 90
        2
176
     1
  1
strokes_ogs.tif
176
     1
290
     0
176
     1
 40
1.0
176
     1
 40
1.0
176
     1
1001
ACAD
1000
AcDbSavedByObjectVersion
1070
     0
  0
VISUALSTYLE
  5
5C0
102
{ACAD_REACTORS
330
40C
102
}
330
40C
100
AcDbVisualStyle
  2
Sketchy
 70
    24
177
     3
291
     0
 70
    58
 90
        1
176
     1
 90
        2
176
     1
 90
        2
176
     1
 90
        0
176
     1
 40
0.6
176
     1
 40
30.0
176
     1
 62
     7
420
 16777215
176
     1
 90
        2
176
     1
 90
        2
176
     1
 62
     7
176
     1
 62
     7
176
     1
 90
        1
176
     1
 90
        1
176
     1
 40
40.0
176
     1
 90
       11
176
     1
 62
     7
176
     1
 40
1.0
176
     1
 90
        1
176
     1
 90
        6
176
     1
 90
        2
176
     1
 62
     7
176
     1
 90
        6
176
     1
 90
        0
176
     1
 90
        0
176
     1
290
     0
176
     1
 90
        1
176
     1
 40
0.0
176
     1
 90
        0
176
     1
290
     0
176
     1
290
     1
176
     1
290
     1
176
     1
290
     0
176
     1
290
     0
176
     1
290
     0
176
     1
290
     0
176
     1
290
     0
176
     1
290
     0
176
     1
 90
       50
176
     1
 40
0.0
176
     1
 40
1.0
176
     1
 90
        0
176
     1
 62
    18
420
        0
176
     1
 90
       50
176
     1
 90
        3
176
     1
 62
     5
420
      255
176
     1
290
     0
176
     1
 90
       50
176
     1
 90
       50
176
     1
 90
       50
176
     1
290
     0
176
     1
 90
       50
176
     1
 62
   256
176
     0
 40
1.0
176
     0
 90
        2
176
     1
  1
strokes_ogs.tif
176
     1
290
     0
176
     1
 40
1.0
176
     1
 40
1.0
176
     1
1001
ACAD
1000
AcDbSavedByObjectVersion
1070
     0
  0
VISUALSTYLE
  5
5BB
102
{ACAD_REACTORS
330
40C
102
}
330
40C
100
AcDbVisualStyle
  2
Thicken
 70
    13
177
     3
291
     1
 70
    58
 90
        2
176
     1
 90
        2
176
     1
 90
        0
176
     1
 90
        0
176
     1
 40
0.6
176
     1
 40
30.0
176
     1
 62
     7
420
 16777215
176
     1
 90
        1
176
     1
 90
        4
176
     1
 62
     7
176
     1
 62
   257
176
     1
 90
        1
176
     1
 90
        1
176
     1
 40
1.0
176
     1
 90
       12
176
     1
 62
     7
176
     1
 40
1.0
176
     1
 90
        1
176
     1
 90
        6
176
     1
 90
        2
176
     1
 62
     7
176
     1
 90
        5
176
     1
 90
        0
176
     1
 90
        0
176
     1
290
     0
176
     1
 90
        1
176
     1
 40
0.0
176
     1
 90
        0
176
     1
290
     0
176
     1
290
     1
176
     1
290
     1
176
     1
290
     0
176
     1
290
     0
176
     1
290
     0
176
     1
290
     0
176
     1
290
     0
176
     1
290
     0
176
     1
 90
       50
176
     1
 40
0.0
176
     1
 40
1.0
176
     1
 90
        0
176
     1
 62
    18
420
        0
176
     1
 90
       50
176
     1
 90
        3
176
     1
 62
     5
420
      255
176
     1
290
     0
176
     1
 90
       50
176
     1
 90
       50
176
     1
 90
       50
176
     1
290
     0
176
     1
 90
       50
176
     1
 62
   256
176
     0
 40
1.0
176
     0
 90
        2
176
     1
  1
strokes_ogs.tif
176
     1
290
     0
176
     1
 40
1.0
176
     1
 40
1.0
176
     1
1001
ACAD
1000
AcDbSavedByObjectVersion
1070
     0
  0
VISUALSTYLE
  5
43F
102
{ACAD_REACTORS
330
40C
102
}
330
40C
100
AcDbVisualStyle
  2
Wireframe
 70
     5
177
     3
291
     0
 70
    58
 90
        0
176
     1
 90
        2
176
     1
 90
        0
176
     1
 90
        0
176
     1
 40
0.6
176
     1
 40
30.0
176
     1
 62
     7
420
 16777215
176
     1
 90
        1
176
     1
 90
        4
176
     1
 62
     7
176
     1
 62
   257
176
     1
 90
        1
176
     1
 90
        1
176
     1
 40
1.0
176
     1
 90
        0
176
     1
 62
   257
176
     1
 40
1.0
176
     1
 90
        1
176
     1
 90
        6
176
     1
 90
        2
176
     1
 62
     7
176
     1
 90
        3
176
     1
 90
        0
176
     1
 90
        0
176
     1
290
     0
176
     1
 90
        1
176
     1
 40
0.0
176
     1
 90
        0
176
     1
290
     0
176
     1
290
     1
176
     1
290
     1
176
     1
290
     0
176
     1
290
     0
176
     1
290
     0
176
     1
290
     0
176
     1
290
     0
176
     1
290
     0
176
     1
 90
       50
176
     1
 40
0.0
176
     1
 40
1.0
176
     1
 90
        0
176
     1
 62
    18
420
        0
176
     1
 90
       50
176
     1
 90
        3
176
     1
 62
     5
420
      255
176
     1
290
     0
176
     1
 90
       50
176
     1
 90
       50
176
     1
 90
       50
176
     1
290
     0
176
     1
 90
       50
176
     1
 62
   256
176
     0
 40
1.0
176
     0
 90
        2
176
     1
  1
strokes_ogs.tif
176
     1
290
     0
176
     1
 40
1.0
176
     1
 40
1.0
176
     1
1001
ACAD
1000
AcDbSavedByObjectVersion
1070
     0
  0
VISUALSTYLE
  5
5C1
102
{ACAD_REACTORS
330
40C
102
}
330
40C
100
AcDbVisualStyle
  2
X-Ray
 70
    25
177
     3
291
     0
 70
    58
 90
        2
176
     1
 90
        2
176
     1
 90
        1
176
     1
 90
        1
176
     1
 40
0.5
176
     1
 40
30.0
176
     1
 62
     7
420
 16777215
176
     1
 90
        1
176
     1
 90
        0
176
     1
 62
     7
176
     1
 62
   257
176
     1
 90
        1
176
     1
 90
        1
176
     1
 40
1.0
176
     1
 90
        8
176
     1
 62
     7
176
     1
 40
1.0
176
     1
 90
        1
176
     1
 90
        6
176
     1
 90
        2
176
     1
 62
     7
176
     1
 90
        3
176
     1
 90
        0
176
     1
 90
        0
176
     1
290
     0
176
     1
 90
       13
176
     1
 40
0.0
176
     1
 90
        0
176
     1
290
     0
176
     1
290
     1
176
     1
290
     1
176
     1
290
     0
176
     1
290
     0
176
     1
290
     0
176
     1
290
     0
176
     1
290
     0
176
     1
290
     0
176
     1
 90
       50
176
     1
 40
0.0
176
     1
 40
1.0
176
     1
 90
        0
176
     1
 62
    18
420
        0
176
     1
 90
       50
176
     1
 90
        3
176
     1
 62
     5
420
      255
176
     1
290
     0
176
     1
 90
       50
176
     1
 90
       50
176
     1
 90
       50
176
     1
290
     0
176
     1
 90
       50
176
     1
 62
   256
176
     0
 40
1.0
176
     0
 90
        2
176
     1
  1
strokes_ogs.tif
176
     1
290
     0
176
     1
 40
1.0
176
     1
 40
1.0
176
     1
1001
ACAD
1000
AcDbSavedByObjectVersion
1070
     0
  0
DICTIONARYVAR
  5
42A
102
{ACAD_REACTORS
330
429
102
}
330
429
100
DictionaryVariables
280
     0
  1
1:1
  0
DICTIONARYVAR
  5
42B
102
{ACAD_REACTORS
330
429
102
}
330
429
100
DictionaryVariables
280
     0
  1
STANDARD
  0
DICTIONARYVAR
  5
42C
102
{ACAD_REACTORS
330
429
102
}
330
429
100
DictionaryVariables
280
     0
  1
STANDARD
  0
DICTIONARYVAR
  5
42D
102
{ACAD_REACTORS
330
429
102
}
330
429
100
DictionaryVariables
280
     0
  1
Imperial24
  0
DICTIONARYVAR
  5
42E
102
{ACAD_REACTORS
330
429
102
}
330
429
100
DictionaryVariables
280
     0
  1
Imperial24
  0
DICTIONARYVAR
  5
42F
102
{ACAD_REACTORS
330
429
102
}
330
429
100
DictionaryVariables
280
     0
  1
1
  0
DICTIONARYVAR
  5
430
102
{ACAD_REACTORS
330
429
102
}
330
429
100
DictionaryVariables
280
     0
  1
15
  0
DICTIONARYVAR
  5
431
102
{ACAD_REACTORS
330
429
102
}
330
429
100
DictionaryVariables
280
     0
  1
0
  0
DICTIONARYVAR
  5
432
102
{ACAD_REACTORS
330
429
102
}
330
429
100
DictionaryVariables
280
     0
  1
0
  0
DICTIONARY
  5
A6C
102
{ACAD_REACTORS
330
A6A
102
}
330
A6A
100
AcDbDictionary
281
     1
  0
DICTIONARY
  5
A6B
102
{ACAD_REACTORS
330
A6A
102
}
330
A6A
100
AcDbDictionary
281
     1
  3
2836156234192
350
A65
  3
2836156234208
350
A66
  3
2836156234224
350
A67
  3
2836156234240
350
A68
  3
2836156234256
350
A69
  0
XRECORD
  5
5C
102
{ACAD_REACTORS
330
5A1
102
}
330
5A1
100
AcDbXrecord
280
     1
310
0000AC02000400000013000000000000000000000000000000000000000000000000000000000000000000000000000000000000000000000000000000000000000000000000000000000000000000000000000000000000000000000000000000000000000000000000000000000000000000000000000000000000000000
310
00000000000000000000000000000000000000000000000000000000000000000000000000000000000000000000000000000000000000000000000000000000000000000000000000000000000000000000000000000000000000000000000000000000000000000000000000000000000000000000000000000000000000
310
00000000000000000000000000000000000000000000000000000000000000000000000000000000000000000000000000000000000000000000000000000000000000000000000000000000000000000000000000000000000000000000000000000000000000000000000000000000000000000000000000000000000000
310
00000000000000000000000000000000000000000000000000000000000000000000000000000000000000000000000000000000000000000000000000000000000000000000000000000000000000000000000000000000000000000000000000000000000000000000000000000000000000000000000000000000000000
310
00000000000000000000000000000000000000000000000000000000000000000000000000000000000000000000000000000000000000000000000000000000000000000000000000000000000000000000000000000000000000000000000000000000000000000000000000000000000000000000000000000000000000
310
00000000000000000000000000000000000000000000000000000000000000000000000000000000000000000000000000000000000000000000000000000000000000000000000000000000000000000000000000000000000000000000000000000000000000000000000000000000000000000000000000000000000000
310
00000000000000000000000000000000000000000000000000000000000000000000000000000000000000000000000000000000000000000000000000000000000000000000000000000000000000000000000000000000000000000000000000000000000000000000000000000000000000000000000000000000000000
310
00000000000000000000000000000000000000000000000000000000000000000000000000000000000000000000000000000000000000000000000000000000000000000000000000000000000000000000000000000000000000000000000000000000000000000000000000000000000000000000000000000000000000
310
00000000000000000000000000000000000000000000000000000000000000000000000000000000000000000000000000000000000000000000000000000000000000000000000000000000000000000000000000000000000000000000000000000000000000000000000000000000000000000000000000000000000000
310
00000000000000000000000000000000000000000000000000000000000000000000000000000000000000000000000000000000000000000000000000000000000000000000000000000000000000000000000000000000000000000000000000000000000000000000000000000000000000000000000000000000000000
310
000000000000000000000000000000000000000000000000000000000000000000000000000000000000000000000000000000000000000000000000000000000000000000000000000000000000000000000000000000000000000000000000000000000000
  0
DICTIONARY
  5
A6F
330
5CA
100
AcDbDictionary
280
     1
281
     1
  3
ACAD_XREC_ROUNDTRIP
360
A70
  0
DICTIONARY
  5
3F9
330
3F8
100
AcDbDictionary
280
     1
281
     1
  0
DICTIONARY
  5
3F4
330
3F2
100
AcDbDictionary
280
     1
281
     1
  0
DICTIONARY
  5
41E
330
41D
100
AcDbDictionary
280
     1
281
     1
  3
BUMPTILE
360
41F
  3
DIFFUSETILE
360
420
  3
OPACITYTILE
360
421
  3
REFLECTIONTILE
360
422
  3
REFRACTIONTILE
360
423
  3
SPECULARTILE
360
424
  0
DICTIONARY
  5
416
330
415
100
AcDbDictionary
280
     1
281
     1
  3
BUMPTILE
360
417
  3
DIFFUSETILE
360
418
  3
OPACITYTILE
360
419
  3
REFLECTIONTILE
360
41A
  3
REFRACTIONTILE
360
41B
  3
SPECULARTILE
360
41C
  0
DICTIONARY
  5
3D3
330
3D1
100
AcDbDictionary
280
     1
281
     1
  3
BUMPTILE
360
3D4
  3
DIFFUSETILE
360
3D5
  3
OPACITYTILE
360
3D6
  3
REFLECTIONTILE
360
3D7
  3
REFRACTIONTILE
360
3D8
  3
SPECULARTILE
360
3D9
  0
DICTIONARY
  5
A6D
330
5C8
100
AcDbDictionary
280
     1
281
     1
  3
ACAD_XREC_ROUNDTRIP
360
A6E
  0
DICTIONARY
  5
43D
330
43C
100
AcDbDictionary
280
     1
281
     1
  3
ACAD_ROUNDTRIP_2008_TABLESTYLE_CELLSTYLEMAP
360
A63
  0
XRECORD
  5
A65
102
{ACAD_REACTORS
330
A6B
102
}
330
A6B
100
AcDbXrecord
280
     1
  1
AcDb_Thumbnail_Schema
102
{ATTRRECORD
341
A66
  2
AcDbDs::TreatedAsObjectData
280
     1
291
     1
102
ATTRRECORD}
102
{ATTRRECORD
341
A67
  2
AcDbDs::Legacy
280
     1
291
     1
102
ATTRRECORD}
  2
AcDbDs::ID
280
    10
 91
        8
102
{ATTRRECORD
341
A68
  2
AcDs:Indexable
280
     1
291
     1
102
ATTRRECORD}
102
{ATTRRECORD
341
A69
  2
AcDbDs::HandleAttribute
280
     7
282
     1
102
ATTRRECORD}
  2
Thumbnail_Data
280
    15
 91
        0
  0
XRECORD
  5
A66
102
{ACAD_REACTORS
330
A6B
102
}
330
A6B
100
AcDbXrecord
280
     1
  1
AcDbDs::TreatedAsObjectDataSchema
  2
AcDbDs::TreatedAsObjectData
280
     1
 91
        0
  0
XRECORD
  5
A67
102
{ACAD_REACTORS
330
A6B
102
}
330
A6B
100
AcDbXrecord
280
     1
  1
AcDbDs::LegacySchema
  2
AcDbDs::Legacy
280
     1
 91
        0
  0
XRECORD
  5
A68
102
{ACAD_REACTORS
330
A6B
102
}
330
A6B
100
AcDbXrecord
280
     1
  1
AcDbDs::IndexedPropertySchema
  2
AcDs:Indexable
280
     1
 91
        0
  0
XRECORD
  5
A69
102
{ACAD_REACTORS
330
A6B
102
}
330
A6B
100
AcDbXrecord
280
     1
  1
AcDbDs::HandleAttributeSchema
  2
AcDbDs::HandleAttribute
280
     7
 91
        1
284
     1
  0
XRECORD
  5
A70
102
{ACAD_REACTORS
330
A6F
102
}
330
A6F
100
AcDbXrecord
280
     1
102
DISPLAYNAME
  1
Imperial24
102
FLAGS
 90
        0
  0
XRECORD
  5
41F
102
{ACAD_REACTORS
330
41E
102
}
330
41E
100
AcDbXrecord
280
     1
270
     1
271
     1
  0
XRECORD
  5
420
102
{ACAD_REACTORS
330
41E
102
}
330
41E
100
AcDbXrecord
280
     1
270
     1
271
     1
  0
XRECORD
  5
421
102
{ACAD_REACTORS
330
41E
102
}
330
41E
100
AcDbXrecord
280
     1
270
     1
271
     1
  0
XRECORD
  5
422
102
{ACAD_REACTORS
330
41E
102
}
330
41E
100
AcDbXrecord
280
     1
270
     1
271
     1
  0
XRECORD
  5
423
102
{ACAD_REACTORS
330
41E
102
}
330
41E
100
AcDbXrecord
280
     1
270
     1
271
     1
  0
XRECORD
  5
424
102
{ACAD_REACTORS
330
41E
102
}
330
41E
100
AcDbXrecord
280
     1
270
     1
271
     1
  0
XRECORD
  5
417
102
{ACAD_REACTORS
330
416
102
}
330
416
100
AcDbXrecord
280
     1
270
     1
271
     1
  0
XRECORD
  5
418
102
{ACAD_REACTORS
330
416
102
}
330
416
100
AcDbXrecord
280
     1
270
     1
271
     1
  0
XRECORD
  5
419
102
{ACAD_REACTORS
330
416
102
}
330
416
100
AcDbXrecord
280
     1
270
     1
271
     1
  0
XRECORD
  5
41A
102
{ACAD_REACTORS
330
416
102
}
330
416
100
AcDbXrecord
280
     1
270
     1
271
     1
  0
XRECORD
  5
41B
102
{ACAD_REACTORS
330
416
102
}
330
416
100
AcDbXrecord
280
     1
270
     1
271
     1
  0
XRECORD
  5
41C
102
{ACAD_REACTORS
330
416
102
}
330
416
100
AcDbXrecord
280
     1
270
     1
271
     1
  0
XRECORD
  5
3D4
102
{ACAD_REACTORS
330
3D3
102
}
330
3D3
100
AcDbXrecord
280
     1
270
     1
271
     1
  0
XRECORD
  5
3D5
102
{ACAD_REACTORS
330
3D3
102
}
330
3D3
100
AcDbXrecord
280
     1
270
     1
271
     1
  0
XRECORD
  5
3D6
102
{ACAD_REACTORS
330
3D3
102
}
330
3D3
100
AcDbXrecord
280
     1
270
     1
271
     1
  0
XRECORD
  5
3D7
102
{ACAD_REACTORS
330
3D3
102
}
330
3D3
100
AcDbXrecord
280
     1
270
     1
271
     1
  0
XRECORD
  5
3D8
102
{ACAD_REACTORS
330
3D3
102
}
330
3D3
100
AcDbXrecord
280
     1
270
     1
271
     1
  0
XRECORD
  5
3D9
102
{ACAD_REACTORS
330
3D3
102
}
330
3D3
100
AcDbXrecord
280
     1
270
     1
271
     1
  0
XRECORD
  5
A6E
102
{ACAD_REACTORS
330
A6D
102
}
330
A6D
100
AcDbXrecord
280
     1
102
DISPLAYNAME
  1
Imperial24
102
FLAGS
 90
        0
  0
CELLSTYLEMAP
  5
A63
102
{ACAD_REACTORS
330
43D
102
}
330
43D
100
AcDbCellStyleMap
 90
        3
300
CELLSTYLE
  1
TABLEFORMAT_BEGIN
 90
        5
170
     1
 91
        0
 92
    32768
 62
   257
 93
        1
300
CONTENTFORMAT
  1
CONTENTFORMAT_BEGIN
 90
        0
 91
        0
 92
        4
 93
        0
300

 40
0.0
140
1.0
 94
        5
 62
     0
340
401
144
0.25
309
CONTENTFORMAT_END
171
     0
 94
        6
 95
        1
302
GRIDFORMAT
  1
GRIDFORMAT_BEGIN
 90
        0
 91
        1
 62
     0
 92
       -2
340
0
 93
        0
 40
0.045
309
GRIDFORMAT_END
 95
        2
302
GRIDFORMAT
  1
GRIDFORMAT_BEGIN
 90
        0
 91
        1
 62
     0
 92
       -2
340
0
 93
        0
 40
0.045
309
GRIDFORMAT_END
 95
        4
302
GRIDFORMAT
  1
GRIDFORMAT_BEGIN
 90
        0
 91
        1
 62
     0
 92
       -2
340
0
 93
        0
 40
0.045
309
GRIDFORMAT_END
 95
        8
302
GRIDFORMAT
  1
GRIDFORMAT_BEGIN
 90
        0
 91
        1
 62
     0
 92
       -2
340
0
 93
        0
 40
0.045
309
GRIDFORMAT_END
 95
       16
302
GRIDFORMAT
  1
GRIDFORMAT_BEGIN
 90
        0
 91
        1
 62
     0
 92
       -2
340
0
 93
        0
 40
0.045
309
GRIDFORMAT_END
 95
       32
302
GRIDFORMAT
  1
GRIDFORMAT_BEGIN
 90
        0
 91
        1
 62
     0
 92
       -2
340
0
 93
        0
 40
0.045
309
GRIDFORMAT_END
309
TABLEFORMAT_END
  1
CELLSTYLE_BEGIN
 90
        1
 91
        1
300
_TITLE
309
CELLSTYLE_END
300
CELLSTYLE
  1
TABLEFORMAT_BEGIN
 90
        5
170
     1
 91
        0
 92
        0
 62
   257
 93
        1
300
CONTENTFORMAT
  1
CONTENTFORMAT_BEGIN
 90
        0
 91
        0
 92
        4
 93
        0
300

 40
0.0
140
1.0
 94
        5
 62
     0
340
401
144
0.18
309
CONTENTFORMAT_END
171
     0
 94
        6
 95
        1
302
GRIDFORMAT
  1
GRIDFORMAT_BEGIN
 90
        0
 91
        1
 62
     0
 92
       -2
340
0
 93
        0
 40
0.045
309
GRIDFORMAT_END
 95
        2
302
GRIDFORMAT
  1
GRIDFORMAT_BEGIN
 90
        0
 91
        1
 62
     0
 92
       -2
340
0
 93
        0
 40
0.045
309
GRIDFORMAT_END
 95
        4
302
GRIDFORMAT
  1
GRIDFORMAT_BEGIN
 90
        0
 91
        1
 62
     0
 92
       -2
340
0
 93
        0
 40
0.045
309
GRIDFORMAT_END
 95
        8
302
GRIDFORMAT
  1
GRIDFORMAT_BEGIN
 90
        0
 91
        1
 62
     0
 92
       -2
340
0
 93
        0
 40
0.045
309
GRIDFORMAT_END
 95
       16
302
GRIDFORMAT
  1
GRIDFORMAT_BEGIN
 90
        0
 91
        1
 62
     0
 92
       -2
340
0
 93
        0
 40
0.045
309
GRIDFORMAT_END
 95
       32
302
GRIDFORMAT
  1
GRIDFORMAT_BEGIN
 90
        0
 91
        1
 62
     0
 92
       -2
340
0
 93
        0
 40
0.045
309
GRIDFORMAT_END
309
TABLEFORMAT_END
  1
CELLSTYLE_BEGIN
 90
        2
 91
        1
300
_HEADER
309
CELLSTYLE_END
300
CELLSTYLE
  1
TABLEFORMAT_BEGIN
 90
        5
170
     1
 91
        0
 92
        0
 62
   257
 93
        1
300
CONTENTFORMAT
  1
CONTENTFORMAT_BEGIN
 90
        0
 91
        0
 92
        4
 93
        0
300

 40
0.0
140
1.0
 94
        2
 62
     0
340
401
144
0.18
309
CONTENTFORMAT_END
171
     0
 94
        6
 95
        1
302
GRIDFORMAT
  1
GRIDFORMAT_BEGIN
 90
        0
 91
        1
 62
     0
 92
       -2
340
0
 93
        0
 40
0.045
309
GRIDFORMAT_END
 95
        2
302
GRIDFORMAT
  1
GRIDFORMAT_BEGIN
 90
        0
 91
        1
 62
     0
 92
       -2
340
0
 93
        0
 40
0.045
309
GRIDFORMAT_END
 95
        4
302
GRIDFORMAT
  1
GRIDFORMAT_BEGIN
 90
        0
 91
        1
 62
     0
 92
       -2
340
0
 93
        0
 40
0.045
309
GRIDFORMAT_END
 95
        8
302
GRIDFORMAT
  1
GRIDFORMAT_BEGIN
 90
        0
 91
        1
 62
     0
 92
       -2
340
0
 93
        0
 40
0.045
309
GRIDFORMAT_END
 95
       16
302
GRIDFORMAT
  1
GRIDFORMAT_BEGIN
 90
        0
 91
        1
 62
     0
 92
       -2
340
0
 93
        0
 40
0.045
309
GRIDFORMAT_END
 95
       32
302
GRIDFORMAT
  1
GRIDFORMAT_BEGIN
 90
        0
 91
        1
 62
     0
 92
       -2
340
0
 93
        0
 40
0.045
309
GRIDFORMAT_END
309
TABLEFORMAT_END
  1
CELLSTYLE_BEGIN
 90
        3
 91
        2
300
_DATA
309
CELLSTYLE_END
  0
ENDSEC
  0
SECTION
  2
ACDSDATA
 70
     2
 71
     8
  0
ACDSSCHEMA
 90
        0
  1
AcDb_Thumbnail_Schema
  2
AcDbDs::ID
280
    10
 91
        8
  2
Thumbnail_Data
280
    15
 91
        0
101
ACDSRECORD
 95
        0
 90
        1
  2
AcDbDs::TreatedAsObjectData
280
     1
291
     1
101
ACDSRECORD
 95
        0
 90
        2
  2
AcDbDs::Legacy
280
     1
291
     1
101
ACDSRECORD
  1
AcDbDs::ID
 90
        3
  2
AcDs:Indexable
280
     1
291
     1
101
ACDSRECORD
  1
AcDbDs::ID
 90
        4
  2
AcDbDs::HandleAttribute
280
     7
282
     1
  0
ACDSSCHEMA
 90
        1
  1
AcDbDs::TreatedAsObjectDataSchema
  2
AcDbDs::TreatedAsObjectData
280
     1
 91
        0
  0
ACDSSCHEMA
 90
        2
  1
AcDbDs::LegacySchema
  2
AcDbDs::Legacy
280
     1
 91
        0
  0
ACDSSCHEMA
 90
        3
  1
AcDbDs::IndexedPropertySchema
  2
AcDs:Indexable
280
     1
 91
        0
  0
ACDSSCHEMA
 90
        4
  1
AcDbDs::HandleAttributeSchema
  2
AcDbDs::HandleAttribute
280
     7
 91
        1
284
     1
  0
ACDSRECORD
 90
        0
  2
AcDbDs::ID
280
    10
320
3F8
  2
Thumbnail_Data
280
    15
 94
     1183
310
89504E470D0A1A0A0000000D4948445200000100000000C508030000008CFEDCE700000300504C5445FFFFFF000000FFFFFF0000000000000000000000000000000000000000000000000000330000660000990000CC0000FF0033000033330033660033990033CC0033FF0066000066330066660066990066CC0066FF0099
310
000099330099660099990099CC0099FF00CC0000CC3300CC6600CC9900CCCC00CCFF00FF0000FF3300FF6600FF9900FFCC00FFFF3300003300333300663300993300CC3300FF3333003333333333663333993333CC3333FF3366003366333366663366993366CC3366FF3399003399333399663399993399CC3399FF33CC00
310
33CC3333CC6633CC9933CCCC33CCFF33FF0033FF3333FF6633FF9933FFCC33FFFF6600006600336600666600996600CC6600FF6633006633336633666633996633CC6633FF6666006666336666666666996666CC6666FF6699006699336699666699996699CC6699FF66CC0066CC3366CC6666CC9966CCCC66CCFF66FF0066
310
FF3366FF6666FF9966FFCC66FFFF9900009900339900669900999900CC9900FF9933009933339933669933999933CC9933FF9966009966339966669966999966CC9966FF9999009999339999669999999999CC9999FF99CC0099CC3399CC6699CC9999CCCC99CCFF99FF0099FF3399FF6699FF9999FFCC99FFFFCC0000CC00
310
33CC0066CC0099CC00CCCC00FFCC3300CC3333CC3366CC3399CC33CCCC33FFCC6600CC6633CC6666CC6699CC66CCCC66FFCC9900CC9933CC9966CC9999CC99CCCC99FFCCCC00CCCC33CCCC66CCCC99CCCCCCCCCCFFCCFF00CCFF33CCFF66CCFF99CCFFCCCCFFFFFF0000FF0033FF0066FF0099FF00CCFF00FFFF3300FF3333
310
FF3366FF3399FF33CCFF33FFFF6600FF6633FF6666FF6699FF66CCFF66FFFF9900FF9933FF9966FF9999FF99CCFF99FFFFCC00FFCC33FFCC66FFCC99FFCCCCFFCCFFFFFF00FFFF33FFFF66FFFF99FFFFCCFFFFFF0000000D0D0D1A1A1A2828283535354343435050505D5D5D6B6B6B787878868686939393A1A1A1AEAEAEBB
310
BBBBC9C9C9D6D6D6E4E4E4F1F1F1FFFFFF000000000000000000000000000000000000000000000000000000000000790CAC0F0000015A4944415478DAEDD8410A8340100440FFFFCCF9C09EE61E104224896014844D579F64F420A587DE592A3A632CD5C101100F500500C0F36ACDF6D636BFCEEBAEF9E9177D0788FBF600
310
000000000000004D1000000000000000100F50FB4F4C9E8B5578FAFF0300000000000000000000000000000000B00BD069000D0000000000000000A009020000000000000000000000000000000052013A0DA001000000000000000000A8C2000000000000000000000000000000402A40FC420400000000000000002016C0
310
5900000000000000000000000000000000C803885F88000000000000000000C402380B0000000000000000000000000000000000E2003A0DA0010000000000000000344100000000000000000000000000000000C0E7C660F21C04080D0000000000000000C01F54DE73151900000000000000D0AFCDCFB6227CDDAB1C9CD7
310
5DF3D32FAA0902000000C00A109E658C110DF0000E6CC6FBCCF8EC2E0000000049454E44AE426082
  0
ACDSRECORD
 90
        0
  2
AcDbDs::ID
280
    10
320
3F2
  2
Thumbnail_Data
280
    15
 94
     1017
310
89504E470D0A1A0A0000000D4948445200000100000000890803000000F46416F000000300504C5445FEFCF0000000FFFFFF0000000000000000000000000000000000000000000000000000330000660000990000CC0000FF0033000033330033660033990033CC0033FF0066000066330066660066990066CC0066FF0099
310
000099330099660099990099CC0099FF00CC0000CC3300CC6600CC9900CCCC00CCFF00FF0000FF3300FF6600FF9900FFCC00FFFF3300003300333300663300993300CC3300FF3333003333333333663333993333CC3333FF3366003366333366663366993366CC3366FF3399003399333399663399993399CC3399FF33CC00
310
33CC3333CC6633CC9933CCCC33CCFF33FF0033FF3333FF6633FF9933FFCC33FFFF6600006600336600666600996600CC6600FF6633006633336633666633996633CC6633FF6666006666336666666666996666CC6666FF6699006699336699666699996699CC6699FF66CC0066CC3366CC6666CC9966CCCC66CCFF66FF0066
310
FF3366FF6666FF9966FFCC66FFFF9900009900339900669900999900CC9900FF9933009933339933669933999933CC9933FF9966009966339966669966999966CC9966FF9999009999339999669999999999CC9999FF99CC0099CC3399CC6699CC9999CCCC99CCFF99FF0099FF3399FF6699FF9999FFCC99FFFFCC0000CC00
310
33CC0066CC0099CC00CCCC00FFCC3300CC3333CC3366CC3399CC33CCCC33FFCC6600CC6633CC6666CC6699CC66CCCC66FFCC9900CC9933CC9966CC9999CC99CCCC99FFCCCC00CCCC33CCCC66CCCC99CCCCCCCCCCFFCCFF00CCFF33CCFF66CCFF99CCFFCCCCFFFFFF0000FF0033FF0066FF0099FF00CCFF00FFFF3300FF3333
310
FF3366FF3399FF33CCFF33FFFF6600FF6633FF6666FF6699FF66CCFF66FFFF9900FF9933FF9966FF9999FF99CCFF99FFFFCC00FFCC33FFCC66FFCC99FFCCCCFFCCFFFFFF00FFFF33FFFF66FFFF99FFFFCCFFFFFF0000000D0D0D1A1A1A2828283535354343435050505D5D5D6B6B6B787878868686939393A1A1A1AEAEAEBB
310
BBBBC9C9C9D6D6D6E4E4E4F1F1F1FFFFFF0000000000000000000000000000000000000000000000000000000000007C77BAA7000000B44944415478DAEDD0310100000C0220FBB7B48931760C22903E1701020408102040800001020408102040800001020408102040800001020408102040800001020408102040800001
310
020408102040800001020408102040800001020408102040800001020408102040800001020408102040800001020408102040800001020408102040800001020408102040800001020408102040800001020408102040800001020408102040800001020408102040C099016B33700943E05F3C0000000049454E44AE4260
310
82
  0
ENDSEC
  0
SECTION
  2
THUMBNAILIMAGE
 90
    14496
310
28000000B80000004900000001000800000000007834000001000000010000000001000000000000FFFFFFFF8888880030303000E8E8E800808080FF68686800A0A0A000F8F8F800F0F0F000E0E0E00050505000D0D0D000484848FF60606000B8B8B8005858580038383800D8D8D800A8A8A800C8C8C800404040FFC0C0C0
310
00B0B0B000FFFFFF00FFFFFF00FFFFFF00FFFFFF00FFFFFF00FFFFFFFFFFFFFF00FFFFFF00FFFFFF00FFFFFF00FFFFFF00FFFFFF00FFFFFF00FFFFFFFFFFFFFF00FFFFFF00FFFFFF00FFFFFF00FFFFFF00FFFFFF00FFFFFF00FFFFFFFFFFFFFF00FFFFFF00FFFFFF00FFFFFF00FFFFFF00FFFFFF00FFFFFF00FFFFFFFFFFFF
310
FF00FFFFFF00FFFFFF00FFFFFF00FFFFFF00FFFFFF00FFFFFF00FFFFFFFFFFFFFF00FFFFFF00FFFFFF00FFFFFF00FFFFFF00FFFFFF00FFFFFF00FFFFFFFFFFFFFF00FFFFFF00FFFFFF00FFFFFF00FFFFFF00FFFFFF00FFFFFF00FFFFFFFFFFFFFF00FFFFFF00FFFFFF00FFFFFF00FFFFFF00FFFFFF00FFFFFF00FFFFFFFFFF
310
FFFF00FFFFFF00FFFFFF00FFFFFF00FFFFFF00FFFFFF00FFFFFF00FFFFFFFFFFFFFF00FFFFFF00FFFFFF00FFFFFF00FFFFFF00FFFFFF00FFFFFF00FFFFFFFFFFFFFF00FFFFFF00FFFFFF00FFFFFF00FFFFFF00FFFFFF00FFFFFF00FFFFFFFFFFFFFF00FFFFFF00FFFFFF00FFFFFF00FFFFFF00FFFFFF00FFFFFF00FFFFFFFF
310
FFFFFF00FFFFFF00FFFFFF00FFFFFF00FFFFFF00FFFFFF00FFFFFF00FFFFFFFFFFFFFF00FFFFFF00FFFFFF00FFFFFF00FFFFFF00FFFFFF00FFFFFF00FFFFFFFFFFFFFF00FFFFFF00FFFFFF00FFFFFF00FFFFFF00FFFFFF00FFFFFF00FFFFFFFFFFFFFF00FFFFFF00FFFFFF00FFFFFF00FFFFFF00FFFFFF00FFFFFF00FFFFFF
310
FFFFFFFF00FFFFFF00FFFFFF00FFFFFF00FFFFFF00FFFFFF00FFFFFF00FFFFFFFFFFFFFF00FFFFFF00FFFFFF00FFFFFF00FFFFFF00FFFFFF00FFFFFF00FFFFFFFFFFFFFF00FFFFFF00FFFFFF00FFFFFF00FFFFFF00FFFFFF00FFFFFF00FFFFFFFFFFFFFF00FFFFFF00FFFFFF00FFFFFF00FFFFFF00FFFFFF00FFFFFF00FFFF
310
FFFFFFFFFF00FFFFFF00FFFFFF00FFFFFF00FFFFFF00FFFFFF00FFFFFF00FFFFFFFFFFFFFF00FFFFFF00FFFFFF00FFFFFF00FFFFFF00FFFFFF00FFFFFF00FFFFFFFFFFFFFF00FFFFFF00FFFFFF00FFFFFF00FFFFFF00FFFFFF00FFFFFF00FFFFFFFFFFFFFF00FFFFFF00FFFFFF00FFFFFF00FFFFFF00FFFFFF00FFFFFF00FF
310
FFFF00FFFFFF00FFFFFF00FFFFFF00FFFFFF00FFFFFF00FFFFFF00FFFFFF00FFFFFF00FFFFFF00FFFFFF00FFFFFF00FFFFFF00FFFFFF00FFFFFF00FFFFFF00FFFFFF00FFFFFF00FFFFFF00FFFFFF00FFFFFF00FFFFFF00FFFFFF00FFFFFF00FFFFFF00FFFFFF00FFFFFF00FFFFFF00FFFFFF00FFFFFF00FFFFFF00FFFFFF00
310
FFFFFF00FFFFFF00FFFFFF00FFFFFF00FFFFFF00FFFFFF00FFFFFF00FFFFFF00FFFFFF54FFFFFF54FFFFFF58FFFFFF6000000000000000000000000000000000000000000000000000000000000000000000000000000000000000000000000000000000000000000000000000000000000000000000000000000000000000
310
00000000000000000000000000000000000000000000000000000000000000000000000000000000000000000000000000000000000000000000000000000000000000000000000000000000000000000000000000000000000000000000000000000000000000000000000000000000000000000000000000000000000000
310
00000000000000000000000000000000000000000000000000000000000000000000000000000000000000000000000000000000000000000000000000000000000000000000000000000000000000000000000000000000000000000000000000000000000000000000000000000000000000000000000000000000000000
310
000000000000000000000000000000000000000000000000000000000000000000000000000000000000000000000000000000000000000000000000000000000000000000000000000000000000000000000000000000000000000000000A140C140000000000000000000000000000000000000000000000000000000000
310
00000000000000000000000000000000000000000000000000000000000000000000000000000000000000000000000000000000000000000000000000000000000000000000000000000000000000000000000000000000000000000000000000000000000000000000000000000000000000000000000000000000000000
310
00000000000000000000000000000000000000000F10050C0C001000000500050500000000000000000000000000000000000000000000000000000000000000000000000000000000000000000000000000000000000000000000000000000000000000000000000000000000000000000000000000000000000000000000
310
00000000000000000000000000000000000000000000000000000000000000000000000000000000000000000000000000000000000000000000000000000000000000000000000000000000000000000000000000000000000000000000000000000000000000000000000000000000000000000000000000000000000000
310
00000000000000000000000000000000000000000000000000000000000000000000000000000000000000000000000000000000000000000000000000000000000000000000000000000000000000000000000000000000000000000000000000000000000000000000000000000000000000000000000000000000000000
310
00000000000000000000000000000000000000000000000000000000000000000000000000000000000000000000000000000000000000000000000000000000000000000000000000000000000000000000000000000000000000000000000000000000000000000000000000000000000000000000000000000000000000
310
00000000000000000000000000000000000000000000000000000000000000000000000000000000000000000000000000000000000000000000000000000000000000000000000000000000000000000000000000000000000000000000000000000000000000000000000000000000000000000000000000000000000000
310
00000000000000000000000000000000000000000000000000000000000000000000000000000000000000000000000000000000000000000000000000000000000000000000000000000000000000000000000000000000000000000000000000000000000000000000000000000000000000000000000000000000000000
310
00000000000000000000000000000000000000000000000000000000000000000000000000000000000000000000000000000000000000000000000000000000000000000000000000000000000000000000000000000000000000000000000000000000000000000000000000000000000000000000000000000000000000
310
00000000000000000000000000000000000000000000000000000000000000000000000000000000000000000000000000000000000000000000000000000000000000000000000000000000000000000000000000000000000000000000000000000000000000000000000000000000000000000000000000000014100000
310
000000000000000000000000000000000000000000000000000000000000000000000000000000000000000000000000000000000000000000000000000000000000000000000000000000000000000000000000000000000000000000000000000000000000000000000000000F0000010707070707000000000000000000
310
00000000000000000000000000000000000000000000000000000000000000000000000000000000000000000000000A00050C14001000000D00050A00000000000000000000000000000000000000000000000000000000000000000000000000000000000000000000000000000000000000000000000000000000000000
310
00000000000000000000000000000000000000000000000000000000000000000000000000000007070707010000000707070710000000000000000000000000000000000000000000000000000000000000000000000000000000000000000000000000000000000000000000000000000000000000000000000000000000
310
0000000000000000000000000000000000000000000000000000000000000000000000000000000000000000000000000000000000000000000000000000000000000000000000000000000000000000000000000000000000000000000007070F000000000000000000000007070700000000000000000000000000000000
310
00000000000000000000000000000000000000000000000000000000000000000000000000000000000000000000000000000000000000000000000000000000000000000000000000000000000000000000000000000000000000000000000000000000000000000000000000000000000000000000000000000000000000
310
00000000000000000000000000000000000000000000000707000000000000000000000000001000000701000000000000000000000000000000000000000000000000000000000000000000000000000000000000000000000000000000000000000000000000000000000000000000000000000000000000000000000000
310
00000000000000000000000000000000000000000000000000000000000000000000000000000000000000000000000000000000000000000000000000000000000000000000000000000000000007070000000000000000000000000000000000000107010000000000000000000000000000000000000000000000000000
310
00000000000000000000000000000000000000000000000000000000000000000000000000000000000000000000000000000000000000000000000000000000000000000000000000000000000000000000000000000000000000000000000000000000000000000000000000000000000000000000000000000000000000
310
00000000000000070700000000000000000000000000000000000000000107070100000000000000000000000000000000000000000000000000000000000000000000000000000000000000000000000000000000000000000000000000000000000000000000000000000000000000000000000000000000000000000000
310
00000000000000000000000000000000000000000000000000000000000000000000000000000000000000000000000000000000000000000000000000000007000000000000000000000000000000000000000000000000010701000000000000000000000000000000000000000000000000000000000000000000000000
310
00000000000000000000000000000000000000000000000000000000000000000000000000000000000000000000000000000000000000000000000000000000000000000000000000000000000000000000000000000000000000000000000000000000000000000000000000000000000000000000000707000000000000
310
00000000000000000000000000000000000000010700000000000000000000000000000000000000000000000000000000000000000000000000000000000000000000000014000000000000000000000000000000000000000000000000000000000000000000000000000000000000000000000000000000000000000000
310
00000000000000000000000000000000000000000000000000000000000000000000000000000000000000000000000000070000000000000000000000000000000000000000000000000000000701000000000000000000000000000000000000000000000000000000000000000000000000000000000000000000000007
310
07070707070100000000000000000000000000000000000000000000000000000000000000000000000000000000000000000000000000000000000000000000000000000000000000000000000000000000000000000000000000000000000000000000000000000007000000000000000000000000000000000000000000
310
00000000000000010700000000000000000000000000000000000000000000000000000000000000000000000000000000000014010707071400000000010707070701000000000000000000000000000000000000000000000000000000000000000000000000000000000000000000000000000000000000000000000000
310
00000000000000000000000000000000000000000000000000000000000000000000000700000000000000000000000000000000000000000000000000000000000700000000000000000000000000000000000000000000000000000000000000000000000000000000000007070100000000000000000000000107000000
310
00000000000000000000000000000000000000000000000000000000000000000000000000000000000000000000000000000000000000000000000000000000000000000000000000000000000000000000000000000000000000070000000000000000000000000000000000000000000000000000000000000F070F0000
310
00000000000000000000000000000000000000000000000000000000000000000000000001071400000000000000000000000000000007070000000000000000000000000000000000000000000000000000000000000000000000000000000000000000000000000000000000000000000000000000000000000000000000
310
00000000000000000000000000000000000000000007000000000000000000000000000000000000000000000000000000000000000000000000000000000000000000000000000000000000000000000000000000000000000000000107010000000000000000000000000000000000000707000000000000000000000000
310
00000000000000000000000000000000000000000000000000000000000000000000000000000000000000000000000000000000000000000000000000000000000000000000000000000000000107000000000000000000000000000000000000000000000000000000000000000701000000000000000000000000000000
310
00000000000000000000000000000000000000000001070100000000000000000000000000000000000000000701000000000000000000000000000000000000000000000000000000000000000000000000000000000000000000000000000000000000000000000000000000000000000000000000000000000000000000
310
00000000000000070100000000000000000000000000000000000000000000000000000000000000010700000000000000000000000000000000000000000000000000000000000000000000000007010000000000000000000000000000000000000000000107010000000000000000000000000000000000000000000000
310
00000000000000000000000000000000000000000000000000000000000000000000000000000000000000000000000000000000000000000000000000000000070000000000000000000000000000000000000000000000000000000000000000000700000000000000000000000000000000000000000000000000000000
310
00000000000000010700000000000000000000000000000000000000000000000107000000000000000000000000000000000000000000000000000000000000000000000000000000000000000000000000000000000000000000000000000000000000000000000000000000000000000000000000000007000000000000
310
00000000000000000000070704000000000000000000000000000000070000000000000000000000000000000000000000000000000000000000000000000000070100000000000000000000000000000000000000000000000014071400000000000000000000000000000000000000000000000000000000000000000000
310
00000000000000000000000000000000000000000000000000000000000000000000000000000000000000000000000000000700000000000000000000000000000000030800000000000000000000000000000000070000000000000000000000000000000000000000000000000000000000000000000007000000000000
310
00000000000000000000000000000000000000000007010000000000000000000000000000000000000000000000000000000000000000000000000000000000000000000000000000000000000000000000000000000000000000000000000000000000000000000000000000000000000000000000000000001200071200
310
00000000000000000000000000000007000000000000000000000000000000000000000000000000000000000000000000070700000000000000000000000000000000000000000000000000000001070000000000000000000000000000000000000000000000000000000000000000000000000000000000000000000000
310
00000000000000000000000000000000000000000000000000000000000000000000000107000000000000000000000000000012070707000000000000000000000000000000000007000000000000000000000000000000000000000000000000000000000000000000070000000000000000000000000000000000000000
310
0000000000000000000700000000000000000000000000000000000000000000000000000000000000000000000000000000000000000000000000000000000000000000000000000000000000000000000000000000000000000000070100000000000000000000000000000013070B000000000000000000000000000000
310
00010700000000000000000000000000000000000000000000000000000000000000000107000000000000000000000000000000000000000000000000000000000007000000000000000000000000000000000000000000000000000000000000000000000000000000000000000000000000000000000000000000000000
310
00000000000000000000000000000000000000000000070000000000000000000000000000000A11070000000000000000000000000000000000070100000000000000000000000000000000000000000000000000000000000000000701000000000000000000000000000000000000000000000000000000000014071400
310
000000000000000000000000000000000000000000000000000000000000000000000000000000000000000000000000000000000000000000000000000000000000000000000000000000000000070700000000000000000000000000001207070B0000000000000000000000000000000000070000000000000000000000
310
00000000000000000000000000000000000000000001070000000000000000000000000000070700000000000000000000000000000007000000000000000000000000000000000000000000000000000000000000000000000000000000000000000000000000000000000000000000000000000000000000000000000000
310
00000000000000000700000000000000000000000000000007070700000000000000000000000000000000001007100000000000000000000000000000000000000000000000000000000000000007010000000000000000000000000000070704000000000000000000000000000007000000000000000000000000000000
310
00000000000000000000000000000000000000000000000000000000000000000000000000000000000000000000000000000000000000000000000000000000070000000000000000000000000000000000070300000000000000000000000000000000000107000000000000000000000000000000000000000000000000
310
00000000000000000700000000000000000000000000000003080000000000000000000000000000000700000000000000000000000000000000000000000000000000000000000000000000000000000000000000000000000000000000000000000000000000000000000000000000000000000000000000070000000000
310
00000000000000000000121307000000000000000000000000000000000001070100000000000000000000000000000000000000000000000000000000000000070000000000000000000000000000120A07120000000000000000000000000000000700000000000000000000000000000000000000000000000000000000
310
00000000000000000000000000000000000000000000000000000000000000000000000000000000000000000000000000000107000000000000000000000000000013070703000000000000000000000000000000000007010000000000000000000000000000000000000000000000000000000000000001070000000000
310
00000000000000001307070700000000000000000000000000000001070000000000000000000000000000000000000000000000000000000000000000000000000000000000000000000000000000000000000000000000000000000000000000000000000000000000010701000000000000000000000000000000090705
310
00000000000000000000000000000000000700000000000000000000000000000000000000000000000000000000000000000701000000000000000000000000000012071500000000000000000000000000000007010000000000000000000000000000000000000000000000000000000000000000000000000000000000
310
00000000000000000000000000000000000000000000000000000000000000000000000007010000000000000000000000000000000008080000000000000000000000000000000000070700000000000000000000000000000000000000000000000000000000000000010700000000000000000000000000000111070000
310
000000000000000000000000000007000000000000000000000000000000000000000000000000000000000000000000000000000000000000000000000000000000000000000000000000000000000000000000000000000000000000070000000000000000000000000000000005070B0000000000000000000000000000
310
0000000700000000000000000000000000000000000000000000000000000000000000000701000000000000000000000000000707070B000000000000000000000000000000000700000000000000000000000000000000000000000000000000000000000000000000000000000000000000000000000000000000000000
310
0000000000000000000000000000000000000000000007070000000000000000000000000000000008070712000000000000000000000000000000070000000000000000000000000000000000000000000000000000000000000000000700000000000000000000000000000A070700000000000000000000000000000000
310
01070000000000000000000000000000000000000000000000000000000000000000000000000000000000000000000000000000000000000000000000000000000000000000000000000000000000070000000000000000000000000000000000071101000000000000000000000000000000000700000000000000000000
310
000000000000000000000000000000000000000000000707000000000000000000000000000A0007030000000000000000000000000000000007010000000000000000000000000000000000000000000000000000000000000000000000000000000000000000000000000000000000000000000000000000000000000000
310
0000000000000000010700000000000000000000000000000000030700000000000000000000000000000000000107000000000000000000000000000000000000000000000000000000000000000007000000000000000000000000000A071107000000000000000000000000000000000107000000000000000000000000
310
000000000000000000000000000000000000000000000000000000000000000000000000000000000000000000000000000000000000000000000000000000000007010000000000000000000000000000000007070A0000000000000000000000000000000007010000000000000000000000000000000000000000000000
310
00000000000000000107000000000000000000000000001207070300000000000000000000000000000000070100000000000000000000000000000000000000000000000000000000000000000000000000000000000000000000000000000000000000000000000000000000000000000000000000000000100710000000
310
0000000000000000000000000B07071200000000000000000000000000000000070000000000000000000000000000000000000000000000000000000000000001070100000000000000000000000000000B070500000000000000000000000000000000070000000000000000000000000000000000000000000000000000
310
00000000000000000000000000000000000000000000000000000000000000000000000000000000000000000000000000000000070000000000000000000000000000000007110100000000000000000000000000000000070000000000000000000000000000000000000000000000000000000000000000070100000000
310
00000000000000000000000808000000000000000000000000000000000700000000000000000000000000000000000000000000000000000000000000000000000000000000000000000000000000000000000000000000000000000000000000000000000000000000000007000000000000000000000000000000001507
310
0A00000000000000000000000000000000000700000000000000000000000000000000000000000000000000000000000000000700000000000000000000000000000005070B000000000000000000000000000000010700000000000000000000000000000000000000000000000000000000000000000000000000000000
310
00000000000000000000000000000000000000000000000000000000000000000000000000000700000000000000000000000000000000070707010000000000000000000000000000000000000000000000000000000000000000000000000000000000000000000000000007000000000000000000000000000000080707
310
1200000000000000000000000000000701000000000000000000000000000000000000000000000000000000000000000000000000000000000000000000000000000000000000000000000000000000000000000000000000000000000000070000000000000000000000000000001207120A000000000000000000000000
310
00000001070000000000000000000000000000000000000000000000000000000000000000070000000000000000000000000000000007110100000000000000000000000000000107000000000000000000000000000000000000000000000000000000000000000000000000000000000000000000000000000000000000
310
00000000000000000000000000000000000000000000000000070000000000000000000000000000000803000000000000000000000000000000000007010000000000000000000000000000000000000000000000000000000000000001070000000000000000000000000000000307000000000000000000000000000000
310
00070100000000000000000000000000000000000000000000000000000000000000000000000000000000000000000000000000000000000000000000000000000000000000000000000000000000000000070000000000000000000000000000040704000000000000000000000000000000000007000000000000000000
310
00000000000000000000000000000000000000000000000701000000000000000000000000000000070701000000000000000000000000000000070000000000000000000000000000000000000000000000000000000000000000000000000000000000000000000000000000000000000000000000000000000000000000
310
0000000000000000000000000700000000000000000000000000000007000000000000000000000000000000000007070000000000000000000000000000000000000000000000000000000000000000070000000000000000000000000000000B070701000000000000000000000000000007070000000000000000000000
310
00000000000000000000000000000000000000000000000000000000000000000000000000000000000000000000000000000000000000000000000000000000000000000007000000000000000000000000000000000000000000000000000000000000000000070000000000000000000000000000000000000000000000
310
000000000000000000010700000000000000000000000000000007110A0000000000000000000000000000000700000000000000000000000000000000000000000000000000000000000000000000000000000000000000000000000000000000000000000000000000000000000000000000000000000000000000000007
310
0000000000000000000000000000000000000000000000000000000000000000070000000000000000000000000000000000000000000000000000000000000000000701000000000000000000000000000015070A000000000000000000000000000000010700000000000000000000000000000000000000000000000000
310
00000000000000000000000000000000000000000000000000000000000000000000000000000000000000000000000000000000000000000700000000000000000000000000000000000000000000000000000000000000000700000000000000000000000000000000000000000000000000000000000000000007000000
310
00000000000000000000000007070701000000000000000000000000000107010000000000000000000000000000000000000000000000000000000000000000000000000000000000000000000000000000000000000000000000000000000000000000000000000000000000000000000007000000000000000000000000
310
00000000000000000000000000000000000001070000000000000000000000000000000000000000000000000000000000000000000700000000000000000000000000001207010A00000000000000000000000000000701000000000000000000000000000000000000000000000000000000000000000000000000000000
310
000000000000000000000000000000000000000000000000000000000000000000000000000000000000000F0716000000000000000000000000000000000000000000000000000000000107010000000000000000000000000000000000000000000000000000000000000000000700000000000000000000000000000803
310
00000000000000000000000000000000070000000000000000000000000000000000000000000000000000000000000000000000000000000000000000000000000000000000000000000000000000000000000000000000000000000000000000000000000107000000000000000000000000000000000000000000000000
310
00000000070100000000000000000000000000000000000000000000000000000000000000000000070000000000000000000000000007070400000000000000000000000000000000070000000000000000000000000000000000000000000000000000000000000000000000000000000000000000000000000000000000
310
00000000000000000000000000000000000000000000000000000000000000000701000000000000000000000000000000000000000000000000000001070000000000000000000000000000000000000000000000000000000000000000000000070000000000000000000000000000000000000000000000000000000000
310
00000700000000000000000000000000000000000000000000000000000000000000000000000000000000000000000000000000000000000000000000000000000000000000000000000000000000000000000000000000000107010000000000000000000000000000000000000000000000000007010000000000000000
310
00000000000000000000000000000000000000000000000000000007000000000000000000000000000000000000000000000000000000000000070700000000000000000000000000000000000000000000000000000000000000000000000000000000000000000000000000000000000000000000000000000000000000
310
00000000000000000000000000000000000000000107000000000000000000000000000000000000000000000000010700000000000000000000000000000000000000000000000000000000000000000000001407120000000000000000000000000000000000000000000000000000000000070000000000000000000000
310
00000000000000000000000000000000000000000000000000000000000000000000000000000000000000000000000000000000000000000000000000000000000000000000000000000000000007070000000000000000000000000000000000000000000001070100000000000000000000000000000000000000000000
310
00000000000000000000000000000107000000000000000000000000000000000000000000000000000000000107000000000000000000000000000000000000000000000000000000000000000000000000000000000000000000000000000000000000000000000000000000000000000000000000000000000000000000
310
00000000000000000007010000000000000000000000000000000000000000070701000000000000000000000000000000000000000000000000000000000000000000000000000007000000000000000000000000000000000000000000000000000000000701000000000000000000000000000000000000000000000000
310
00000000000000000000000000000000000000000000000000000000000000000000000000000000000000000000000000000000000000000000000000000000000001070701000000000000000000000000000000000000070000000000000000000000000000000000000000000000000000000000000000000000000000
310
00000700000000000000000000000000000000000000000000000000000000070000000000000000000000000000000000000000000000000000000000000000000000000000000000000000000000000000000000000000000000000000000000000000000000000000000000000000000000000000000000000000000107
310
07011000000000000000000000000F01070700000000000000000000000000000000000000000000000000000000000000000000000000000000001407140000000000000000000000000000000000000000000000000000070000000000000000000000000000000000000000000000000000000000000000000000000000
310
00000000000000000000000000000000000000000000000000000000000000000000000000000000000000000000000000000000000000000001070707010000000000000000000707010000000000000000000000000000000000000000000000000000000000000000000000000000000000000000070000000000000000
310
00000000000000000000000000000000070700000000000000000000000000000000000000000000000000000000000000000000000000000000000000000000000000000000000000000000000000000000000000000000000000000000000000000000000000000000000000000000000000001001070707070707070707
310
000F0000000000000000000000000000000000000000000000000000000000000000000000000000000000000000000007070000000000000000000000000000000000000000000001070000000000000000000000000000000000000000000000000000000000000000000000000000000000000000000000000000000000
310
00000000000000000000000000000000000000000000000000000000000000000000000000000000000000000000000000000000000000000000000000000000000000000000000000000000000000000000000000000000000000000000000000000000000000000000070000000000000000000000000000000000000000
310
00000701000000000000000000000000000000000000000000000000000000000000000000000000000000000000000000000000000000000000000000000000000000000000000000000000000000000000000000000000000000000000000000000000000000000000000000000000000000000000000000000000000000
310
00000000000000000000000000000000000000000000000000000000000000000000000000070700000000000000000000000000000000000000070700000000000000000000000000000000000000000000000000000000000000000000000000000000000000000000000000000000000000000000000000000000000000
310
000000000000000000000000000000000000000000000000000000000000000000000000000000000000000000000000000000000000000000000000000000000000000000000000000000000000000000000000000000000000000000000007070A0000000000000000000000000000140000000000000000000000000000
310
00000000000000000000000000000000000000000000000000000000000000000000000000000000000000000000000000000000000000000000000000000000000000000000000000000000000000000000000000000000000000000000000000000000000000000000000000000000000000000000000000000000000000
310
00000000000000000000000000000000000000000000000000000007150A00000000000000000000000007070000000000000000000000000000000000000000000000000000000000000000000000000000000000000000000000000000000000000000000000000000000000000000000000000000000000000000000000
310
0000000000000000000000000000000000000000000000000000000000000000000000000000000000000000000000000000000000000000000000000000000000000000000000000000000000000000000000000A150707070000000000001401070714000000000000000000000000000000000000000000000000000000
310
00000000000000000000000000000000000000000000000000000000000000000000000000000000000000000000000000000000000000000000000000000000000000000000000000000000000000000000000000000000000000000000000000000000000000000000000000000000000000000000000000000000000000
310
000000000000000000000000000000000A0000070707070700070701000000000000000000000000000000000000000000000000000000000000000000000000000000000000000000000000000000000000000000000000000000000000000000000000000000000000000000000000000000000000000000000000000000
310
00000000000000000000000000000000000000000000000000000000000000000000000000000000000000000000000000000000000000000000000000000000000000000000000000000000000000000000140000000000000000000000000000000000000000000000000000000000000000000000000000000000000000
310
000000000000000000000000000000000000
  0
ENDSEC
  0
EOF
