  0
SECTION
  2
HEADER
  9
$ACADVER
  1
AC1027
  9
$ACADMAINTVER
 70
   125
  9
$DWGCODEPAGE
  3
ANSI_1252
  9
$AUTHOR
  1
WAEngineering2
  9
$LASTSAVEDBY
  1
WAEngineering2
  9
$CUSTOMPROPERTYTAG
  1
BentleyWorkSetProperties
  9
$CUSTOMPROPERTY
  1
02050000000B000000540200000000000000000200000057006F0072006B005300650074004E0061006D00650000000000000001000109040000000200000000000000000000000100000057006F0072006B005300650074004400650073006300720069007000740069006F006E0000000000000001000109080000000000000000000000000000000200000057006F0072006B00530070006100630065004E0061006D006500000000000000010001090C0000000200000000000000000000000400000043006F006E006E00650063007400500072006F006A006500630074004700550049004400000000000000010001091000000000000000000000000000000008000000500072006F006A00650063007400410073007300650074005400790070006500000000000000010001091400000000000000000000000000000010000000500072006F006A0065006300740049006E00640075007300740072007900000000000000010001091800000000000000000000000000000020000000500072006F006A006500630074004C006F0063006100740069006F006E00000000000000010001091C00000000000000000000000000000040000000500072006F006A006500630074004E0075006D00620065007200000000000000010001092000000000000000000000000000000080000000500072006F006A00650063007400530074006100740075007300000000000000010001092400000000000000000000000000000000010000500072006F006A006500630074004E0061006D00650000000000000001000109280000000000000000000000000000000002000031010000000000050002FCFFFF300000004A0000004A0000005A000000A4000000D2000000F4000000F600000004010000120100002C0100004D006500740072006F00530074006100740069006F006E0000004500780061006D0070006C0065000000350039003800370063003200620065002D0066003000660064002D0034003300660038002D0039006100610031002D00620039003100360035006200350030003400650032003300000050006C006100740066006F0072006D007300200061006E0064002000530074006100740069006F006E00730000005200610069006C00200061006E00640020005400720061006E0073006900740000000000310030003000310030003000000041006300740069007600650000004D006500740072006F00530074006100740069006F006E000000
  9
$REQUIREDVERSIONS
160
                 0
  9
$INSBASE
 10
0.0
 20
0.0
 30
0.0
  9
$EXTMIN
 10
0.5961
 20
0.7491
 30
0.0
  9
$EXTMAX
 10
8.0642
 20
5.2872
 30
0.0
  9
$LIMMIN
 10
-13.147478
 20
-14.459478
  9
$LIMMAX
 10
21.807778
 20
20.495778
  9
$ORTHOMODE
 70
     0
  9
$REGENMODE
 70
     1
  9
$FILLMODE
 70
     1
  9
$QTEXTMODE
 70
     0
  9
$MIRRTEXT
 70
     0
  9
$LTSCALE
 40
1.0
  9
$ATTMODE
 70
     1
  9
$TEXTSIZE
 40
0.25
  9
$TRACEWID
 40
0.05
  9
$TEXTSTYLE
  7
Standard
  9
$CLAYER
  8
0
  9
$CELTYPE
  6
ByLayer
  9
$CECOLOR
 62
   256
  9
$CELTSCALE
 40
1.0
  9
$DISPSILH
 70
     0
  9
$DIMSCALE
 40
1.0
  9
$DIMASZ
 40
0.25
  9
$DIMEXO
 40
0.125
  9
$DIMDLI
 40
0.0
  9
$DIMRND
 40
0.0
  9
$DIMDLE
 40
0.0
  9
$DIMEXE
 40
0.125
  9
$DIMTP
 40
0.0
  9
$DIMTM
 40
0.0
  9
$DIMTXT
 40
0.25
  9
$DIMCEN
 40
0.0
  9
$DIMTSZ
 40
0.0
  9
$DIMTOL
 70
     0
  9
$DIMLIM
 70
     0
  9
$DIMTIH
 70
     0
  9
$DIMTOH
 70
     0
  9
$DIMSE1
 70
     0
  9
$DIMSE2
 70
     0
  9
$DIMTAD
 70
     1
  9
$DIMZIN
 70
     8
  9
$DIMBLK
  1
TerminatorOpen_0.5
  9
$DIMASO
 70
     1
  9
$DIMSHO
 70
     1
  9
$DIMPOST
  1

  9
$DIMAPOST
  1

  9
$DIMALT
 70
     0
  9
$DIMALTD
 70
     4
  9
$DIMALTF
 40
1.0
  9
$DIMLFAC
 40
1.0
  9
$DIMTOFL
 70
     0
  9
$DIMTVP
 40
0.0
  9
$DIMTIX
 70
     0
  9
$DIMSOXD
 70
     0
  9
$DIMSAH
 70
     0
  9
$DIMBLK1
  1

  9
$DIMBLK2
  1

  9
$DIMSTYLE
  2
Standard
  9
$DIMCLRD
 70
     0
  9
$DIMCLRE
 70
     0
  9
$DIMCLRT
 70
     0
  9
$DIMTFAC
 40
1.0
  9
$DIMGAP
 40
0.125
  9
$DIMJUST
 70
     0
  9
$DIMSD1
 70
     0
  9
$DIMSD2
 70
     0
  9
$DIMTOLJ
 70
     1
  9
$DIMTZIN
 70
     8
  9
$DIMALTZ
 70
    12
  9
$DIMALTTZ
 70
    12
  9
$DIMUPT
 70
     0
  9
$DIMDEC
 70
     4
  9
$DIMTDEC
 70
     0
  9
$DIMALTU
 70
     2
  9
$DIMALTTD
 70
     0
  9
$DIMTXSTY
  7
Style-Arial
  9
$DIMAUNIT
 70
     0
  9
$DIMADEC
 70
     4
  9
$DIMALTRND
 40
0.0
  9
$DIMAZIN
 70
     3
  9
$DIMDSEP
 70
     0
  9
$DIMATFIT
 70
     1
  9
$DIMFRAC
 70
     2
  9
$DIMLDRBLK
  1
TerminatorOpen_0.5
  9
$DIMLUNIT
 70
     2
  9
$DIMLWD
 70
    -2
  9
$DIMLWE
 70
    -2
  9
$DIMTMOVE
 70
     0
  9
$DIMFXL
 40
1.0
  9
$DIMFXLON
 70
     0
  9
$DIMJOGANG
 40
0.785398
  9
$DIMTFILL
 70
     0
  9
$DIMTFILLCLR
 70
     0
  9
$DIMARCSYM
 70
     0
  9
$DIMLTYPE
  6
ByBlock
  9
$DIMLTEX1
  6
ByBlock
  9
$DIMLTEX2
  6
ByBlock
  9
$DIMTXTDIRECTION
 70
     0
  9
$LUNITS
 70
     2
  9
$LUPREC
 70
     3
  9
$SKETCHINC
 40
0.1
  9
$FILLETRAD
 40
0.0
  9
$AUNITS
 70
     0
  9
$AUPREC
 70
     3
  9
$MENU
  1
.
  9
$ELEVATION
 40
0.0
  9
$PELEVATION
 40
0.0
  9
$THICKNESS
 40
0.0
  9
$LIMCHECK
 70
     0
  9
$CHAMFERA
 40
0.0
  9
$CHAMFERB
 40
0.0
  9
$CHAMFERC
 40
0.0
  9
$CHAMFERD
 40
0.0
  9
$SKPOLY
 70
     0
  9
$TDCREATE
 40
2454145.111354167
  9
$TDUCREATE
 40
2454144.778024017
  9
$TDUPDATE
 40
2459864.507511574
  9
$TDUUPDATE
 40
2459864.174178241
  9
$TDINDWG
 40
0.0062557292
  9
$TDUSRTIMER
 40
0.0062555440
  9
$USRTIMER
 70
     1
  9
$ANGBASE
 50
0.0
  9
$ANGDIR
 70
     0
  9
$PDMODE
 70
     0
  9
$PDSIZE
 40
0.0
  9
$PLINEWID
 40
0.0
  9
$SPLFRAME
 70
     0
  9
$SPLINETYPE
 70
     6
  9
$SPLINESEGS
 70
     8
  9
$HANDSEED
  5
BFD
  9
$SURFTAB1
 70
     6
  9
$SURFTAB2
 70
     6
  9
$SURFTYPE
 70
     6
  9
$SURFU
 70
     6
  9
$SURFV
 70
     6
  9
$UCSBASE
  2

  9
$UCSNAME
  2

  9
$UCSORG
 10
0.0
 20
0.0
 30
0.0
  9
$UCSXDIR
 10
1.0
 20
0.0
 30
0.0
  9
$UCSYDIR
 10
0.0
 20
1.0
 30
0.0
  9
$UCSORTHOREF
  2

  9
$UCSORTHOVIEW
 70
     0
  9
$UCSORGTOP
 10
0.0
 20
0.0
 30
0.0
  9
$UCSORGBOTTOM
 10
0.0
 20
0.0
 30
0.0
  9
$UCSORGLEFT
 10
0.0
 20
0.0
 30
0.0
  9
$UCSORGRIGHT
 10
0.0
 20
0.0
 30
0.0
  9
$UCSORGFRONT
 10
0.0
 20
0.0
 30
0.0
  9
$UCSORGBACK
 10
0.0
 20
0.0
 30
0.0
  9
$PUCSBASE
  2

  9
$PUCSNAME
  2

  9
$PUCSORG
 10
0.0
 20
0.0
 30
0.0
  9
$PUCSXDIR
 10
1.0
 20
0.0
 30
0.0
  9
$PUCSYDIR
 10
0.0
 20
1.0
 30
0.0
  9
$PUCSORTHOREF
  2

  9
$PUCSORTHOVIEW
 70
     0
  9
$PUCSORGTOP
 10
0.0
 20
0.0
 30
0.0
  9
$PUCSORGBOTTOM
 10
0.0
 20
0.0
 30
0.0
  9
$PUCSORGLEFT
 10
0.0
 20
0.0
 30
0.0
  9
$PUCSORGRIGHT
 10
0.0
 20
0.0
 30
0.0
  9
$PUCSORGFRONT
 10
0.0
 20
0.0
 30
0.0
  9
$PUCSORGBACK
 10
0.0
 20
0.0
 30
0.0
  9
$USERI1
 70
     0
  9
$USERI2
 70
     0
  9
$USERI3
 70
     0
  9
$USERI4
 70
     0
  9
$USERI5
 70
     0
  9
$USERR1
 40
0.0
  9
$USERR2
 40
0.0
  9
$USERR3
 40
0.0
  9
$USERR4
 40
0.0
  9
$USERR5
 40
0.0
  9
$WORLDVIEW
 70
     1
  9
$SHADEDGE
 70
     3
  9
$SHADEDIF
 70
    70
  9
$TILEMODE
 70
     1
  9
$MAXACTVP
 70
    64
  9
$PINSBASE
 10
0.0
 20
0.0
 30
0.0
  9
$PLIMCHECK
 70
     0
  9
$PEXTMIN
 10
1.05
 20
0.8
 30
0.0
  9
$PEXTMAX
 10
9.45
 20
7.2
 30
0.0
  9
$PLIMMIN
 10
-0.25
 20
-0.25
  9
$PLIMMAX
 10
10.75
 20
8.25
  9
$UNITMODE
 70
     0
  9
$VISRETAIN
 70
     1
  9
$PLINEGEN
 70
     0
  9
$PSLTSCALE
 70
     0
  9
$TREEDEPTH
 70
  3020
  9
$CMLSTYLE
  2
Standard
  9
$CMLJUST
 70
     0
  9
$CMLSCALE
 40
1.0
  9
$PROXYGRAPHICS
 70
     1
  9
$MEASUREMENT
 70
     0
  9
$CELWEIGHT
370
    -1
  9
$ENDCAPS
280
     0
  9
$JOINSTYLE
280
     0
  9
$LWDISPLAY
290
     1
  9
$INSUNITS
 70
     6
  9
$HYPERLINKBASE
  1

  9
$STYLESHEET
  1

  9
$XEDIT
290
     1
  9
$CEPSNTYPE
380
     0
  9
$PSTYLEMODE
290
     1
  9
$FINGERPRINTGUID
  2
{4F376E51-1FA0-694D-972D-21AC7EAC5709}
  9
$VERSIONGUID
  2
{38E7CD85-556C-4D6E-9C4C-B935CE7E055D}
  9
$EXTNAMES
290
     1
  9
$PSVPSCALE
 40
0.0
  9
$OLESTARTUP
290
     0
  9
$SORTENTS
280
   127
  9
$INDEXCTL
280
     0
  9
$HIDETEXT
280
     1
  9
$XCLIPFRAME
280
     0
  9
$HALOGAP
280
     0
  9
$OBSCOLOR
 70
   257
  9
$OBSLTYPE
280
     0
  9
$INTERSECTIONDISPLAY
280
     0
  9
$INTERSECTIONCOLOR
 70
   257
  9
$DIMASSOC
280
     2
  9
$PROJECTNAME
  1

  9
$CAMERADISPLAY
290
     0
  9
$LENSLENGTH
 40
50.0
  9
$CAMERAHEIGHT
 40
0.0
  9
$STEPSPERSEC
 40
2.0
  9
$STEPSIZE
 40
6.0
  9
$3DDWFPREC
 40
2.0
  9
$PSOLWIDTH
 40
0.25
  9
$PSOLHEIGHT
 40
4.0
  9
$LOFTANG1
 40
1.570796
  9
$LOFTANG2
 40
1.570796
  9
$LOFTMAG1
 40
0.0
  9
$LOFTMAG2
 40
0.0
  9
$LOFTPARAM
 70
     7
  9
$LOFTNORMALS
280
     1
  9
$LATITUDE
 40
37.795
  9
$LONGITUDE
 40
-122.394
  9
$NORTHDIRECTION
 40
0.0
  9
$TIMEZONE
 70
 -8000
  9
$LIGHTGLYPHDISPLAY
280
     1
  9
$TILEMODELIGHTSYNCH
280
     1
  9
$CMATERIAL
347
4FB
  9
$SOLIDHIST
280
     1
  9
$SHOWHIST
280
     1
  9
$DWFFRAME
280
     2
  9
$DGNFRAME
280
     0
  9
$REALWORLDSCALE
290
     1
  9
$INTERFERECOLOR
 62
     1
  9
$INTERFEREOBJVS
345
524
  9
$INTERFEREVPVS
346
525
  9
$CSHADOW
280
     0
  9
$SHADOWPLANELOCATION
 40
0.0
  0
ENDSEC
  0
SECTION
  2
CLASSES
  0
CLASS
  1
ACDBDICTIONARYWDFLT
  2
AcDbDictionaryWithDefault
  3
ObjectDBX Classes
 90
        0
 91
        1
280
     0
281
     0
  0
CLASS
  1
DICTIONARYVAR
  2
AcDbDictionaryVar
  3
ObjectDBX Classes
 90
        0
 91
        9
280
     0
281
     0
  0
CLASS
  1
TABLESTYLE
  2
AcDbTableStyle
  3
ObjectDBX Classes
 90
     4095
 91
        1
280
     0
281
     0
  0
CLASS
  1
MATERIAL
  2
AcDbMaterial
  3
ObjectDBX Classes
 90
     1153
 91
        3
280
     0
281
     0
  0
CLASS
  1
VISUALSTYLE
  2
AcDbVisualStyle
  3
ObjectDBX Classes
 90
     4095
 91
       24
280
     0
281
     0
  0
CLASS
  1
SCALE
  2
AcDbScale
  3
ObjectDBX Classes
 90
     1153
 91
       33
280
     0
281
     0
  0
CLASS
  1
MLEADERSTYLE
  2
AcDbMLeaderStyle
  3
ACDB_MLEADERSTYLE_CLASS
 90
     4095
 91
        1
280
     0
281
     0
  0
CLASS
  1
EXACXREFPANELOBJECT
  2
ExAcXREFPanelObject
  3
EXAC_ESW
 90
     1025
 91
        0
280
     1
281
     0
  0
CLASS
  1
NPOCOLLECTION
  2
AcDbImpNonPersistentObjectsCollection
  3
ObjectDBX Classes
 90
     1153
 91
        0
280
     0
281
     0
  0
CLASS
  1
CELLSTYLEMAP
  2
AcDbCellStyleMap
  3
ObjectDBX Classes
 90
     1152
 91
        1
280
     0
281
     0
  0
CLASS
  1
ACDBSECTIONVIEWSTYLE
  2
AcDbSectionViewStyle
  3
ObjectDBX Classes
 90
     1025
 91
        1
280
     0
281
     0
  0
CLASS
  1
ACDBDETAILVIEWSTYLE
  2
AcDbDetailViewStyle
  3
ObjectDBX Classes
 90
     1025
 91
        1
280
     0
281
     0
  0
CLASS
  1
SORTENTSTABLE
  2
AcDbSortentsTable
  3
ObjectDBX Classes
 90
        0
 91
        1
280
     0
281
     0
  0
ENDSEC
  0
SECTION
  2
TABLES
  0
TABLE
  2
VPORT
  5
4EF
330
0
100
AcDbSymbolTable
 70
     1
1001
ACAD
1000
DbSaveVer
1071
      253
  0
VPORT
  5
4B
330
4EF
100
AcDbSymbolTableRecord
100
AcDbViewportTableRecord
  2
*ACTIVE
 70
     0
 10
0.0
 20
0.0
 11
1.0
 21
1.0
 12
4.330194
 22
3.018131
 13
0.0
 23
0.0
 14
0.1
 24
0.1
 15
1.0
 25
1.0
 16
0.0
 26
0.0
 36
1.0
 17
0.0
 27
0.0
 37
0.0
 40
4.71952
 41
2.437741
 42
50.0
 43
0.0
 44
0.0
 50
0.0
 51
0.0
 71
     0
 72
 20000
 73
     1
 74
     1
 75
     0
 76
     0
 77
     0
 78
     1
281
     0
 65
     1
110
0.0
120
0.0
130
0.0
111
1.0
121
0.0
131
0.0
112
0.0
122
1.0
132
0.0
 79
     0
146
0.0
348
4F1
 60
     3
 61
    10
292
     0
282
     1
141
0.0
142
0.0
 63
     7
421
 16777215
  0
ENDTAB
  0
TABLE
  2
LTYPE
  5
4EA
330
0
100
AcDbSymbolTable
 70
     2
  0
LTYPE
  5
4EB
330
4EA
100
AcDbSymbolTableRecord
100
AcDbLinetypeTableRecord
  2
ByBlock
 70
     0
  3

 72
    65
 73
     0
 40
0.0
  0
LTYPE
  5
4EC
330
4EA
100
AcDbSymbolTableRecord
100
AcDbLinetypeTableRecord
  2
ByLayer
 70
     0
  3

 72
    65
 73
     0
 40
0.0
  0
LTYPE
  5
4C0
330
4EA
100
AcDbSymbolTableRecord
100
AcDbLinetypeTableRecord
  2
Continuous
 70
     0
  3
Solid line
 72
    65
 73
     0
 40
0.0
  0
LTYPE
  5
68B
330
4EA
100
AcDbSymbolTableRecord
100
AcDbLinetypeTableRecord
  2
DGN Style 2
 70
     0
  3
Dgn Style 2
 72
    65
 73
     2
 40
0.11505
 49
0.06903
 74
     0
 49
-0.04602
 74
     0
  0
ENDTAB
  0
TABLE
  2
LAYER
  5
4E1
102
{ACAD_XDICTIONARY
360
4E2
102
}
330
0
100
AcDbSymbolTable
 70
   325
  0
LAYER
  5
4B1
102
{ACAD_XDICTIONARY
360
4B2
102
}
330
4E1
100
AcDbSymbolTableRecord
100
AcDbLayerTableRecord
  2
0
 70
     0
 62
     7
  6
Continuous
370
    -3
390
4B4
347
4B7
348
0
1001
AcCmTransparency
1071
 33554687
  0
LAYER
  5
519
330
4E1
100
AcDbSymbolTableRecord
100
AcDbLayerTableRecord
  2
Level 1
 70
     0
 62
     7
  6
Continuous
370
     0
390
4B4
347
4B7
348
0
1001
AcCmTransparency
1071
 33554687
  0
LAYER
  5
4A7
330
4E1
100
AcDbSymbolTableRecord
100
AcDbLayerTableRecord
  2
Level 15
 70
     0
 62
     7
  6
Continuous
370
     0
390
4B4
347
4B7
348
0
1001
AcAecLayerStandard
1000

1000
Fall Zone Combined
1001
AcCmTransparency
1071
 33554687
  0
LAYER
  5
4A8
330
4E1
100
AcDbSymbolTableRecord
100
AcDbLayerTableRecord
  2
ninja1 - Level 26
 70
     0
 62
     7
  6
Continuous
370
     0
390
4B4
347
4B7
348
0
1001
AcAecLayerStandard
1000

1000
Assemblies - Colour Locked
1001
AcCmTransparency
1071
 33554687
  0
LAYER
  5
4A9
330
4E1
100
AcDbSymbolTableRecord
100
AcDbLayerTableRecord
  2
ninja1 - Level 25
 70
     0
 62
     7
  6
Continuous
370
     0
390
4B4
347
4B7
348
0
1001
AcAecLayerStandard
1000

1000
Assemblies - Base
1001
AcCmTransparency
1071
 33554687
  0
LAYER
  5
4AA
330
4E1
100
AcDbSymbolTableRecord
100
AcDbLayerTableRecord
  2
ninja1 - Level 28
 70
     0
 62
     7
  6
Continuous
370
     0
390
4B4
347
4B7
348
0
1001
AcAecLayerStandard
1000

1000
Assemblies - Secondary 28
1001
AcCmTransparency
1071
 33554687
  0
LAYER
  5
4AB
330
4E1
100
AcDbSymbolTableRecord
100
AcDbLayerTableRecord
  2
ninja1 - Level 27
 70
     0
 62
     7
  6
Continuous
370
     0
390
4B4
347
4B7
348
0
1001
AcAecLayerStandard
1000

1000
Assemblies - Secondary 27
1001
AcCmTransparency
1071
 33554687
  0
ENDTAB
  0
TABLE
  2
STYLE
  5
4E6
330
0
100
AcDbSymbolTable
 70
     3
  0
STYLE
  5
4E7
330
4E6
100
AcDbSymbolTableRecord
100
AcDbTextStyleTableRecord
  2
Standard
 70
     0
 40
0.0
 41
1.0
 50
0.0
 71
     0
 42
0.25
  3
txt.shx
  4

1001
AcadAnnotative
1000
AnnotativeData
1002
{
1070
     1
1070
     1
1002
}
  0
STYLE
  5
51A
330
4E6
100
AcDbSymbolTableRecord
100
AcDbTextStyleTableRecord
  2
Style-STANDARD
 70
     0
 40
0.0
 41
1.0
 50
0.0
 71
     0
 42
3.5
  3
STANDARD.shx
  4

1001
AcadAnnotative
1000
AnnotativeData
1002
{
1070
     1
1070
     1
1002
}
  0
STYLE
  5
688
330
4E6
100
AcDbSymbolTableRecord
100
AcDbTextStyleTableRecord
  2
Style-Arial
 70
     0
 40
0.0
 41
1.0
 50
0.0
 71
     0
 42
0.25
  3
arial.ttf
  4

1001
ACAD
1000
Arial
1071
       39
  0
ENDTAB
  0
TABLE
  2
VIEW
  5
4ED
330
0
100
AcDbSymbolTable
 70
     0
  0
ENDTAB
  0
TABLE
  2
UCS
  5
4EE
330
0
100
AcDbSymbolTable
 70
     0
  0
ENDTAB
  0
TABLE
  2
APPID
  5
4F3
330
0
100
AcDbSymbolTable
 70
     6
  0
APPID
  5
4F4
330
4F3
100
AcDbSymbolTableRecord
100
AcDbRegAppTableRecord
  2
ACAD
 70
     0
  0
APPID
  5
4E0
330
4F3
100
AcDbSymbolTableRecord
100
AcDbRegAppTableRecord
  2
ACAD_PSEXT
 70
     0
  0
APPID
  5
4C1
330
4F3
100
AcDbSymbolTableRecord
100
AcDbRegAppTableRecord
  2
AcCmTransparency
 70
     0
  0
APPID
  5
4E8
330
4F3
100
AcDbSymbolTableRecord
100
AcDbRegAppTableRecord
  2
AcadAnnotative
 70
     0
  0
APPID
  5
4C6
330
4F3
100
AcDbSymbolTableRecord
100
AcDbRegAppTableRecord
  2
MStation
 70
     0
  0
APPID
  5
686
330
4F3
100
AcDbSymbolTableRecord
100
AcDbRegAppTableRecord
  2
AcAecLayerStandard
 70
     0
  0
ENDTAB
  0
TABLE
  2
DIMSTYLE
  5
4F5
330
0
100
AcDbSymbolTable
 70
     1
100
AcDbDimStyleTable
 71
     1
340
4F6
  0
DIMSTYLE
105
4F6
330
4F5
100
AcDbSymbolTableRecord
100
AcDbDimStyleTableRecord
  2
Standard
 70
     0
 42
0.0625
 44
0.18
 78
     3
272
     0
274
     0
278
     0
284
     3
285
     3
286
     3
289
     1
340
4E7
345
4C0
346
4C0
347
4C0
  0
ENDTAB
  0
TABLE
  2
BLOCK_RECORD
  5
4AC
330
0
100
AcDbSymbolTable
 70
     6
  0
BLOCK_RECORD
  5
4AD
102
{ACAD_XDICTIONARY
360
4AE
102
}
330
4AC
100
AcDbSymbolTableRecord
100
AcDbBlockTableRecord
  2
*Model_Space
340
4D8
 70
     0
280
     1
281
     0
  0
BLOCK_RECORD
  5
4DB
330
4AC
100
AcDbSymbolTableRecord
100
AcDbBlockTableRecord
  2
*Paper_Space
340
4DE
 70
     0
280
     1
281
     0
  0
BLOCK_RECORD
  5
51B
330
4AC
100
AcDbSymbolTableRecord
100
AcDbBlockTableRecord
  2
TerminatorOpen_0.5
340
0
 70
     0
280
     1
281
     0
  0
ENDTAB
  0
ENDSEC
  0
SECTION
  2
BLOCKS
  0
BLOCK
  5
4B0
330
4AD
100
AcDbEntity
  8
0
100
AcDbBlockBegin
  2
*Model_Space
 70
     0
 10
0.0
 20
0.0
 30
0.0
  3
*Model_Space
  1

  0
ENDBLK
  5
4D7
330
4AD
100
AcDbEntity
  8
0
100
AcDbBlockEnd
  0
BLOCK
  5
4DC
330
4DB
100
AcDbEntity
 67
     1
  8
0
100
AcDbBlockBegin
  2
*Paper_Space
 70
     0
 10
0.0
 20
0.0
 30
0.0
  3
*Paper_Space
  1

  0
ENDBLK
  5
4DD
330
4DB
100
AcDbEntity
 67
     1
  8
0
100
AcDbBlockEnd
  0
BLOCK
  5
51C
330
51B
100
AcDbEntity
  8
0
 62
     7
370
    30
100
AcDbBlockBegin
  2
TerminatorOpen_0.5
 70
     0
 10
0.0
 20
0.0
 30
0.0
  3
TerminatorOpen_0.5
  1

  0
LINE
  5
51D
330
51B
100
AcDbEntity
  8
0
  6
ByBlock
 62
     0
370
    -2
100
AcDbLine
 10
0.0
 20
0.0
 30
0.0
 11
-1.0
 21
0.0
 31
0.0
  0
LINE
  5
51E
330
51B
100
AcDbEntity
  8
0
  6
ByBlock
 62
     0
370
    -2
100
AcDbLine
 10
0.0
 20
0.0
 30
0.0
 11
-1.0
 21
0.25
 31
0.0
  0
LINE
  5
51F
330
51B
100
AcDbEntity
  8
0
  6
ByBlock
 62
     0
370
    -2
100
AcDbLine
 10
0.0
 20
0.0
 30
0.0
 11
-1.0
 21
-0.25
 31
0.0
  0
ENDBLK
  5
520
330
51B
100
AcDbEntity
  8
0
 62
     7
370
    30
100
AcDbBlockEnd
  0
ENDSEC
  0
SECTION
  2
ENTITIES
  0
LWPOLYLINE
  5
24B
330
4AD
100
AcDbEntity
  8
Level 15
  6
DGN Style 2
 62
     7
370
    13
100
AcDbPolyline
 90
        9
 70
   128
 43
0.0
 10
2.830194
 20
5.287131
 42
0.414214
 10
0.596194
 20
3.053131
 10
0.596194
 20
2.983131
 42
0.414214
 10
2.830194
 20
0.749131
 10
5.830194
 20
0.749131
 42
0.414214
 10
8.064194
 20
2.983131
 10
8.064194
 20
3.053131
 42
0.414214
 10
5.830194
 20
5.287131
 10
2.830194
 20
5.287131
  0
LINE
  5
254
330
4AD
100
AcDbEntity
  8
ninja1 - Level 26
  6
Continuous
 62
     7
370
    13
100
AcDbLine
 10
4.113763
 20
2.969131
 30
0.0
 11
4.113763
 21
2.969131
 31
0.0
  0
ELLIPSE
  5
255
330
4AD
100
AcDbEntity
  8
ninja1 - Level 26
  6
Continuous
 62
     7
370
    13
100
AcDbEllipse
 10
4.117763
 20
2.969131
 30
0.0
 11
0.0
 21
0.004
 31
0.0
210
0.0
220
0.0
230
-1.0
 40
0.9999996263961532
 41
4.712424059517254
 42
6.282847534890549
  0
SPLINE
  5
256
330
4AD
100
AcDbEntity
  8
ninja1 - Level 26
  6
Continuous
 62
     7
370
    13
100
AcDbSpline
210
0.0
220
0.0
230
1.0
 70
    24
 71
     3
 72
    24
 73
    20
 74
     0
 42
0.000000001
 43
0.0000000001
 40
0.0
 40
0.0
 40
0.0
 40
0.0
 40
0.0260618866857371
 40
0.0523519554200578
 40
0.1561937332335122
 40
0.2677232298614375
 40
0.3802637529417301
 40
0.4372360235636631
 40
0.4594288409065447
 40
0.5338747851392177
 40
0.6208411447955072
 40
0.6877931925562029
 40
0.8728928220302018
 40
0.9227530757483876
 40
0.9508209239759997
 40
0.9591765142784286
 40
0.9690971832084594
 40
0.9888084644687697
 40
1.0
 40
1.0
 40
1.0
 40
1.0
 10
4.211083240312815
 20
2.97313107487378
 30
0.0
 10
4.210228964439095
 20
2.97313107487378
 30
0.0
 10
4.208550095933905
 20
2.97313107487378
 30
0.0
 10
4.20305709994653
 20
2.97313107487378
 30
0.0
 10
4.195392408133065
 20
2.973131074873779
 30
0.0
 10
4.187317844762699
 20
2.973131074873779
 30
0.0
 10
4.179042591643982
 20
2.973131074873779
 30
0.0
 10
4.172111829941964
 20
2.973131074873779
 30
0.0
 10
4.166554310526649
 20
2.973131074873779
 30
0.0
 10
4.161549802545429
 20
2.973131074873779
 30
0.0
 10
4.154794840859206
 20
2.973131074873779
 30
0.0
 10
4.142395594582878
 20
2.973131074873779
 30
0.0
 10
4.131037632556474
 20
2.973131074873779
 30
0.0
 10
4.121540228820947
 20
2.973131074873779
 30
0.0
 10
4.119097478756835
 20
2.973131074873779
 30
0.0
 10
4.118108163162982
 20
2.973131074873779
 30
0.0
 10
4.117688637483364
 20
2.973131074873779
 30
0.0
 10
4.117711247050729
 20
2.973131074873779
 30
0.0
 10
4.117749555685312
 20
2.973131074873779
 30
0.0
 10
4.117763429257032
 20
2.973131074873779
 30
0.0
  0
ELLIPSE
  5
259
330
4AD
100
AcDbEntity
  8
ninja1 - Level 26
  6
Continuous
 62
     7
370
    13
100
AcDbEllipse
 10
4.211083
 20
2.969131
 30
0.0
 11
0.0
 21
-0.004
 31
0.0
210
0.0
220
0.0
230
1.0
 40
0.4938804374758791
 41
1.570796326794894
 42
3.141592653589794
  0
SPLINE
  5
25A
330
4AD
100
AcDbEntity
  8
ninja1 - Level 26
  6
Continuous
 62
     7
370
    13
100
AcDbSpline
210
0.0
220
0.0
230
1.0
 70
    24
 71
     3
 72
    24
 73
    20
 74
     0
 42
0.000000001
 43
0.0000000001
 40
0.0
 40
0.0
 40
0.0
 40
0.0
 40
0.0220716056612474
 40
0.1941074818982114
 40
0.3895986860900123
 40
0.4076860975943079
 40
0.5392954564226197
 40
0.5548432033892547
 40
0.6435538949058692
 40
0.7000460561947022
 40
0.7578942729303101
 40
0.8105310950707735
 40
0.8632114455015029
 40
0.8854852118846025
 40
0.9078910439341589
 40
0.930257781132849
 40
0.9535223652737672
 40
0.9767856051931731
 40
1.0
 40
1.0
 40
1.0
 40
1.0
 10
4.113763391217653
 20
2.969131074873779
 30
0.0
 10
4.113586040713667
 20
2.969131074873779
 30
0.0
 10
4.113717478607708
 20
2.969131074873779
 30
0.0
 10
4.130323944375946
 20
2.969131074873779
 30
0.0
 10
4.145348376585153
 20
2.969131074873779
 30
0.0
 10
4.158302832779524
 20
2.969131074873779
 30
0.0
 10
4.16222854196266
 20
2.969131074873779
 30
0.0
 10
4.171179603763399
 20
2.969131074873779
 30
0.0
 10
4.177776886274473
 20
2.969131074873779
 30
0.0
 10
4.184519297687304
 20
2.969131074873779
 30
0.0
 10
4.189623402213669
 20
2.969131074873779
 30
0.0
 10
4.194342706561592
 20
2.96913107487378
 30
0.0
 10
4.19784049794724
 20
2.96913107487378
 30
0.0
 10
4.200767898992298
 20
2.96913107487378
 30
0.0
 10
4.203045410304056
 20
2.96913107487378
 30
0.0
 10
4.205481117946463
 20
2.96913107487378
 30
0.0
 10
4.208020794848626
 20
2.96913107487378
 30
0.0
 10
4.210594725398096
 20
2.96913107487378
 30
0.0
 10
4.212237992165007
 20
2.96913107487378
 30
0.0
 10
4.213058762062722
 20
2.96913107487378
 30
0.0
  0
LINE
  5
25D
330
4AD
100
AcDbEntity
  8
ninja1 - Level 26
  6
Continuous
 62
     7
370
    13
100
AcDbLine
 10
4.113763
 20
2.969131
 30
0.0
 11
4.113763
 21
2.947131
 31
0.0
  0
LINE
  5
25E
330
4AD
100
AcDbEntity
  8
ninja1 - Level 26
  6
Continuous
 62
     7
370
    13
100
AcDbLine
 10
4.213059
 20
2.947131
 30
0.0
 11
4.213059
 21
2.969131
 31
0.0
  0
SPLINE
  5
25F
330
4AD
100
AcDbEntity
  8
ninja1 - Level 26
  6
Continuous
 62
     7
370
    13
100
AcDbSpline
210
0.0
220
0.0
230
1.0
 70
    24
 71
     3
 72
    23
 73
    19
 74
     0
 42
0.000000001
 43
0.0000000001
 40
0.0
 40
0.0
 40
0.0
 40
0.0
 40
0.0237157414266591
 40
0.094376446099654
 40
0.1177069846426386
 40
0.1478672657739113
 40
0.178096203769042
 40
0.2083828933802773
 40
0.2676360644670527
 40
0.3555980639964813
 40
0.4340600095021653
 40
0.5739329026710481
 40
0.6264540772629998
 40
0.8998771845589702
 40
0.9675451125785876
 40
0.9803284485436323
 40
0.9931579069685415
 40
1.0
 40
1.0
 40
1.0
 40
1.0
 10
4.213058762062722
 20
2.94713107487378
 30
0.0
 10
4.212220538562056
 20
2.94713107487378
 30
0.0
 10
4.208875245613506
 20
2.94713107487378
 30
0.0
 10
4.204379873590922
 20
2.94713107487378
 30
0.0
 10
4.200211376950761
 20
2.947131074873779
 30
0.0
 10
4.197711901293625
 20
2.94713107487378
 30
0.0
 10
4.195144682692753
 20
2.947131074873779
 30
0.0
 10
4.19193381024209
 20
2.947131074873779
 30
0.0
 10
4.186499576035054
 20
2.94713107487378
 30
0.0
 10
4.179732148196524
 20
2.947131074873779
 30
0.0
 10
4.166560976463931
 20
2.947131074873779
 30
0.0
 10
4.158919527411265
 20
2.947131074873779
 30
0.0
 10
4.142688882695389
 20
2.947131074873779
 30
0.0
 10
4.124514145639236
 20
2.947131074873779
 30
0.0
 10
4.113779390262417
 20
2.947131074873779
 30
0.0
 10
4.113817887042293
 20
2.947131074873779
 30
0.0
 10
4.113764996766607
 20
2.947131074873779
 30
0.0
 10
4.113763805545005
 20
2.947131074873779
 30
0.0
 10
4.113763391218302
 20
2.947131074873779
 30
0.0
  0
LINE
  5
262
330
4AD
100
AcDbEntity
  8
ninja1 - Level 26
  6
Continuous
 62
     7
370
    13
100
AcDbLine
 10
4.114746
 20
2.947131
 30
0.0
 11
4.114746
 21
2.969131
 31
0.0
  0
ELLIPSE
  5
263
330
4AD
100
AcDbEntity
  8
ninja1 - Level 26
  6
Continuous
 62
     7
370
    13
100
AcDbEllipse
 10
4.117763
 20
2.947131
 30
0.0
 11
0.0
 21
0.004
 31
0.0
210
0.0
220
0.0
230
-1.0
 40
0.999999684171574
 41
3.141851875941314
 42
4.711851158155534
  0
SPLINE
  5
264
330
4AD
100
AcDbEntity
  8
ninja1 - Level 26
  6
Continuous
 62
     7
370
    13
100
AcDbSpline
210
0.0
220
0.0
230
1.0
 70
    24
 71
     3
 72
    27
 73
    23
 74
     0
 42
0.000000001
 43
0.0000000001
 40
0.0
 40
0.0
 40
0.0
 40
0.0
 40
0.0192958303930346
 40
0.0308160248474935
 40
0.0413894455234395
 40
0.0496606142357157
 40
0.0738614097059607
 40
0.1123529984969799
 40
0.2904044159967583
 40
0.5016774976363476
 40
0.5358471546946332
 40
0.5594713806160172
 40
0.6204088299815479
 40
0.7065740664299435
 40
0.7357549807257762
 40
0.8222416738127295
 40
0.8653880395267645
 40
0.8921028958502464
 40
0.918930000044725
 40
0.9459787478953678
 40
0.973065932644911
 40
1.0
 40
1.0
 40
1.0
 40
1.0
 10
4.117763422858866
 20
2.943131074873779
 30
0.0
 10
4.117748549254262
 20
2.943131074873779
 30
0.0
 10
4.117811676008301
 20
2.943131074873779
 30
0.0
 10
4.117753648308539
 20
2.943131074873779
 30
0.0
 10
4.118137426583151
 20
2.943131074873779
 30
0.0
 10
4.119045119627696
 20
2.943131074873779
 30
0.0
 10
4.121073054963824
 20
2.943131074873779
 30
0.0
 10
4.129316363236931
 20
2.943131074873779
 30
0.0
 10
4.146203165064211
 20
2.943131074873779
 30
0.0
 10
4.160344337259917
 20
2.943131074873779
 30
0.0
 10
4.16744118836674
 20
2.943131074873779
 30
0.0
 10
4.171896073349771
 20
2.943131074873779
 30
0.0
 10
4.178107063253608
 20
2.943131074873779
 30
0.0
 10
4.183330263518498
 20
2.943131074873779
 30
0.0
 10
4.188984002860638
 20
2.943131074873779
 30
0.0
 10
4.192983173866619
 20
2.943131074873779
 30
0.0
 10
4.197211703741792
 20
2.94313107487378
 30
0.0
 10
4.200191169974228
 20
2.94313107487378
 30
0.0
 10
4.202877920582401
 20
2.94313107487378
 30
0.0
 10
4.205639023917849
 20
2.94313107487378
 30
0.0
 10
4.20841972755967
 20
2.94313107487378
 30
0.0
 10
4.210197081968025
 20
2.94313107487378
 30
0.0
 10
4.211083240312821
 20
2.94313107487378
 30
0.0
  0
ELLIPSE
  5
267
330
4AD
100
AcDbEntity
  8
ninja1 - Level 26
  6
Continuous
 62
     7
370
    13
100
AcDbEllipse
 10
4.211083
 20
2.947131
 30
0.0
 11
0.0
 21
0.004
 31
0.0
210
0.0
220
0.0
230
-1.0
 40
0.4938804374758801
 41
1.570796326794897
 42
3.141592653589791
  0
LINE
  5
268
330
4AD
100
AcDbEntity
  8
ninja1 - Level 26
  6
Continuous
 62
     7
370
    13
100
AcDbLine
 10
4.209388
 20
2.973131
 30
0.0
 11
4.209388
 21
2.988131
 31
0.0
  0
LINE
  5
269
330
4AD
100
AcDbEntity
  8
ninja1 - Level 26
  6
Continuous
 62
     7
370
    13
100
AcDbLine
 10
4.128987
 20
2.973131
 30
0.0
 11
4.128987
 21
2.988131
 31
0.0
  0
SPLINE
  5
26A
330
4AD
100
AcDbEntity
  8
ninja1 - Level 26
  6
Continuous
 62
     7
370
    13
100
AcDbSpline
210
0.0
220
0.0
230
1.0
 70
    24
 71
     3
 72
     8
 73
     4
 74
     0
 42
0.000000001
 43
0.0000000001
 40
0.0
 40
0.0
 40
0.0
 40
0.0
 40
1.0
 40
1.0
 40
1.0
 40
1.0
 10
4.22540954713388
 20
2.94713107487378
 30
0.0
 10
4.225525955201082
 20
2.94713107487378
 30
0.0
 10
4.221364516322577
 20
2.94713107487378
 30
0.0
 10
4.213058762062722
 20
2.94713107487378
 30
0.0
  0
LINE
  5
26D
330
4AD
100
AcDbEntity
  8
ninja1 - Level 26
  6
Continuous
 62
     7
370
    13
100
AcDbLine
 10
4.22541
 20
2.947131
 30
0.0
 11
4.22541
 21
2.969131
 31
0.0
  0
SPLINE
  5
26E
330
4AD
100
AcDbEntity
  8
ninja1 - Level 26
  6
Continuous
 62
     7
370
    13
100
AcDbSpline
210
0.0
220
0.0
230
1.0
 70
    24
 71
     3
 72
     8
 73
     4
 74
     0
 42
0.000000001
 43
0.0000000001
 40
0.0
 40
0.0
 40
0.0
 40
0.0
 40
1.0
 40
1.0
 40
1.0
 40
1.0
 10
4.213058762062722
 20
2.96913107487378
 30
0.0
 10
4.221375115075422
 20
2.96913107487378
 30
0.0
 10
4.225513686476892
 20
2.96913107487378
 30
0.0
 10
4.225409547129151
 20
2.96913107487378
 30
0.0
  0
SPLINE
  5
271
330
4AD
100
AcDbEntity
  8
ninja1 - Level 26
  6
Continuous
 62
     7
370
    13
100
AcDbSpline
210
0.0
220
0.0
230
1.0
 70
     8
 71
     3
 72
    11
 73
     7
 74
     0
 42
0.000000001
 43
0.0000000001
 40
0.0
 40
0.0
 40
0.0
 40
0.0
 40
0.2499936397304669
 40
0.4999923365644875
 40
0.7499950556671867
 40
1.0
 40
1.0
 40
1.0
 40
1.0
 10
4.221409281906997
 20
2.94313107487378
 30
0.0
 10
4.221933469944078
 20
2.943191202506542
 30
0.0
 10
4.22298185662199
 20
2.943311458988384
 30
0.0
 10
4.224304112275897
 20
2.94423646068298
 30
0.0
 10
4.225229159403097
 20
2.945558637114604
 30
0.0
 10
4.225349417711794
 20
2.946606927398954
 30
0.0
 10
4.22540954713374
 20
2.94713107487378
 30
0.0
  0
SPLINE
  5
274
330
4AD
100
AcDbEntity
  8
ninja1 - Level 26
  6
Continuous
 62
     7
370
    13
100
AcDbSpline
210
0.0
220
0.0
230
1.0
 70
    24
 71
     3
 72
     9
 73
     5
 74
     0
 42
0.000000001
 43
0.0000000001
 40
0.0
 40
0.0
 40
0.0
 40
0.0
 40
0.9088378728526297
 40
1.0
 40
1.0
 40
1.0
 40
1.0
 10
4.211083240312821
 20
2.94313107487378
 30
0.0
 10
4.217460622528349
 20
2.94313107487378
 30
0.0
 10
4.221174803148681
 20
2.94313107487378
 30
0.0
 10
4.221388175430274
 20
2.94313107487378
 30
0.0
 10
4.221409281359476
 20
2.94313107487378
 30
0.0
  0
SPLINE
  5
277
330
4AD
100
AcDbEntity
  8
ninja1 - Level 26
  6
Continuous
 62
     7
370
    13
100
AcDbSpline
210
0.0
220
0.0
230
1.0
 70
     8
 71
     3
 72
    11
 73
     7
 74
     0
 42
0.000000001
 43
0.0000000001
 40
0.0
 40
0.0
 40
0.0
 40
0.0
 40
0.2500020350216961
 40
0.5000031507163518
 40
0.7500026126524688
 40
1.0
 40
1.0
 40
1.0
 40
1.0
 10
4.225409547133941
 20
2.96913107487378
 30
0.0
 10
4.225349419530303
 20
2.96965522275898
 30
0.0
 10
4.225229164544135
 20
2.970703516601944
 30
0.0
 10
4.224304146998798
 20
2.972025695004065
 30
0.0
 10
4.222981936057861
 20
2.97295069385095
 30
0.0
 10
4.221933602653039
 20
2.97307094803249
 30
0.0
 10
4.221409438125501
 20
2.97313107487378
 30
0.0
  0
SPLINE
  5
27A
330
4AD
100
AcDbEntity
  8
ninja1 - Level 26
  6
Continuous
 62
     7
370
    13
100
AcDbSpline
210
0.0
220
0.0
230
1.0
 70
    24
 71
     3
 72
     8
 73
     4
 74
     0
 42
0.000000001
 43
0.0000000001
 40
0.0
 40
0.0
 40
0.0
 40
0.0
 40
1.0
 40
1.0
 40
1.0
 40
1.0
 10
4.221409435712514
 20
2.97313107487378
 30
0.0
 10
4.221522978491315
 20
2.97313107487378
 30
0.0
 10
4.218165253644421
 20
2.97313107487378
 30
0.0
 10
4.211083240312815
 20
2.97313107487378
 30
0.0
  0
LINE
  5
27D
330
4AD
100
AcDbEntity
  8
ninja1 - Level 26
  6
Continuous
 62
     7
370
    13
100
AcDbLine
 10
4.12889
 20
2.988131
 30
0.0
 11
4.12889
 21
2.973131
 31
0.0
  0
LINE
  5
27E
330
4AD
100
AcDbEntity
  8
ninja1 - Level 26
  6
Continuous
 62
     7
370
    13
100
AcDbLine
 10
4.210259
 20
2.973131
 30
0.0
 11
4.210259
 21
2.988131
 31
0.0
  0
SPLINE
  5
27F
330
4AD
100
AcDbEntity
  8
ninja1 - Level 26
  6
Continuous
 62
     7
370
    13
100
AcDbSpline
210
0.0
220
0.0
230
1.0
 70
    24
 71
     3
 72
    36
 73
    32
 74
     0
 42
0.000000001
 43
0.0000000001
 40
0.0
 40
0.0
 40
0.0
 40
0.0
 40
0.0057514671503429
 40
0.0180476954717664
 40
0.0240207123244458
 40
0.0338621727401757
 40
0.043761570965716
 40
0.0765971900960059
 40
0.088860206788015
 40
0.0992378060204241
 40
0.170970776841905
 40
0.1875552342777238
 40
0.2001090231326195
 40
0.2130675723713928
 40
0.2318317052741446
 40
0.2510441413791953
 40
0.3846168552479042
 40
0.4052525388640557
 40
0.468084015969389
 40
0.4971937102677334
 40
0.5266970732425981
 40
0.5380101422056109
 40
0.5496572372078443
 40
0.5961117509196644
 40
0.6195953900743123
 40
0.7157718470067454
 40
0.7534869484570902
 40
0.7652111711559452
 40
0.9530863784572883
 40
0.9844155164984339
 40
1.0
 40
1.0
 40
1.0
 40
1.0
 10
3.508620864845271
 20
2.947131074873774
 30
0.0
 10
3.508614274608288
 20
2.947131074873774
 30
0.0
 10
3.508590139475348
 20
2.947131074873774
 30
0.0
 10
3.508304479768037
 20
2.947131074873774
 30
0.0
 10
3.507526551084214
 20
2.947131074873774
 30
0.0
 10
3.506570245858491
 20
2.947131074873774
 30
0.0
 10
3.504336339600722
 20
2.947131074873774
 30
0.0
 10
3.50175850482769
 20
2.947131074873774
 30
0.0
 10
3.499491498547641
 20
2.947131074873774
 30
0.0
 10
3.496518281805724
 20
2.947131074873774
 30
0.0
 10
3.496472017761491
 20
2.947131074873774
 30
0.0
 10
3.494635207684614
 20
2.947131074873774
 30
0.0
 10
3.493544889205345
 20
2.947131074873774
 30
0.0
 10
3.492018692986262
 20
2.947131074873774
 30
0.0
 10
3.489919110126042
 20
2.947131074873774
 30
0.0
 10
3.482038092333386
 20
2.947131074873774
 30
0.0
 10
3.47191603956497
 20
2.947131074873774
 30
0.0
 10
3.462949745462005
 20
2.947131074873774
 30
0.0
 10
3.458973209959658
 20
2.947131074873774
 30
0.0
 10
3.454665047365063
 20
2.947131074873774
 30
0.0
 10
3.451851628145398
 20
2.947131074873774
 30
0.0
 10
3.449416790115388
 20
2.947131074873774
 30
0.0
 10
3.445865067103746
 20
2.947131074873774
 30
0.0
 10
3.44153774492433
 20
2.947131074873774
 30
0.0
 10
3.433432196061901
 20
2.947131074873774
 30
0.0
 10
3.426263622566842
 20
2.947131074873773
 30
0.0
 10
3.418663925388036
 20
2.947131074873774
 30
0.0
 10
3.406323455712636
 20
2.947131074873773
 30
0.0
 10
3.399206754977718
 20
2.947131074873773
 30
0.0
 10
3.397291733133044
 20
2.947131074873773
 30
0.0
 10
3.397259250793763
 20
2.947131074873773
 30
0.0
 10
3.397241536768121
 20
2.947131074873773
 30
0.0
  0
SPLINE
  5
282
330
4AD
100
AcDbEntity
  8
ninja1 - Level 26
  6
Continuous
 62
     7
370
    13
100
AcDbSpline
210
0.0
220
0.0
230
1.0
 70
     8
 71
     3
 72
    11
 73
     7
 74
     0
 42
0.000000001
 43
0.0000000001
 40
0.0
 40
0.0
 40
0.0
 40
0.0
 40
0.2500049443328052
 40
0.5000076634354968
 40
0.7500063602694947
 40
1.0
 40
1.0
 40
1.0
 40
1.0
 10
3.397241536768336
 20
2.947131074873773
 30
0.0
 10
3.397301666190286
 20
2.946606927398948
 30
0.0
 10
3.397421924498985
 20
2.945558637114598
 30
0.0
 10
3.398346971626184
 20
2.944236460682974
 30
0.0
 10
3.399669227280086
 20
2.943311458988378
 30
0.0
 10
3.400717613958005
 20
2.943191202506536
 30
0.0
 10
3.401241801995082
 20
2.943131074873774
 30
0.0
  0
SPLINE
  5
285
330
4AD
100
AcDbEntity
  8
ninja1 - Level 26
  6
Continuous
 62
     7
370
    13
100
AcDbSpline
210
0.0
220
0.0
230
1.0
 70
    24
 71
     3
 72
    27
 73
    23
 74
     0
 42
0.000000001
 43
0.0000000001
 40
0.0
 40
0.0
 40
0.0
 40
0.0
 40
0.0152793790750929
 40
0.2105059059124923
 40
0.2183958439959817
 40
0.2261888856599417
 40
0.2585503896792415
 40
0.2833536242746113
 40
0.4522373536925525
 40
0.4692354360090534
 40
0.5221021933988896
 40
0.599974047895858
 40
0.7585735836385058
 40
0.7912416648475987
 40
0.8382868634370074
 40
0.9248436546331754
 40
0.9415667563776533
 40
0.9586539123547128
 40
0.9753059018254409
 40
0.9837834871284998
 40
0.992136398461236
 40
1.0
 40
1.0
 40
1.0
 40
1.0
 10
3.401241802231917
 20
2.943131074873774
 30
0.0
 10
3.401227976653317
 20
2.943131074873774
 30
0.0
 10
3.401648944619373
 20
2.943131074873774
 30
0.0
 10
3.406958207448703
 20
2.943131074873774
 30
0.0
 10
3.416278913254893
 20
2.943131074873774
 30
0.0
 10
3.418637173096335
 20
2.943131074873774
 30
0.0
 10
3.421796104790995
 20
2.943131074873774
 30
0.0
 10
3.431621484736333
 20
2.943131074873774
 30
0.0
 10
3.441014942462873
 20
2.943131074873774
 30
0.0
 10
3.452546525688638
 20
2.943131074873774
 30
0.0
 10
3.45840450921742
 20
2.943131074873774
 30
0.0
 10
3.466387994839847
 20
2.943131074873774
 30
0.0
 10
3.47980713570326
 20
2.943131074873774
 30
0.0
 10
3.490561465984856
 20
2.943131074873774
 30
0.0
 10
3.492680695950755
 20
2.943131074873774
 30
0.0
 10
3.493704645495006
 20
2.943131074873774
 30
0.0
 10
3.498408009334665
 20
2.943131074873774
 30
0.0
 10
3.5004045851184
 20
2.943131074873774
 30
0.0
 10
3.502174547715936
 20
2.943131074873774
 30
0.0
 10
3.503510179453864
 20
2.943131074873774
 30
0.0
 10
3.504552772669345
 20
2.943131074873774
 30
0.0
 10
3.504598421168825
 20
2.943131074873774
 30
0.0
 10
3.504620556729877
 20
2.943131074873774
 30
0.0
  0
SPLINE
  5
288
330
4AD
100
AcDbEntity
  8
ninja1 - Level 26
  6
Continuous
 62
     7
370
    13
100
AcDbSpline
210
0.0
220
0.0
230
1.0
 70
     8
 71
     3
 72
    11
 73
     7
 74
     0
 42
0.000000001
 43
0.0000000001
 40
0.0
 40
0.0
 40
0.0
 40
0.0
 40
0.2499911790043317
 40
0.4999892208158017
 40
0.7499930439376904
 40
1.0
 40
1.0
 40
1.0
 40
1.0
 10
3.504620547724407
 20
2.943131074873774
 30
0.0
 10
3.505144730839441
 20
2.943191202948269
 30
0.0
 10
3.506193111459477
 20
2.943311460747906
 30
0.0
 10
3.507515393129939
 20
2.944236465129351
 30
0.0
 10
3.508440467300222
 20
2.945558639843511
 30
0.0
 10
3.508560732062204
 20
2.946606927674252
 30
0.0
 10
3.508620864819965
 20
2.947131074873774
 30
0.0
  0
LINE
  5
28B
330
4AD
100
AcDbEntity
  8
ninja1 - Level 26
  6
Continuous
 62
     7
370
    13
100
AcDbLine
 10
3.504621
 20
2.943131
 30
0.0
 11
3.504621
 21
2.943131
 31
0.0
  0
ARC
  5
28C
330
4AD
100
AcDbEntity
  8
ninja1 - Level 26
  6
Continuous
 62
     7
370
    13
100
AcDbCircle
 10
3.503905
 20
2.947131
 30
0.0
 40
0.004
100
AcDbArc
 50
270.0
 51
280.231178
  0
SPLINE
  5
28D
330
4AD
100
AcDbEntity
  8
ninja1 - Level 26
  6
Continuous
 62
     7
370
    13
100
AcDbSpline
210
0.0
220
0.0
230
1.0
 70
    24
 71
     3
 72
    32
 73
    28
 74
     0
 42
0.000000001
 43
0.0000000001
 40
0.0
 40
0.0
 40
0.0
 40
0.0
 40
0.1944881223448007
 40
0.2614397976369683
 40
0.2889120600959815
 40
0.3872956893271178
 40
0.4523620692279485
 40
0.4634552817902317
 40
0.4748917285172618
 40
0.4940419362593739
 40
0.5135117208331735
 40
0.5902441011933806
 40
0.7442565651685474
 40
0.7652658752246874
 40
0.7812136668343338
 40
0.7893858288344214
 40
0.7975503303740238
 40
0.8136118203491941
 40
0.8303108698003811
 40
0.9018469410903446
 40
0.9114620773760393
 40
0.9213970233316345
 40
0.956972062934142
 40
0.9722531671982993
 40
0.9826143061631352
 40
0.9915156476315097
 40
1.0
 40
1.0
 40
1.0
 40
1.0
 10
3.397241536772926
 20
2.969131074873773
 30
0.0
 10
3.39740713217227
 20
2.969131074873773
 30
0.0
 10
3.40303998167525
 20
2.969131074873773
 30
0.0
 10
3.41748548075403
 20
2.969131074873774
 30
0.0
 10
3.427632824898787
 20
2.969131074873774
 30
0.0
 10
3.43601235451028
 20
2.969131074873774
 30
0.0
 10
3.445165511759164
 20
2.969131074873774
 30
0.0
 10
3.449669786935224
 20
2.969131074873774
 30
0.0
 10
3.451570196660404
 20
2.969131074873774
 30
0.0
 10
3.453621916054661
 20
2.969131074873774
 30
0.0
 10
3.458057917859874
 20
2.969131074873774
 30
0.0
 10
3.46588220021206
 20
2.969131074873774
 30
0.0
 10
3.480193328234177
 20
2.969131074873774
 30
0.0
 10
3.489384179004991
 20
2.969131074873774
 30
0.0
 10
3.491214874957839
 20
2.969131074873774
 30
0.0
 10
3.492465734476008
 20
2.969131074873774
 30
0.0
 10
3.493576913301614
 20
2.969131074873774
 30
0.0
 10
3.49465319080578
 20
2.969131074873774
 30
0.0
 10
3.496480689908954
 20
2.969131074873774
 30
0.0
 10
3.496561285947938
 20
2.969131074873774
 30
0.0
 10
3.49947993516734
 20
2.969131074873774
 30
0.0
 10
3.501698144290375
 20
2.969131074873774
 30
0.0
 10
3.504574186851686
 20
2.969131074873774
 30
0.0
 10
3.507127824498719
 20
2.969131074873774
 30
0.0
 10
3.50819203510255
 20
2.969131074873774
 30
0.0
 10
3.508575963244153
 20
2.969131074873774
 30
0.0
 10
3.508606138957294
 20
2.969131074873774
 30
0.0
 10
3.508620864937492
 20
2.969131074873774
 30
0.0
  0
LINE
  5
290
330
4AD
100
AcDbEntity
  8
ninja1 - Level 26
  6
Continuous
 62
     7
370
    13
100
AcDbLine
 10
3.397242
 20
2.969131
 30
0.0
 11
3.397242
 21
2.947131
 31
0.0
  0
LINE
  5
291
330
4AD
100
AcDbEntity
  8
ninja1 - Level 26
  6
Continuous
 62
     7
370
    13
100
AcDbLine
 10
3.508621
 20
2.947131
 30
0.0
 11
3.508621
 21
2.969131
 31
0.0
  0
LINE
  5
292
330
4AD
100
AcDbEntity
  8
ninja1 - Level 26
  6
Continuous
 62
     7
370
    13
100
AcDbLine
 10
3.507905
 20
2.947131
 30
0.0
 11
3.507905
 21
2.969131
 31
0.0
  0
SPLINE
  5
293
330
4AD
100
AcDbEntity
  8
ninja1 - Level 26
  6
Continuous
 62
     7
370
    13
100
AcDbSpline
210
0.0
220
0.0
230
1.0
 70
     8
 71
     3
 72
    11
 73
     7
 74
     0
 42
0.000000001
 43
0.0000000001
 40
0.0
 40
0.0
 40
0.0
 40
0.0
 40
0.2500126008734935
 40
0.5000187260381139
 40
0.7500148125412681
 40
1.0
 40
1.0
 40
1.0
 40
1.0
 10
3.508620862298496
 20
2.969131074873774
 30
0.0
 10
3.508560719662672
 20
2.969655220874341
 30
0.0
 10
3.508440435948811
 20
2.97070349929929
 30
0.0
 10
3.507515295719171
 20
2.972025674379757
 30
0.0
 10
3.506192937690892
 20
2.972950685041015
 30
0.0
 10
3.505144499545128
 20
2.973070945803372
 30
0.0
 10
3.504620291899648
 20
2.973131074873774
 30
0.0
  0
SPLINE
  5
296
330
4AD
100
AcDbEntity
  8
ninja1 - Level 26
  6
Continuous
 62
     7
370
    13
100
AcDbSpline
210
0.0
220
0.0
230
1.0
 70
    24
 71
     3
 72
    34
 73
    30
 74
     0
 42
0.000000001
 43
0.0000000001
 40
0.0
 40
0.0
 40
0.0
 40
0.0
 40
0.0055705488685888
 40
0.0103219324837893
 40
0.020469967532423
 40
0.0405620072799746
 40
0.0606347804898744
 40
0.0757477468404629
 40
0.091304686315247
 40
0.1773676945637345
 40
0.1899033184513811
 40
0.2027942071291777
 40
0.215420949169743
 40
0.2284618355285601
 40
0.2459074668741147
 40
0.3567627318556405
 40
0.3826861031009883
 40
0.4029247353979394
 40
0.4637925504122129
 40
0.4878984051937885
 40
0.5288861834496329
 40
0.6335618851499291
 40
0.7724876468797656
 40
0.7810505419375642
 40
0.7895053452427014
 40
0.8149192021988184
 40
0.9674002996089768
 40
0.9853320982858644
 40
1.0
 40
1.0
 40
1.0
 40
1.0
 10
3.504620291899648
 20
2.973131074873774
 30
0.0
 10
3.504628804360746
 20
2.973131074873774
 30
0.0
 10
3.504644577501015
 20
2.973131074873774
 30
0.0
 10
3.504190644201988
 20
2.973131074873774
 30
0.0
 10
3.502717547601898
 20
2.973131074873774
 30
0.0
 10
3.500673662341645
 20
2.973131074873774
 30
0.0
 10
3.498406206255677
 20
2.973131074873774
 30
0.0
 10
3.496572105899887
 20
2.973131074873774
 30
0.0
 10
3.492955249454832
 20
2.973131074873774
 30
0.0
 10
3.492661436891727
 20
2.973131074873774
 30
0.0
 10
3.49107583543018
 20
2.973131074873774
 30
0.0
 10
3.49017342060788
 20
2.973131074873774
 30
0.0
 10
3.48881158847851
 20
2.973131074873774
 30
0.0
 10
3.487162495955015
 20
2.973131074873774
 30
0.0
 10
3.481059109540659
 20
2.973131074873774
 30
0.0
 10
3.472917647158788
 20
2.973131074873774
 30
0.0
 10
3.466982677041989
 20
2.973131074873774
 30
0.0
 10
3.463250276292333
 20
2.973131074873774
 30
0.0
 10
3.459933722617486
 20
2.973131074873774
 30
0.0
 10
3.455698061852375
 20
2.973131074873774
 30
0.0
 10
3.448558658207903
 20
2.973131074873774
 30
0.0
 10
3.434281909286996
 20
2.973131074873774
 30
0.0
 10
3.424363301154948
 20
2.973131074873773
 30
0.0
 10
3.416563216504172
 20
2.973131074873773
 30
0.0
 10
3.414605921527362
 20
2.973131074873773
 30
0.0
 10
3.407043578544518
 20
2.973131074873773
 30
0.0
 10
3.402343580400128
 20
2.973131074873773
 30
0.0
 10
3.401293472817322
 20
2.973131074873773
 30
0.0
 10
3.401258143995283
 20
2.973131074873773
 30
0.0
 10
3.401241644572551
 20
2.973131074873773
 30
0.0
  0
SPLINE
  5
299
330
4AD
100
AcDbEntity
  8
ninja1 - Level 26
  6
Continuous
 62
     7
370
    13
100
AcDbSpline
210
0.0
220
0.0
230
1.0
 70
     8
 71
     3
 72
    11
 73
     7
 74
     0
 42
0.000000001
 43
0.0000000001
 40
0.0
 40
0.0
 40
0.0
 40
0.0
 40
0.2499973873475659
 40
0.4999968492836597
 40
0.7499979649783036
 40
1.0
 40
1.0
 40
1.0
 40
1.0
 10
3.401241645776579
 20
2.973131074873773
 30
0.0
 10
3.400717481249044
 20
2.973070948032484
 30
0.0
 10
3.399669147844222
 20
2.972950693850944
 30
0.0
 10
3.398346936903285
 20
2.972025695004059
 30
0.0
 10
3.397421919357945
 20
2.970703516601938
 30
0.0
 10
3.397301664371774
 20
2.969655222758974
 30
0.0
 10
3.397241536768139
 20
2.969131074873773
 30
0.0
  0
LINE
  5
29C
330
4AD
100
AcDbEntity
  8
ninja1 - Level 26
  6
Continuous
 62
     7
370
    13
100
AcDbLine
 10
3.493762
 20
2.973131
 30
0.0
 11
3.493762
 21
2.988131
 31
0.0
  0
LINE
  5
29D
330
4AD
100
AcDbEntity
  8
ninja1 - Level 26
  6
Continuous
 62
     7
370
    13
100
AcDbLine
 10
3.412392
 20
2.988131
 30
0.0
 11
3.412392
 21
2.973131
 31
0.0
  0
ELLIPSE
  5
29E
330
4AD
100
AcDbEntity
  8
ninja1 - Level 26
  6
Continuous
 62
     7
370
    13
100
AcDbEllipse
 10
3.504888
 20
2.969131
 30
0.0
 11
0.0
 21
0.004
 31
0.0
210
0.0
220
0.0
230
-1.0
 40
0.9999996263961531
 41
0.0003377722891333
 42
1.570831405927463
  0
SPLINE
  5
29F
330
4AD
100
AcDbEntity
  8
ninja1 - Level 26
  6
Continuous
 62
     7
370
    13
100
AcDbSpline
210
0.0
220
0.0
230
1.0
 70
    24
 71
     3
 72
     8
 73
     4
 74
     0
 42
0.000000001
 43
0.0000000001
 40
0.0
 40
0.0
 40
0.0
 40
0.0
 40
1.0
 40
1.0
 40
1.0
 40
1.0
 10
3.504887654645051
 20
2.973131074873774
 30
0.0
 10
3.504889858614278
 20
2.973131074873774
 30
0.0
 10
3.50486499982865
 20
2.973131074873774
 30
0.0
 10
3.504838666334809
 20
2.973131074873774
 30
0.0
  0
SPLINE
  5
2A2
330
4AD
100
AcDbEntity
  8
ninja1 - Level 26
  6
Continuous
 62
     7
370
    13
100
AcDbSpline
210
0.0
220
0.0
230
1.0
 70
    24
 71
     3
 72
     8
 73
     4
 74
     0
 42
0.000000001
 43
0.0000000001
 40
0.0
 40
0.0
 40
0.0
 40
0.0
 40
1.0
 40
1.0
 40
1.0
 40
1.0
 10
3.508654731299099
 20
2.969131074873774
 30
0.0
 10
3.508773457231427
 20
2.969131074873774
 30
0.0
 10
3.50889196255496
 20
2.969131074873774
 30
0.0
 10
3.508887653395239
 20
2.969131074873774
 30
0.0
  0
SPLINE
  5
2A5
330
4AD
100
AcDbEntity
  8
ninja1 - Level 26
  6
Continuous
 62
     7
370
    13
100
AcDbSpline
210
0.0
220
0.0
230
1.0
 70
    24
 71
     3
 72
     8
 73
     4
 74
     0
 42
0.000000001
 43
0.0000000001
 40
0.0
 40
0.0
 40
0.0
 40
0.0
 40
1.0
 40
1.0
 40
1.0
 40
1.0
 10
3.508887692683781
 20
2.947131074873774
 30
0.0
 10
3.508850495595974
 20
2.947131074873774
 30
0.0
 10
3.508803836691848
 20
2.947131074873774
 30
0.0
 10
3.508635371995143
 20
2.947131074873774
 30
0.0
  0
LINE
  5
2A8
330
4AD
100
AcDbEntity
  8
ninja1 - Level 26
  6
Continuous
 62
     7
370
    13
100
AcDbLine
 10
3.508888
 20
2.947131
 30
0.0
 11
3.508888
 21
2.969131
 31
0.0
  0
ELLIPSE
  5
2A9
330
4AD
100
AcDbEntity
  8
ninja1 - Level 26
  6
Continuous
 62
     7
370
    13
100
AcDbEllipse
 10
3.504888
 20
2.947131
 30
0.0
 11
0.0
 21
0.004
 31
0.0
210
0.0
220
0.0
230
-1.0
 40
0.999999684171574
 41
1.570258504565737
 42
3.141333431238257
  0
LINE
  5
2AA
330
4AD
100
AcDbEntity
  8
ninja1 - Level 26
  6
Continuous
 62
     7
370
    13
100
AcDbLine
 10
3.504823
 20
2.943131
 30
0.0
 11
3.504888
 21
2.943131
 31
0.0
  0
LINE
  5
2AB
330
4AD
100
AcDbEntity
  8
ninja1 - Level 25
  6
Continuous
 62
     7
370
    13
100
AcDbLine
 10
2.835194
 20
3.038131
 30
0.0
 11
2.830194
 21
3.038131
 31
0.0
  0
LINE
  5
2AC
330
4AD
100
AcDbEntity
  8
ninja1 - Level 25
  6
Continuous
 62
     7
370
    13
100
AcDbLine
 10
2.835194
 20
3.038131
 30
0.0
 11
2.835194
 21
2.998131
 31
0.0
  0
LINE
  5
2AD
330
4AD
100
AcDbEntity
  8
ninja1 - Level 25
  6
Continuous
 62
     7
370
    13
100
AcDbLine
 10
2.835194
 20
2.998131
 30
0.0
 11
2.830194
 21
2.998131
 31
0.0
  0
LINE
  5
2AE
330
4AD
100
AcDbEntity
  8
ninja1 - Level 25
  6
Continuous
 62
     7
370
    13
100
AcDbLine
 10
2.835194
 20
2.983131
 30
0.0
 11
2.835194
 21
2.998131
 31
0.0
  0
LINE
  5
2AF
330
4AD
100
AcDbEntity
  8
ninja1 - Level 25
  6
Continuous
 62
     7
370
    13
100
AcDbLine
 10
2.835194
 20
2.983131
 30
0.0
 11
2.830194
 21
2.983131
 31
0.0
  0
LINE
  5
2B0
330
4AD
100
AcDbEntity
  8
ninja1 - Level 25
  6
Continuous
 62
     7
370
    13
100
AcDbLine
 10
2.830194
 20
2.983131
 30
0.0
 11
2.830194
 21
2.998131
 31
0.0
  0
LINE
  5
2B1
330
4AD
100
AcDbEntity
  8
ninja1 - Level 25
  6
Continuous
 62
     7
370
    13
100
AcDbLine
 10
2.835194
 20
3.053131
 30
0.0
 11
2.830194
 21
3.053131
 31
0.0
  0
LINE
  5
2B2
330
4AD
100
AcDbEntity
  8
ninja1 - Level 25
  6
Continuous
 62
     7
370
    13
100
AcDbLine
 10
2.835194
 20
3.038131
 30
0.0
 11
2.835194
 21
3.053131
 31
0.0
  0
LINE
  5
2B3
330
4AD
100
AcDbEntity
  8
ninja1 - Level 25
  6
Continuous
 62
     7
370
    13
100
AcDbLine
 10
2.830194
 20
3.038131
 30
0.0
 11
2.830194
 21
3.053131
 31
0.0
  0
LINE
  5
2B4
330
4AD
100
AcDbEntity
  8
ninja1 - Level 25
  6
Continuous
 62
     7
370
    13
100
AcDbLine
 10
2.835194
 20
2.993131
 30
0.0
 11
2.835194
 21
2.998131
 31
0.0
  0
LINE
  5
2B5
330
4AD
100
AcDbEntity
  8
ninja1 - Level 25
  6
Continuous
 62
     7
370
    13
100
AcDbLine
 10
2.835194
 20
3.038131
 30
0.0
 11
2.835194
 21
3.043131
 31
0.0
  0
LINE
  5
2B6
330
4AD
100
AcDbEntity
  8
ninja1 - Level 25
  6
Continuous
 62
     7
370
    13
100
AcDbLine
 10
5.825194
 20
3.043131
 30
0.0
 11
5.825194
 21
3.038131
 31
0.0
  0
LINE
  5
2B7
330
4AD
100
AcDbEntity
  8
ninja1 - Level 25
  6
Continuous
 62
     7
370
    13
100
AcDbLine
 10
5.825194
 20
2.998131
 30
0.0
 11
5.825194
 21
2.993131
 31
0.0
  0
LINE
  5
2B8
330
4AD
100
AcDbEntity
  8
ninja1 - Level 25
  6
Continuous
 62
     7
370
    13
100
AcDbLine
 10
5.825194
 20
2.993131
 30
0.0
 11
2.835194
 21
2.993131
 31
0.0
  0
LINE
  5
2B9
330
4AD
100
AcDbEntity
  8
ninja1 - Level 25
  6
Continuous
 62
     7
370
    13
100
AcDbLine
 10
2.835194
 20
3.043131
 30
0.0
 11
5.825194
 21
3.043131
 31
0.0
  0
ARC
  5
2BA
330
4AD
100
AcDbEntity
  8
ninja1 - Level 26
  6
Continuous
 62
     7
370
    13
100
AcDbCircle
 10
3.167194
 20
2.988131
 30
0.0
 40
0.01
100
AcDbArc
 50
180.0
 51
0.0
  0
ARC
  5
2BB
330
4AD
100
AcDbEntity
  8
ninja1 - Level 26
  6
Continuous
 62
     7
370
    13
100
AcDbCircle
 10
3.742194
 20
2.988131
 30
0.0
 40
0.01
100
AcDbArc
 50
180.0
 51
0.0
  0
ARC
  5
2BC
330
4AD
100
AcDbEntity
  8
ninja1 - Level 26
  6
Continuous
 62
     7
370
    13
100
AcDbCircle
 10
4.317194
 20
2.988131
 30
0.0
 40
0.01
100
AcDbArc
 50
180.0
 51
0.0
  0
ARC
  5
2BD
330
4AD
100
AcDbEntity
  8
ninja1 - Level 26
  6
Continuous
 62
     7
370
    13
100
AcDbCircle
 10
4.343194
 20
2.988131
 30
0.0
 40
0.01
100
AcDbArc
 50
180.0
 51
0.0
  0
LINE
  5
2BE
330
4AD
100
AcDbEntity
  8
ninja1 - Level 26
  6
Continuous
 62
     7
370
    13
100
AcDbLine
 10
5.1515
 20
2.969131
 30
0.0
 11
5.1515
 21
2.969131
 31
0.0
  0
ELLIPSE
  5
2BF
330
4AD
100
AcDbEntity
  8
ninja1 - Level 26
  6
Continuous
 62
     7
370
    13
100
AcDbEllipse
 10
5.1555
 20
2.969131
 30
0.0
 11
0.0
 21
0.004
 31
0.0
210
0.0
220
0.0
230
-1.0
 40
0.9999996263961531
 41
4.712424059517251
 42
6.282847534890542
  0
SPLINE
  5
2C0
330
4AD
100
AcDbEntity
  8
ninja1 - Level 26
  6
Continuous
 62
     7
370
    13
100
AcDbSpline
210
0.0
220
0.0
230
1.0
 70
    24
 71
     3
 72
    24
 73
    20
 74
     0
 42
0.000000001
 43
0.0000000001
 40
0.0
 40
0.0
 40
0.0
 40
0.0
 40
0.0260618866857388
 40
0.0523519554200568
 40
0.1561937332335213
 40
0.2677232298614556
 40
0.380263752941755
 40
0.4372360235636919
 40
0.4594288409065744
 40
0.5338747851392512
 40
0.6208411447955475
 40
0.6877931925562481
 40
0.8728928220302607
 40
0.9227530757484499
 40
0.9508209239760647
 40
0.9591765142784936
 40
0.9690971832085255
 40
0.9888084644688374
 40
1.0
 40
1.0
 40
1.0
 40
1.0
 10
5.248819794387362
 20
2.973131074873787
 30
0.0
 10
5.247965518513639
 20
2.973131074873787
 30
0.0
 10
5.246286650008446
 20
2.973131074873787
 30
0.0
 10
5.240793654021073
 20
2.973131074873787
 30
0.0
 10
5.233128962207612
 20
2.973131074873787
 30
0.0
 10
5.225054398837245
 20
2.973131074873787
 30
0.0
 10
5.216779145718523
 20
2.973131074873787
 30
0.0
 10
5.209848384016508
 20
2.973131074873787
 30
0.0
 10
5.204290864601196
 20
2.973131074873787
 30
0.0
 10
5.199286356619972
 20
2.973131074873787
 30
0.0
 10
5.192531394933752
 20
2.973131074873787
 30
0.0
 10
5.180132148657425
 20
2.973131074873787
 30
0.0
 10
5.168774186631027
 20
2.973131074873787
 30
0.0
 10
5.159276782895488
 20
2.973131074873787
 30
0.0
 10
5.156834032831373
 20
2.973131074873787
 30
0.0
 10
5.155844717237525
 20
2.973131074873787
 30
0.0
 10
5.155425191557911
 20
2.973131074873787
 30
0.0
 10
5.15544780112527
 20
2.973131074873787
 30
0.0
 10
5.155486109759856
 20
2.973131074873787
 30
0.0
 10
5.155499983331575
 20
2.973131074873787
 30
0.0
  0
ELLIPSE
  5
2C3
330
4AD
100
AcDbEntity
  8
ninja1 - Level 26
  6
Continuous
 62
     7
370
    13
100
AcDbEllipse
 10
5.24882
 20
2.969131
 30
0.0
 11
0.0
 21
-0.004
 31
0.0
210
0.0
220
0.0
230
1.0
 40
0.4938804374758785
 41
1.570796326794894
 42
3.141592653589817
  0
SPLINE
  5
2C4
330
4AD
100
AcDbEntity
  8
ninja1 - Level 26
  6
Continuous
 62
     7
370
    13
100
AcDbSpline
210
0.0
220
0.0
230
1.0
 70
    24
 71
     3
 72
    24
 73
    20
 74
     0
 42
0.000000001
 43
0.0000000001
 40
0.0
 40
0.0
 40
0.0
 40
0.0
 40
0.0220716056612631
 40
0.194107481898228
 40
0.3895986860900242
 40
0.4076860975943215
 40
0.5392954564226303
 40
0.5548432033892622
 40
0.643553894905876
 40
0.700046056194711
 40
0.7578942729303141
 40
0.8105310950707803
 40
0.8632114455015056
 40
0.8854852118846071
 40
0.9078910439341639
 40
0.930257781132855
 40
0.953522365273772
 40
0.9767856051931746
 40
1.0
 40
1.0
 40
1.0
 40
1.0
 10
5.1514999452922
 20
2.969131074873787
 30
0.0
 10
5.151322594788211
 20
2.969131074873787
 30
0.0
 10
5.151454032682249
 20
2.969131074873787
 30
0.0
 10
5.168060498450486
 20
2.969131074873787
 30
0.0
 10
5.183084930659719
 20
2.969131074873787
 30
0.0
 10
5.19603938685407
 20
2.969131074873787
 30
0.0
 10
5.199965096037235
 20
2.969131074873787
 30
0.0
 10
5.208916157837943
 20
2.969131074873787
 30
0.0
 10
5.215513440349017
 20
2.969131074873787
 30
0.0
 10
5.222255851761851
 20
2.969131074873787
 30
0.0
 10
5.227359956288215
 20
2.969131074873787
 30
0.0
 10
5.232079260636135
 20
2.969131074873787
 30
0.0
 10
5.235577052021783
 20
2.969131074873787
 30
0.0
 10
5.238504453066846
 20
2.969131074873787
 30
0.0
 10
5.240781964378603
 20
2.969131074873787
 30
0.0
 10
5.243217672021006
 20
2.969131074873787
 30
0.0
 10
5.245757348923175
 20
2.969131074873787
 30
0.0
 10
5.248331279472637
 20
2.969131074873787
 30
0.0
 10
5.249974546239554
 20
2.969131074873787
 30
0.0
 10
5.250795316137265
 20
2.969131074873787
 30
0.0
  0
LINE
  5
2C7
330
4AD
100
AcDbEntity
  8
ninja1 - Level 26
  6
Continuous
 62
     7
370
    13
100
AcDbLine
 10
5.1515
 20
2.969131
 30
0.0
 11
5.1515
 21
2.947131
 31
0.0
  0
LINE
  5
2C8
330
4AD
100
AcDbEntity
  8
ninja1 - Level 26
  6
Continuous
 62
     7
370
    13
100
AcDbLine
 10
5.250795
 20
2.947131
 30
0.0
 11
5.250795
 21
2.969131
 31
0.0
  0
SPLINE
  5
2C9
330
4AD
100
AcDbEntity
  8
ninja1 - Level 26
  6
Continuous
 62
     7
370
    13
100
AcDbSpline
210
0.0
220
0.0
230
1.0
 70
    24
 71
     3
 72
    23
 73
    19
 74
     0
 42
0.000000001
 43
0.0000000001
 40
0.0
 40
0.0
 40
0.0
 40
0.0
 40
0.0237157414266469
 40
0.0943764460996457
 40
0.1177069846426313
 40
0.147867265773907
 40
0.1780962037690432
 40
0.2083828933802732
 40
0.2676360644670574
 40
0.3555980639964841
 40
0.4340600095021687
 40
0.5739329026710529
 40
0.6264540772630053
 40
0.8998771845589839
 40
0.9675451125785954
 40
0.9803284485436403
 40
0.9931579069685495
 40
1.0
 40
1.0
 40
1.0
 40
1.0
 10
5.250795316137265
 20
2.947131074873787
 30
0.0
 10
5.249957092636602
 20
2.947131074873787
 30
0.0
 10
5.246611799688052
 20
2.947131074873787
 30
0.0
 10
5.24211642766546
 20
2.947131074873787
 30
0.0
 10
5.237947931025308
 20
2.947131074873787
 30
0.0
 10
5.235448455368168
 20
2.947131074873787
 30
0.0
 10
5.232881236767297
 20
2.947131074873787
 30
0.0
 10
5.229670364316637
 20
2.947131074873787
 30
0.0
 10
5.224236130109595
 20
2.947131074873787
 30
0.0
 10
5.217468702271071
 20
2.947131074873787
 30
0.0
 10
5.204297530538472
 20
2.947131074873787
 30
0.0
 10
5.196656081485818
 20
2.947131074873787
 30
0.0
 10
5.180425436769932
 20
2.947131074873787
 30
0.0
 10
5.162250699713779
 20
2.947131074873786
 30
0.0
 10
5.151515944336972
 20
2.947131074873786
 30
0.0
 10
5.15155444111684
 20
2.947131074873787
 30
0.0
 10
5.151501550841148
 20
2.947131074873786
 30
0.0
 10
5.151500359619546
 20
2.947131074873786
 30
0.0
 10
5.151499945292846
 20
2.947131074873786
 30
0.0
  0
LINE
  5
2CC
330
4AD
100
AcDbEntity
  8
ninja1 - Level 26
  6
Continuous
 62
     7
370
    13
100
AcDbLine
 10
5.152483
 20
2.947131
 30
0.0
 11
5.152483
 21
2.969131
 31
0.0
  0
ELLIPSE
  5
2CD
330
4AD
100
AcDbEntity
  8
ninja1 - Level 26
  6
Continuous
 62
     7
370
    13
100
AcDbEllipse
 10
5.1555
 20
2.947131
 30
0.0
 11
0.0
 21
0.004
 31
0.0
210
0.0
220
0.0
230
-1.0
 40
0.999999684171574
 41
3.141851875941388
 42
4.711851158155537
  0
SPLINE
  5
2CE
330
4AD
100
AcDbEntity
  8
ninja1 - Level 26
  6
Continuous
 62
     7
370
    13
100
AcDbSpline
210
0.0
220
0.0
230
1.0
 70
    24
 71
     3
 72
    27
 73
    23
 74
     0
 42
0.000000001
 43
0.0000000001
 40
0.0
 40
0.0
 40
0.0
 40
0.0
 40
0.0192958303930432
 40
0.0308160248475021
 40
0.041389445523448
 40
0.049660614235719
 40
0.0738614097059729
 40
0.1123529984969855
 40
0.2904044159967627
 40
0.501677497636349
 40
0.5358471546946352
 40
0.5594713806160197
 40
0.6204088299815508
 40
0.7065740664299442
 40
0.7357549807257794
 40
0.822241673812735
 40
0.8653880395267655
 40
0.8921028958502489
 40
0.9189300000447284
 40
0.9459787478953716
 40
0.9730659326449126
 40
1.0
 40
1.0
 40
1.0
 40
1.0
 10
5.155499976933413
 20
2.943131074873786
 30
0.0
 10
5.155485103328805
 20
2.943131074873786
 30
0.0
 10
5.155548230082847
 20
2.943131074873786
 30
0.0
 10
5.155490202383083
 20
2.943131074873786
 30
0.0
 10
5.155873980657701
 20
2.943131074873786
 30
0.0
 10
5.156781673702242
 20
2.943131074873786
 30
0.0
 10
5.158809609038368
 20
2.943131074873787
 30
0.0
 10
5.167052917311474
 20
2.943131074873786
 30
0.0
 10
5.183939719138757
 20
2.943131074873787
 30
0.0
 10
5.198080891334448
 20
2.943131074873786
 30
0.0
 10
5.205177742441278
 20
2.943131074873787
 30
0.0
 10
5.209632627424312
 20
2.943131074873787
 30
0.0
 10
5.215843617328154
 20
2.943131074873787
 30
0.0
 10
5.221066817593047
 20
2.943131074873787
 30
0.0
 10
5.226720556935185
 20
2.943131074873787
 30
0.0
 10
5.230719727941157
 20
2.943131074873787
 30
0.0
 10
5.234948257816341
 20
2.943131074873787
 30
0.0
 10
5.237927724048772
 20
2.943131074873787
 30
0.0
 10
5.240614474656948
 20
2.943131074873787
 30
0.0
 10
5.24337557799239
 20
2.943131074873787
 30
0.0
 10
5.246156281634213
 20
2.943131074873787
 30
0.0
 10
5.247933636042572
 20
2.943131074873787
 30
0.0
 10
5.248819794387362
 20
2.943131074873787
 30
0.0
  0
ELLIPSE
  5
2D1
330
4AD
100
AcDbEntity
  8
ninja1 - Level 26
  6
Continuous
 62
     7
370
    13
100
AcDbEllipse
 10
5.24882
 20
2.947131
 30
0.0
 11
0.0
 21
0.004
 31
0.0
210
0.0
220
0.0
230
-1.0
 40
0.4938804374758796
 41
1.570796326794893
 42
3.141592653589782
  0
LINE
  5
2D2
330
4AD
100
AcDbEntity
  8
ninja1 - Level 26
  6
Continuous
 62
     7
370
    13
100
AcDbLine
 10
5.247125
 20
2.973131
 30
0.0
 11
5.247125
 21
2.988131
 31
0.0
  0
LINE
  5
2D3
330
4AD
100
AcDbEntity
  8
ninja1 - Level 26
  6
Continuous
 62
     7
370
    13
100
AcDbLine
 10
5.166723
 20
2.973131
 30
0.0
 11
5.166723
 21
2.988131
 31
0.0
  0
SPLINE
  5
2D4
330
4AD
100
AcDbEntity
  8
ninja1 - Level 26
  6
Continuous
 62
     7
370
    13
100
AcDbSpline
210
0.0
220
0.0
230
1.0
 70
    24
 71
     3
 72
     8
 73
     4
 74
     0
 42
0.000000001
 43
0.0000000001
 40
0.0
 40
0.0
 40
0.0
 40
0.0
 40
1.0
 40
1.0
 40
1.0
 40
1.0
 10
5.263146101208424
 20
2.947131074873787
 30
0.0
 10
5.263262509275627
 20
2.947131074873787
 30
0.0
 10
5.25910107039712
 20
2.947131074873787
 30
0.0
 10
5.250795316137265
 20
2.947131074873787
 30
0.0
  0
LINE
  5
2D7
330
4AD
100
AcDbEntity
  8
ninja1 - Level 26
  6
Continuous
 62
     7
370
    13
100
AcDbLine
 10
5.263146
 20
2.947131
 30
0.0
 11
5.263146
 21
2.969131
 31
0.0
  0
SPLINE
  5
2D8
330
4AD
100
AcDbEntity
  8
ninja1 - Level 26
  6
Continuous
 62
     7
370
    13
100
AcDbSpline
210
0.0
220
0.0
230
1.0
 70
    24
 71
     3
 72
     8
 73
     4
 74
     0
 42
0.000000001
 43
0.0000000001
 40
0.0
 40
0.0
 40
0.0
 40
0.0
 40
1.0
 40
1.0
 40
1.0
 40
1.0
 10
5.250795316137265
 20
2.969131074873787
 30
0.0
 10
5.259111669149966
 20
2.969131074873787
 30
0.0
 10
5.263250240551435
 20
2.969131074873788
 30
0.0
 10
5.263146101203697
 20
2.969131074873787
 30
0.0
  0
SPLINE
  5
2DB
330
4AD
100
AcDbEntity
  8
ninja1 - Level 26
  6
Continuous
 62
     7
370
    13
100
AcDbSpline
210
0.0
220
0.0
230
1.0
 70
     8
 71
     3
 72
    11
 73
     7
 74
     0
 42
0.000000001
 43
0.0000000001
 40
0.0
 40
0.0
 40
0.0
 40
0.0
 40
0.2499936397304754
 40
0.4999923365644735
 40
0.7499950556671763
 40
1.0
 40
1.0
 40
1.0
 40
1.0
 10
5.259145835981544
 20
2.943131074873787
 30
0.0
 10
5.259670024018621
 20
2.94319120250655
 30
0.0
 10
5.260718410696537
 20
2.943311458988392
 30
0.0
 10
5.26204066635044
 20
2.944236460682988
 30
0.0
 10
5.262965713477644
 20
2.945558637114612
 30
0.0
 10
5.263085971786337
 20
2.946606927398962
 30
0.0
 10
5.263146101208287
 20
2.947131074873787
 30
0.0
  0
SPLINE
  5
2DE
330
4AD
100
AcDbEntity
  8
ninja1 - Level 26
  6
Continuous
 62
     7
370
    13
100
AcDbSpline
210
0.0
220
0.0
230
1.0
 70
    24
 71
     3
 72
     9
 73
     5
 74
     0
 42
0.000000001
 43
0.0000000001
 40
0.0
 40
0.0
 40
0.0
 40
0.0
 40
0.9088378728526301
 40
1.0
 40
1.0
 40
1.0
 40
1.0
 10
5.248819794387362
 20
2.943131074873787
 30
0.0
 10
5.255197176602896
 20
2.943131074873787
 30
0.0
 10
5.258911357223225
 20
2.943131074873787
 30
0.0
 10
5.259124729504817
 20
2.943131074873787
 30
0.0
 10
5.259145835434022
 20
2.943131074873787
 30
0.0
  0
SPLINE
  5
2E1
330
4AD
100
AcDbEntity
  8
ninja1 - Level 26
  6
Continuous
 62
     7
370
    13
100
AcDbSpline
210
0.0
220
0.0
230
1.0
 70
     8
 71
     3
 72
    11
 73
     7
 74
     0
 42
0.000000001
 43
0.0000000001
 40
0.0
 40
0.0
 40
0.0
 40
0.0
 40
0.2500020350217046
 40
0.5000031507163945
 40
0.7500026126525127
 40
1.0
 40
1.0
 40
1.0
 40
1.0
 10
5.263146101208485
 20
2.969131074873787
 30
0.0
 10
5.263085973604847
 20
2.969655222758988
 30
0.0
 10
5.262965718618678
 20
2.970703516601952
 30
0.0
 10
5.262040701073344
 20
2.972025695004072
 30
0.0
 10
5.260718490132404
 20
2.972950693850958
 30
0.0
 10
5.259670156727582
 20
2.973070948032498
 30
0.0
 10
5.259145992200044
 20
2.973131074873787
 30
0.0
  0
SPLINE
  5
2E4
330
4AD
100
AcDbEntity
  8
ninja1 - Level 26
  6
Continuous
 62
     7
370
    13
100
AcDbSpline
210
0.0
220
0.0
230
1.0
 70
    24
 71
     3
 72
     8
 73
     4
 74
     0
 42
0.000000001
 43
0.0000000001
 40
0.0
 40
0.0
 40
0.0
 40
0.0
 40
1.0
 40
1.0
 40
1.0
 40
1.0
 10
5.259145989787057
 20
2.973131074873787
 30
0.0
 10
5.259259532565862
 20
2.973131074873787
 30
0.0
 10
5.255901807718966
 20
2.973131074873787
 30
0.0
 10
5.248819794387362
 20
2.973131074873787
 30
0.0
  0
LINE
  5
2E7
330
4AD
100
AcDbEntity
  8
ninja1 - Level 26
  6
Continuous
 62
     7
370
    13
100
AcDbLine
 10
5.166626
 20
2.988131
 30
0.0
 11
5.166626
 21
2.973131
 31
0.0
  0
LINE
  5
2E8
330
4AD
100
AcDbEntity
  8
ninja1 - Level 26
  6
Continuous
 62
     7
370
    13
100
AcDbLine
 10
5.247995
 20
2.973131
 30
0.0
 11
5.247995
 21
2.988131
 31
0.0
  0
SPLINE
  5
2E9
330
4AD
100
AcDbEntity
  8
ninja1 - Level 26
  6
Continuous
 62
     7
370
    13
100
AcDbSpline
210
0.0
220
0.0
230
1.0
 70
    24
 71
     3
 72
    36
 73
    32
 74
     0
 42
0.000000001
 43
0.0000000001
 40
0.0
 40
0.0
 40
0.0
 40
0.0
 40
0.0057514671504575
 40
0.0180476954718673
 40
0.0240207123245517
 40
0.0338621727402811
 40
0.0437615709658173
 40
0.07659719009611
 40
0.0888602067881099
 40
0.0992378060205245
 40
0.1709707768419909
 40
0.1875552342778133
 40
0.2001090231327084
 40
0.2130675723714794
 40
0.2318317052742298
 40
0.2510441413792772
 40
0.384616855247971
 40
0.4052525388641204
 40
0.4680840159694467
 40
0.4971937102677864
 40
0.5266970732426484
 40
0.5380101422056601
 40
0.5496572372078937
 40
0.5961117509197095
 40
0.6195953900743528
 40
0.715771847006773
 40
0.7534869484571175
 40
0.7652111711559707
 40
0.9530863784572931
 40
0.9844155164984297
 40
1.0
 40
1.0
 40
1.0
 40
1.0
 10
3.70865634961822
 20
2.947131074873776
 30
0.0
 10
3.708649759381235
 20
2.947131074873776
 30
0.0
 10
3.708625624248289
 20
2.947131074873776
 30
0.0
 10
3.708339964540992
 20
2.947131074873776
 30
0.0
 10
3.707562035857161
 20
2.947131074873776
 30
0.0
 10
3.706605730631438
 20
2.947131074873776
 30
0.0
 10
3.704371824373668
 20
2.947131074873776
 30
0.0
 10
3.701793989600631
 20
2.947131074873776
 30
0.0
 10
3.69952698332059
 20
2.947131074873776
 30
0.0
 10
3.696553766578677
 20
2.947131074873776
 30
0.0
 10
3.696507502534462
 20
2.947131074873776
 30
0.0
 10
3.694670692457561
 20
2.947131074873776
 30
0.0
 10
3.6935803739783
 20
2.947131074873776
 30
0.0
 10
3.692054177759209
 20
2.947131074873776
 30
0.0
 10
3.689954594898992
 20
2.947131074873776
 30
0.0
 10
3.682073577106333
 20
2.947131074873776
 30
0.0
 10
3.671951524337945
 20
2.947131074873775
 30
0.0
 10
3.662985230234955
 20
2.947131074873775
 30
0.0
 10
3.659008694732596
 20
2.947131074873775
 30
0.0
 10
3.654700532138019
 20
2.947131074873775
 30
0.0
 10
3.651887112918356
 20
2.947131074873775
 30
0.0
 10
3.649452274888338
 20
2.947131074873775
 30
0.0
 10
3.645900551876696
 20
2.947131074873775
 30
0.0
 10
3.641573229697276
 20
2.947131074873775
 30
0.0
 10
3.63346768083485
 20
2.947131074873775
 30
0.0
 10
3.626299107339795
 20
2.947131074873775
 30
0.0
 10
3.618699410160971
 20
2.947131074873775
 30
0.0
 10
3.606358940485582
 20
2.947131074873775
 30
0.0
 10
3.599242239750671
 20
2.947131074873775
 30
0.0
 10
3.597327217905991
 20
2.947131074873775
 30
0.0
 10
3.597294735566709
 20
2.947131074873775
 30
0.0
 10
3.597277021541071
 20
2.947131074873775
 30
0.0
  0
SPLINE
  5
2EC
330
4AD
100
AcDbEntity
  8
ninja1 - Level 26
  6
Continuous
 62
     7
370
    13
100
AcDbSpline
210
0.0
220
0.0
230
1.0
 70
     8
 71
     3
 72
    11
 73
     7
 74
     0
 42
0.000000001
 43
0.0000000001
 40
0.0
 40
0.0
 40
0.0
 40
0.0
 40
0.2500049443328162
 40
0.5000076634354991
 40
0.7500063602694915
 40
1.0
 40
1.0
 40
1.0
 40
1.0
 10
3.597277021541289
 20
2.947131074873775
 30
0.0
 10
3.597337150963233
 20
2.946606927398949
 30
0.0
 10
3.597457409271932
 20
2.9455586371146
 30
0.0
 10
3.598382456399136
 20
2.944236460682975
 30
0.0
 10
3.599704712053039
 20
2.94331145898838
 30
0.0
 10
3.600753098730952
 20
2.943191202506537
 30
0.0
 10
3.601277286768032
 20
2.943131074873775
 30
0.0
  0
SPLINE
  5
2EF
330
4AD
100
AcDbEntity
  8
ninja1 - Level 26
  6
Continuous
 62
     7
370
    13
100
AcDbSpline
210
0.0
220
0.0
230
1.0
 70
    24
 71
     3
 72
    27
 73
    23
 74
     0
 42
0.000000001
 43
0.0000000001
 40
0.0
 40
0.0
 40
0.0
 40
0.0
 40
0.0152793790750863
 40
0.2105059059124831
 40
0.2183958439959728
 40
0.2261888856599319
 40
0.2585503896792323
 40
0.2833536242746039
 40
0.4522373536925463
 40
0.4692354360090483
 40
0.5221021933988869
 40
0.5999740478958504
 40
0.7585735836385011
 40
0.7912416648475947
 40
0.8382868634370106
 40
0.9248436546331745
 40
0.9415667563776494
 40
0.9586539123547112
 40
0.9753059018254408
 40
0.9837834871284956
 40
0.9921363984612362
 40
1.0
 40
1.0
 40
1.0
 40
1.0
 10
3.601277287004867
 20
2.943131074873775
 30
0.0
 10
3.601263461426267
 20
2.943131074873775
 30
0.0
 10
3.60168442939232
 20
2.943131074873775
 30
0.0
 10
3.606993692221649
 20
2.943131074873775
 30
0.0
 10
3.61631439802784
 20
2.943131074873775
 30
0.0
 10
3.618672657869281
 20
2.943131074873775
 30
0.0
 10
3.621831589563941
 20
2.943131074873775
 30
0.0
 10
3.631656969509282
 20
2.943131074873775
 30
0.0
 10
3.64105042723582
 20
2.943131074873775
 30
0.0
 10
3.652582010461585
 20
2.943131074873775
 30
0.0
 10
3.658439993990366
 20
2.943131074873775
 30
0.0
 10
3.6664234796128
 20
2.943131074873775
 30
0.0
 10
3.679842620476227
 20
2.943131074873776
 30
0.0
 10
3.6905969507578
 20
2.943131074873776
 30
0.0
 10
3.692716180723699
 20
2.943131074873776
 30
0.0
 10
3.693740130267976
 20
2.943131074873776
 30
0.0
 10
3.698443494107609
 20
2.943131074873776
 30
0.0
 10
3.700440069891349
 20
2.943131074873776
 30
0.0
 10
3.702210032488888
 20
2.943131074873776
 30
0.0
 10
3.703545664226814
 20
2.943131074873776
 30
0.0
 10
3.704588257442292
 20
2.943131074873776
 30
0.0
 10
3.704633905941772
 20
2.943131074873776
 30
0.0
 10
3.704656041502824
 20
2.943131074873776
 30
0.0
  0
SPLINE
  5
2F2
330
4AD
100
AcDbEntity
  8
ninja1 - Level 26
  6
Continuous
 62
     7
370
    13
100
AcDbSpline
210
0.0
220
0.0
230
1.0
 70
     8
 71
     3
 72
    11
 73
     7
 74
     0
 42
0.000000001
 43
0.0000000001
 40
0.0
 40
0.0
 40
0.0
 40
0.0
 40
0.2499911790042791
 40
0.4999892208157636
 40
0.7499930439376684
 40
1.0
 40
1.0
 40
1.0
 40
1.0
 10
3.70465603249736
 20
2.943131074873776
 30
0.0
 10
3.705180215612388
 20
2.94319120294827
 30
0.0
 10
3.706228596232427
 20
2.943311460747908
 30
0.0
 10
3.707550877902886
 20
2.944236465129353
 30
0.0
 10
3.708475952073169
 20
2.945558639843513
 30
0.0
 10
3.708596216835151
 20
2.946606927674253
 30
0.0
 10
3.708656349592915
 20
2.947131074873776
 30
0.0
  0
LINE
  5
2F5
330
4AD
100
AcDbEntity
  8
ninja1 - Level 26
  6
Continuous
 62
     7
370
    13
100
AcDbLine
 10
3.704656
 20
2.943131
 30
0.0
 11
3.704656
 21
2.943131
 31
0.0
  0
ARC
  5
2F6
330
4AD
100
AcDbEntity
  8
ninja1 - Level 26
  6
Continuous
 62
     7
370
    13
100
AcDbCircle
 10
3.70394
 20
2.947131
 30
0.0
 40
0.004
100
AcDbArc
 50
270.0
 51
280.231178
  0
SPLINE
  5
2F7
330
4AD
100
AcDbEntity
  8
ninja1 - Level 26
  6
Continuous
 62
     7
370
    13
100
AcDbSpline
210
0.0
220
0.0
230
1.0
 70
    24
 71
     3
 72
    32
 73
    28
 74
     0
 42
0.000000001
 43
0.0000000001
 40
0.0
 40
0.0
 40
0.0
 40
0.0
 40
0.1944881223447857
 40
0.2614397976369537
 40
0.288912060095969
 40
0.3872956893271084
 40
0.4523620692279399
 40
0.463455281790227
 40
0.4748917285172549
 40
0.494041936259373
 40
0.5135117208331668
 40
0.5902441011933725
 40
0.7442565651685485
 40
0.7652658752246847
 40
0.7812136668343262
 40
0.7893858288344234
 40
0.797550330374027
 40
0.8136118203491866
 40
0.830310869800386
 40
0.9018469410903518
 40
0.9114620773760535
 40
0.9213970233316429
 40
0.9569720629341516
 40
0.9722531671983048
 40
0.9826143061631468
 40
0.9915156476315157
 40
1.0
 40
1.0
 40
1.0
 40
1.0
 10
3.597277021545878
 20
2.969131074873775
 30
0.0
 10
3.597442616945217
 20
2.969131074873775
 30
0.0
 10
3.603075466448196
 20
2.969131074873775
 30
0.0
 10
3.617520965526989
 20
2.969131074873775
 30
0.0
 10
3.62766830967174
 20
2.969131074873775
 30
0.0
 10
3.636047839283233
 20
2.969131074873775
 30
0.0
 10
3.645200996532087
 20
2.969131074873775
 30
0.0
 10
3.649705271708171
 20
2.969131074873775
 30
0.0
 10
3.651605681433348
 20
2.969131074873775
 30
0.0
 10
3.653657400827607
 20
2.969131074873775
 30
0.0
 10
3.658093402632826
 20
2.969131074873775
 30
0.0
 10
3.66591768498501
 20
2.969131074873775
 30
0.0
 10
3.680228813007156
 20
2.969131074873775
 30
0.0
 10
3.689419663777941
 20
2.969131074873775
 30
0.0
 10
3.691250359730786
 20
2.969131074873775
 30
0.0
 10
3.69250121924896
 20
2.969131074873775
 30
0.0
 10
3.693612398074564
 20
2.969131074873775
 30
0.0
 10
3.69468867557873
 20
2.969131074873775
 30
0.0
 10
3.696516174681895
 20
2.969131074873775
 30
0.0
 10
3.696596770720859
 20
2.969131074873775
 30
0.0
 10
3.699515419940286
 20
2.969131074873775
 30
0.0
 10
3.701733629063324
 20
2.969131074873775
 30
0.0
 10
3.704609671624648
 20
2.969131074873775
 30
0.0
 10
3.707163309271668
 20
2.969131074873775
 30
0.0
 10
3.708227519875506
 20
2.969131074873775
 30
0.0
 10
3.708611448017106
 20
2.969131074873775
 30
0.0
 10
3.708641623730241
 20
2.969131074873775
 30
0.0
 10
3.708656349710444
 20
2.969131074873775
 30
0.0
  0
LINE
  5
2FA
330
4AD
100
AcDbEntity
  8
ninja1 - Level 26
  6
Continuous
 62
     7
370
    13
100
AcDbLine
 10
3.597277
 20
2.969131
 30
0.0
 11
3.597277
 21
2.947131
 31
0.0
  0
LINE
  5
2FB
330
4AD
100
AcDbEntity
  8
ninja1 - Level 26
  6
Continuous
 62
     7
370
    13
100
AcDbLine
 10
3.708656
 20
2.947131
 30
0.0
 11
3.708656
 21
2.969131
 31
0.0
  0
LINE
  5
2FC
330
4AD
100
AcDbEntity
  8
ninja1 - Level 26
  6
Continuous
 62
     7
370
    13
100
AcDbLine
 10
3.70794
 20
2.947131
 30
0.0
 11
3.70794
 21
2.969131
 31
0.0
  0
SPLINE
  5
2FD
330
4AD
100
AcDbEntity
  8
ninja1 - Level 26
  6
Continuous
 62
     7
370
    13
100
AcDbSpline
210
0.0
220
0.0
230
1.0
 70
     8
 71
     3
 72
    11
 73
     7
 74
     0
 42
0.000000001
 43
0.0000000001
 40
0.0
 40
0.0
 40
0.0
 40
0.0
 40
0.2500126008734862
 40
0.5000187260381113
 40
0.7500148125412451
 40
1.0
 40
1.0
 40
1.0
 40
1.0
 10
3.708656347071443
 20
2.969131074873775
 30
0.0
 10
3.708596204435621
 20
2.969655220874342
 30
0.0
 10
3.70847592072176
 20
2.970703499299292
 30
0.0
 10
3.707550780492118
 20
2.972025674379759
 30
0.0
 10
3.706228422463836
 20
2.972950685041017
 30
0.0
 10
3.705179984318077
 20
2.973070945803374
 30
0.0
 10
3.704655776672601
 20
2.973131074873776
 30
0.0
  0
SPLINE
  5
300
330
4AD
100
AcDbEntity
  8
ninja1 - Level 26
  6
Continuous
 62
     7
370
    13
100
AcDbSpline
210
0.0
220
0.0
230
1.0
 70
    24
 71
     3
 72
    34
 73
    30
 74
     0
 42
0.000000001
 43
0.0000000001
 40
0.0
 40
0.0
 40
0.0
 40
0.0
 40
0.0055705488685887
 40
0.0103219324837892
 40
0.0204699675324227
 40
0.040562007279975
 40
0.0606347804898744
 40
0.0757477468404603
 40
0.0913046863152411
 40
0.1773676945637346
 40
0.1899033184513803
 40
0.2027942071291723
 40
0.2154209491697339
 40
0.2284618355285535
 40
0.2459074668741087
 40
0.3567627318556363
 40
0.3826861031009886
 40
0.4029247353979394
 40
0.4637925504122075
 40
0.4878984051937807
 40
0.5288861834496257
 40
0.6335618851499202
 40
0.7724876468797593
 40
0.7810505419375607
 40
0.789505345242697
 40
0.8149192021988138
 40
0.9674002996089708
 40
0.9853320982858516
 40
1.0
 40
1.0
 40
1.0
 40
1.0
 10
3.704655776672601
 20
2.973131074873776
 30
0.0
 10
3.704664289133696
 20
2.973131074873776
 30
0.0
 10
3.704680062273968
 20
2.973131074873776
 30
0.0
 10
3.704226128974932
 20
2.973131074873776
 30
0.0
 10
3.70275303237485
 20
2.973131074873776
 30
0.0
 10
3.700709147114589
 20
2.973131074873776
 30
0.0
 10
3.698441691028626
 20
2.973131074873776
 30
0.0
 10
3.696607590672842
 20
2.973131074873776
 30
0.0
 10
3.692990734227779
 20
2.973131074873776
 30
0.0
 10
3.69269692166468
 20
2.973131074873776
 30
0.0
 10
3.691111320203135
 20
2.973131074873776
 30
0.0
 10
3.690208905380827
 20
2.973131074873776
 30
0.0
 10
3.688847073251457
 20
2.973131074873776
 30
0.0
 10
3.687197980727956
 20
2.973131074873776
 30
0.0
 10
3.681094594313608
 20
2.973131074873776
 30
0.0
 10
3.672953131931758
 20
2.973131074873775
 30
0.0
 10
3.667018161814942
 20
2.973131074873776
 30
0.0
 10
3.663285761065283
 20
2.973131074873775
 30
0.0
 10
3.659969207390426
 20
2.973131074873775
 30
0.0
 10
3.655733546625322
 20
2.973131074873775
 30
0.0
 10
3.648594142980853
 20
2.973131074873775
 30
0.0
 10
3.634317394059952
 20
2.973131074873775
 30
0.0
 10
3.624398785927894
 20
2.973131074873776
 30
0.0
 10
3.616598701277116
 20
2.973131074873775
 30
0.0
 10
3.614641406300311
 20
2.973131074873775
 30
0.0
 10
3.607079063317467
 20
2.973131074873775
 30
0.0
 10
3.602379065173081
 20
2.973131074873775
 30
0.0
 10
3.601328957590268
 20
2.973131074873775
 30
0.0
 10
3.60129362876823
 20
2.973131074873775
 30
0.0
 10
3.601277129345497
 20
2.973131074873775
 30
0.0
  0
SPLINE
  5
303
330
4AD
100
AcDbEntity
  8
ninja1 - Level 26
  6
Continuous
 62
     7
370
    13
100
AcDbSpline
210
0.0
220
0.0
230
1.0
 70
     8
 71
     3
 72
    11
 73
     7
 74
     0
 42
0.000000001
 43
0.0000000001
 40
0.0
 40
0.0
 40
0.0
 40
0.0
 40
0.2499973873475418
 40
0.4999968492836678
 40
0.7499979649783131
 40
1.0
 40
1.0
 40
1.0
 40
1.0
 10
3.601277130549529
 20
2.973131074873775
 30
0.0
 10
3.600752966021991
 20
2.973070948032485
 30
0.0
 10
3.599704632617169
 20
2.972950693850946
 30
0.0
 10
3.598382421676226
 20
2.97202569500406
 30
0.0
 10
3.597457404130889
 20
2.97070351660194
 30
0.0
 10
3.597337149144726
 20
2.969655222758976
 30
0.0
 10
3.597277021541085
 20
2.969131074873775
 30
0.0
  0
LINE
  5
306
330
4AD
100
AcDbEntity
  8
ninja1 - Level 26
  6
Continuous
 62
     7
370
    13
100
AcDbLine
 10
3.693797
 20
2.973131
 30
0.0
 11
3.693797
 21
2.988131
 31
0.0
  0
LINE
  5
307
330
4AD
100
AcDbEntity
  8
ninja1 - Level 26
  6
Continuous
 62
     7
370
    13
100
AcDbLine
 10
3.612428
 20
2.988131
 30
0.0
 11
3.612428
 21
2.973131
 31
0.0
  0
ELLIPSE
  5
308
330
4AD
100
AcDbEntity
  8
ninja1 - Level 26
  6
Continuous
 62
     7
370
    13
100
AcDbEllipse
 10
3.704923
 20
2.969131
 30
0.0
 11
0.0
 21
0.004
 31
0.0
210
0.0
220
0.0
230
-1.0
 40
0.9999996263961538
 41
0.0003377722890439
 42
1.570831405927455
  0
SPLINE
  5
309
330
4AD
100
AcDbEntity
  8
ninja1 - Level 26
  6
Continuous
 62
     7
370
    13
100
AcDbSpline
210
0.0
220
0.0
230
1.0
 70
    24
 71
     3
 72
     8
 73
     4
 74
     0
 42
0.000000001
 43
0.0000000001
 40
0.0
 40
0.0
 40
0.0
 40
0.0
 40
1.0
 40
1.0
 40
1.0
 40
1.0
 10
3.704923139417995
 20
2.973131074873776
 30
0.0
 10
3.704925343387224
 20
2.973131074873776
 30
0.0
 10
3.704900484601597
 20
2.973131074873776
 30
0.0
 10
3.704874151107756
 20
2.973131074873776
 30
0.0
  0
SPLINE
  5
30C
330
4AD
100
AcDbEntity
  8
ninja1 - Level 26
  6
Continuous
 62
     7
370
    13
100
AcDbSpline
210
0.0
220
0.0
230
1.0
 70
    24
 71
     3
 72
     8
 73
     4
 74
     0
 42
0.000000001
 43
0.0000000001
 40
0.0
 40
0.0
 40
0.0
 40
0.0
 40
1.0
 40
1.0
 40
1.0
 40
1.0
 10
3.708690216072046
 20
2.969131074873775
 30
0.0
 10
3.708808942004377
 20
2.969131074873775
 30
0.0
 10
3.70892744732791
 20
2.969131074873775
 30
0.0
 10
3.708923138168186
 20
2.969131074873775
 30
0.0
  0
SPLINE
  5
30F
330
4AD
100
AcDbEntity
  8
ninja1 - Level 26
  6
Continuous
 62
     7
370
    13
100
AcDbSpline
210
0.0
220
0.0
230
1.0
 70
    24
 71
     3
 72
     8
 73
     4
 74
     0
 42
0.000000001
 43
0.0000000001
 40
0.0
 40
0.0
 40
0.0
 40
0.0
 40
1.0
 40
1.0
 40
1.0
 40
1.0
 10
3.708923177456727
 20
2.947131074873776
 30
0.0
 10
3.70888598036892
 20
2.947131074873776
 30
0.0
 10
3.708839321464798
 20
2.947131074873776
 30
0.0
 10
3.70867085676809
 20
2.947131074873776
 30
0.0
  0
LINE
  5
312
330
4AD
100
AcDbEntity
  8
ninja1 - Level 26
  6
Continuous
 62
     7
370
    13
100
AcDbLine
 10
3.708923
 20
2.947131
 30
0.0
 11
3.708923
 21
2.969131
 31
0.0
  0
ELLIPSE
  5
313
330
4AD
100
AcDbEntity
  8
ninja1 - Level 26
  6
Continuous
 62
     7
370
    13
100
AcDbEllipse
 10
3.704923
 20
2.947131
 30
0.0
 11
0.0
 21
0.004
 31
0.0
210
0.0
220
0.0
230
-1.0
 40
0.999999684171574
 41
1.570258504565748
 42
3.141333431238257
  0
LINE
  5
314
330
4AD
100
AcDbEntity
  8
ninja1 - Level 26
  6
Continuous
 62
     7
370
    13
100
AcDbLine
 10
3.704858
 20
2.943131
 30
0.0
 11
3.704923
 21
2.943131
 31
0.0
  0
SPLINE
  5
315
330
4AD
100
AcDbEntity
  8
ninja1 - Level 26
  6
Continuous
 62
     7
370
    13
100
AcDbSpline
210
0.0
220
0.0
230
1.0
 70
    24
 71
     3
 72
    36
 73
    32
 74
     0
 42
0.000000001
 43
0.0000000001
 40
0.0
 40
0.0
 40
0.0
 40
0.0
 40
0.0057514671502826
 40
0.0180476954717067
 40
0.0240207123243858
 40
0.033862172740112
 40
0.0437615709656558
 40
0.0765971900959527
 40
0.0888602067879567
 40
0.0992378060203622
 40
0.1709707768418513
 40
0.1875552342776711
 40
0.2001090231325612
 40
0.213067572371341
 40
0.2318317052740975
 40
0.2510441413791447
 40
0.3846168552478608
 40
0.405252538864013
 40
0.4680840159693494
 40
0.4971937102676911
 40
0.5266970732425595
 40
0.5380101422055761
 40
0.5496572372078087
 40
0.596111750919631
 40
0.6195953900742816
 40
0.7157718470067176
 40
0.7534869484570627
 40
0.7652111711559165
 40
0.9530863784572678
 40
0.9844155164984272
 40
1.0
 40
1.0
 40
1.0
 40
1.0
 10
4.546357418919817
 20
2.947131074873782
 30
0.0
 10
4.546350828682835
 20
2.947131074873782
 30
0.0
 10
4.546326693549886
 20
2.947131074873782
 30
0.0
 10
4.546041033842577
 20
2.947131074873782
 30
0.0
 10
4.545263105158758
 20
2.947131074873782
 30
0.0
 10
4.544306799933037
 20
2.947131074873782
 30
0.0
 10
4.542072893675265
 20
2.947131074873782
 30
0.0
 10
4.539495058902231
 20
2.947131074873782
 30
0.0
 10
4.53722805262219
 20
2.947131074873782
 30
0.0
 10
4.534254835880268
 20
2.947131074873782
 30
0.0
 10
4.534208571836047
 20
2.947131074873782
 30
0.0
 10
4.532371761759161
 20
2.947131074873782
 30
0.0
 10
4.531281443279891
 20
2.947131074873782
 30
0.0
 10
4.529755247060806
 20
2.947131074873782
 30
0.0
 10
4.527655664200586
 20
2.947131074873782
 30
0.0
 10
4.51977464640793
 20
2.947131074873782
 30
0.0
 10
4.509652593639542
 20
2.947131074873782
 30
0.0
 10
4.500686299536549
 20
2.947131074873782
 30
0.0
 10
4.496709764034196
 20
2.947131074873782
 30
0.0
 10
4.492401601439612
 20
2.947131074873782
 30
0.0
 10
4.489588182219941
 20
2.947131074873782
 30
0.0
 10
4.487153344189934
 20
2.947131074873782
 30
0.0
 10
4.48360162117829
 20
2.947131074873782
 30
0.0
 10
4.479274298998876
 20
2.947131074873782
 30
0.0
 10
4.471168750136447
 20
2.947131074873781
 30
0.0
 10
4.464000176641382
 20
2.947131074873782
 30
0.0
 10
4.45640047946258
 20
2.947131074873781
 30
0.0
 10
4.444060009787176
 20
2.947131074873782
 30
0.0
 10
4.436943309052265
 20
2.947131074873781
 30
0.0
 10
4.435028287207583
 20
2.947131074873782
 30
0.0
 10
4.434995804868309
 20
2.947131074873781
 30
0.0
 10
4.434978090842665
 20
2.947131074873781
 30
0.0
  0
SPLINE
  5
318
330
4AD
100
AcDbEntity
  8
ninja1 - Level 26
  6
Continuous
 62
     7
370
    13
100
AcDbSpline
210
0.0
220
0.0
230
1.0
 70
     8
 71
     3
 72
    11
 73
     7
 74
     0
 42
0.000000001
 43
0.0000000001
 40
0.0
 40
0.0
 40
0.0
 40
0.0
 40
0.2500049443328042
 40
0.5000076634355085
 40
0.7500063602695173
 40
1.0
 40
1.0
 40
1.0
 40
1.0
 10
4.434978090842883
 20
2.947131074873781
 30
0.0
 10
4.435038220264832
 20
2.946606927398955
 30
0.0
 10
4.435158478573532
 20
2.945558637114606
 30
0.0
 10
4.436083525700733
 20
2.944236460682981
 30
0.0
 10
4.437405781354633
 20
2.943311458988386
 30
0.0
 10
4.438454168032549
 20
2.943191202506544
 30
0.0
 10
4.438978356069626
 20
2.943131074873781
 30
0.0
  0
SPLINE
  5
31B
330
4AD
100
AcDbEntity
  8
ninja1 - Level 26
  6
Continuous
 62
     7
370
    13
100
AcDbSpline
210
0.0
220
0.0
230
1.0
 70
    24
 71
     3
 72
    27
 73
    23
 74
     0
 42
0.000000001
 43
0.0000000001
 40
0.0
 40
0.0
 40
0.0
 40
0.0
 40
0.0152793790750993
 40
0.2105059059124908
 40
0.2183958439959823
 40
0.2261888856599422
 40
0.2585503896792415
 40
0.2833536242746115
 40
0.4522373536925525
 40
0.4692354360090537
 40
0.5221021933988905
 40
0.5999740478958504
 40
0.7585735836384997
 40
0.791241664847592
 40
0.8382868634370005
 40
0.9248436546331685
 40
0.9415667563776468
 40
0.9586539123547062
 40
0.975305901825437
 40
0.9837834871284943
 40
0.9921363984612298
 40
1.0
 40
1.0
 40
1.0
 40
1.0
 10
4.438978356306464
 20
2.943131074873781
 30
0.0
 10
4.438964530727863
 20
2.943131074873781
 30
0.0
 10
4.43938549869392
 20
2.943131074873781
 30
0.0
 10
4.444694761523202
 20
2.943131074873782
 30
0.0
 10
4.45401546732944
 20
2.943131074873782
 30
0.0
 10
4.456373727170879
 20
2.943131074873782
 30
0.0
 10
4.459532658865541
 20
2.943131074873782
 30
0.0
 10
4.469358038810879
 20
2.943131074873781
 30
0.0
 10
4.478751496537417
 20
2.943131074873782
 30
0.0
 10
4.490283079763185
 20
2.943131074873782
 30
0.0
 10
4.496141063291964
 20
2.943131074873782
 30
0.0
 10
4.504124548914393
 20
2.943131074873782
 30
0.0
 10
4.517543689777824
 20
2.943131074873782
 30
0.0
 10
4.528298020059399
 20
2.943131074873782
 30
0.0
 10
4.530417250025295
 20
2.943131074873782
 30
0.0
 10
4.531441199569561
 20
2.943131074873782
 30
0.0
 10
4.536144563409209
 20
2.943131074873782
 30
0.0
 10
4.538141139192949
 20
2.943131074873782
 30
0.0
 10
4.539911101790482
 20
2.943131074873782
 30
0.0
 10
4.541246733528413
 20
2.943131074873782
 30
0.0
 10
4.542289326743889
 20
2.943131074873782
 30
0.0
 10
4.542334975243369
 20
2.943131074873782
 30
0.0
 10
4.542357110804421
 20
2.943131074873782
 30
0.0
  0
SPLINE
  5
31E
330
4AD
100
AcDbEntity
  8
ninja1 - Level 26
  6
Continuous
 62
     7
370
    13
100
AcDbSpline
210
0.0
220
0.0
230
1.0
 70
     8
 71
     3
 72
    11
 73
     7
 74
     0
 42
0.000000001
 43
0.0000000001
 40
0.0
 40
0.0
 40
0.0
 40
0.0
 40
0.2499911790044093
 40
0.4999892208158367
 40
0.7499930439377069
 40
1.0
 40
1.0
 40
1.0
 40
1.0
 10
4.542357101798954
 20
2.943131074873782
 30
0.0
 10
4.542881284913985
 20
2.943191202948277
 30
0.0
 10
4.543929665534023
 20
2.943311460747914
 30
0.0
 10
4.54525194720448
 20
2.944236465129359
 30
0.0
 10
4.546177021374768
 20
2.945558639843519
 30
0.0
 10
4.546297286136745
 20
2.94660692767426
 30
0.0
 10
4.546357418894508
 20
2.947131074873782
 30
0.0
  0
LINE
  5
321
330
4AD
100
AcDbEntity
  8
ninja1 - Level 26
  6
Continuous
 62
     7
370
    13
100
AcDbLine
 10
4.542357
 20
2.943131
 30
0.0
 11
4.542357
 21
2.943131
 31
0.0
  0
ARC
  5
322
330
4AD
100
AcDbEntity
  8
ninja1 - Level 26
  6
Continuous
 62
     7
370
    13
100
AcDbCircle
 10
4.541642
 20
2.947131
 30
0.0
 40
0.004
100
AcDbArc
 50
270.0
 51
280.231178
  0
SPLINE
  5
323
330
4AD
100
AcDbEntity
  8
ninja1 - Level 26
  6
Continuous
 62
     7
370
    13
100
AcDbSpline
210
0.0
220
0.0
230
1.0
 70
    24
 71
     3
 72
    32
 73
    28
 74
     0
 42
0.000000001
 43
0.0000000001
 40
0.0
 40
0.0
 40
0.0
 40
0.0
 40
0.1944881223447967
 40
0.2614397976369702
 40
0.2889120600959847
 40
0.3872956893271227
 40
0.4523620692279539
 40
0.4634552817902391
 40
0.4748917285172685
 40
0.494041936259383
 40
0.5135117208331806
 40
0.5902441011933891
 40
0.7442565651685552
 40
0.765265875224694
 40
0.7812136668343383
 40
0.7893858288344258
 40
0.7975503303740324
 40
0.8136118203491969
 40
0.8303108698003963
 40
0.901846941090355
 40
0.9114620773760565
 40
0.9213970233316459
 40
0.9569720629341537
 40
0.9722531671983107
 40
0.9826143061631471
 40
0.9915156476315218
 40
1.0
 40
1.0
 40
1.0
 40
1.0
 10
4.434978090847472
 20
2.969131074873781
 30
0.0
 10
4.435143686246811
 20
2.969131074873781
 30
0.0
 10
4.44077653574979
 20
2.969131074873781
 30
0.0
 10
4.45522203482858
 20
2.969131074873781
 30
0.0
 10
4.465369378973334
 20
2.969131074873781
 30
0.0
 10
4.47374890858483
 20
2.969131074873781
 30
0.0
 10
4.482902065833695
 20
2.969131074873781
 30
0.0
 10
4.487406341009764
 20
2.969131074873781
 30
0.0
 10
4.489306750734945
 20
2.969131074873782
 30
0.0
 10
4.491358470129204
 20
2.969131074873781
 30
0.0
 10
4.49579447193442
 20
2.969131074873782
 30
0.0
 10
4.503618754286607
 20
2.969131074873782
 30
0.0
 10
4.517929882308753
 20
2.969131074873782
 30
0.0
 10
4.527120733079533
 20
2.969131074873782
 30
0.0
 10
4.528951429032383
 20
2.969131074873782
 30
0.0
 10
4.530202288550557
 20
2.969131074873782
 30
0.0
 10
4.531313467376164
 20
2.969131074873782
 30
0.0
 10
4.532389744880321
 20
2.969131074873782
 30
0.0
 10
4.534217243983494
 20
2.969131074873782
 30
0.0
 10
4.53429784002247
 20
2.969131074873782
 30
0.0
 10
4.537216489241886
 20
2.969131074873782
 30
0.0
 10
4.539434698364921
 20
2.969131074873782
 30
0.0
 10
4.542310740926239
 20
2.969131074873782
 30
0.0
 10
4.544864378573262
 20
2.969131074873782
 30
0.0
 10
4.545928589177097
 20
2.969131074873782
 30
0.0
 10
4.5463125173187
 20
2.969131074873782
 30
0.0
 10
4.546342693031838
 20
2.969131074873782
 30
0.0
 10
4.546357419012038
 20
2.969131074873782
 30
0.0
  0
LINE
  5
326
330
4AD
100
AcDbEntity
  8
ninja1 - Level 26
  6
Continuous
 62
     7
370
    13
100
AcDbLine
 10
4.434978
 20
2.969131
 30
0.0
 11
4.434978
 21
2.947131
 31
0.0
  0
LINE
  5
327
330
4AD
100
AcDbEntity
  8
ninja1 - Level 26
  6
Continuous
 62
     7
370
    13
100
AcDbLine
 10
4.546357
 20
2.947131
 30
0.0
 11
4.546357
 21
2.969131
 31
0.0
  0
LINE
  5
328
330
4AD
100
AcDbEntity
  8
ninja1 - Level 26
  6
Continuous
 62
     7
370
    13
100
AcDbLine
 10
4.545642
 20
2.947131
 30
0.0
 11
4.545642
 21
2.969131
 31
0.0
  0
SPLINE
  5
329
330
4AD
100
AcDbEntity
  8
ninja1 - Level 26
  6
Continuous
 62
     7
370
    13
100
AcDbSpline
210
0.0
220
0.0
230
1.0
 70
     8
 71
     3
 72
    11
 73
     7
 74
     0
 42
0.000000001
 43
0.0000000001
 40
0.0
 40
0.0
 40
0.0
 40
0.0
 40
0.2500126008734969
 40
0.5000187260381252
 40
0.7500148125412528
 40
1.0
 40
1.0
 40
1.0
 40
1.0
 10
4.546357416373043
 20
2.969131074873782
 30
0.0
 10
4.546297273737218
 20
2.969655220874349
 30
0.0
 10
4.546176990023354
 20
2.970703499299298
 30
0.0
 10
4.545251849793713
 20
2.972025674379765
 30
0.0
 10
4.543929491765436
 20
2.972950685041023
 30
0.0
 10
4.542881053619674
 20
2.97307094580338
 30
0.0
 10
4.542356845974194
 20
2.973131074873782
 30
0.0
  0
SPLINE
  5
32C
330
4AD
100
AcDbEntity
  8
ninja1 - Level 26
  6
Continuous
 62
     7
370
    13
100
AcDbSpline
210
0.0
220
0.0
230
1.0
 70
    24
 71
     3
 72
    34
 73
    30
 74
     0
 42
0.000000001
 43
0.0000000001
 40
0.0
 40
0.0
 40
0.0
 40
0.0
 40
0.0055705488685888
 40
0.0103219324837893
 40
0.0204699675324233
 40
0.0405620072799762
 40
0.0606347804898754
 40
0.0757477468404616
 40
0.0913046863152475
 40
0.1773676945637359
 40
0.1899033184513818
 40
0.20279420712918
 40
0.2154209491697414
 40
0.22846183552856
 40
0.2459074668741131
 40
0.356762731855643
 40
0.3826861031009906
 40
0.4029247353979441
 40
0.4637925504122152
 40
0.4878984051937884
 40
0.5288861834496342
 40
0.6335618851499319
 40
0.7724876468797687
 40
0.7810505419375716
 40
0.7895053452427096
 40
0.8149192021988248
 40
0.967400299608983
 40
0.9853320982858708
 40
1.0
 40
1.0
 40
1.0
 40
1.0
 10
4.542356845974194
 20
2.973131074873782
 30
0.0
 10
4.542365358435289
 20
2.973131074873782
 30
0.0
 10
4.542381131575565
 20
2.973131074873782
 30
0.0
 10
4.541927198276532
 20
2.973131074873782
 30
0.0
 10
4.540454101676441
 20
2.973131074873782
 30
0.0
 10
4.538410216416191
 20
2.973131074873782
 30
0.0
 10
4.536142760330223
 20
2.973131074873782
 30
0.0
 10
4.53430865997443
 20
2.973131074873782
 30
0.0
 10
4.530691803529375
 20
2.973131074873782
 30
0.0
 10
4.530397990966274
 20
2.973131074873782
 30
0.0
 10
4.528812389504726
 20
2.973131074873782
 30
0.0
 10
4.527909974682427
 20
2.973131074873782
 30
0.0
 10
4.526548142553053
 20
2.973131074873782
 30
0.0
 10
4.524899050029556
 20
2.973131074873782
 30
0.0
 10
4.518795663615202
 20
2.973131074873782
 30
0.0
 10
4.510654201233343
 20
2.973131074873782
 30
0.0
 10
4.50471923111653
 20
2.973131074873782
 30
0.0
 10
4.50098683036688
 20
2.973131074873782
 30
0.0
 10
4.497670276692026
 20
2.973131074873782
 30
0.0
 10
4.493434615926918
 20
2.973131074873782
 30
0.0
 10
4.48629521228245
 20
2.973131074873781
 30
0.0
 10
4.472018463361545
 20
2.973131074873781
 30
0.0
 10
4.462099855229488
 20
2.973131074873781
 30
0.0
 10
4.454299770578718
 20
2.973131074873781
 30
0.0
 10
4.452342475601902
 20
2.973131074873781
 30
0.0
 10
4.444780132619067
 20
2.973131074873781
 30
0.0
 10
4.440080134474675
 20
2.973131074873781
 30
0.0
 10
4.439030026891868
 20
2.973131074873781
 30
0.0
 10
4.438994698069826
 20
2.973131074873781
 30
0.0
 10
4.438978198647094
 20
2.973131074873781
 30
0.0
  0
SPLINE
  5
32F
330
4AD
100
AcDbEntity
  8
ninja1 - Level 26
  6
Continuous
 62
     7
370
    13
100
AcDbSpline
210
0.0
220
0.0
230
1.0
 70
     8
 71
     3
 72
    11
 73
     7
 74
     0
 42
0.000000001
 43
0.0000000001
 40
0.0
 40
0.0
 40
0.0
 40
0.0
 40
0.2499973873475437
 40
0.4999968492836587
 40
0.749997964978312
 40
1.0
 40
1.0
 40
1.0
 40
1.0
 10
4.438978199851122
 20
2.973131074873781
 30
0.0
 10
4.438454035323587
 20
2.973070948032491
 30
0.0
 10
4.437405701918763
 20
2.972950693850952
 30
0.0
 10
4.436083490977823
 20
2.972025695004066
 30
0.0
 10
4.435158473432486
 20
2.970703516601946
 30
0.0
 10
4.43503821844632
 20
2.969655222758982
 30
0.0
 10
4.434978090842685
 20
2.969131074873781
 30
0.0
  0
LINE
  5
332
330
4AD
100
AcDbEntity
  8
ninja1 - Level 26
  6
Continuous
 62
     7
370
    13
100
AcDbLine
 10
4.531498
 20
2.973131
 30
0.0
 11
4.531498
 21
2.988131
 31
0.0
  0
LINE
  5
333
330
4AD
100
AcDbEntity
  8
ninja1 - Level 26
  6
Continuous
 62
     7
370
    13
100
AcDbLine
 10
4.450129
 20
2.988131
 30
0.0
 11
4.450129
 21
2.973131
 31
0.0
  0
ELLIPSE
  5
334
330
4AD
100
AcDbEntity
  8
ninja1 - Level 26
  6
Continuous
 62
     7
370
    13
100
AcDbEllipse
 10
4.542624
 20
2.969131
 30
0.0
 11
0.0
 21
0.004
 31
0.0
210
0.0
220
0.0
230
-1.0
 40
0.9999996263961532
 41
0.000337772289126
 42
1.570831405927461
  0
SPLINE
  5
335
330
4AD
100
AcDbEntity
  8
ninja1 - Level 26
  6
Continuous
 62
     7
370
    13
100
AcDbSpline
210
0.0
220
0.0
230
1.0
 70
    24
 71
     3
 72
     8
 73
     4
 74
     0
 42
0.000000001
 43
0.0000000001
 40
0.0
 40
0.0
 40
0.0
 40
0.0
 40
1.0
 40
1.0
 40
1.0
 40
1.0
 10
4.542624208719595
 20
2.973131074873782
 30
0.0
 10
4.542626412688824
 20
2.973131074873782
 30
0.0
 10
4.542601553903194
 20
2.973131074873782
 30
0.0
 10
4.542575220409353
 20
2.973131074873782
 30
0.0
  0
SPLINE
  5
338
330
4AD
100
AcDbEntity
  8
ninja1 - Level 26
  6
Continuous
 62
     7
370
    13
100
AcDbSpline
210
0.0
220
0.0
230
1.0
 70
    24
 71
     3
 72
     8
 73
     4
 74
     0
 42
0.000000001
 43
0.0000000001
 40
0.0
 40
0.0
 40
0.0
 40
0.0
 40
1.0
 40
1.0
 40
1.0
 40
1.0
 10
4.546391285373646
 20
2.969131074873782
 30
0.0
 10
4.546510011305971
 20
2.969131074873782
 30
0.0
 10
4.546628516629504
 20
2.969131074873782
 30
0.0
 10
4.546624207469783
 20
2.969131074873782
 30
0.0
  0
SPLINE
  5
33B
330
4AD
100
AcDbEntity
  8
ninja1 - Level 26
  6
Continuous
 62
     7
370
    13
100
AcDbSpline
210
0.0
220
0.0
230
1.0
 70
    24
 71
     3
 72
     8
 73
     4
 74
     0
 42
0.000000001
 43
0.0000000001
 40
0.0
 40
0.0
 40
0.0
 40
0.0
 40
1.0
 40
1.0
 40
1.0
 40
1.0
 10
4.546624246758324
 20
2.947131074873782
 30
0.0
 10
4.54658704967052
 20
2.947131074873782
 30
0.0
 10
4.546540390766391
 20
2.947131074873782
 30
0.0
 10
4.54637192606969
 20
2.947131074873782
 30
0.0
  0
LINE
  5
33E
330
4AD
100
AcDbEntity
  8
ninja1 - Level 26
  6
Continuous
 62
     7
370
    13
100
AcDbLine
 10
4.546624
 20
2.947131
 30
0.0
 11
4.546624
 21
2.969131
 31
0.0
  0
ELLIPSE
  5
33F
330
4AD
100
AcDbEntity
  8
ninja1 - Level 26
  6
Continuous
 62
     7
370
    13
100
AcDbEllipse
 10
4.542624
 20
2.947131
 30
0.0
 11
0.0
 21
0.004
 31
0.0
210
0.0
220
0.0
230
-1.0
 40
0.999999684171574
 41
1.570258504565748
 42
3.141333431238212
  0
LINE
  5
340
330
4AD
100
AcDbEntity
  8
ninja1 - Level 26
  6
Continuous
 62
     7
370
    13
100
AcDbLine
 10
4.542559
 20
2.943131
 30
0.0
 11
4.542624
 21
2.943131
 31
0.0
  0
LINE
  5
341
330
4AD
100
AcDbEntity
  8
ninja1 - Level 28
  6
Continuous
 62
     7
370
    13
100
AcDbLine
 10
4.330194
 20
2.993131
 30
0.0
 11
4.330194
 21
2.988131
 31
0.0
  0
LINE
  5
342
330
4AD
100
AcDbEntity
  8
ninja1 - Level 28
  6
Continuous
 62
     7
370
    13
100
AcDbLine
 10
4.320194
 20
2.988131
 30
0.0
 11
4.330194
 21
2.988131
 31
0.0
  0
LINE
  5
343
330
4AD
100
AcDbEntity
  8
ninja1 - Level 28
  6
Continuous
 62
     7
370
    13
100
AcDbLine
 10
4.320194
 20
2.988131
 30
0.0
 11
4.320194
 21
2.993131
 31
0.0
  0
LINE
  5
344
330
4AD
100
AcDbEntity
  8
ninja1 - Level 28
  6
Continuous
 62
     7
370
    13
100
AcDbLine
 10
4.330194
 20
2.993131
 30
0.0
 11
4.320194
 21
2.993131
 31
0.0
  0
LINE
  5
345
330
4AD
100
AcDbEntity
  8
ninja1 - Level 28
  6
Continuous
 62
     7
370
    13
100
AcDbLine
 10
3.154194
 20
2.988131
 30
0.0
 11
3.154194
 21
2.993131
 31
0.0
  0
LINE
  5
346
330
4AD
100
AcDbEntity
  8
ninja1 - Level 28
  6
Continuous
 62
     7
370
    13
100
AcDbLine
 10
3.164194
 20
2.993131
 30
0.0
 11
3.164194
 21
2.988131
 31
0.0
  0
LINE
  5
347
330
4AD
100
AcDbEntity
  8
ninja1 - Level 28
  6
Continuous
 62
     7
370
    13
100
AcDbLine
 10
3.154194
 20
2.988131
 30
0.0
 11
3.164194
 21
2.988131
 31
0.0
  0
LINE
  5
348
330
4AD
100
AcDbEntity
  8
ninja1 - Level 28
  6
Continuous
 62
     7
370
    13
100
AcDbLine
 10
4.320194
 20
2.988131
 30
0.0
 11
3.164194
 21
2.988131
 31
0.0
  0
LINE
  5
349
330
4AD
100
AcDbEntity
  8
ninja1 - Level 27
  6
Continuous
 62
     7
370
    13
100
AcDbLine
 10
4.340194
 20
2.993131
 30
0.0
 11
4.340194
 21
2.988131
 31
0.0
  0
LINE
  5
34A
330
4AD
100
AcDbEntity
  8
ninja1 - Level 27
  6
Continuous
 62
     7
370
    13
100
AcDbLine
 10
5.496194
 20
2.988131
 30
0.0
 11
5.496194
 21
2.993131
 31
0.0
  0
LINE
  5
34B
330
4AD
100
AcDbEntity
  8
ninja1 - Level 27
  6
Continuous
 62
     7
370
    13
100
AcDbLine
 10
4.340194
 20
2.988131
 30
0.0
 11
5.496194
 21
2.988131
 31
0.0
  0
LINE
  5
34C
330
4AD
100
AcDbEntity
  8
ninja1 - Level 27
  6
Continuous
 62
     7
370
    13
100
AcDbLine
 10
4.330194
 20
2.988131
 30
0.0
 11
4.340194
 21
2.988131
 31
0.0
  0
LINE
  5
34D
330
4AD
100
AcDbEntity
  8
ninja1 - Level 27
  6
Continuous
 62
     7
370
    13
100
AcDbLine
 10
5.506194
 20
2.993131
 30
0.0
 11
5.506194
 21
2.988131
 31
0.0
  0
LINE
  5
34E
330
4AD
100
AcDbEntity
  8
ninja1 - Level 27
  6
Continuous
 62
     7
370
    13
100
AcDbLine
 10
5.496194
 20
2.988131
 30
0.0
 11
5.506194
 21
2.988131
 31
0.0
  0
LINE
  5
34F
330
4AD
100
AcDbEntity
  8
ninja1 - Level 27
  6
Continuous
 62
     7
370
    13
100
AcDbLine
 10
5.506194
 20
2.993131
 30
0.0
 11
5.496194
 21
2.993131
 31
0.0
  0
SPLINE
  5
350
330
4AD
100
AcDbEntity
  8
ninja1 - Level 26
  6
Continuous
 62
     7
370
    13
100
AcDbSpline
210
0.0
220
0.0
230
1.0
 70
    24
 71
     3
 72
    36
 73
    32
 74
     0
 42
0.000000001
 43
0.0000000001
 40
0.0
 40
0.0
 40
0.0
 40
0.0
 40
0.0057514671504693
 40
0.0180476954718976
 40
0.0240207123245799
 40
0.0338621727403076
 40
0.0437615709658394
 40
0.0765971900961333
 40
0.0888602067881358
 40
0.0992378060205399
 40
0.170970776842026
 40
0.1875552342778365
 40
0.200109023132736
 40
0.2130675723715025
 40
0.2318317052742515
 40
0.2510441413792957
 40
0.3846168552479852
 40
0.4052525388641334
 40
0.4680840159694574
 40
0.4971937102677951
 40
0.5266970732426609
 40
0.5380101422056745
 40
0.5496572372079042
 40
0.5961117509197184
 40
0.6195953900743611
 40
0.7157718470067776
 40
0.7534869484571201
 40
0.7652111711559724
 40
0.953086378457289
 40
0.9844155164984304
 40
1.0
 40
1.0
 40
1.0
 40
1.0
 10
4.775293002712444
 20
2.947131074873784
 30
0.0
 10
4.775286412475462
 20
2.947131074873784
 30
0.0
 10
4.775262277342515
 20
2.947131074873784
 30
0.0
 10
4.774976617635207
 20
2.947131074873784
 30
0.0
 10
4.774198688951384
 20
2.947131074873784
 30
0.0
 10
4.773242383725665
 20
2.947131074873784
 30
0.0
 10
4.771008477467892
 20
2.947131074873784
 30
0.0
 10
4.768430642694852
 20
2.947131074873784
 30
0.0
 10
4.766163636414817
 20
2.947131074873784
 30
0.0
 10
4.763190419672898
 20
2.947131074873784
 30
0.0
 10
4.763144155628676
 20
2.947131074873783
 30
0.0
 10
4.761307345551788
 20
2.947131074873784
 30
0.0
 10
4.760217027072521
 20
2.947131074873784
 30
0.0
 10
4.758690830853436
 20
2.947131074873784
 30
0.0
 10
4.756591247993219
 20
2.947131074873784
 30
0.0
 10
4.748710230200557
 20
2.947131074873784
 30
0.0
 10
4.738588177432169
 20
2.947131074873783
 30
0.0
 10
4.729621883329175
 20
2.947131074873783
 30
0.0
 10
4.725645347826826
 20
2.947131074873784
 30
0.0
 10
4.721337185232239
 20
2.947131074873783
 30
0.0
 10
4.718523766012571
 20
2.947131074873784
 30
0.0
 10
4.716088927982564
 20
2.947131074873783
 30
0.0
 10
4.71253720497092
 20
2.947131074873783
 30
0.0
 10
4.708209882791503
 20
2.947131074873783
 30
0.0
 10
4.700104333929074
 20
2.947131074873783
 30
0.0
 10
4.692935760434015
 20
2.947131074873783
 30
0.0
 10
4.685336063255209
 20
2.947131074873783
 30
0.0
 10
4.672995593579805
 20
2.947131074873783
 30
0.0
 10
4.665878892844906
 20
2.947131074873783
 30
0.0
 10
4.663963871000212
 20
2.947131074873783
 30
0.0
 10
4.663931388660937
 20
2.947131074873783
 30
0.0
 10
4.663913674635295
 20
2.947131074873783
 30
0.0
  0
SPLINE
  5
353
330
4AD
100
AcDbEntity
  8
ninja1 - Level 26
  6
Continuous
 62
     7
370
    13
100
AcDbSpline
210
0.0
220
0.0
230
1.0
 70
     8
 71
     3
 72
    11
 73
     7
 74
     0
 42
0.000000001
 43
0.0000000001
 40
0.0
 40
0.0
 40
0.0
 40
0.0
 40
0.2500049443328073
 40
0.5000076634354967
 40
0.7500063602695191
 40
1.0
 40
1.0
 40
1.0
 40
1.0
 10
4.663913674635512
 20
2.947131074873783
 30
0.0
 10
4.663973804057459
 20
2.946606927398957
 30
0.0
 10
4.664094062366158
 20
2.945558637114608
 30
0.0
 10
4.665019109493362
 20
2.944236460682983
 30
0.0
 10
4.666341365147265
 20
2.943311458988388
 30
0.0
 10
4.667389751825179
 20
2.943191202506545
 30
0.0
 10
4.667913939862256
 20
2.943131074873783
 30
0.0
  0
SPLINE
  5
356
330
4AD
100
AcDbEntity
  8
ninja1 - Level 26
  6
Continuous
 62
     7
370
    13
100
AcDbSpline
210
0.0
220
0.0
230
1.0
 70
    24
 71
     3
 72
    27
 73
    23
 74
     0
 42
0.000000001
 43
0.0000000001
 40
0.0
 40
0.0
 40
0.0
 40
0.0
 40
0.0152793790751057
 40
0.2105059059124998
 40
0.2183958439959881
 40
0.2261888856599477
 40
0.2585503896792449
 40
0.2833536242746176
 40
0.4522373536925534
 40
0.4692354360090549
 40
0.5221021933988912
 40
0.5999740478958469
 40
0.7585735836384973
 40
0.7912416648475933
 40
0.8382868634370032
 40
0.9248436546331694
 40
0.9415667563776434
 40
0.9586539123547062
 40
0.9753059018254345
 40
0.983783487128489
 40
0.9921363984612298
 40
1.0
 40
1.0
 40
1.0
 40
1.0
 10
4.667913940099091
 20
2.943131074873783
 30
0.0
 10
4.667900114520491
 20
2.943131074873783
 30
0.0
 10
4.668321082486547
 20
2.943131074873783
 30
0.0
 10
4.673630345315829
 20
2.943131074873783
 30
0.0
 10
4.682951051122069
 20
2.943131074873783
 30
0.0
 10
4.685309310963508
 20
2.943131074873783
 30
0.0
 10
4.688468242658171
 20
2.943131074873783
 30
0.0
 10
4.698293622603508
 20
2.943131074873783
 30
0.0
 10
4.707687080330046
 20
2.943131074873782
 30
0.0
 10
4.719218663555811
 20
2.943131074873783
 30
0.0
 10
4.72507664708459
 20
2.943131074873783
 30
0.0
 10
4.733060132707024
 20
2.943131074873783
 30
0.0
 10
4.746479273570445
 20
2.943131074873784
 30
0.0
 10
4.757233603852027
 20
2.943131074873784
 30
0.0
 10
4.759352833817925
 20
2.943131074873784
 30
0.0
 10
4.760376783362188
 20
2.943131074873783
 30
0.0
 10
4.765080147201838
 20
2.943131074873784
 30
0.0
 10
4.767076722985573
 20
2.943131074873784
 30
0.0
 10
4.768846685583112
 20
2.943131074873784
 30
0.0
 10
4.77018231732104
 20
2.943131074873784
 30
0.0
 10
4.771224910536519
 20
2.943131074873784
 30
0.0
 10
4.771270559035995
 20
2.943131074873784
 30
0.0
 10
4.77129269459705
 20
2.943131074873784
 30
0.0
  0
SPLINE
  5
359
330
4AD
100
AcDbEntity
  8
ninja1 - Level 26
  6
Continuous
 62
     7
370
    13
100
AcDbSpline
210
0.0
220
0.0
230
1.0
 70
     8
 71
     3
 72
    11
 73
     7
 74
     0
 42
0.000000001
 43
0.0000000001
 40
0.0
 40
0.0
 40
0.0
 40
0.0
 40
0.2499911790044331
 40
0.4999892208158433
 40
0.7499930439377211
 40
1.0
 40
1.0
 40
1.0
 40
1.0
 10
4.771292685591584
 20
2.943131074873784
 30
0.0
 10
4.771816868706615
 20
2.943191202948278
 30
0.0
 10
4.772865249326653
 20
2.943311460747915
 30
0.0
 10
4.774187530997108
 20
2.944236465129361
 30
0.0
 10
4.775112605167398
 20
2.945558639843521
 30
0.0
 10
4.775232869929375
 20
2.946606927674261
 30
0.0
 10
4.775293002687138
 20
2.947131074873784
 30
0.0
  0
LINE
  5
35C
330
4AD
100
AcDbEntity
  8
ninja1 - Level 26
  6
Continuous
 62
     7
370
    13
100
AcDbLine
 10
4.771293
 20
2.943131
 30
0.0
 11
4.771293
 21
2.943131
 31
0.0
  0
ARC
  5
35D
330
4AD
100
AcDbEntity
  8
ninja1 - Level 26
  6
Continuous
 62
     7
370
    13
100
AcDbCircle
 10
4.770577
 20
2.947131
 30
0.0
 40
0.004
100
AcDbArc
 50
270.0
 51
280.231178
  0
SPLINE
  5
35E
330
4AD
100
AcDbEntity
  8
ninja1 - Level 26
  6
Continuous
 62
     7
370
    13
100
AcDbSpline
210
0.0
220
0.0
230
1.0
 70
    24
 71
     3
 72
    32
 73
    28
 74
     0
 42
0.000000001
 43
0.0000000001
 40
0.0
 40
0.0
 40
0.0
 40
0.0
 40
0.1944881223447988
 40
0.2614397976369656
 40
0.2889120600959797
 40
0.387295689327116
 40
0.4523620692279445
 40
0.4634552817902303
 40
0.4748917285172558
 40
0.4940419362593662
 40
0.5135117208331669
 40
0.5902441011933744
 40
0.7442565651685471
 40
0.7652658752246849
 40
0.7812136668343285
 40
0.7893858288344159
 40
0.7975503303740226
 40
0.8136118203491827
 40
0.8303108698003812
 40
0.9018469410903447
 40
0.9114620773760465
 40
0.921397023331635
 40
0.9569720629341421
 40
0.9722531671982993
 40
0.9826143061631354
 40
0.99151564763151
 40
1.0
 40
1.0
 40
1.0
 40
1.0
 10
4.663913674640102
 20
2.969131074873783
 30
0.0
 10
4.66407927003944
 20
2.969131074873783
 30
0.0
 10
4.669712119542423
 20
2.969131074873783
 30
0.0
 10
4.68415761862121
 20
2.969131074873783
 30
0.0
 10
4.694304962765963
 20
2.969131074873783
 30
0.0
 10
4.702684492377459
 20
2.969131074873783
 30
0.0
 10
4.711837649626322
 20
2.969131074873783
 30
0.0
 10
4.716341924802391
 20
2.969131074873783
 30
0.0
 10
4.718242334527574
 20
2.969131074873783
 30
0.0
 10
4.720294053921828
 20
2.969131074873783
 30
0.0
 10
4.72473005572705
 20
2.969131074873783
 30
0.0
 10
4.732554338079234
 20
2.969131074873783
 30
0.0
 10
4.746865466101383
 20
2.969131074873784
 30
0.0
 10
4.756056316872162
 20
2.969131074873784
 30
0.0
 10
4.757887012825013
 20
2.969131074873784
 30
0.0
 10
4.759137872343187
 20
2.969131074873784
 30
0.0
 10
4.76024905116879
 20
2.969131074873784
 30
0.0
 10
4.761325328672951
 20
2.969131074873784
 30
0.0
 10
4.763152827776124
 20
2.969131074873784
 30
0.0
 10
4.763233423815099
 20
2.969131074873784
 30
0.0
 10
4.766152073034513
 20
2.969131074873784
 30
0.0
 10
4.768370282157548
 20
2.969131074873784
 30
0.0
 10
4.771246324718865
 20
2.969131074873784
 30
0.0
 10
4.773799962365892
 20
2.969131074873784
 30
0.0
 10
4.774864172969723
 20
2.969131074873784
 30
0.0
 10
4.775248101111326
 20
2.969131074873784
 30
0.0
 10
4.775278276824468
 20
2.969131074873784
 30
0.0
 10
4.775293002804665
 20
2.969131074873784
 30
0.0
  0
LINE
  5
361
330
4AD
100
AcDbEntity
  8
ninja1 - Level 26
  6
Continuous
 62
     7
370
    13
100
AcDbLine
 10
4.663914
 20
2.969131
 30
0.0
 11
4.663914
 21
2.947131
 31
0.0
  0
LINE
  5
362
330
4AD
100
AcDbEntity
  8
ninja1 - Level 26
  6
Continuous
 62
     7
370
    13
100
AcDbLine
 10
4.775293
 20
2.947131
 30
0.0
 11
4.775293
 21
2.969131
 31
0.0
  0
LINE
  5
363
330
4AD
100
AcDbEntity
  8
ninja1 - Level 26
  6
Continuous
 62
     7
370
    13
100
AcDbLine
 10
4.774577
 20
2.947131
 30
0.0
 11
4.774577
 21
2.969131
 31
0.0
  0
SPLINE
  5
364
330
4AD
100
AcDbEntity
  8
ninja1 - Level 26
  6
Continuous
 62
     7
370
    13
100
AcDbSpline
210
0.0
220
0.0
230
1.0
 70
     8
 71
     3
 72
    11
 73
     7
 74
     0
 42
0.000000001
 43
0.0000000001
 40
0.0
 40
0.0
 40
0.0
 40
0.0
 40
0.2500126008734828
 40
0.5000187260381019
 40
0.7500148125412516
 40
1.0
 40
1.0
 40
1.0
 40
1.0
 10
4.77529300016567
 20
2.969131074873784
 30
0.0
 10
4.775232857529847
 20
2.96965522087435
 30
0.0
 10
4.775112573815987
 20
2.970703499299299
 30
0.0
 10
4.774187433586342
 20
2.972025674379766
 30
0.0
 10
4.772865075558063
 20
2.972950685041025
 30
0.0
 10
4.771816637412301
 20
2.973070945803382
 30
0.0
 10
4.771292429766824
 20
2.973131074873784
 30
0.0
  0
SPLINE
  5
367
330
4AD
100
AcDbEntity
  8
ninja1 - Level 26
  6
Continuous
 62
     7
370
    13
100
AcDbSpline
210
0.0
220
0.0
230
1.0
 70
    24
 71
     3
 72
    34
 73
    30
 74
     0
 42
0.000000001
 43
0.0000000001
 40
0.0
 40
0.0
 40
0.0
 40
0.0
 40
0.0055705488685822
 40
0.0103219324837825
 40
0.0204699675324165
 40
0.0405620072799685
 40
0.060634780489868
 40
0.0757477468404521
 40
0.0913046863152398
 40
0.1773676945637269
 40
0.1899033184513718
 40
0.2027942071291714
 40
0.215420949169732
 40
0.2284618355285541
 40
0.2459074668741061
 40
0.3567627318556395
 40
0.3826861031009867
 40
0.4029247353979366
 40
0.4637925504122061
 40
0.4878984051937811
 40
0.5288861834496283
 40
0.6335618851499224
 40
0.7724876468797579
 40
0.7810505419375624
 40
0.7895053452426987
 40
0.8149192021988175
 40
0.9674002996089704
 40
0.9853320982858516
 40
1.0
 40
1.0
 40
1.0
 40
1.0
 10
4.771292429766824
 20
2.973131074873784
 30
0.0
 10
4.771300942227919
 20
2.973131074873784
 30
0.0
 10
4.771316715368189
 20
2.973131074873784
 30
0.0
 10
4.770862782069158
 20
2.973131074873784
 30
0.0
 10
4.769389685469071
 20
2.973131074873784
 30
0.0
 10
4.767345800208821
 20
2.973131074873784
 30
0.0
 10
4.76507834412285
 20
2.973131074873784
 30
0.0
 10
4.76324424376706
 20
2.973131074873784
 30
0.0
 10
4.759627387322002
 20
2.973131074873784
 30
0.0
 10
4.759333574758904
 20
2.973131074873784
 30
0.0
 10
4.757747973297359
 20
2.973131074873784
 30
0.0
 10
4.756845558475053
 20
2.973131074873784
 30
0.0
 10
4.75548372634569
 20
2.973131074873784
 30
0.0
 10
4.753834633822183
 20
2.973131074873784
 30
0.0
 10
4.747731247407832
 20
2.973131074873784
 30
0.0
 10
4.739589785025973
 20
2.973131074873783
 30
0.0
 10
4.73365481490916
 20
2.973131074873783
 30
0.0
 10
4.729922414159506
 20
2.973131074873783
 30
0.0
 10
4.726605860484653
 20
2.973131074873783
 30
0.0
 10
4.722370199719549
 20
2.973131074873783
 30
0.0
 10
4.715230796075077
 20
2.973131074873783
 30
0.0
 10
4.700954047154172
 20
2.973131074873783
 30
0.0
 10
4.691035439022115
 20
2.973131074873784
 30
0.0
 10
4.683235354371345
 20
2.973131074873783
 30
0.0
 10
4.681278059394532
 20
2.973131074873783
 30
0.0
 10
4.673715716411694
 20
2.973131074873783
 30
0.0
 10
4.669015718267302
 20
2.973131074873783
 30
0.0
 10
4.667965610684498
 20
2.973131074873783
 30
0.0
 10
4.667930281862457
 20
2.973131074873783
 30
0.0
 10
4.667913782439724
 20
2.973131074873783
 30
0.0
  0
SPLINE
  5
36A
330
4AD
100
AcDbEntity
  8
ninja1 - Level 26
  6
Continuous
 62
     7
370
    13
100
AcDbSpline
210
0.0
220
0.0
230
1.0
 70
     8
 71
     3
 72
    11
 73
     7
 74
     0
 42
0.000000001
 43
0.0000000001
 40
0.0
 40
0.0
 40
0.0
 40
0.0
 40
0.2499973873474919
 40
0.499996849283621
 40
0.7499979649782902
 40
1.0
 40
1.0
 40
1.0
 40
1.0
 10
4.667913783643752
 20
2.973131074873783
 30
0.0
 10
4.667389619116217
 20
2.973070948032493
 30
0.0
 10
4.66634128571139
 20
2.972950693850954
 30
0.0
 10
4.665019074770452
 20
2.972025695004068
 30
0.0
 10
4.664094057225115
 20
2.970703516601948
 30
0.0
 10
4.66397380223895
 20
2.969655222758984
 30
0.0
 10
4.663913674635312
 20
2.969131074873783
 30
0.0
  0
LINE
  5
36D
330
4AD
100
AcDbEntity
  8
ninja1 - Level 26
  6
Continuous
 62
     7
370
    13
100
AcDbLine
 10
4.760434
 20
2.973131
 30
0.0
 11
4.760434
 21
2.988131
 31
0.0
  0
LINE
  5
36E
330
4AD
100
AcDbEntity
  8
ninja1 - Level 26
  6
Continuous
 62
     7
370
    13
100
AcDbLine
 10
4.679065
 20
2.988131
 30
0.0
 11
4.679065
 21
2.973131
 31
0.0
  0
ELLIPSE
  5
36F
330
4AD
100
AcDbEntity
  8
ninja1 - Level 26
  6
Continuous
 62
     7
370
    13
100
AcDbEllipse
 10
4.77156
 20
2.969131
 30
0.0
 11
0.0
 21
0.004
 31
0.0
210
0.0
220
0.0
230
-1.0
 40
0.9999996263961531
 41
0.0003377722890887
 42
1.570831405927456
  0
SPLINE
  5
370
330
4AD
100
AcDbEntity
  8
ninja1 - Level 26
  6
Continuous
 62
     7
370
    13
100
AcDbSpline
210
0.0
220
0.0
230
1.0
 70
    24
 71
     3
 72
     8
 73
     4
 74
     0
 42
0.000000001
 43
0.0000000001
 40
0.0
 40
0.0
 40
0.0
 40
0.0
 40
1.0
 40
1.0
 40
1.0
 40
1.0
 10
4.771559792512221
 20
2.973131074873784
 30
0.0
 10
4.771561996481451
 20
2.973131074873784
 30
0.0
 10
4.771537137695823
 20
2.973131074873784
 30
0.0
 10
4.771510804201982
 20
2.973131074873784
 30
0.0
  0
SPLINE
  5
373
330
4AD
100
AcDbEntity
  8
ninja1 - Level 26
  6
Continuous
 62
     7
370
    13
100
AcDbSpline
210
0.0
220
0.0
230
1.0
 70
    24
 71
     3
 72
     8
 73
     4
 74
     0
 42
0.000000001
 43
0.0000000001
 40
0.0
 40
0.0
 40
0.0
 40
0.0
 40
1.0
 40
1.0
 40
1.0
 40
1.0
 10
4.775326869166272
 20
2.969131074873784
 30
0.0
 10
4.775445595098601
 20
2.969131074873784
 30
0.0
 10
4.775564100422133
 20
2.969131074873784
 30
0.0
 10
4.775559791262413
 20
2.969131074873784
 30
0.0
  0
SPLINE
  5
376
330
4AD
100
AcDbEntity
  8
ninja1 - Level 26
  6
Continuous
 62
     7
370
    13
100
AcDbSpline
210
0.0
220
0.0
230
1.0
 70
    24
 71
     3
 72
     8
 73
     4
 74
     0
 42
0.000000001
 43
0.0000000001
 40
0.0
 40
0.0
 40
0.0
 40
0.0
 40
1.0
 40
1.0
 40
1.0
 40
1.0
 10
4.775559830550954
 20
2.947131074873784
 30
0.0
 10
4.775522633463147
 20
2.947131074873784
 30
0.0
 10
4.775475974559022
 20
2.947131074873784
 30
0.0
 10
4.775307509862317
 20
2.947131074873784
 30
0.0
  0
LINE
  5
379
330
4AD
100
AcDbEntity
  8
ninja1 - Level 26
  6
Continuous
 62
     7
370
    13
100
AcDbLine
 10
4.77556
 20
2.947131
 30
0.0
 11
4.77556
 21
2.969131
 31
0.0
  0
ELLIPSE
  5
37A
330
4AD
100
AcDbEntity
  8
ninja1 - Level 26
  6
Continuous
 62
     7
370
    13
100
AcDbEllipse
 10
4.77156
 20
2.947131
 30
0.0
 11
0.0
 21
0.004
 31
0.0
210
0.0
220
0.0
230
-1.0
 40
0.999999684171574
 41
1.570258504565759
 42
3.141333431238242
  0
LINE
  5
37B
330
4AD
100
AcDbEntity
  8
ninja1 - Level 26
  6
Continuous
 62
     7
370
    13
100
AcDbLine
 10
4.771495
 20
2.943131
 30
0.0
 11
4.77156
 21
2.943131
 31
0.0
  0
SPLINE
  5
37C
330
4AD
100
AcDbEntity
  8
ninja1 - Level 26
  6
Continuous
 62
     7
370
    13
100
AcDbSpline
210
0.0
220
0.0
230
1.0
 70
    24
 71
     3
 72
    36
 73
    32
 74
     0
 42
0.000000001
 43
0.0000000001
 40
0.0
 40
0.0
 40
0.0
 40
0.0
 40
0.0057514671502224
 40
0.0180476954716545
 40
0.0240207123243322
 40
0.0338621727400633
 40
0.0437615709656
 40
0.076597190095899
 40
0.0888602067879051
 40
0.0992378060203115
 40
0.170970776841823
 40
0.1875552342776319
 40
0.200109023132529
 40
0.2130675723713044
 40
0.231831705274056
 40
0.2510441413791086
 40
0.3846168552478324
 40
0.4052525388639864
 40
0.4680840159693267
 40
0.4971937102676724
 40
0.5266970732425463
 40
0.5380101422055662
 40
0.5496572372077968
 40
0.5961117509196216
 40
0.6195953900742723
 40
0.7157718470067142
 40
0.7534869484570646
 40
0.7652111711559226
 40
0.953086378457289
 40
0.9844155164984384
 40
1.0
 40
1.0
 40
1.0
 40
1.0
 10
3.374909647153024
 20
2.947131074873773
 30
0.0
 10
3.374903056916044
 20
2.947131074873773
 30
0.0
 10
3.374878921783098
 20
2.947131074873773
 30
0.0
 10
3.374593262075789
 20
2.947131074873773
 30
0.0
 10
3.37381533339197
 20
2.947131074873773
 30
0.0
 10
3.372859028166238
 20
2.947131074873773
 30
0.0
 10
3.370625121908477
 20
2.947131074873773
 30
0.0
 10
3.368047287135446
 20
2.947131074873773
 30
0.0
 10
3.365780280855397
 20
2.947131074873773
 30
0.0
 10
3.36280706411348
 20
2.947131074873773
 30
0.0
 10
3.362760800069267
 20
2.947131074873773
 30
0.0
 10
3.36092398999237
 20
2.947131074873773
 30
0.0
 10
3.359833671513101
 20
2.947131074873773
 30
0.0
 10
3.358307475294018
 20
2.947131074873773
 30
0.0
 10
3.356207892433798
 20
2.947131074873773
 30
0.0
 10
3.34832687464114
 20
2.947131074873773
 30
0.0
 10
3.338204821872722
 20
2.947131074873773
 30
0.0
 10
3.329238527769761
 20
2.947131074873773
 30
0.0
 10
3.325261992267411
 20
2.947131074873773
 30
0.0
 10
3.320953829672824
 20
2.947131074873773
 30
0.0
 10
3.318140410453154
 20
2.947131074873773
 30
0.0
 10
3.315705572423143
 20
2.947131074873773
 30
0.0
 10
3.312153849411499
 20
2.947131074873773
 30
0.0
 10
3.307826527232085
 20
2.947131074873773
 30
0.0
 10
3.299720978369654
 20
2.947131074873773
 30
0.0
 10
3.292552404874601
 20
2.947131074873773
 30
0.0
 10
3.284952707695792
 20
2.947131074873773
 30
0.0
 10
3.272612238020386
 20
2.947131074873772
 30
0.0
 10
3.265495537285474
 20
2.947131074873772
 30
0.0
 10
3.263580515440789
 20
2.947131074873772
 30
0.0
 10
3.263548033101519
 20
2.947131074873772
 30
0.0
 10
3.263530319075877
 20
2.947131074873772
 30
0.0
  0
SPLINE
  5
37F
330
4AD
100
AcDbEntity
  8
ninja1 - Level 26
  6
Continuous
 62
     7
370
    13
100
AcDbSpline
210
0.0
220
0.0
230
1.0
 70
     8
 71
     3
 72
    11
 73
     7
 74
     0
 42
0.000000001
 43
0.0000000001
 40
0.0
 40
0.0
 40
0.0
 40
0.0
 40
0.2500049443328413
 40
0.5000076634355123
 40
0.7500063602694902
 40
1.0
 40
1.0
 40
1.0
 40
1.0
 10
3.263530319076095
 20
2.947131074873772
 30
0.0
 10
3.263590448498042
 20
2.946606927398947
 30
0.0
 10
3.263710706806739
 20
2.945558637114597
 30
0.0
 10
3.264635753933943
 20
2.944236460682973
 30
0.0
 10
3.265958009587842
 20
2.943311458988377
 30
0.0
 10
3.267006396265761
 20
2.943191202506535
 30
0.0
 10
3.267530584302835
 20
2.943131074873772
 30
0.0
  0
SPLINE
  5
382
330
4AD
100
AcDbEntity
  8
ninja1 - Level 26
  6
Continuous
 62
     7
370
    13
100
AcDbSpline
210
0.0
220
0.0
230
1.0
 70
    24
 71
     3
 72
    27
 73
    23
 74
     0
 42
0.000000001
 43
0.0000000001
 40
0.0
 40
0.0
 40
0.0
 40
0.0
 40
0.0152793790751059
 40
0.2105059059125022
 40
0.2183958439959938
 40
0.2261888856599539
 40
0.2585503896792532
 40
0.283353624274622
 40
0.4522373536925591
 40
0.4692354360090609
 40
0.5221021933988983
 40
0.5999740478958629
 40
0.758573583638508
 40
0.7912416648476047
 40
0.8382868634370145
 40
0.9248436546331827
 40
0.9415667563776615
 40
0.958653912354719
 40
0.9753059018254466
 40
0.9837834871285014
 40
0.9921363984612426
 40
1.0
 40
1.0
 40
1.0
 40
1.0
 10
3.267530584539671
 20
2.943131074873772
 30
0.0
 10
3.267516758961073
 20
2.943131074873772
 30
0.0
 10
3.267937726927129
 20
2.943131074873772
 30
0.0
 10
3.273246989756461
 20
2.943131074873773
 30
0.0
 10
3.282567695562646
 20
2.943131074873773
 30
0.0
 10
3.284925955404091
 20
2.943131074873772
 30
0.0
 10
3.28808488709875
 20
2.943131074873772
 30
0.0
 10
3.297910267044091
 20
2.943131074873773
 30
0.0
 10
3.307303724770629
 20
2.943131074873773
 30
0.0
 10
3.318835307996397
 20
2.943131074873773
 30
0.0
 10
3.324693291525176
 20
2.943131074873773
 30
0.0
 10
3.332676777147603
 20
2.943131074873773
 30
0.0
 10
3.346095918011016
 20
2.943131074873773
 30
0.0
 10
3.356850248292612
 20
2.943131074873773
 30
0.0
 10
3.358969478258502
 20
2.943131074873773
 30
0.0
 10
3.359993427802762
 20
2.943131074873773
 30
0.0
 10
3.364696791642421
 20
2.943131074873773
 30
0.0
 10
3.366693367426155
 20
2.943131074873773
 30
0.0
 10
3.368463330023692
 20
2.943131074873773
 30
0.0
 10
3.369798961761617
 20
2.943131074873773
 30
0.0
 10
3.370841554977101
 20
2.943131074873773
 30
0.0
 10
3.370887203476581
 20
2.943131074873773
 30
0.0
 10
3.370909339037633
 20
2.943131074873773
 30
0.0
  0
SPLINE
  5
385
330
4AD
100
AcDbEntity
  8
ninja1 - Level 26
  6
Continuous
 62
     7
370
    13
100
AcDbSpline
210
0.0
220
0.0
230
1.0
 70
     8
 71
     3
 72
    11
 73
     7
 74
     0
 42
0.000000001
 43
0.0000000001
 40
0.0
 40
0.0
 40
0.0
 40
0.0
 40
0.2499911790045472
 40
0.4999892208159219
 40
0.7499930439377649
 40
1.0
 40
1.0
 40
1.0
 40
1.0
 10
3.370909330032163
 20
2.943131074873773
 30
0.0
 10
3.371433513147195
 20
2.943191202948268
 30
0.0
 10
3.372481893767233
 20
2.943311460747905
 30
0.0
 10
3.373804175437693
 20
2.94423646512935
 30
0.0
 10
3.374729249607981
 20
2.945558639843511
 30
0.0
 10
3.374849514369954
 20
2.946606927674251
 30
0.0
 10
3.374909647127718
 20
2.947131074873773
 30
0.0
  0
LINE
  5
388
330
4AD
100
AcDbEntity
  8
ninja1 - Level 26
  6
Continuous
 62
     7
370
    13
100
AcDbLine
 10
3.370909
 20
2.943131
 30
0.0
 11
3.370909
 21
2.943131
 31
0.0
  0
ARC
  5
389
330
4AD
100
AcDbEntity
  8
ninja1 - Level 26
  6
Continuous
 62
     7
370
    13
100
AcDbCircle
 10
3.370194
 20
2.947131
 30
0.0
 40
0.004
100
AcDbArc
 50
270.0
 51
280.231178
  0
SPLINE
  5
38A
330
4AD
100
AcDbEntity
  8
ninja1 - Level 26
  6
Continuous
 62
     7
370
    13
100
AcDbSpline
210
0.0
220
0.0
230
1.0
 70
    24
 71
     3
 72
    32
 73
    28
 74
     0
 42
0.000000001
 43
0.0000000001
 40
0.0
 40
0.0
 40
0.0
 40
0.0
 40
0.1944881223448064
 40
0.2614397976369735
 40
0.2889120600959886
 40
0.3872956893271284
 40
0.4523620692279572
 40
0.4634552817902415
 40
0.4748917285172699
 40
0.4940419362593829
 40
0.5135117208331823
 40
0.5902441011933909
 40
0.7442565651685597
 40
0.7652658752246992
 40
0.7812136668343435
 40
0.7893858288344307
 40
0.7975503303740378
 40
0.8136118203492085
 40
0.8303108698003956
 40
0.9018469410903604
 40
0.9114620773760545
 40
0.9213970233316508
 40
0.9569720629341581
 40
0.9722531671983171
 40
0.9826143061631531
 40
0.9915156476315278
 40
1.0
 40
1.0
 40
1.0
 40
1.0
 10
3.263530319080685
 20
2.969131074873772
 30
0.0
 10
3.26369591448002
 20
2.969131074873772
 30
0.0
 10
3.269328763983005
 20
2.969131074873773
 30
0.0
 10
3.283774263061786
 20
2.969131074873773
 30
0.0
 10
3.293921607206546
 20
2.969131074873773
 30
0.0
 10
3.302301136818039
 20
2.969131074873773
 30
0.0
 10
3.31145429406692
 20
2.969131074873773
 30
0.0
 10
3.315958569242976
 20
2.969131074873773
 30
0.0
 10
3.317858978968151
 20
2.969131074873773
 30
0.0
 10
3.319910698362416
 20
2.969131074873773
 30
0.0
 10
3.324346700167626
 20
2.969131074873773
 30
0.0
 10
3.332170982519822
 20
2.969131074873773
 30
0.0
 10
3.346482110541933
 20
2.969131074873773
 30
0.0
 10
3.355672961312747
 20
2.969131074873773
 30
0.0
 10
3.357503657265595
 20
2.969131074873773
 30
0.0
 10
3.358754516783764
 20
2.969131074873773
 30
0.0
 10
3.35986569560937
 20
2.969131074873773
 30
0.0
 10
3.360941973113533
 20
2.969131074873773
 30
0.0
 10
3.362769472216707
 20
2.969131074873773
 30
0.0
 10
3.362850068255694
 20
2.969131074873773
 30
0.0
 10
3.365768717475095
 20
2.969131074873773
 30
0.0
 10
3.367986926598133
 20
2.969131074873773
 30
0.0
 10
3.370862969159439
 20
2.969131074873773
 30
0.0
 10
3.373416606806475
 20
2.969131074873773
 30
0.0
 10
3.374480817410306
 20
2.969131074873773
 30
0.0
 10
3.374864745551915
 20
2.969131074873773
 30
0.0
 10
3.374894921265048
 20
2.969131074873773
 30
0.0
 10
3.374909647245248
 20
2.969131074873773
 30
0.0
  0
LINE
  5
38D
330
4AD
100
AcDbEntity
  8
ninja1 - Level 26
  6
Continuous
 62
     7
370
    13
100
AcDbLine
 10
3.26353
 20
2.969131
 30
0.0
 11
3.26353
 21
2.947131
 31
0.0
  0
LINE
  5
38E
330
4AD
100
AcDbEntity
  8
ninja1 - Level 26
  6
Continuous
 62
     7
370
    13
100
AcDbLine
 10
3.37491
 20
2.947131
 30
0.0
 11
3.37491
 21
2.969131
 31
0.0
  0
LINE
  5
38F
330
4AD
100
AcDbEntity
  8
ninja1 - Level 26
  6
Continuous
 62
     7
370
    13
100
AcDbLine
 10
3.374194
 20
2.947131
 30
0.0
 11
3.374194
 21
2.969131
 31
0.0
  0
SPLINE
  5
390
330
4AD
100
AcDbEntity
  8
ninja1 - Level 26
  6
Continuous
 62
     7
370
    13
100
AcDbSpline
210
0.0
220
0.0
230
1.0
 70
     8
 71
     3
 72
    11
 73
     7
 74
     0
 42
0.000000001
 43
0.0000000001
 40
0.0
 40
0.0
 40
0.0
 40
0.0
 40
0.2500126008734924
 40
0.5000187260381079
 40
0.7500148125412501
 40
1.0
 40
1.0
 40
1.0
 40
1.0
 10
3.374909644606252
 20
2.969131074873773
 30
0.0
 10
3.374849501970428
 20
2.96965522087434
 30
0.0
 10
3.374729218256563
 20
2.970703499299289
 30
0.0
 10
3.373804078026925
 20
2.972025674379756
 30
0.0
 10
3.372481719998648
 20
2.972950685041015
 30
0.0
 10
3.371433281852884
 20
2.973070945803371
 30
0.0
 10
3.370909074207404
 20
2.973131074873773
 30
0.0
  0
SPLINE
  5
393
330
4AD
100
AcDbEntity
  8
ninja1 - Level 26
  6
Continuous
 62
     7
370
    13
100
AcDbSpline
210
0.0
220
0.0
230
1.0
 70
    24
 71
     3
 72
    34
 73
    30
 74
     0
 42
0.000000001
 43
0.0000000001
 40
0.0
 40
0.0
 40
0.0
 40
0.0
 40
0.0055705488685821
 40
0.0103219324837825
 40
0.0204699675324159
 40
0.040562007279965
 40
0.0606347804898666
 40
0.075747746840451
 40
0.0913046863152378
 40
0.1773676945637233
 40
0.1899033184513692
 40
0.2027942071291656
 40
0.2154209491697201
 40
0.2284618355285488
 40
0.2459074668741016
 40
0.3567627318556284
 40
0.3826861031009763
 40
0.4029247353979261
 40
0.4637925504121933
 40
0.4878984051937665
 40
0.5288861834496136
 40
0.6335618851499082
 40
0.7724876468797404
 40
0.7810505419375417
 40
0.789505345242678
 40
0.8149192021987904
 40
0.9674002996089447
 40
0.9853320982858251
 40
1.0
 40
1.0
 40
1.0
 40
1.0
 10
3.370909074207404
 20
2.973131074873773
 30
0.0
 10
3.370917586668499
 20
2.973131074873773
 30
0.0
 10
3.370933359808771
 20
2.973131074873773
 30
0.0
 10
3.370479426509744
 20
2.973131074873773
 30
0.0
 10
3.369006329909653
 20
2.973131074873773
 30
0.0
 10
3.366962444649401
 20
2.973131074873773
 30
0.0
 10
3.364694988563441
 20
2.973131074873773
 30
0.0
 10
3.362860888207642
 20
2.973131074873773
 30
0.0
 10
3.359244031762588
 20
2.973131074873773
 30
0.0
 10
3.358950219199483
 20
2.973131074873773
 30
0.0
 10
3.357364617737935
 20
2.973131074873773
 30
0.0
 10
3.356462202915633
 20
2.973131074873773
 30
0.0
 10
3.355100370786266
 20
2.973131074873773
 30
0.0
 10
3.353451278262765
 20
2.973131074873773
 30
0.0
 10
3.347347891848412
 20
2.973131074873773
 30
0.0
 10
3.339206429466567
 20
2.973131074873773
 30
0.0
 10
3.333271459349745
 20
2.973131074873773
 30
0.0
 10
3.329539058600089
 20
2.973131074873773
 30
0.0
 10
3.326222504925242
 20
2.973131074873773
 30
0.0
 10
3.321986844160131
 20
2.973131074873773
 30
0.0
 10
3.314847440515662
 20
2.973131074873773
 30
0.0
 10
3.300570691594752
 20
2.973131074873773
 30
0.0
 10
3.2906520834627
 20
2.973131074873773
 30
0.0
 10
3.282851998811928
 20
2.973131074873773
 30
0.0
 10
3.280894703835118
 20
2.973131074873773
 30
0.0
 10
3.273332360852274
 20
2.973131074873773
 30
0.0
 10
3.268632362707884
 20
2.973131074873773
 30
0.0
 10
3.267582255125077
 20
2.973131074873773
 30
0.0
 10
3.267546926303039
 20
2.973131074873773
 30
0.0
 10
3.267530426880306
 20
2.973131074873773
 30
0.0
  0
SPLINE
  5
396
330
4AD
100
AcDbEntity
  8
ninja1 - Level 26
  6
Continuous
 62
     7
370
    13
100
AcDbSpline
210
0.0
220
0.0
230
1.0
 70
     8
 71
     3
 72
    11
 73
     7
 74
     0
 42
0.000000001
 43
0.0000000001
 40
0.0
 40
0.0
 40
0.0
 40
0.0
 40
0.2499973873475319
 40
0.4999968492836273
 40
0.7499979649783168
 40
1.0
 40
1.0
 40
1.0
 40
1.0
 10
3.267530428084335
 20
2.973131074873773
 30
0.0
 10
3.2670062635568
 20
2.973070948032482
 30
0.0
 10
3.265957930151978
 20
2.972950693850943
 30
0.0
 10
3.264635719211038
 20
2.972025695004057
 30
0.0
 10
3.263710701665701
 20
2.970703516601937
 30
0.0
 10
3.26359044667953
 20
2.969655222758973
 30
0.0
 10
3.263530319075894
 20
2.969131074873772
 30
0.0
  0
LINE
  5
399
330
4AD
100
AcDbEntity
  8
ninja1 - Level 26
  6
Continuous
 62
     7
370
    13
100
AcDbLine
 10
3.36005
 20
2.973131
 30
0.0
 11
3.36005
 21
2.988131
 31
0.0
  0
LINE
  5
39A
330
4AD
100
AcDbEntity
  8
ninja1 - Level 26
  6
Continuous
 62
     7
370
    13
100
AcDbLine
 10
3.278681
 20
2.988131
 30
0.0
 11
3.278681
 21
2.973131
 31
0.0
  0
ELLIPSE
  5
39B
330
4AD
100
AcDbEntity
  8
ninja1 - Level 26
  6
Continuous
 62
     7
370
    13
100
AcDbEllipse
 10
3.371176
 20
2.969131
 30
0.0
 11
0.0
 21
0.004
 31
0.0
210
0.0
220
0.0
230
-1.0
 40
0.9999996263961532
 41
0.0003377722891333
 42
1.570831405927474
  0
SPLINE
  5
39C
330
4AD
100
AcDbEntity
  8
ninja1 - Level 26
  6
Continuous
 62
     7
370
    13
100
AcDbSpline
210
0.0
220
0.0
230
1.0
 70
    24
 71
     3
 72
     8
 73
     4
 74
     0
 42
0.000000001
 43
0.0000000001
 40
0.0
 40
0.0
 40
0.0
 40
0.0
 40
1.0
 40
1.0
 40
1.0
 40
1.0
 10
3.371176436952804
 20
2.973131074873773
 30
0.0
 10
3.371178640922034
 20
2.973131074873773
 30
0.0
 10
3.371153782136403
 20
2.973131074873773
 30
0.0
 10
3.371127448642565
 20
2.973131074873773
 30
0.0
  0
SPLINE
  5
39F
330
4AD
100
AcDbEntity
  8
ninja1 - Level 26
  6
Continuous
 62
     7
370
    13
100
AcDbSpline
210
0.0
220
0.0
230
1.0
 70
    24
 71
     3
 72
     8
 73
     4
 74
     0
 42
0.000000001
 43
0.0000000001
 40
0.0
 40
0.0
 40
0.0
 40
0.0
 40
1.0
 40
1.0
 40
1.0
 40
1.0
 10
3.374943513606855
 20
2.969131074873773
 30
0.0
 10
3.375062239539181
 20
2.969131074873773
 30
0.0
 10
3.375180744862713
 20
2.969131074873773
 30
0.0
 10
3.375176435702995
 20
2.969131074873773
 30
0.0
  0
SPLINE
  5
3A2
330
4AD
100
AcDbEntity
  8
ninja1 - Level 26
  6
Continuous
 62
     7
370
    13
100
AcDbSpline
210
0.0
220
0.0
230
1.0
 70
    24
 71
     3
 72
     8
 73
     4
 74
     0
 42
0.000000001
 43
0.0000000001
 40
0.0
 40
0.0
 40
0.0
 40
0.0
 40
1.0
 40
1.0
 40
1.0
 40
1.0
 10
3.375176474991536
 20
2.947131074873773
 30
0.0
 10
3.37513927790373
 20
2.947131074873773
 30
0.0
 10
3.375092618999601
 20
2.947131074873773
 30
0.0
 10
3.374924154302899
 20
2.947131074873773
 30
0.0
  0
LINE
  5
3A5
330
4AD
100
AcDbEntity
  8
ninja1 - Level 26
  6
Continuous
 62
     7
370
    13
100
AcDbLine
 10
3.375176
 20
2.947131
 30
0.0
 11
3.375176
 21
2.969131
 31
0.0
  0
ELLIPSE
  5
3A6
330
4AD
100
AcDbEntity
  8
ninja1 - Level 26
  6
Continuous
 62
     7
370
    13
100
AcDbEllipse
 10
3.371176
 20
2.947131
 30
0.0
 11
0.0
 21
0.004
 31
0.0
210
0.0
220
0.0
230
-1.0
 40
0.999999684171574
 41
1.570258504565759
 42
3.141333431238257
  0
LINE
  5
3A7
330
4AD
100
AcDbEntity
  8
ninja1 - Level 26
  6
Continuous
 62
     7
370
    13
100
AcDbLine
 10
3.371112
 20
2.943131
 30
0.0
 11
3.371176
 21
2.943131
 31
0.0
  0
LINE
  5
3A8
330
4AD
100
AcDbEntity
  8
ninja1 - Level 26
  6
Continuous
 62
     7
370
    13
100
AcDbLine
 10
5.285211
 20
2.969131
 30
0.0
 11
5.285211
 21
2.969131
 31
0.0
  0
ELLIPSE
  5
3A9
330
4AD
100
AcDbEntity
  8
ninja1 - Level 26
  6
Continuous
 62
     7
370
    13
100
AcDbEllipse
 10
5.289211
 20
2.969131
 30
0.0
 11
0.0
 21
0.004
 31
0.0
210
0.0
220
0.0
230
-1.0
 40
0.9999996263961532
 41
4.712424059517242
 42
6.282847534890542
  0
SPLINE
  5
3AA
330
4AD
100
AcDbEntity
  8
ninja1 - Level 26
  6
Continuous
 62
     7
370
    13
100
AcDbSpline
210
0.0
220
0.0
230
1.0
 70
    24
 71
     3
 72
    24
 73
    20
 74
     0
 42
0.000000001
 43
0.0000000001
 40
0.0
 40
0.0
 40
0.0
 40
0.0
 40
0.0260618866857376
 40
0.0523519554200598
 40
0.1561937332335209
 40
0.2677232298614533
 40
0.3802637529417529
 40
0.4372360235636854
 40
0.4594288409065735
 40
0.5338747851392448
 40
0.6208411447955394
 40
0.6877931925562403
 40
0.8728928220302492
 40
0.9227530757484403
 40
0.9508209239760551
 40
0.9591765142784778
 40
0.9690971832085089
 40
0.988808464468812
 40
1.0
 40
1.0
 40
1.0
 40
1.0
 10
5.382531012079608
 20
2.973131074873789
 30
0.0
 10
5.381676736205883
 20
2.973131074873789
 30
0.0
 10
5.379997867700693
 20
2.973131074873789
 30
0.0
 10
5.374504871713321
 20
2.973131074873789
 30
0.0
 10
5.366840179899855
 20
2.973131074873789
 30
0.0
 10
5.35876561652949
 20
2.973131074873788
 30
0.0
 10
5.35049036341077
 20
2.973131074873788
 30
0.0
 10
5.343559601708752
 20
2.973131074873788
 30
0.0
 10
5.338002082293442
 20
2.973131074873788
 30
0.0
 10
5.332997574312217
 20
2.973131074873788
 30
0.0
 10
5.326242612625993
 20
2.973131074873788
 30
0.0
 10
5.313843366349671
 20
2.973131074873787
 30
0.0
 10
5.302485404323271
 20
2.973131074873787
 30
0.0
 10
5.292988000587731
 20
2.973131074873787
 30
0.0
 10
5.290545250523617
 20
2.973131074873787
 30
0.0
 10
5.289555934929772
 20
2.973131074873787
 30
0.0
 10
5.289136409250155
 20
2.973131074873787
 30
0.0
 10
5.289159018817515
 20
2.973131074873787
 30
0.0
 10
5.2891973274521
 20
2.973131074873787
 30
0.0
 10
5.289211201023819
 20
2.973131074873787
 30
0.0
  0
ELLIPSE
  5
3AD
330
4AD
100
AcDbEntity
  8
ninja1 - Level 26
  6
Continuous
 62
     7
370
    13
100
AcDbEllipse
 10
5.382531
 20
2.969131
 30
0.0
 11
0.0
 21
-0.004
 31
0.0
210
0.0
220
0.0
230
1.0
 40
0.4938804374758785
 41
1.570796326794895
 42
3.141592653589802
  0
SPLINE
  5
3AE
330
4AD
100
AcDbEntity
  8
ninja1 - Level 26
  6
Continuous
 62
     7
370
    13
100
AcDbSpline
210
0.0
220
0.0
230
1.0
 70
    24
 71
     3
 72
    24
 73
    20
 74
     0
 42
0.000000001
 43
0.0000000001
 40
0.0
 40
0.0
 40
0.0
 40
0.0
 40
0.0220716056612629
 40
0.1941074818982271
 40
0.3895986860900215
 40
0.4076860975943169
 40
0.5392954564226309
 40
0.5548432033892645
 40
0.6435538949058748
 40
0.7000460561947026
 40
0.7578942729303141
 40
0.8105310950707901
 40
0.8632114455015098
 40
0.8854852118846062
 40
0.9078910439341635
 40
0.9302577811328534
 40
0.9535223652737702
 40
0.9767856051931747
 40
1.0
 40
1.0
 40
1.0
 40
1.0
 10
5.285211162984444
 20
2.969131074873788
 30
0.0
 10
5.285033812480454
 20
2.969131074873788
 30
0.0
 10
5.285165250374496
 20
2.969131074873788
 30
0.0
 10
5.301771716142734
 20
2.969131074873788
 30
0.0
 10
5.316796148351964
 20
2.969131074873787
 30
0.0
 10
5.329750604546314
 20
2.969131074873788
 30
0.0
 10
5.333676313729462
 20
2.969131074873788
 30
0.0
 10
5.342627375530186
 20
2.969131074873788
 30
0.0
 10
5.349224658041264
 20
2.969131074873788
 30
0.0
 10
5.355967069454095
 20
2.969131074873788
 30
0.0
 10
5.361071173980462
 20
2.969131074873788
 30
0.0
 10
5.36579047832838
 20
2.969131074873788
 30
0.0
 10
5.369288269714028
 20
2.969131074873788
 30
0.0
 10
5.372215670759091
 20
2.969131074873788
 30
0.0
 10
5.37449318207085
 20
2.969131074873788
 30
0.0
 10
5.376928889713253
 20
2.969131074873788
 30
0.0
 10
5.379468566615419
 20
2.969131074873788
 30
0.0
 10
5.382042497164881
 20
2.969131074873788
 30
0.0
 10
5.383685763931798
 20
2.969131074873788
 30
0.0
 10
5.38450653382951
 20
2.969131074873788
 30
0.0
  0
LINE
  5
3B1
330
4AD
100
AcDbEntity
  8
ninja1 - Level 26
  6
Continuous
 62
     7
370
    13
100
AcDbLine
 10
5.285211
 20
2.969131
 30
0.0
 11
5.285211
 21
2.947131
 31
0.0
  0
LINE
  5
3B2
330
4AD
100
AcDbEntity
  8
ninja1 - Level 26
  6
Continuous
 62
     7
370
    13
100
AcDbLine
 10
5.384507
 20
2.947131
 30
0.0
 11
5.384507
 21
2.969131
 31
0.0
  0
SPLINE
  5
3B3
330
4AD
100
AcDbEntity
  8
ninja1 - Level 26
  6
Continuous
 62
     7
370
    13
100
AcDbSpline
210
0.0
220
0.0
230
1.0
 70
    24
 71
     3
 72
    23
 73
    19
 74
     0
 42
0.000000001
 43
0.0000000001
 40
0.0
 40
0.0
 40
0.0
 40
0.0
 40
0.0237157414266606
 40
0.0943764460996583
 40
0.1177069846426452
 40
0.1478672657739089
 40
0.17809620376905
 40
0.2083828933802728
 40
0.2676360644670428
 40
0.3555980639964749
 40
0.4340600095021583
 40
0.5739329026710315
 40
0.6264540772629825
 40
0.8998771845589478
 40
0.9675451125785643
 40
0.9803284485436009
 40
0.9931579069685179
 40
1.0
 40
1.0
 40
1.0
 40
1.0
 10
5.384506533829513
 20
2.947131074873788
 30
0.0
 10
5.383668310328847
 20
2.947131074873788
 30
0.0
 10
5.380323017380296
 20
2.947131074873788
 30
0.0
 10
5.375827645357704
 20
2.947131074873788
 30
0.0
 10
5.371659148717549
 20
2.947131074873788
 30
0.0
 10
5.369159673060409
 20
2.947131074873788
 30
0.0
 10
5.366592454459541
 20
2.947131074873788
 30
0.0
 10
5.363381582008881
 20
2.947131074873788
 30
0.0
 10
5.35794734780184
 20
2.947131074873788
 30
0.0
 10
5.351179919963312
 20
2.947131074873788
 30
0.0
 10
5.338008748230719
 20
2.947131074873788
 30
0.0
 10
5.330367299178062
 20
2.947131074873788
 30
0.0
 10
5.314136654462176
 20
2.947131074873788
 30
0.0
 10
5.295961917406024
 20
2.947131074873788
 30
0.0
 10
5.285227162029215
 20
2.947131074873788
 30
0.0
 10
5.285265658809084
 20
2.947131074873788
 30
0.0
 10
5.285212768533392
 20
2.947131074873788
 30
0.0
 10
5.285211577311792
 20
2.947131074873788
 30
0.0
 10
5.28521116298509
 20
2.947131074873788
 30
0.0
  0
LINE
  5
3B6
330
4AD
100
AcDbEntity
  8
ninja1 - Level 26
  6
Continuous
 62
     7
370
    13
100
AcDbLine
 10
5.286194
 20
2.947131
 30
0.0
 11
5.286194
 21
2.969131
 31
0.0
  0
ELLIPSE
  5
3B7
330
4AD
100
AcDbEntity
  8
ninja1 - Level 26
  6
Continuous
 62
     7
370
    13
100
AcDbEllipse
 10
5.289211
 20
2.947131
 30
0.0
 11
0.0
 21
0.004
 31
0.0
210
0.0
220
0.0
230
-1.0
 40
0.999999684171574
 41
3.141851875941179
 42
4.711851158155541
  0
SPLINE
  5
3B8
330
4AD
100
AcDbEntity
  8
ninja1 - Level 26
  6
Continuous
 62
     7
370
    13
100
AcDbSpline
210
0.0
220
0.0
230
1.0
 70
    24
 71
     3
 72
    27
 73
    23
 74
     0
 42
0.000000001
 43
0.0000000001
 40
0.0
 40
0.0
 40
0.0
 40
0.0
 40
0.0192958303930178
 40
0.0308160248474767
 40
0.0413894455234225
 40
0.0496606142357018
 40
0.0738614097059529
 40
0.1123529984969658
 40
0.2904044159967476
 40
0.5016774976363435
 40
0.5358471546946291
 40
0.5594713806160121
 40
0.6204088299815408
 40
0.7065740664299446
 40
0.7357549807257769
 40
0.8222416738127305
 40
0.8653880395267657
 40
0.8921028958502455
 40
0.9189300000447271
 40
0.9459787478953717
 40
0.973065932644916
 40
1.0
 40
1.0
 40
1.0
 40
1.0
 10
5.289211194625656
 20
2.943131074873788
 30
0.0
 10
5.28919632102105
 20
2.943131074873788
 30
0.0
 10
5.289259447775094
 20
2.943131074873788
 30
0.0
 10
5.28920142007533
 20
2.943131074873788
 30
0.0
 10
5.289585198349948
 20
2.943131074873788
 30
0.0
 10
5.290492891394486
 20
2.943131074873788
 30
0.0
 10
5.292520826730615
 20
2.943131074873788
 30
0.0
 10
5.300764135003718
 20
2.943131074873788
 30
0.0
 10
5.317650936830998
 20
2.943131074873788
 30
0.0
 10
5.331792109026693
 20
2.943131074873788
 30
0.0
 10
5.338888960133525
 20
2.943131074873788
 30
0.0
 10
5.343343845116557
 20
2.943131074873788
 30
0.0
 10
5.349554835020404
 20
2.943131074873788
 30
0.0
 10
5.354778035285292
 20
2.943131074873788
 30
0.0
 10
5.360431774627429
 20
2.943131074873788
 30
0.0
 10
5.364430945633401
 20
2.943131074873788
 30
0.0
 10
5.368659475508582
 20
2.943131074873789
 30
0.0
 10
5.371638941741015
 20
2.943131074873789
 30
0.0
 10
5.374325692349191
 20
2.943131074873789
 30
0.0
 10
5.377086795684637
 20
2.943131074873789
 30
0.0
 10
5.379867499326457
 20
2.943131074873789
 30
0.0
 10
5.381644853734815
 20
2.943131074873789
 30
0.0
 10
5.382531012079608
 20
2.943131074873789
 30
0.0
  0
ELLIPSE
  5
3BB
330
4AD
100
AcDbEntity
  8
ninja1 - Level 26
  6
Continuous
 62
     7
370
    13
100
AcDbEllipse
 10
5.382531
 20
2.947131
 30
0.0
 11
0.0
 21
0.004
 31
0.0
210
0.0
220
0.0
230
-1.0
 40
0.4938804374758796
 41
1.570796326794893
 42
3.141592653589768
  0
LINE
  5
3BC
330
4AD
100
AcDbEntity
  8
ninja1 - Level 26
  6
Continuous
 62
     7
370
    13
100
AcDbLine
 10
5.380836
 20
2.973131
 30
0.0
 11
5.380836
 21
2.988131
 31
0.0
  0
LINE
  5
3BD
330
4AD
100
AcDbEntity
  8
ninja1 - Level 26
  6
Continuous
 62
     7
370
    13
100
AcDbLine
 10
5.300434
 20
2.973131
 30
0.0
 11
5.300434
 21
2.988131
 31
0.0
  0
SPLINE
  5
3BE
330
4AD
100
AcDbEntity
  8
ninja1 - Level 26
  6
Continuous
 62
     7
370
    13
100
AcDbSpline
210
0.0
220
0.0
230
1.0
 70
    24
 71
     3
 72
     8
 73
     4
 74
     0
 42
0.000000001
 43
0.0000000001
 40
0.0
 40
0.0
 40
0.0
 40
0.0
 40
1.0
 40
1.0
 40
1.0
 40
1.0
 10
5.396857318900668
 20
2.947131074873788
 30
0.0
 10
5.396973726967873
 20
2.947131074873788
 30
0.0
 10
5.392812288089367
 20
2.947131074873788
 30
0.0
 10
5.384506533829513
 20
2.947131074873788
 30
0.0
  0
LINE
  5
3C1
330
4AD
100
AcDbEntity
  8
ninja1 - Level 26
  6
Continuous
 62
     7
370
    13
100
AcDbLine
 10
5.396857
 20
2.947131
 30
0.0
 11
5.396857
 21
2.969131
 31
0.0
  0
SPLINE
  5
3C2
330
4AD
100
AcDbEntity
  8
ninja1 - Level 26
  6
Continuous
 62
     7
370
    13
100
AcDbSpline
210
0.0
220
0.0
230
1.0
 70
    24
 71
     3
 72
     8
 73
     4
 74
     0
 42
0.000000001
 43
0.0000000001
 40
0.0
 40
0.0
 40
0.0
 40
0.0
 40
1.0
 40
1.0
 40
1.0
 40
1.0
 10
5.38450653382951
 20
2.969131074873788
 30
0.0
 10
5.392822886842212
 20
2.969131074873788
 30
0.0
 10
5.39696145824368
 20
2.969131074873788
 30
0.0
 10
5.396857318895942
 20
2.969131074873788
 30
0.0
  0
SPLINE
  5
3C5
330
4AD
100
AcDbEntity
  8
ninja1 - Level 26
  6
Continuous
 62
     7
370
    13
100
AcDbSpline
210
0.0
220
0.0
230
1.0
 70
     8
 71
     3
 72
    11
 73
     7
 74
     0
 42
0.000000001
 43
0.0000000001
 40
0.0
 40
0.0
 40
0.0
 40
0.0
 40
0.2499936397304859
 40
0.4999923365644977
 40
0.7499950556671987
 40
1.0
 40
1.0
 40
1.0
 40
1.0
 10
5.392857053673788
 20
2.943131074873789
 30
0.0
 10
5.393381241710865
 20
2.943191202506551
 30
0.0
 10
5.394429628388781
 20
2.943311458988393
 30
0.0
 10
5.395751884042687
 20
2.944236460682989
 30
0.0
 10
5.396676931169888
 20
2.945558637114613
 30
0.0
 10
5.396797189478585
 20
2.946606927398963
 30
0.0
 10
5.396857318900531
 20
2.947131074873788
 30
0.0
  0
SPLINE
  5
3C8
330
4AD
100
AcDbEntity
  8
ninja1 - Level 26
  6
Continuous
 62
     7
370
    13
100
AcDbSpline
210
0.0
220
0.0
230
1.0
 70
    24
 71
     3
 72
     9
 73
     5
 74
     0
 42
0.000000001
 43
0.0000000001
 40
0.0
 40
0.0
 40
0.0
 40
0.0
 40
0.9088378728526656
 40
1.0
 40
1.0
 40
1.0
 40
1.0
 10
5.382531012079608
 20
2.943131074873789
 30
0.0
 10
5.38890839429514
 20
2.943131074873789
 30
0.0
 10
5.392622574915469
 20
2.943131074873789
 30
0.0
 10
5.392835947197061
 20
2.943131074873789
 30
0.0
 10
5.392857053126267
 20
2.943131074873789
 30
0.0
  0
SPLINE
  5
3CB
330
4AD
100
AcDbEntity
  8
ninja1 - Level 26
  6
Continuous
 62
     7
370
    13
100
AcDbSpline
210
0.0
220
0.0
230
1.0
 70
     8
 71
     3
 72
    11
 73
     7
 74
     0
 42
0.000000001
 43
0.0000000001
 40
0.0
 40
0.0
 40
0.0
 40
0.0
 40
0.2500020350216986
 40
0.5000031507163522
 40
0.7500026126524352
 40
1.0
 40
1.0
 40
1.0
 40
1.0
 10
5.396857318900729
 20
2.969131074873788
 30
0.0
 10
5.396797191297094
 20
2.969655222758989
 30
0.0
 10
5.396676936310925
 20
2.970703516601952
 30
0.0
 10
5.395751918765588
 20
2.972025695004073
 30
0.0
 10
5.394429707824648
 20
2.972950693850959
 30
0.0
 10
5.393381374419827
 20
2.973070948032498
 30
0.0
 10
5.392857209892288
 20
2.973131074873789
 30
0.0
  0
SPLINE
  5
3CE
330
4AD
100
AcDbEntity
  8
ninja1 - Level 26
  6
Continuous
 62
     7
370
    13
100
AcDbSpline
210
0.0
220
0.0
230
1.0
 70
    24
 71
     3
 72
     8
 73
     4
 74
     0
 42
0.000000001
 43
0.0000000001
 40
0.0
 40
0.0
 40
0.0
 40
0.0
 40
1.0
 40
1.0
 40
1.0
 40
1.0
 10
5.392857207479302
 20
2.973131074873789
 30
0.0
 10
5.392970750258106
 20
2.973131074873789
 30
0.0
 10
5.389613025411209
 20
2.973131074873789
 30
0.0
 10
5.382531012079608
 20
2.973131074873789
 30
0.0
  0
LINE
  5
3D1
330
4AD
100
AcDbEntity
  8
ninja1 - Level 26
  6
Continuous
 62
     7
370
    13
100
AcDbLine
 10
5.300337
 20
2.988131
 30
0.0
 11
5.300337
 21
2.973131
 31
0.0
  0
LINE
  5
3D2
330
4AD
100
AcDbEntity
  8
ninja1 - Level 26
  6
Continuous
 62
     7
370
    13
100
AcDbLine
 10
5.381706
 20
2.973131
 30
0.0
 11
5.381706
 21
2.988131
 31
0.0
  0
LINE
  5
3D3
330
4AD
100
AcDbEntity
  8
ninja1 - Level 26
  6
Continuous
 62
     7
370
    13
100
AcDbLine
 10
3.884828
 20
2.969131
 30
0.0
 11
3.884828
 21
2.969131
 31
0.0
  0
ELLIPSE
  5
3D4
330
4AD
100
AcDbEntity
  8
ninja1 - Level 26
  6
Continuous
 62
     7
370
    13
100
AcDbEllipse
 10
3.888828
 20
2.969131
 30
0.0
 11
0.0
 21
0.004
 31
0.0
210
0.0
220
0.0
230
-1.0
 40
0.9999996263961536
 41
4.712424059517239
 42
6.282847534890468
  0
SPLINE
  5
3D5
330
4AD
100
AcDbEntity
  8
ninja1 - Level 26
  6
Continuous
 62
     7
370
    13
100
AcDbSpline
210
0.0
220
0.0
230
1.0
 70
    24
 71
     3
 72
    24
 73
    20
 74
     0
 42
0.000000001
 43
0.0000000001
 40
0.0
 40
0.0
 40
0.0
 40
0.0
 40
0.0260618866857443
 40
0.0523519554200628
 40
0.1561937332335267
 40
0.2677232298614689
 40
0.3802637529417732
 40
0.4372360235637089
 40
0.4594288409065965
 40
0.5338747851392755
 40
0.620841144795569
 40
0.687793192556271
 40
0.8728928220302883
 40
0.9227530757484817
 40
0.9508209239761043
 40
0.9591765142785193
 40
0.969097183208559
 40
0.9888084644688628
 40
1.0
 40
1.0
 40
1.0
 40
1.0
 10
3.982147656520188
 20
2.973131074873778
 30
0.0
 10
3.981293380646465
 20
2.973131074873778
 30
0.0
 10
3.979614512141282
 20
2.973131074873778
 30
0.0
 10
3.9741215161539
 20
2.973131074873778
 30
0.0
 10
3.966456824340441
 20
2.973131074873778
 30
0.0
 10
3.95838226097007
 20
2.973131074873777
 30
0.0
 10
3.950107007851352
 20
2.973131074873777
 30
0.0
 10
3.943176246149334
 20
2.973131074873777
 30
0.0
 10
3.937618726734022
 20
2.973131074873777
 30
0.0
 10
3.932614218752799
 20
2.973131074873777
 30
0.0
 10
3.925859257066572
 20
2.973131074873777
 30
0.0
 10
3.913460010790257
 20
2.973131074873777
 30
0.0
 10
3.902102048763862
 20
2.973131074873777
 30
0.0
 10
3.892604645028308
 20
2.973131074873777
 30
0.0
 10
3.890161894964205
 20
2.973131074873777
 30
0.0
 10
3.889172579370351
 20
2.973131074873777
 30
0.0
 10
3.888753053690738
 20
2.973131074873777
 30
0.0
 10
3.888775663258097
 20
2.973131074873777
 30
0.0
 10
3.888813971892683
 20
2.973131074873777
 30
0.0
 10
3.888827845464402
 20
2.973131074873777
 30
0.0
  0
ELLIPSE
  5
3D8
330
4AD
100
AcDbEntity
  8
ninja1 - Level 26
  6
Continuous
 62
     7
370
    13
100
AcDbEllipse
 10
3.982148
 20
2.969131
 30
0.0
 11
0.0
 21
-0.004
 31
0.0
210
0.0
220
0.0
230
1.0
 40
0.4938804374758785
 41
1.570796326794895
 42
3.141592653589795
  0
SPLINE
  5
3D9
330
4AD
100
AcDbEntity
  8
ninja1 - Level 26
  6
Continuous
 62
     7
370
    13
100
AcDbSpline
210
0.0
220
0.0
230
1.0
 70
    24
 71
     3
 72
    24
 73
    20
 74
     0
 42
0.000000001
 43
0.0000000001
 40
0.0
 40
0.0
 40
0.0
 40
0.0
 40
0.0220716056612546
 40
0.1941074818982337
 40
0.3895986860900297
 40
0.4076860975943215
 40
0.5392954564226363
 40
0.5548432033892712
 40
0.6435538949058771
 40
0.7000460561947021
 40
0.7578942729303187
 40
0.8105310950707838
 40
0.8632114455015084
 40
0.885485211884608
 40
0.9078910439341655
 40
0.9302577811328561
 40
0.9535223652737714
 40
0.9767856051931754
 40
1.0
 40
1.0
 40
1.0
 40
1.0
 10
3.884827807425023
 20
2.969131074873777
 30
0.0
 10
3.88465045692104
 20
2.969131074873777
 30
0.0
 10
3.88478189481507
 20
2.969131074873777
 30
0.0
 10
3.901388360583313
 20
2.969131074873777
 30
0.0
 10
3.916412792792523
 20
2.969131074873777
 30
0.0
 10
3.929367248986894
 20
2.969131074873777
 30
0.0
 10
3.933292958170062
 20
2.969131074873777
 30
0.0
 10
3.942244019970766
 20
2.969131074873777
 30
0.0
 10
3.948841302481843
 20
2.969131074873777
 30
0.0
 10
3.95558371389468
 20
2.969131074873778
 30
0.0
 10
3.960687818421045
 20
2.969131074873778
 30
0.0
 10
3.965407122768962
 20
2.969131074873777
 30
0.0
 10
3.968904914154613
 20
2.969131074873778
 30
0.0
 10
3.97183231519967
 20
2.969131074873778
 30
0.0
 10
3.974109826511429
 20
2.969131074873778
 30
0.0
 10
3.976545534153827
 20
2.969131074873778
 30
0.0
 10
3.979085211056002
 20
2.969131074873778
 30
0.0
 10
3.981659141605469
 20
2.969131074873778
 30
0.0
 10
3.983302408372381
 20
2.969131074873778
 30
0.0
 10
3.984123178270092
 20
2.969131074873778
 30
0.0
  0
LINE
  5
3DC
330
4AD
100
AcDbEntity
  8
ninja1 - Level 26
  6
Continuous
 62
     7
370
    13
100
AcDbLine
 10
3.884828
 20
2.969131
 30
0.0
 11
3.884828
 21
2.947131
 31
0.0
  0
LINE
  5
3DD
330
4AD
100
AcDbEntity
  8
ninja1 - Level 26
  6
Continuous
 62
     7
370
    13
100
AcDbLine
 10
3.984123
 20
2.947131
 30
0.0
 11
3.984123
 21
2.969131
 31
0.0
  0
SPLINE
  5
3DE
330
4AD
100
AcDbEntity
  8
ninja1 - Level 26
  6
Continuous
 62
     7
370
    13
100
AcDbSpline
210
0.0
220
0.0
230
1.0
 70
    24
 71
     3
 72
    23
 73
    19
 74
     0
 42
0.000000001
 43
0.0000000001
 40
0.0
 40
0.0
 40
0.0
 40
0.0
 40
0.0237157414266592
 40
0.0943764460996533
 40
0.1177069846426362
 40
0.1478672657739026
 40
0.1780962037690451
 40
0.2083828933802701
 40
0.2676360644670511
 40
0.3555980639964812
 40
0.4340600095021645
 40
0.5739329026710473
 40
0.6264540772629959
 40
0.8998771845589702
 40
0.96754511257858
 40
0.9803284485436327
 40
0.9931579069685415
 40
1.0
 40
1.0
 40
1.0
 40
1.0
 10
3.984123178270092
 20
2.947131074873778
 30
0.0
 10
3.983284954769426
 20
2.947131074873778
 30
0.0
 10
3.979939661820879
 20
2.947131074873778
 30
0.0
 10
3.975444289798292
 20
2.947131074873778
 30
0.0
 10
3.971275793158132
 20
2.947131074873778
 30
0.0
 10
3.968776317500992
 20
2.947131074873778
 30
0.0
 10
3.966209098900121
 20
2.947131074873778
 30
0.0
 10
3.962998226449458
 20
2.947131074873778
 30
0.0
 10
3.957563992242419
 20
2.947131074873778
 30
0.0
 10
3.950796564403892
 20
2.947131074873778
 30
0.0
 10
3.937625392671296
 20
2.947131074873778
 30
0.0
 10
3.929983943618642
 20
2.947131074873778
 30
0.0
 10
3.913753298902759
 20
2.947131074873778
 30
0.0
 10
3.895578561846603
 20
2.947131074873777
 30
0.0
 10
3.884843806469783
 20
2.947131074873777
 30
0.0
 10
3.884882303249661
 20
2.947131074873777
 30
0.0
 10
3.884829412973974
 20
2.947131074873777
 30
0.0
 10
3.884828221752372
 20
2.947131074873777
 30
0.0
 10
3.884827807425672
 20
2.947131074873777
 30
0.0
  0
LINE
  5
3E1
330
4AD
100
AcDbEntity
  8
ninja1 - Level 26
  6
Continuous
 62
     7
370
    13
100
AcDbLine
 10
3.885811
 20
2.947131
 30
0.0
 11
3.885811
 21
2.969131
 31
0.0
  0
ELLIPSE
  5
3E2
330
4AD
100
AcDbEntity
  8
ninja1 - Level 26
  6
Continuous
 62
     7
370
    13
100
AcDbEllipse
 10
3.888828
 20
2.947131
 30
0.0
 11
0.0
 21
0.004
 31
0.0
210
0.0
220
0.0
230
-1.0
 40
0.999999684171574
 41
3.141851875941254
 42
4.711851158155537
  0
SPLINE
  5
3E3
330
4AD
100
AcDbEntity
  8
ninja1 - Level 26
  6
Continuous
 62
     7
370
    13
100
AcDbSpline
210
0.0
220
0.0
230
1.0
 70
    24
 71
     3
 72
    27
 73
    23
 74
     0
 42
0.000000001
 43
0.0000000001
 40
0.0
 40
0.0
 40
0.0
 40
0.0
 40
0.0192958303930431
 40
0.0308160248475019
 40
0.0413894455234478
 40
0.0496606142357273
 40
0.073861409705968
 40
0.112352998496986
 40
0.2904044159967638
 40
0.5016774976363562
 40
0.5358471546946396
 40
0.5594713806160209
 40
0.6204088299815488
 40
0.7065740664299439
 40
0.7357549807257797
 40
0.8222416738127343
 40
0.8653880395267703
 40
0.8921028958502459
 40
0.9189300000447241
 40
0.9459787478953693
 40
0.9730659326449121
 40
1.0
 40
1.0
 40
1.0
 40
1.0
 10
3.888827839066239
 20
2.943131074873777
 30
0.0
 10
3.888812965461632
 20
2.943131074873777
 30
0.0
 10
3.888876092215673
 20
2.943131074873777
 30
0.0
 10
3.888818064515912
 20
2.943131074873777
 30
0.0
 10
3.88920184279053
 20
2.943131074873777
 30
0.0
 10
3.890109535835069
 20
2.943131074873777
 30
0.0
 10
3.892137471171194
 20
2.943131074873777
 30
0.0
 10
3.900380779444301
 20
2.943131074873777
 30
0.0
 10
3.917267581271578
 20
2.943131074873777
 30
0.0
 10
3.931408753467263
 20
2.943131074873777
 30
0.0
 10
3.938505604574104
 20
2.943131074873777
 30
0.0
 10
3.942960489557142
 20
2.943131074873777
 30
0.0
 10
3.949171479460987
 20
2.943131074873777
 30
0.0
 10
3.954394679725868
 20
2.943131074873777
 30
0.0
 10
3.960048419068014
 20
2.943131074873778
 30
0.0
 10
3.964047590073981
 20
2.943131074873778
 30
0.0
 10
3.96827611994917
 20
2.943131074873778
 30
0.0
 10
3.971255586181601
 20
2.943131074873778
 30
0.0
 10
3.973942336789777
 20
2.943131074873778
 30
0.0
 10
3.976703440125214
 20
2.943131074873778
 30
0.0
 10
3.979484143767034
 20
2.943131074873778
 30
0.0
 10
3.981261498175398
 20
2.943131074873778
 30
0.0
 10
3.982147656520188
 20
2.943131074873778
 30
0.0
  0
ELLIPSE
  5
3E6
330
4AD
100
AcDbEntity
  8
ninja1 - Level 26
  6
Continuous
 62
     7
370
    13
100
AcDbEllipse
 10
3.982148
 20
2.947131
 30
0.0
 11
0.0
 21
0.004
 31
0.0
210
0.0
220
0.0
230
-1.0
 40
0.4938804374758795
 41
1.570796326794897
 42
3.14159265358979
  0
LINE
  5
3E7
330
4AD
100
AcDbEntity
  8
ninja1 - Level 26
  6
Continuous
 62
     7
370
    13
100
AcDbLine
 10
3.980453
 20
2.973131
 30
0.0
 11
3.980453
 21
2.988131
 31
0.0
  0
LINE
  5
3E8
330
4AD
100
AcDbEntity
  8
ninja1 - Level 26
  6
Continuous
 62
     7
370
    13
100
AcDbLine
 10
3.900051
 20
2.973131
 30
0.0
 11
3.900051
 21
2.988131
 31
0.0
  0
SPLINE
  5
3E9
330
4AD
100
AcDbEntity
  8
ninja1 - Level 26
  6
Continuous
 62
     7
370
    13
100
AcDbSpline
210
0.0
220
0.0
230
1.0
 70
    24
 71
     3
 72
     8
 73
     4
 74
     0
 42
0.000000001
 43
0.0000000001
 40
0.0
 40
0.0
 40
0.0
 40
0.0
 40
1.0
 40
1.0
 40
1.0
 40
1.0
 10
3.996473963341253
 20
2.947131074873778
 30
0.0
 10
3.996590371408453
 20
2.947131074873778
 30
0.0
 10
3.992428932529946
 20
2.947131074873778
 30
0.0
 10
3.984123178270092
 20
2.947131074873778
 30
0.0
  0
LINE
  5
3EC
330
4AD
100
AcDbEntity
  8
ninja1 - Level 26
  6
Continuous
 62
     7
370
    13
100
AcDbLine
 10
3.996474
 20
2.947131
 30
0.0
 11
3.996474
 21
2.969131
 31
0.0
  0
SPLINE
  5
3ED
330
4AD
100
AcDbEntity
  8
ninja1 - Level 26
  6
Continuous
 62
     7
370
    13
100
AcDbSpline
210
0.0
220
0.0
230
1.0
 70
    24
 71
     3
 72
     8
 73
     4
 74
     0
 42
0.000000001
 43
0.0000000001
 40
0.0
 40
0.0
 40
0.0
 40
0.0
 40
1.0
 40
1.0
 40
1.0
 40
1.0
 10
3.984123178270092
 20
2.969131074873778
 30
0.0
 10
3.992439531282795
 20
2.969131074873778
 30
0.0
 10
3.996578102684262
 20
2.969131074873778
 30
0.0
 10
3.996473963336521
 20
2.969131074873778
 30
0.0
  0
SPLINE
  5
3F0
330
4AD
100
AcDbEntity
  8
ninja1 - Level 26
  6
Continuous
 62
     7
370
    13
100
AcDbSpline
210
0.0
220
0.0
230
1.0
 70
     8
 71
     3
 72
    11
 73
     7
 74
     0
 42
0.000000001
 43
0.0000000001
 40
0.0
 40
0.0
 40
0.0
 40
0.0
 40
0.2499936397304828
 40
0.4999923365644971
 40
0.7499950556671853
 40
1.0
 40
1.0
 40
1.0
 40
1.0
 10
3.992473698114371
 20
2.943131074873778
 30
0.0
 10
3.992997886151444
 20
2.94319120250654
 30
0.0
 10
3.994046272829367
 20
2.943311458988382
 30
0.0
 10
3.995368528483266
 20
2.944236460682978
 30
0.0
 10
3.99629357561047
 20
2.945558637114602
 30
0.0
 10
3.996413833919164
 20
2.946606927398952
 30
0.0
 10
3.996473963341114
 20
2.947131074873778
 30
0.0
  0
SPLINE
  5
3F3
330
4AD
100
AcDbEntity
  8
ninja1 - Level 26
  6
Continuous
 62
     7
370
    13
100
AcDbSpline
210
0.0
220
0.0
230
1.0
 70
    24
 71
     3
 72
     9
 73
     5
 74
     0
 42
0.000000001
 43
0.0000000001
 40
0.0
 40
0.0
 40
0.0
 40
0.0
 40
0.9088378728526265
 40
1.0
 40
1.0
 40
1.0
 40
1.0
 10
3.982147656520188
 20
2.943131074873778
 30
0.0
 10
3.988525038735723
 20
2.943131074873778
 30
0.0
 10
3.992239219356014
 20
2.943131074873778
 30
0.0
 10
3.992452591637647
 20
2.943131074873778
 30
0.0
 10
3.992473697566849
 20
2.943131074873778
 30
0.0
  0
SPLINE
  5
3F6
330
4AD
100
AcDbEntity
  8
ninja1 - Level 26
  6
Continuous
 62
     7
370
    13
100
AcDbSpline
210
0.0
220
0.0
230
1.0
 70
     8
 71
     3
 72
    11
 73
     7
 74
     0
 42
0.000000001
 43
0.0000000001
 40
0.0
 40
0.0
 40
0.0
 40
0.0
 40
0.2500020350217065
 40
0.5000031507163583
 40
0.7500026126524784
 40
1.0
 40
1.0
 40
1.0
 40
1.0
 10
3.996473963341312
 20
2.969131074873778
 30
0.0
 10
3.996413835737676
 20
2.969655222758979
 30
0.0
 10
3.996293580751514
 20
2.970703516601942
 30
0.0
 10
3.99536856320617
 20
2.972025695004063
 30
0.0
 10
3.994046352265236
 20
2.972950693850949
 30
0.0
 10
3.992998018860409
 20
2.973070948032488
 30
0.0
 10
3.992473854332874
 20
2.973131074873778
 30
0.0
  0
SPLINE
  5
3F9
330
4AD
100
AcDbEntity
  8
ninja1 - Level 26
  6
Continuous
 62
     7
370
    13
100
AcDbSpline
210
0.0
220
0.0
230
1.0
 70
    24
 71
     3
 72
     8
 73
     4
 74
     0
 42
0.000000001
 43
0.0000000001
 40
0.0
 40
0.0
 40
0.0
 40
0.0
 40
1.0
 40
1.0
 40
1.0
 40
1.0
 10
3.992473851919884
 20
2.973131074873778
 30
0.0
 10
3.992587394698689
 20
2.973131074873778
 30
0.0
 10
3.989229669851792
 20
2.973131074873778
 30
0.0
 10
3.982147656520188
 20
2.973131074873778
 30
0.0
  0
LINE
  5
3FC
330
4AD
100
AcDbEntity
  8
ninja1 - Level 26
  6
Continuous
 62
     7
370
    13
100
AcDbLine
 10
3.899954
 20
2.988131
 30
0.0
 11
3.899954
 21
2.973131
 31
0.0
  0
LINE
  5
3FD
330
4AD
100
AcDbEntity
  8
ninja1 - Level 26
  6
Continuous
 62
     7
370
    13
100
AcDbLine
 10
3.981323
 20
2.973131
 30
0.0
 11
3.981323
 21
2.988131
 31
0.0
  0
LINE
  5
3FE
330
4AD
100
AcDbEntity
  8
ninja1 - Level 26
  6
Continuous
 62
     7
370
    13
100
AcDbLine
 10
4.951464
 20
2.969131
 30
0.0
 11
4.951464
 21
2.969131
 31
0.0
  0
ELLIPSE
  5
3FF
330
4AD
100
AcDbEntity
  8
ninja1 - Level 26
  6
Continuous
 62
     7
370
    13
100
AcDbEllipse
 10
4.955464
 20
2.969131
 30
0.0
 11
0.0
 21
0.004
 31
0.0
210
0.0
220
0.0
230
-1.0
 40
0.9999996263961529
 41
4.712424059517247
 42
6.282847534890482
  0
SPLINE
  5
400
330
4AD
100
AcDbEntity
  8
ninja1 - Level 26
  6
Continuous
 62
     7
370
    13
100
AcDbSpline
210
0.0
220
0.0
230
1.0
 70
    24
 71
     3
 72
    24
 73
    20
 74
     0
 42
0.000000001
 43
0.0000000001
 40
0.0
 40
0.0
 40
0.0
 40
0.0
 40
0.0260618866857358
 40
0.0523519554200517
 40
0.1561937332335044
 40
0.2677232298614251
 40
0.3802637529417132
 40
0.4372360235636397
 40
0.4594288409065241
 40
0.5338747851391884
 40
0.6208411447954748
 40
0.6877931925561677
 40
0.8728928220301577
 40
0.9227530757483449
 40
0.9508209239759576
 40
0.9591765142783788
 40
0.9690971832084095
 40
0.9888084644687104
 40
1.0
 40
1.0
 40
1.0
 40
1.0
 10
5.048784309614415
 20
2.973131074873786
 30
0.0
 10
5.047930033740689
 20
2.973131074873786
 30
0.0
 10
5.046251165235502
 20
2.973131074873786
 30
0.0
 10
5.040758169248126
 20
2.973131074873786
 30
0.0
 10
5.033093477434667
 20
2.973131074873785
 30
0.0
 10
5.025018914064296
 20
2.973131074873785
 30
0.0
 10
5.016743660945582
 20
2.973131074873785
 30
0.0
 10
5.009812899243561
 20
2.973131074873785
 30
0.0
 10
5.004255379828249
 20
2.973131074873785
 30
0.0
 10
4.999250871847022
 20
2.973131074873785
 30
0.0
 10
4.992495910160799
 20
2.973131074873785
 30
0.0
 10
4.980096663884478
 20
2.973131074873785
 30
0.0
 10
4.968738701858077
 20
2.973131074873785
 30
0.0
 10
4.959241298122538
 20
2.973131074873785
 30
0.0
 10
4.956798548058432
 20
2.973131074873785
 30
0.0
 10
4.955809232464578
 20
2.973131074873785
 30
0.0
 10
4.955389706784961
 20
2.973131074873785
 30
0.0
 10
4.955412316352323
 20
2.973131074873785
 30
0.0
 10
4.955450624986906
 20
2.973131074873785
 30
0.0
 10
4.955464498558626
 20
2.973131074873785
 30
0.0
  0
ELLIPSE
  5
403
330
4AD
100
AcDbEntity
  8
ninja1 - Level 26
  6
Continuous
 62
     7
370
    13
100
AcDbEllipse
 10
5.048784
 20
2.969131
 30
0.0
 11
0.0
 21
-0.004
 31
0.0
210
0.0
220
0.0
230
1.0
 40
0.4938804374758785
 41
1.570796326794894
 42
3.141592653589788
  0
SPLINE
  5
404
330
4AD
100
AcDbEntity
  8
ninja1 - Level 26
  6
Continuous
 62
     7
370
    13
100
AcDbSpline
210
0.0
220
0.0
230
1.0
 70
    24
 71
     3
 72
    24
 73
    20
 74
     0
 42
0.000000001
 43
0.0000000001
 40
0.0
 40
0.0
 40
0.0
 40
0.0
 40
0.0220716056612782
 40
0.1941074818982475
 40
0.3895986860900377
 40
0.4076860975943296
 40
0.539295456422642
 40
0.5548432033892733
 40
0.6435538949058824
 40
0.7000460561947076
 40
0.7578942729303176
 40
0.8105310950707927
 40
0.8632114455015106
 40
0.8854852118846089
 40
0.9078910439341647
 40
0.9302577811328497
 40
0.9535223652737675
 40
0.9767856051931712
 40
1.0
 40
1.0
 40
1.0
 40
1.0
 10
4.951464460519249
 20
2.969131074873785
 30
0.0
 10
4.951287110015261
 20
2.969131074873785
 30
0.0
 10
4.951418547909299
 20
2.969131074873785
 30
0.0
 10
4.96802501367754
 20
2.969131074873785
 30
0.0
 10
4.983049445886767
 20
2.969131074873785
 30
0.0
 10
4.99600390208112
 20
2.969131074873785
 30
0.0
 10
4.999929611264286
 20
2.969131074873785
 30
0.0
 10
5.008880673064993
 20
2.969131074873785
 30
0.0
 10
5.01547795557607
 20
2.969131074873786
 30
0.0
 10
5.022220366988901
 20
2.969131074873785
 30
0.0
 10
5.027324471515268
 20
2.969131074873785
 30
0.0
 10
5.032043775863185
 20
2.969131074873785
 30
0.0
 10
5.035541567248833
 20
2.969131074873786
 30
0.0
 10
5.038468968293897
 20
2.969131074873786
 30
0.0
 10
5.040746479605656
 20
2.969131074873786
 30
0.0
 10
5.043182187248059
 20
2.969131074873786
 30
0.0
 10
5.045721864150226
 20
2.969131074873786
 30
0.0
 10
5.04829579469969
 20
2.969131074873786
 30
0.0
 10
5.049939061466607
 20
2.969131074873786
 30
0.0
 10
5.050759831364316
 20
2.969131074873786
 30
0.0
  0
LINE
  5
407
330
4AD
100
AcDbEntity
  8
ninja1 - Level 26
  6
Continuous
 62
     7
370
    13
100
AcDbLine
 10
4.951464
 20
2.969131
 30
0.0
 11
4.951464
 21
2.947131
 31
0.0
  0
LINE
  5
408
330
4AD
100
AcDbEntity
  8
ninja1 - Level 26
  6
Continuous
 62
     7
370
    13
100
AcDbLine
 10
5.05076
 20
2.947131
 30
0.0
 11
5.05076
 21
2.969131
 31
0.0
  0
SPLINE
  5
409
330
4AD
100
AcDbEntity
  8
ninja1 - Level 26
  6
Continuous
 62
     7
370
    13
100
AcDbSpline
210
0.0
220
0.0
230
1.0
 70
    24
 71
     3
 72
    23
 73
    19
 74
     0
 42
0.000000001
 43
0.0000000001
 40
0.0
 40
0.0
 40
0.0
 40
0.0
 40
0.0237157414266568
 40
0.0943764460996504
 40
0.1177069846426343
 40
0.1478672657739015
 40
0.1780962037690422
 40
0.2083828933802704
 40
0.2676360644670465
 40
0.3555980639964722
 40
0.434060009502155
 40
0.5739329026710274
 40
0.6264540772629782
 40
0.8998771845589409
 40
0.9675451125785569
 40
0.9803284485435932
 40
0.9931579069685099
 40
1.0
 40
1.0
 40
1.0
 40
1.0
 10
5.050759831364318
 20
2.947131074873786
 30
0.0
 10
5.049921607863653
 20
2.947131074873786
 30
0.0
 10
5.046576314915102
 20
2.947131074873786
 30
0.0
 10
5.04208094289251
 20
2.947131074873786
 30
0.0
 10
5.037912446252361
 20
2.947131074873786
 30
0.0
 10
5.035412970595216
 20
2.947131074873786
 30
0.0
 10
5.032845751994347
 20
2.947131074873786
 30
0.0
 10
5.029634879543687
 20
2.947131074873786
 30
0.0
 10
5.024200645336645
 20
2.947131074873786
 30
0.0
 10
5.017433217498124
 20
2.947131074873786
 30
0.0
 10
5.004262045765525
 20
2.947131074873786
 30
0.0
 10
4.996620596712868
 20
2.947131074873786
 30
0.0
 10
4.980389951996983
 20
2.947131074873785
 30
0.0
 10
4.96221521494083
 20
2.947131074873786
 30
0.0
 10
4.951480459564022
 20
2.947131074873785
 30
0.0
 10
4.951518956343891
 20
2.947131074873785
 30
0.0
 10
4.951466066068201
 20
2.947131074873785
 30
0.0
 10
4.951464874846599
 20
2.947131074873785
 30
0.0
 10
4.951464460519899
 20
2.947131074873785
 30
0.0
  0
LINE
  5
40C
330
4AD
100
AcDbEntity
  8
ninja1 - Level 26
  6
Continuous
 62
     7
370
    13
100
AcDbLine
 10
4.952447
 20
2.947131
 30
0.0
 11
4.952447
 21
2.969131
 31
0.0
  0
ELLIPSE
  5
40D
330
4AD
100
AcDbEntity
  8
ninja1 - Level 26
  6
Continuous
 62
     7
370
    13
100
AcDbEllipse
 10
4.955464
 20
2.947131
 30
0.0
 11
0.0
 21
0.004
 31
0.0
210
0.0
220
0.0
230
-1.0
 40
0.999999684171574
 41
3.141851875941239
 42
4.711851158155537
  0
SPLINE
  5
40E
330
4AD
100
AcDbEntity
  8
ninja1 - Level 26
  6
Continuous
 62
     7
370
    13
100
AcDbSpline
210
0.0
220
0.0
230
1.0
 70
    24
 71
     3
 72
    27
 73
    23
 74
     0
 42
0.000000001
 43
0.0000000001
 40
0.0
 40
0.0
 40
0.0
 40
0.0
 40
0.0192958303930347
 40
0.0308160248474936
 40
0.0413894455234392
 40
0.0496606142357185
 40
0.0738614097059664
 40
0.11235299849698
 40
0.2904044159967602
 40
0.5016774976363499
 40
0.535847154694636
 40
0.559471380616019
 40
0.6204088299815479
 40
0.7065740664299458
 40
0.7357549807257817
 40
0.8222416738127368
 40
0.8653880395267725
 40
0.89210289585025
 40
0.9189300000447303
 40
0.9459787478953739
 40
0.9730659326449114
 40
1.0
 40
1.0
 40
1.0
 40
1.0
 10
4.955464492160463
 20
2.943131074873785
 30
0.0
 10
4.955449618555856
 20
2.943131074873785
 30
0.0
 10
4.955512745309897
 20
2.943131074873785
 30
0.0
 10
4.955454717610136
 20
2.943131074873785
 30
0.0
 10
4.955838495884754
 20
2.943131074873785
 30
0.0
 10
4.956746188929293
 20
2.943131074873785
 30
0.0
 10
4.958774124265424
 20
2.943131074873785
 30
0.0
 10
4.96701743253853
 20
2.943131074873785
 30
0.0
 10
4.983904234365807
 20
2.943131074873786
 30
0.0
 10
4.998045406561513
 20
2.943131074873785
 30
0.0
 10
5.005142257668333
 20
2.943131074873786
 30
0.0
 10
5.009597142651363
 20
2.943131074873786
 30
0.0
 10
5.015808132555207
 20
2.943131074873786
 30
0.0
 10
5.021031332820098
 20
2.943131074873786
 30
0.0
 10
5.026685072162238
 20
2.943131074873786
 30
0.0
 10
5.030684243168207
 20
2.943131074873786
 30
0.0
 10
5.034912773043392
 20
2.943131074873786
 30
0.0
 10
5.037892239275825
 20
2.943131074873786
 30
0.0
 10
5.040578989884001
 20
2.943131074873786
 30
0.0
 10
5.043340093219443
 20
2.943131074873786
 30
0.0
 10
5.046120796861264
 20
2.943131074873786
 30
0.0
 10
5.047898151269625
 20
2.943131074873786
 30
0.0
 10
5.048784309614415
 20
2.943131074873786
 30
0.0
  0
ELLIPSE
  5
411
330
4AD
100
AcDbEntity
  8
ninja1 - Level 26
  6
Continuous
 62
     7
370
    13
100
AcDbEllipse
 10
5.048784
 20
2.947131
 30
0.0
 11
0.0
 21
0.004
 31
0.0
210
0.0
220
0.0
230
-1.0
 40
0.4938804374758796
 41
1.570796326794893
 42
3.141592653589797
  0
LINE
  5
412
330
4AD
100
AcDbEntity
  8
ninja1 - Level 26
  6
Continuous
 62
     7
370
    13
100
AcDbLine
 10
5.047089
 20
2.973131
 30
0.0
 11
5.047089
 21
2.988131
 31
0.0
  0
LINE
  5
413
330
4AD
100
AcDbEntity
  8
ninja1 - Level 26
  6
Continuous
 62
     7
370
    13
100
AcDbLine
 10
4.966688
 20
2.973131
 30
0.0
 11
4.966688
 21
2.988131
 31
0.0
  0
SPLINE
  5
414
330
4AD
100
AcDbEntity
  8
ninja1 - Level 26
  6
Continuous
 62
     7
370
    13
100
AcDbSpline
210
0.0
220
0.0
230
1.0
 70
    24
 71
     3
 72
     8
 73
     4
 74
     0
 42
0.000000001
 43
0.0000000001
 40
0.0
 40
0.0
 40
0.0
 40
0.0
 40
1.0
 40
1.0
 40
1.0
 40
1.0
 10
5.063110616435474
 20
2.947131074873786
 30
0.0
 10
5.063227024502676
 20
2.947131074873786
 30
0.0
 10
5.05906558562417
 20
2.947131074873786
 30
0.0
 10
5.050759831364318
 20
2.947131074873786
 30
0.0
  0
LINE
  5
417
330
4AD
100
AcDbEntity
  8
ninja1 - Level 26
  6
Continuous
 62
     7
370
    13
100
AcDbLine
 10
5.063111
 20
2.947131
 30
0.0
 11
5.063111
 21
2.969131
 31
0.0
  0
SPLINE
  5
418
330
4AD
100
AcDbEntity
  8
ninja1 - Level 26
  6
Continuous
 62
     7
370
    13
100
AcDbSpline
210
0.0
220
0.0
230
1.0
 70
    24
 71
     3
 72
     8
 73
     4
 74
     0
 42
0.000000001
 43
0.0000000001
 40
0.0
 40
0.0
 40
0.0
 40
0.0
 40
1.0
 40
1.0
 40
1.0
 40
1.0
 10
5.050759831364318
 20
2.969131074873786
 30
0.0
 10
5.059076184377019
 20
2.969131074873786
 30
0.0
 10
5.063214755778489
 20
2.969131074873786
 30
0.0
 10
5.063110616430748
 20
2.969131074873786
 30
0.0
  0
SPLINE
  5
41B
330
4AD
100
AcDbEntity
  8
ninja1 - Level 26
  6
Continuous
 62
     7
370
    13
100
AcDbSpline
210
0.0
220
0.0
230
1.0
 70
     8
 71
     3
 72
    11
 73
     7
 74
     0
 42
0.000000001
 43
0.0000000001
 40
0.0
 40
0.0
 40
0.0
 40
0.0
 40
0.2499936397304673
 40
0.4999923365644892
 40
0.7499950556671799
 40
1.0
 40
1.0
 40
1.0
 40
1.0
 10
5.059110351208595
 20
2.943131074873786
 30
0.0
 10
5.059634539245672
 20
2.943191202506548
 30
0.0
 10
5.060682925923588
 20
2.943311458988391
 30
0.0
 10
5.062005181577493
 20
2.944236460682986
 30
0.0
 10
5.062930228704694
 20
2.945558637114611
 30
0.0
 10
5.06305048701339
 20
2.94660692739896
 30
0.0
 10
5.063110616435337
 20
2.947131074873786
 30
0.0
  0
SPLINE
  5
41E
330
4AD
100
AcDbEntity
  8
ninja1 - Level 26
  6
Continuous
 62
     7
370
    13
100
AcDbSpline
210
0.0
220
0.0
230
1.0
 70
    24
 71
     3
 72
     9
 73
     5
 74
     0
 42
0.000000001
 43
0.0000000001
 40
0.0
 40
0.0
 40
0.0
 40
0.0
 40
0.9088378728526295
 40
1.0
 40
1.0
 40
1.0
 40
1.0
 10
5.048784309614415
 20
2.943131074873786
 30
0.0
 10
5.055161691829946
 20
2.943131074873786
 30
0.0
 10
5.058875872450278
 20
2.943131074873786
 30
0.0
 10
5.059089244731871
 20
2.943131074873786
 30
0.0
 10
5.059110350661075
 20
2.943131074873786
 30
0.0
  0
SPLINE
  5
421
330
4AD
100
AcDbEntity
  8
ninja1 - Level 26
  6
Continuous
 62
     7
370
    13
100
AcDbSpline
210
0.0
220
0.0
230
1.0
 70
     8
 71
     3
 72
    11
 73
     7
 74
     0
 42
0.000000001
 43
0.0000000001
 40
0.0
 40
0.0
 40
0.0
 40
0.0
 40
0.2500020350216894
 40
0.5000031507163236
 40
0.7500026126524415
 40
1.0
 40
1.0
 40
1.0
 40
1.0
 10
5.063110616435539
 20
2.969131074873786
 30
0.0
 10
5.063050488831903
 20
2.969655222758987
 30
0.0
 10
5.062930233845731
 20
2.97070351660195
 30
0.0
 10
5.062005216300394
 20
2.972025695004071
 30
0.0
 10
5.060683005359455
 20
2.972950693850957
 30
0.0
 10
5.059634671954633
 20
2.973070948032496
 30
0.0
 10
5.059110507427098
 20
2.973131074873786
 30
0.0
  0
SPLINE
  5
424
330
4AD
100
AcDbEntity
  8
ninja1 - Level 26
  6
Continuous
 62
     7
370
    13
100
AcDbSpline
210
0.0
220
0.0
230
1.0
 70
    24
 71
     3
 72
     8
 73
     4
 74
     0
 42
0.000000001
 43
0.0000000001
 40
0.0
 40
0.0
 40
0.0
 40
0.0
 40
1.0
 40
1.0
 40
1.0
 40
1.0
 10
5.059110505014108
 20
2.973131074873786
 30
0.0
 10
5.059224047792913
 20
2.973131074873786
 30
0.0
 10
5.055866322946019
 20
2.973131074873786
 30
0.0
 10
5.048784309614415
 20
2.973131074873786
 30
0.0
  0
LINE
  5
427
330
4AD
100
AcDbEntity
  8
ninja1 - Level 26
  6
Continuous
 62
     7
370
    13
100
AcDbLine
 10
4.966591
 20
2.988131
 30
0.0
 11
4.966591
 21
2.973131
 31
0.0
  0
LINE
  5
428
330
4AD
100
AcDbEntity
  8
ninja1 - Level 26
  6
Continuous
 62
     7
370
    13
100
AcDbLine
 10
5.04796
 20
2.973131
 30
0.0
 11
5.04796
 21
2.988131
 31
0.0
  0
LINE
  5
429
330
4AD
100
AcDbEntity
  8
ninja1 - Level 25
  6
Continuous
 62
     7
370
    13
100
AcDbLine
 10
5.825194
 20
3.038131
 30
0.0
 11
5.830194
 21
3.038131
 31
0.0
  0
LINE
  5
42A
330
4AD
100
AcDbEntity
  8
ninja1 - Level 25
  6
Continuous
 62
     7
370
    13
100
AcDbLine
 10
5.825194
 20
3.038131
 30
0.0
 11
5.825194
 21
3.053131
 31
0.0
  0
LINE
  5
42B
330
4AD
100
AcDbEntity
  8
ninja1 - Level 25
  6
Continuous
 62
     7
370
    13
100
AcDbLine
 10
5.825194
 20
3.053131
 30
0.0
 11
5.830194
 21
3.053131
 31
0.0
  0
LINE
  5
42C
330
4AD
100
AcDbEntity
  8
ninja1 - Level 25
  6
Continuous
 62
     7
370
    13
100
AcDbLine
 10
5.830194
 20
3.038131
 30
0.0
 11
5.830194
 21
3.053131
 31
0.0
  0
LINE
  5
42D
330
4AD
100
AcDbEntity
  8
ninja1 - Level 25
  6
Continuous
 62
     7
370
    13
100
AcDbLine
 10
5.825194
 20
2.983131
 30
0.0
 11
5.830194
 21
2.983131
 31
0.0
  0
LINE
  5
42E
330
4AD
100
AcDbEntity
  8
ninja1 - Level 25
  6
Continuous
 62
     7
370
    13
100
AcDbLine
 10
5.825194
 20
2.983131
 30
0.0
 11
5.825194
 21
2.998131
 31
0.0
  0
LINE
  5
42F
330
4AD
100
AcDbEntity
  8
ninja1 - Level 25
  6
Continuous
 62
     7
370
    13
100
AcDbLine
 10
5.825194
 20
2.998131
 30
0.0
 11
5.830194
 21
2.998131
 31
0.0
  0
LINE
  5
430
330
4AD
100
AcDbEntity
  8
ninja1 - Level 25
  6
Continuous
 62
     7
370
    13
100
AcDbLine
 10
5.825194
 20
3.038131
 30
0.0
 11
5.825194
 21
2.998131
 31
0.0
  0
ARC
  5
431
330
4AD
100
AcDbEntity
  8
ninja1 - Level 26
  6
Continuous
 62
     7
370
    13
100
AcDbCircle
 10
4.918194
 20
2.988131
 30
0.0
 40
0.01
100
AcDbArc
 50
180.0
 51
0.0
  0
ARC
  5
432
330
4AD
100
AcDbEntity
  8
ninja1 - Level 26
  6
Continuous
 62
     7
370
    13
100
AcDbCircle
 10
5.493194
 20
2.988131
 30
0.0
 40
0.01
100
AcDbArc
 50
180.0
 51
0.0
  0
LINE
  5
433
330
4AD
100
AcDbEntity
  8
ninja1 - Level 26
  6
Continuous
 62
     7
370
    13
100
AcDbLine
 10
5.837194
 20
3.058131
 30
0.0
 11
5.837194
 21
2.978131
 31
0.0
  0
ARC
  5
434
330
4AD
100
AcDbEntity
  8
ninja1 - Level 26
  6
Continuous
 62
     7
370
    13
100
AcDbCircle
 10
5.840194
 20
3.058131
 30
0.0
 40
0.003
100
AcDbArc
 50
90.0
 51
180.0
  0
LINE
  5
435
330
4AD
100
AcDbEntity
  8
ninja1 - Level 26
  6
Continuous
 62
     7
370
    13
100
AcDbLine
 10
5.920194
 20
3.061131
 30
0.0
 11
5.840194
 21
3.061131
 31
0.0
  0
ARC
  5
436
330
4AD
100
AcDbEntity
  8
ninja1 - Level 26
  6
Continuous
 62
     7
370
    13
100
AcDbCircle
 10
5.920194
 20
3.058131
 30
0.0
 40
0.003
100
AcDbArc
 50
0.0
 51
90.0
  0
LINE
  5
437
330
4AD
100
AcDbEntity
  8
ninja1 - Level 26
  6
Continuous
 62
     7
370
    13
100
AcDbLine
 10
5.923194
 20
2.978131
 30
0.0
 11
5.923194
 21
3.058131
 31
0.0
  0
ARC
  5
438
330
4AD
100
AcDbEntity
  8
ninja1 - Level 26
  6
Continuous
 62
     7
370
    13
100
AcDbCircle
 10
5.920194
 20
2.978131
 30
0.0
 40
0.003
100
AcDbArc
 50
270.0
 51
0.0
  0
LINE
  5
439
330
4AD
100
AcDbEntity
  8
ninja1 - Level 26
  6
Continuous
 62
     7
370
    13
100
AcDbLine
 10
5.840194
 20
2.975131
 30
0.0
 11
5.920194
 21
2.975131
 31
0.0
  0
ARC
  5
43A
330
4AD
100
AcDbEntity
  8
ninja1 - Level 26
  6
Continuous
 62
     7
370
    13
100
AcDbCircle
 10
5.840194
 20
2.978131
 30
0.0
 40
0.003
100
AcDbArc
 50
180.0
 51
270.0
  0
LINE
  5
43B
330
4AD
100
AcDbEntity
  8
ninja1 - Level 26
  6
Continuous
 62
     7
370
    13
100
AcDbLine
 10
5.840194
 20
3.068131
 30
0.0
 11
5.920194
 21
3.068131
 31
0.0
  0
LINE
  5
43C
330
4AD
100
AcDbEntity
  8
ninja1 - Level 26
  6
Continuous
 62
     7
370
    13
100
AcDbLine
 10
5.920194
 20
3.061131
 30
0.0
 11
5.920194
 21
3.068131
 31
0.0
  0
LINE
  5
43D
330
4AD
100
AcDbEntity
  8
ninja1 - Level 26
  6
Continuous
 62
     7
370
    13
100
AcDbLine
 10
5.840194
 20
3.068131
 30
0.0
 11
5.840194
 21
3.061131
 31
0.0
  0
ARC
  5
43E
330
4AD
100
AcDbEntity
  8
ninja1 - Level 26
  6
Continuous
 62
     7
370
    13
100
AcDbCircle
 10
-5.920194
 20
3.058131
 30
0.0
 40
0.01
210
0.0
220
0.0
230
-1.0
100
AcDbArc
 50
90.0
 51
180.0
  0
LINE
  5
43F
330
4AD
100
AcDbEntity
  8
ninja1 - Level 26
  6
Continuous
 62
     7
370
    13
100
AcDbLine
 10
5.923194
 20
3.058131
 30
0.0
 11
5.930194
 21
3.058131
 31
0.0
  0
LINE
  5
440
330
4AD
100
AcDbEntity
  8
ninja1 - Level 26
  6
Continuous
 62
     7
370
    13
100
AcDbLine
 10
5.830194
 20
3.058131
 30
0.0
 11
5.837194
 21
3.058131
 31
0.0
  0
ARC
  5
441
330
4AD
100
AcDbEntity
  8
ninja1 - Level 26
  6
Continuous
 62
     7
370
    13
100
AcDbCircle
 10
-5.840194
 20
3.058131
 30
0.0
 40
0.01
210
0.0
220
0.0
230
-1.0
100
AcDbArc
 50
360.0
 51
90.0
  0
LINE
  5
442
330
4AD
100
AcDbEntity
  8
ninja1 - Level 26
  6
Continuous
 62
     7
370
    13
100
AcDbLine
 10
5.920194
 20
2.968131
 30
0.0
 11
5.840194
 21
2.968131
 31
0.0
  0
LINE
  5
443
330
4AD
100
AcDbEntity
  8
ninja1 - Level 26
  6
Continuous
 62
     7
370
    13
100
AcDbLine
 10
5.840194
 20
2.968131
 30
0.0
 11
5.840194
 21
2.975131
 31
0.0
  0
LINE
  5
444
330
4AD
100
AcDbEntity
  8
ninja1 - Level 26
  6
Continuous
 62
     7
370
    13
100
AcDbLine
 10
5.920194
 20
2.975131
 30
0.0
 11
5.920194
 21
2.968131
 31
0.0
  0
LINE
  5
445
330
4AD
100
AcDbEntity
  8
ninja1 - Level 26
  6
Continuous
 62
     7
370
    13
100
AcDbLine
 10
5.830194
 20
2.978131
 30
0.0
 11
5.837194
 21
2.978131
 31
0.0
  0
LINE
  5
446
330
4AD
100
AcDbEntity
  8
ninja1 - Level 26
  6
Continuous
 62
     7
370
    13
100
AcDbLine
 10
5.830194
 20
2.978131
 30
0.0
 11
5.830194
 21
3.058131
 31
0.0
  0
ARC
  5
447
330
4AD
100
AcDbEntity
  8
ninja1 - Level 26
  6
Continuous
 62
     7
370
    13
100
AcDbCircle
 10
-5.920194
 20
2.978131
 30
0.0
 40
0.01
210
0.0
220
0.0
230
-1.0
100
AcDbArc
 50
180.0
 51
270.0
  0
LINE
  5
448
330
4AD
100
AcDbEntity
  8
ninja1 - Level 26
  6
Continuous
 62
     7
370
    13
100
AcDbLine
 10
5.923194
 20
2.978131
 30
0.0
 11
5.930194
 21
2.978131
 31
0.0
  0
ARC
  5
449
330
4AD
100
AcDbEntity
  8
ninja1 - Level 26
  6
Continuous
 62
     7
370
    13
100
AcDbCircle
 10
-5.840194
 20
2.978131
 30
0.0
 40
0.01
210
0.0
220
0.0
230
-1.0
100
AcDbArc
 50
270.0
 51
360.0
  0
LINE
  5
44A
330
4AD
100
AcDbEntity
  8
ninja1 - Level 26
  6
Continuous
 62
     7
370
    13
100
AcDbLine
 10
5.930194
 20
3.058131
 30
0.0
 11
5.930194
 21
2.978131
 31
0.0
  0
LINE
  5
44B
330
4AD
100
AcDbEntity
  8
ninja1 - Level 26
  6
Continuous
 62
     7
370
    13
100
AcDbLine
 10
2.820194
 20
3.061131
 30
0.0
 11
2.740194
 21
3.061131
 31
0.0
  0
ARC
  5
44C
330
4AD
100
AcDbEntity
  8
ninja1 - Level 26
  6
Continuous
 62
     7
370
    13
100
AcDbCircle
 10
2.820194
 20
3.058131
 30
0.0
 40
0.003
100
AcDbArc
 50
0.0
 51
90.0
  0
LINE
  5
44D
330
4AD
100
AcDbEntity
  8
ninja1 - Level 26
  6
Continuous
 62
     7
370
    13
100
AcDbLine
 10
2.823194
 20
2.978131
 30
0.0
 11
2.823194
 21
3.058131
 31
0.0
  0
ARC
  5
44E
330
4AD
100
AcDbEntity
  8
ninja1 - Level 26
  6
Continuous
 62
     7
370
    13
100
AcDbCircle
 10
2.820194
 20
2.978131
 30
0.0
 40
0.003
100
AcDbArc
 50
270.0
 51
0.0
  0
LINE
  5
44F
330
4AD
100
AcDbEntity
  8
ninja1 - Level 26
  6
Continuous
 62
     7
370
    13
100
AcDbLine
 10
2.740194
 20
2.975131
 30
0.0
 11
2.820194
 21
2.975131
 31
0.0
  0
ARC
  5
450
330
4AD
100
AcDbEntity
  8
ninja1 - Level 26
  6
Continuous
 62
     7
370
    13
100
AcDbCircle
 10
2.740194
 20
2.978131
 30
0.0
 40
0.003
100
AcDbArc
 50
180.0
 51
270.0
  0
LINE
  5
451
330
4AD
100
AcDbEntity
  8
ninja1 - Level 26
  6
Continuous
 62
     7
370
    13
100
AcDbLine
 10
2.737194
 20
3.058131
 30
0.0
 11
2.737194
 21
2.978131
 31
0.0
  0
ARC
  5
452
330
4AD
100
AcDbEntity
  8
ninja1 - Level 26
  6
Continuous
 62
     7
370
    13
100
AcDbCircle
 10
2.740194
 20
3.058131
 30
0.0
 40
0.003
100
AcDbArc
 50
90.0
 51
180.0
  0
LINE
  5
453
330
4AD
100
AcDbEntity
  8
ninja1 - Level 26
  6
Continuous
 62
     7
370
    13
100
AcDbLine
 10
2.830194
 20
3.058131
 30
0.0
 11
2.830194
 21
2.978131
 31
0.0
  0
LINE
  5
454
330
4AD
100
AcDbEntity
  8
ninja1 - Level 26
  6
Continuous
 62
     7
370
    13
100
AcDbLine
 10
2.823194
 20
2.978131
 30
0.0
 11
2.830194
 21
2.978131
 31
0.0
  0
LINE
  5
455
330
4AD
100
AcDbEntity
  8
ninja1 - Level 26
  6
Continuous
 62
     7
370
    13
100
AcDbLine
 10
2.830194
 20
3.058131
 30
0.0
 11
2.823194
 21
3.058131
 31
0.0
  0
ARC
  5
456
330
4AD
100
AcDbEntity
  8
ninja1 - Level 26
  6
Continuous
 62
     7
370
    13
100
AcDbCircle
 10
-2.820194
 20
2.978131
 30
0.0
 40
0.01
210
0.0
220
0.0
230
-1.0
100
AcDbArc
 50
180.0
 51
270.0
  0
LINE
  5
457
330
4AD
100
AcDbEntity
  8
ninja1 - Level 26
  6
Continuous
 62
     7
370
    13
100
AcDbLine
 10
2.820194
 20
2.975131
 30
0.0
 11
2.820194
 21
2.968131
 31
0.0
  0
LINE
  5
458
330
4AD
100
AcDbEntity
  8
ninja1 - Level 26
  6
Continuous
 62
     7
370
    13
100
AcDbLine
 10
2.820194
 20
3.068131
 30
0.0
 11
2.820194
 21
3.061131
 31
0.0
  0
ARC
  5
459
330
4AD
100
AcDbEntity
  8
ninja1 - Level 26
  6
Continuous
 62
     7
370
    13
100
AcDbCircle
 10
-2.820194
 20
3.058131
 30
0.0
 40
0.01
210
0.0
220
0.0
230
-1.0
100
AcDbArc
 50
90.0
 51
180.0
  0
LINE
  5
45A
330
4AD
100
AcDbEntity
  8
ninja1 - Level 26
  6
Continuous
 62
     7
370
    13
100
AcDbLine
 10
2.730194
 20
2.978131
 30
0.0
 11
2.730194
 21
3.058131
 31
0.0
  0
LINE
  5
45B
330
4AD
100
AcDbEntity
  8
ninja1 - Level 26
  6
Continuous
 62
     7
370
    13
100
AcDbLine
 10
2.730194
 20
3.058131
 30
0.0
 11
2.737194
 21
3.058131
 31
0.0
  0
LINE
  5
45C
330
4AD
100
AcDbEntity
  8
ninja1 - Level 26
  6
Continuous
 62
     7
370
    13
100
AcDbLine
 10
2.737194
 20
2.978131
 30
0.0
 11
2.730194
 21
2.978131
 31
0.0
  0
LINE
  5
45D
330
4AD
100
AcDbEntity
  8
ninja1 - Level 26
  6
Continuous
 62
     7
370
    13
100
AcDbLine
 10
2.740194
 20
3.068131
 30
0.0
 11
2.740194
 21
3.061131
 31
0.0
  0
LINE
  5
45E
330
4AD
100
AcDbEntity
  8
ninja1 - Level 26
  6
Continuous
 62
     7
370
    13
100
AcDbLine
 10
2.740194
 20
3.068131
 30
0.0
 11
2.820194
 21
3.068131
 31
0.0
  0
ARC
  5
45F
330
4AD
100
AcDbEntity
  8
ninja1 - Level 26
  6
Continuous
 62
     7
370
    13
100
AcDbCircle
 10
-2.740194
 20
2.978131
 30
0.0
 40
0.01
210
0.0
220
0.0
230
-1.0
100
AcDbArc
 50
270.0
 51
360.0
  0
LINE
  5
460
330
4AD
100
AcDbEntity
  8
ninja1 - Level 26
  6
Continuous
 62
     7
370
    13
100
AcDbLine
 10
2.740194
 20
2.975131
 30
0.0
 11
2.740194
 21
2.968131
 31
0.0
  0
ARC
  5
461
330
4AD
100
AcDbEntity
  8
ninja1 - Level 26
  6
Continuous
 62
     7
370
    13
100
AcDbCircle
 10
-2.740194
 20
3.058131
 30
0.0
 40
0.01
210
0.0
220
0.0
230
-1.0
100
AcDbArc
 50
360.0
 51
90.0
  0
LINE
  5
462
330
4AD
100
AcDbEntity
  8
ninja1 - Level 26
  6
Continuous
 62
     7
370
    13
100
AcDbLine
 10
2.820194
 20
2.968131
 30
0.0
 11
2.740194
 21
2.968131
 31
0.0
  0
ENDSEC
  0
SECTION
  2
OBJECTS
  0
DICTIONARY
  5
4B6
330
0
100
AcDbDictionary
281
     1
  3
ACAD_COLOR
350
50B
  3
ACAD_DETAILVIEWSTYLE
350
6AD
  3
ACAD_GROUP
350
4F8
  3
ACAD_LAYOUT
350
4D9
  3
ACAD_MATERIAL
350
4B8
  3
ACAD_MLEADERSTYLE
350
50E
  3
ACAD_MLINESTYLE
350
4F9
  3
ACAD_PLOTSETTINGS
350
4FA
  3
ACAD_PLOTSTYLENAME
350
4B5
  3
ACAD_SCALELIST
350
50C
  3
ACAD_SECTIONVIEWSTYLE
350
6AB
  3
ACAD_TABLESTYLE
350
50D
  3
ACAD_VISUALSTYLE
350
4F2
  3
AcadDim
350
689
  3
ACDB_RECOMPOSE_DATA
350
BF0
  3
AcDbVariableDictionary
350
50F
  3
AcDsDecomposeData
350
BF6
  3
MicroStation
350
687
  0
DICTIONARY
  5
4E2
330
4E1
100
AcDbDictionary
280
     1
281
     1
  3
ACAD_LAYERFILTERS
360
4E3
  3
ACAD_LAYERSTATES
360
4E4
  3
ACLYDICTIONARY
360
4E5
  0
DICTIONARY
  5
4B2
330
4B1
100
AcDbDictionary
280
     1
281
     1
  3
ADSK_XREC_LAYER_RECONCILED
360
4B3
  0
DICTIONARY
  5
4AE
330
4AD
100
AcDbDictionary
280
     1
281
     1
  3
ACAD_SORTENTS
360
685
  0
DICTIONARY
  5
50B
102
{ACAD_REACTORS
330
4B6
102
}
330
4B6
100
AcDbDictionary
281
     1
  0
DICTIONARY
  5
6AD
102
{ACAD_REACTORS
330
4B6
102
}
330
4B6
100
AcDbDictionary
281
     1
  3
Imperial24
350
6AE
  0
DICTIONARY
  5
4F8
102
{ACAD_REACTORS
330
4B6
102
}
330
4B6
100
AcDbDictionary
281
     1
  0
DICTIONARY
  5
4D9
102
{ACAD_REACTORS
330
4B6
102
}
330
4B6
100
AcDbDictionary
281
     1
  3
Layout1
350
4DE
  3
Model
350
4D8
  0
DICTIONARY
  5
4B8
102
{ACAD_REACTORS
330
4B6
102
}
330
4B6
100
AcDbDictionary
281
     1
  3
ByBlock
350
503
  3
ByLayer
350
4FB
  3
Global
350
4B7
  0
DICTIONARY
  5
50E
102
{ACAD_REACTORS
330
4B6
102
}
330
4B6
100
AcDbDictionary
281
     1
  3
Standard
350
68A
  0
DICTIONARY
  5
4F9
102
{ACAD_REACTORS
330
4B6
102
}
330
4B6
100
AcDbDictionary
281
     1
  3
Standard
350
521
  0
DICTIONARY
  5
4FA
102
{ACAD_REACTORS
330
4B6
102
}
330
4B6
100
AcDbDictionary
281
     1
  0
ACDBDICTIONARYWDFLT
  5
4B5
102
{ACAD_REACTORS
330
4B6
102
}
330
4B6
100
AcDbDictionary
281
     1
  3
Normal
350
4B4
100
AcDbDictionaryWithDefault
340
4B4
  0
DICTIONARY
  5
50C
102
{ACAD_REACTORS
330
4B6
102
}
330
4B6
100
AcDbDictionary
281
     1
  3
A0
350
526
  3
A1
350
527
  3
A2
350
528
  3
A3
350
529
  3
A4
350
52A
  3
A5
350
52B
  3
A6
350
52C
  3
A7
350
52D
  3
A8
350
52E
  3
A9
350
52F
  3
B0
350
530
  3
B1
350
531
  3
B2
350
532
  3
B3
350
533
  3
B4
350
534
  3
B5
350
535
  3
B6
350
536
  3
B7
350
537
  3
B8
350
538
  3
B9
350
539
  3
C0
350
53A
  3
C1
350
53B
  3
C2
350
53C
  3
C3
350
53D
  3
C4
350
53E
  3
C5
350
53F
  3
C6
350
540
  3
C7
350
541
  3
C8
350
542
  3
C9
350
543
  3
D0
350
544
  3
D1
350
545
  3
D2
350
546
  0
DICTIONARY
  5
6AB
102
{ACAD_REACTORS
330
4B6
102
}
330
4B6
100
AcDbDictionary
281
     1
  3
Imperial24
350
6AC
  0
DICTIONARY
  5
50D
102
{ACAD_REACTORS
330
4B6
102
}
330
4B6
100
AcDbDictionary
281
     1
  3
Standard
350
522
  0
DICTIONARY
  5
4F2
102
{ACAD_REACTORS
330
4B6
102
}
330
4B6
100
AcDbDictionary
281
     1
  3
2dWireframe
350
4F1
  3
Basic
350
69A
  3
Brighten
350
69E
  3
ColorChange
350
6A2
  3
Conceptual
350
69C
  3
Dim
350
69D
  3
EdgeColorOff
350
6AA
  3
Facepattern
350
6A1
  3
Flat
350
696
  3
FlatWithEdges
350
697
  3
Gouraud
350
698
  3
GouraudWithEdges
350
699
  3
Hidden
350
69B
  3
JitterOff
350
6A8
  3
Linepattern
350
6A0
  3
OverhangOff
350
6A9
  3
Realistic
350
524
  3
Shaded
350
6A7
  3
Shaded with edges
350
6A6
  3
Shades of Gray
350
6A3
  3
Sketchy
350
6A4
  3
Thicken
350
69F
  3
Wireframe
350
525
  3
X-Ray
350
6A5
  0
XRECORD
  5
689
102
{ACAD_REACTORS
330
4B6
102
}
330
4B6
100
AcDbXrecord
280
     1
 90
   990106
  3
 
 60
     0
 61
     0
 62
     1
 63
     1
 64
     0
 65
     0
 66
     0
 67
     3
 68
     1
 69
     1
 70
     0
 71
     0
 72
     0
 40
0.0
170
     0
  0
XRECORD
  5
BF0
102
{ACAD_REACTORS
330
4B6
102
}
330
4B6
100
AcDbXrecord
280
     1
 90
        1
330
522
  0
DICTIONARY
  5
50F
102
{ACAD_REACTORS
330
4B6
102
}
330
4B6
100
AcDbDictionary
281
     1
  3
CANNOSCALE
350
510
  3
CMLEADERSTYLE
350
511
  3
CTABLESTYLE
350
512
  3
CVIEWDETAILSTYLE
350
513
  3
CVIEWSECTIONSTYLE
350
514
  3
LAYEREVAL
350
515
  3
LAYERNOTIFY
350
516
  3
MSLTSCALE
350
517
  3
PDFFRAME
350
518
  0
DICTIONARY
  5
BF6
102
{ACAD_REACTORS
330
4B6
102
}
330
4B6
100
AcDbDictionary
281
     1
  3
AcDsRecords
350
BF8
  3
AcDsSchemas
350
BF7
1001
ACAD
1070
     2
  0
DICTIONARY
  5
687
102
{ACAD_REACTORS
330
4B6
102
}
330
4B6
100
AcDbDictionary
281
     1
  3
ModelApplicationElement 0 92 702
350
5C
  0
DICTIONARY
  5
4E3
102
{ACAD_REACTORS
330
4E2
102
}
330
4E2
100
AcDbDictionary
281
     1
  0
DICTIONARY
  5
4E4
102
{ACAD_REACTORS
330
4E2
102
}
330
4E2
100
AcDbDictionary
281
     1
  0
DICTIONARY
  5
4E5
102
{ACAD_REACTORS
330
4E2
102
}
330
4E2
100
AcDbDictionary
281
     1
  0
XRECORD
  5
4B3
102
{ACAD_REACTORS
330
4B2
102
}
330
4B2
100
AcDbXrecord
280
     1
290
     1
  0
SORTENTSTABLE
  5
685
102
{ACAD_REACTORS
330
4AE
102
}
330
4AE
100
AcDbSortentsTable
330
4AD
  0
ACDBDETAILVIEWSTYLE
  5
6AE
102
{ACAD_XDICTIONARY
360
BFB
102
}
102
{ACAD_REACTORS
330
6AD
102
}
330
6AD
100
AcDbModelDocViewStyle
 70
     0
  3
Imperial24
290
     0
100
AcDbDetailViewStyle
 70
     0
 71
     0
 90
        3
 71
     1
340
4E7
 62
   256
 40
0.24
340
0
 62
   256
 40
0.24
300

 40
0.36
280
     3
 71
     2
340
4C0
 90
       25
 62
   256
 71
     3
340
4E7
 62
   256
 40
0.24
 90
        1
 40
0.75
 90
        1
300
%<\AcVar ViewType \f "%tc1">% %<\AcVar ViewDetailId>%\PSCALE %<\AcVar ViewScale \f "%sn">%
 71
     4
340
4C0
 90
       25
 62
   256
340
4C0
 90
       25
 62
   256
280
     0
  0
LAYOUT
  5
4DE
102
{ACAD_XDICTIONARY
360
4DF
102
}
102
{ACAD_REACTORS
330
4D9
102
}
330
4D9
100
AcDbPlotSettings
  1

  2
none_device
  4
Letter_(8.50_x_11.00_Inches)
  6

 40
6.35
 41
6.35
 42
6.350006
 43
6.350006
 44
215.899994
 45
279.399994
 46
0.0
 47
0.0
 48
0.0
 49
0.0
140
0.0
141
0.0
142
1.0
143
1.0
 70
   688
 72
     0
 73
     1
 74
     5
  7

 75
    16
147
1.0
 76
     0
 77
     2
 78
   300
148
0.0
149
0.0
100
AcDbLayout
  1
Layout1
 70
     1
 71
     1
 10
-0.25
 20
-0.25
 11
10.75
 21
8.25
 12
0.0
 22
0.0
 32
0.0
 14
1.05
 24
0.8
 34
0.0
 15
9.45
 25
7.2
 35
0.0
146
0.0
 13
0.0
 23
0.0
 33
0.0
 16
1.0
 26
0.0
 36
0.0
 17
0.0
 27
1.0
 37
0.0
 76
     0
330
4DB
1001
ACAD_PSEXT
1000
None
1000
None
1000
Not applicable
1000
The layout will not be plotted unless a new plotter configuration name is selected.
1070
     0
  0
LAYOUT
  5
4D8
102
{ACAD_XDICTIONARY
360
4DA
102
}
102
{ACAD_REACTORS
330
4D9
102
}
330
4D9
100
AcDbPlotSettings
  1

  2
none_device
  4
ANSI_A_(8.50_x_11.00_Inches)
  6

 40
6.35
 41
19.049999
 42
6.350006
 43
19.049988
 44
215.899994
 45
279.399994
 46
0.0
 47
0.0
 48
0.0
 49
0.0
140
0.0
141
0.0
142
1.0
143
2.584895
 70
 11952
 72
     0
 73
     1
 74
     0
  7

 75
     0
147
0.386863
 76
     0
 77
     2
 78
   300
148
0.0
149
0.0
100
AcDbLayout
  1
Model
 70
     1
 71
     0
 10
0.0
 20
0.0
 11
12.0
 21
9.0
 12
0.0
 22
0.0
 32
0.0
 14
0.0
 24
0.0
 34
0.0
 15
0.0
 25
0.0
 35
0.0
146
0.0
 13
0.0
 23
0.0
 33
0.0
 16
1.0
 26
0.0
 36
0.0
 17
0.0
 27
1.0
 37
0.0
 76
     0
330
4AD
  0
MATERIAL
  5
503
102
{ACAD_XDICTIONARY
360
504
102
}
102
{ACAD_REACTORS
330
4B8
102
}
330
4B8
100
AcDbMaterial
  1
ByBlock
 72
     0
 43
0.020833
 43
0.0
 43
0.0
 43
0.0
 43
0.0
 43
0.020833
 43
0.0
 43
0.0
 43
0.0
 43
0.0
 43
1.0
 43
0.0
 43
0.0
 43
0.0
 43
0.0
 43
1.0
 77
     0
 47
0.020833
 47
0.0
 47
0.0
 47
0.0
 47
0.0
 47
0.020833
 47
0.0
 47
0.0
 47
0.0
 47
0.0
 47
1.0
 47
0.0
 47
0.0
 47
0.0
 47
0.0
 47
1.0
171
     0
 49
0.020833
 49
0.0
 49
0.0
 49
0.0
 49
0.0
 49
0.020833
 49
0.0
 49
0.0
 49
0.0
 49
0.0
 49
1.0
 49
0.0
 49
0.0
 49
0.0
 49
0.0
 49
1.0
175
     0
142
0.020833
142
0.0
142
0.0
142
0.0
142
0.0
142
0.020833
142
0.0
142
0.0
142
0.0
142
0.0
142
1.0
142
0.0
142
0.0
142
0.0
142
0.0
142
1.0
179
     0
144
0.020833
144
0.0
144
0.0
144
0.0
144
0.0
144
0.020833
144
0.0
144
0.0
144
0.0
144
0.0
144
1.0
144
0.0
144
0.0
144
0.0
144
0.0
144
1.0
147
0.020833
147
0.0
147
0.0
147
0.0
147
0.0
147
0.020833
147
0.0
147
0.0
147
0.0
147
0.0
147
1.0
147
0.0
147
0.0
147
0.0
147
0.0
147
1.0
  0
MATERIAL
  5
4FB
102
{ACAD_XDICTIONARY
360
4FC
102
}
102
{ACAD_REACTORS
330
4B8
102
}
330
4B8
100
AcDbMaterial
  1
ByLayer
 72
     0
 43
0.020833
 43
0.0
 43
0.0
 43
0.0
 43
0.0
 43
0.020833
 43
0.0
 43
0.0
 43
0.0
 43
0.0
 43
1.0
 43
0.0
 43
0.0
 43
0.0
 43
0.0
 43
1.0
 77
     0
 47
0.020833
 47
0.0
 47
0.0
 47
0.0
 47
0.0
 47
0.020833
 47
0.0
 47
0.0
 47
0.0
 47
0.0
 47
1.0
 47
0.0
 47
0.0
 47
0.0
 47
0.0
 47
1.0
171
     0
 49
0.020833
 49
0.0
 49
0.0
 49
0.0
 49
0.0
 49
0.020833
 49
0.0
 49
0.0
 49
0.0
 49
0.0
 49
1.0
 49
0.0
 49
0.0
 49
0.0
 49
0.0
 49
1.0
175
     0
142
0.020833
142
0.0
142
0.0
142
0.0
142
0.0
142
0.020833
142
0.0
142
0.0
142
0.0
142
0.0
142
1.0
142
0.0
142
0.0
142
0.0
142
0.0
142
1.0
179
     0
144
0.020833
144
0.0
144
0.0
144
0.0
144
0.0
144
0.020833
144
0.0
144
0.0
144
0.0
144
0.0
144
1.0
144
0.0
144
0.0
144
0.0
144
0.0
144
1.0
147
0.020833
147
0.0
147
0.0
147
0.0
147
0.0
147
0.020833
147
0.0
147
0.0
147
0.0
147
0.0
147
1.0
147
0.0
147
0.0
147
0.0
147
0.0
147
1.0
  0
MATERIAL
  5
4B7
102
{ACAD_XDICTIONARY
360
4B9
102
}
102
{ACAD_REACTORS
330
4B8
102
}
330
4B8
100
AcDbMaterial
  1
Global
 72
     0
 43
0.020833
 43
0.0
 43
0.0
 43
0.0
 43
0.0
 43
0.020833
 43
0.0
 43
0.0
 43
0.0
 43
0.0
 43
1.0
 43
0.0
 43
0.0
 43
0.0
 43
0.0
 43
1.0
 77
     0
 47
0.020833
 47
0.0
 47
0.0
 47
0.0
 47
0.0
 47
0.020833
 47
0.0
 47
0.0
 47
0.0
 47
0.0
 47
1.0
 47
0.0
 47
0.0
 47
0.0
 47
0.0
 47
1.0
171
     0
 49
0.020833
 49
0.0
 49
0.0
 49
0.0
 49
0.0
 49
0.020833
 49
0.0
 49
0.0
 49
0.0
 49
0.0
 49
1.0
 49
0.0
 49
0.0
 49
0.0
 49
0.0
 49
1.0
175
     0
142
0.020833
142
0.0
142
0.0
142
0.0
142
0.0
142
0.020833
142
0.0
142
0.0
142
0.0
142
0.0
142
1.0
142
0.0
142
0.0
142
0.0
142
0.0
142
1.0
179
     0
144
0.020833
144
0.0
144
0.0
144
0.0
144
0.0
144
0.020833
144
0.0
144
0.0
144
0.0
144
0.0
144
1.0
144
0.0
144
0.0
144
0.0
144
0.0
144
1.0
147
0.020833
147
0.0
147
0.0
147
0.0
147
0.0
147
0.020833
147
0.0
147
0.0
147
0.0
147
0.0
147
1.0
147
0.0
147
0.0
147
0.0
147
0.0
147
1.0
  0
MLEADERSTYLE
  5
68A
102
{ACAD_REACTORS
330
50E
102
}
330
50E
100
AcDbMLeaderStyle
179
     2
170
     2
171
     1
172
     0
 90
        2
 40
0.0
 41
0.0
173
     1
 91
-1073741824
 92
       -2
290
     1
 42
0.125
291
     1
 43
0.5
  3

341
51B
 44
0.25
300

342
688
174
     1
178
     1
175
     1
176
     0
 93
-1073741824
 45
0.25
292
     0
297
     1
 46
5.0
 94
-1073741824
 47
1.0
 49
1.0
140
1.0
293
     1
141
0.0
294
     1
177
     0
142
1.0
295
     0
296
     1
143
0.125
271
     0
272
     9
273
     9
298
     0
  0
MLINESTYLE
  5
521
102
{ACAD_REACTORS
330
4F9
102
}
330
4F9
100
AcDbMlineStyle
  2
STANDARD
 70
     0
  3

 62
   256
 51
90.0
 52
90.0
 71
     2
 49
0.5
 62
   256
  6
BYLAYER
 49
-0.5
 62
   256
  6
BYLAYER
  0
ACDBPLACEHOLDER
  5
4B4
102
{ACAD_REACTORS
330
4B5
102
}
330
4B5
  0
SCALE
  5
526
102
{ACAD_REACTORS
330
50C
102
}
330
50C
100
AcDbScale
 70
     0
300
1:1
140
1.0
141
1.0
290
     1
  0
SCALE
  5
527
102
{ACAD_REACTORS
330
50C
102
}
330
50C
100
AcDbScale
 70
     0
300
1:2
140
1.0
141
2.0
290
     0
  0
SCALE
  5
528
102
{ACAD_REACTORS
330
50C
102
}
330
50C
100
AcDbScale
 70
     0
300
1:4
140
1.0
141
4.0
290
     0
  0
SCALE
  5
529
102
{ACAD_REACTORS
330
50C
102
}
330
50C
100
AcDbScale
 70
     0
300
1:5
140
1.0
141
5.0
290
     0
  0
SCALE
  5
52A
102
{ACAD_REACTORS
330
50C
102
}
330
50C
100
AcDbScale
 70
     0
300
1:8
140
1.0
141
8.0
290
     0
  0
SCALE
  5
52B
102
{ACAD_REACTORS
330
50C
102
}
330
50C
100
AcDbScale
 70
     0
300
1:10
140
1.0
141
10.0
290
     0
  0
SCALE
  5
52C
102
{ACAD_REACTORS
330
50C
102
}
330
50C
100
AcDbScale
 70
     0
300
1:16
140
1.0
141
16.0
290
     0
  0
SCALE
  5
52D
102
{ACAD_REACTORS
330
50C
102
}
330
50C
100
AcDbScale
 70
     0
300
1:20
140
1.0
141
20.0
290
     0
  0
SCALE
  5
52E
102
{ACAD_REACTORS
330
50C
102
}
330
50C
100
AcDbScale
 70
     0
300
1:30
140
1.0
141
30.0
290
     0
  0
SCALE
  5
52F
102
{ACAD_REACTORS
330
50C
102
}
330
50C
100
AcDbScale
 70
     0
300
1:40
140
1.0
141
40.0
290
     0
  0
SCALE
  5
530
102
{ACAD_REACTORS
330
50C
102
}
330
50C
100
AcDbScale
 70
     0
300
1:50
140
1.0
141
50.0
290
     0
  0
SCALE
  5
531
102
{ACAD_REACTORS
330
50C
102
}
330
50C
100
AcDbScale
 70
     0
300
1:100
140
1.0
141
100.0
290
     0
  0
SCALE
  5
532
102
{ACAD_REACTORS
330
50C
102
}
330
50C
100
AcDbScale
 70
     0
300
2:1
140
2.0
141
1.0
290
     0
  0
SCALE
  5
533
102
{ACAD_REACTORS
330
50C
102
}
330
50C
100
AcDbScale
 70
     0
300
4:1
140
4.0
141
1.0
290
     0
  0
SCALE
  5
534
102
{ACAD_REACTORS
330
50C
102
}
330
50C
100
AcDbScale
 70
     0
300
8:1
140
8.0
141
1.0
290
     0
  0
SCALE
  5
535
102
{ACAD_REACTORS
330
50C
102
}
330
50C
100
AcDbScale
 70
     0
300
10:1
140
10.0
141
1.0
290
     0
  0
SCALE
  5
536
102
{ACAD_REACTORS
330
50C
102
}
330
50C
100
AcDbScale
 70
     0
300
100:1
140
100.0
141
1.0
290
     0
  0
SCALE
  5
537
102
{ACAD_REACTORS
330
50C
102
}
330
50C
100
AcDbScale
 70
     0
300
1/128" = 1'-0"
140
0.007813
141
12.0
290
     0
  0
SCALE
  5
538
102
{ACAD_REACTORS
330
50C
102
}
330
50C
100
AcDbScale
 70
     0
300
1/64" = 1'-0"
140
0.015625
141
12.0
290
     0
  0
SCALE
  5
539
102
{ACAD_REACTORS
330
50C
102
}
330
50C
100
AcDbScale
 70
     0
300
1/32" = 1'-0"
140
0.03125
141
12.0
290
     0
  0
SCALE
  5
53A
102
{ACAD_REACTORS
330
50C
102
}
330
50C
100
AcDbScale
 70
     0
300
1/16" = 1'-0"
140
0.0625
141
12.0
290
     0
  0
SCALE
  5
53B
102
{ACAD_REACTORS
330
50C
102
}
330
50C
100
AcDbScale
 70
     0
300
3/32" = 1'-0"
140
0.09375
141
12.0
290
     0
  0
SCALE
  5
53C
102
{ACAD_REACTORS
330
50C
102
}
330
50C
100
AcDbScale
 70
     0
300
1/8" = 1'-0"
140
0.125
141
12.0
290
     0
  0
SCALE
  5
53D
102
{ACAD_REACTORS
330
50C
102
}
330
50C
100
AcDbScale
 70
     0
300
3/16" = 1'-0"
140
0.1875
141
12.0
290
     0
  0
SCALE
  5
53E
102
{ACAD_REACTORS
330
50C
102
}
330
50C
100
AcDbScale
 70
     0
300
1/4" = 1'-0"
140
0.25
141
12.0
290
     0
  0
SCALE
  5
53F
102
{ACAD_REACTORS
330
50C
102
}
330
50C
100
AcDbScale
 70
     0
300
3/8" = 1'-0"
140
0.375
141
12.0
290
     0
  0
SCALE
  5
540
102
{ACAD_REACTORS
330
50C
102
}
330
50C
100
AcDbScale
 70
     0
300
1/2" = 1'-0"
140
0.5
141
12.0
290
     0
  0
SCALE
  5
541
102
{ACAD_REACTORS
330
50C
102
}
330
50C
100
AcDbScale
 70
     0
300
3/4" = 1'-0"
140
0.75
141
12.0
290
     0
  0
SCALE
  5
542
102
{ACAD_REACTORS
330
50C
102
}
330
50C
100
AcDbScale
 70
     0
300
1" = 1'-0"
140
1.0
141
12.0
290
     0
  0
SCALE
  5
543
102
{ACAD_REACTORS
330
50C
102
}
330
50C
100
AcDbScale
 70
     0
300
1-1/2" = 1'-0"
140
1.5
141
12.0
290
     0
  0
SCALE
  5
544
102
{ACAD_REACTORS
330
50C
102
}
330
50C
100
AcDbScale
 70
     0
300
3" = 1'-0"
140
3.0
141
12.0
290
     0
  0
SCALE
  5
545
102
{ACAD_REACTORS
330
50C
102
}
330
50C
100
AcDbScale
 70
     0
300
6" = 1'-0"
140
6.0
141
12.0
290
     0
  0
SCALE
  5
546
102
{ACAD_REACTORS
330
50C
102
}
330
50C
100
AcDbScale
 70
     0
300
1'-0" = 1'-0"
140
12.0
141
12.0
290
     0
  0
ACDBSECTIONVIEWSTYLE
  5
6AC
102
{ACAD_XDICTIONARY
360
BF9
102
}
102
{ACAD_REACTORS
330
6AB
102
}
330
6AB
100
AcDbModelDocViewStyle
 70
     0
  3
Imperial24
290
     0
100
AcDbSectionViewStyle
 70
     0
 71
     0
 90
       78
 71
     1
340
4E7
 62
   256
 40
0.24
340
0
340
0
 62
   256
 40
0.24
300
I, O, Q, S, X, Z
 40
0.48
 90
        3
 40
0.18
 90
        1
 71
     2
340
4C0
 90
       25
 62
   256
340
4C0
 90
       50
 62
   256
 40
0.24
 40
0.0
 40
0.24
 71
     3
340
4E7
 62
   256
 40
0.24
 90
        1
 40
0.75
 90
        1
300
%<\AcVar ViewType \f "%tc1">% %<\AcVar ViewSectionStartId>%-%<\AcVar ViewSectionEndId>%\PSCALE %<\AcVar ViewScale \f "%sn">%
 71
     4
 62
   256
 62
   257
300
ANSI31
 40
1.0
 90
        0
290
     0
290
     0
 90
        6
 40
0.0
 40
1.570796
 40
0.261799
 40
1.308997
 40
-0.261799
 40
1.832596
  0
TABLESTYLE
  5
522
102
{ACAD_XDICTIONARY
360
523
102
}
102
{ACAD_REACTORS
330
50D
102
}
330
50D
100
AcDbTableStyle
280
     0
  3
Standard
 70
     0
 71
     0
 40
0.06
 41
0.06
280
     0
281
     0
  7
Standard
140
0.18
170
     2
 62
     0
 63
     7
283
     0
 90
        4
 91
        0
  1

274
    -2
284
     1
 64
     0
275
    -2
285
     1
 65
     0
276
    -2
286
     1
 66
     0
277
    -2
287
     1
 67
     0
278
    -2
288
     1
 68
     0
279
    -2
289
     1
 69
     0
  7
Standard
140
0.25
170
     5
 62
     0
 63
     7
283
     0
 90
        4
 91
        0
  1

274
    -2
284
     1
 64
     0
275
    -2
285
     1
 65
     0
276
    -2
286
     1
 66
     0
277
    -2
287
     1
 67
     0
278
    -2
288
     1
 68
     0
279
    -2
289
     1
 69
     0
  7
Standard
140
0.18
170
     5
 62
     0
 63
     7
283
     0
 90
        4
 91
        0
  1

274
    -2
284
     1
 64
     0
275
    -2
285
     1
 65
     0
276
    -2
286
     1
 66
     0
277
    -2
287
     1
 67
     0
278
    -2
288
     1
 68
     0
279
    -2
289
     1
 69
     0
  0
VISUALSTYLE
  5
4F1
102
{ACAD_REACTORS
330
4F2
102
}
330
4F2
100
AcDbVisualStyle
  2
2dWireframe
 70
     4
177
     3
291
     0
 70
    58
 90
        0
176
     1
 90
        2
176
     1
 90
        0
176
     1
 90
        0
176
     1
 40
0.6
176
     1
 40
30.0
176
     1
 62
     7
420
 16777215
176
     1
 90
        1
176
     1
 90
        4
176
     1
 62
     7
176
     1
 62
   257
176
     1
 90
        1
176
     1
 90
        1
176
     1
 40
1.0
176
     1
 90
        0
176
     1
 62
   257
176
     1
 40
1.0
176
     1
 90
        1
176
     1
 90
        6
176
     1
 90
        2
176
     1
 62
     7
176
     1
 90
        5
176
     1
 90
        0
176
     1
 90
        0
176
     1
290
     0
176
     1
 90
        1
176
     1
 40
0.0
176
     1
 90
        0
176
     1
290
     1
176
     1
290
     1
176
     1
290
     0
176
     1
290
     0
176
     1
290
     0
176
     1
290
     0
176
     1
290
     0
176
     1
290
     0
176
     1
290
     0
176
     1
 90
       50
176
     1
 40
0.0
176
     1
 40
1.0
176
     1
 90
        0
176
     1
 62
    18
420
        0
176
     1
 90
       50
176
     1
 90
        3
176
     1
 62
     5
420
      255
176
     1
290
     0
176
     1
 90
       50
176
     1
 90
       50
176
     1
 90
       50
176
     1
290
     0
176
     1
 90
       50
176
     1
 62
   256
176
     0
 40
1.0
176
     0
 90
        2
176
     1
  1
strokes_ogs.tif
176
     1
290
     0
176
     1
 40
1.0
176
     1
 40
1.0
176
     1
1001
ACAD
1000
AcDbSavedByObjectVersion
1070
     0
  0
VISUALSTYLE
  5
69A
102
{ACAD_REACTORS
330
4F2
102
}
330
4F2
100
AcDbVisualStyle
  2
Basic
 70
     7
177
     3
291
     1
 70
    58
 90
        1
176
     1
 90
        0
176
     1
 90
        1
176
     1
 90
        0
176
     1
 40
0.6
176
     1
 40
30.0
176
     1
 62
     7
420
 16777215
176
     1
 90
        0
176
     1
 90
        4
176
     1
 62
     7
176
     1
 62
   257
176
     1
 90
        1
176
     1
 90
        1
176
     1
 40
1.0
176
     1
 90
        8
176
     1
 62
     7
176
     1
 40
1.0
176
     1
 90
        1
176
     1
 90
        6
176
     1
 90
        2
176
     1
 62
     7
176
     1
 90
        5
176
     1
 90
        0
176
     1
 90
        0
176
     1
290
     0
176
     1
 90
        1
176
     1
 40
0.0
176
     1
 90
        0
176
     1
290
     0
176
     1
290
     1
176
     1
290
     1
176
     1
290
     0
176
     1
290
     0
176
     1
290
     0
176
     1
290
     0
176
     1
290
     0
176
     1
290
     0
176
     1
 90
       50
176
     1
 40
0.0
176
     1
 40
1.0
176
     1
 90
        0
176
     1
 62
    18
420
        0
176
     1
 90
       50
176
     1
 90
        3
176
     1
 62
     5
420
      255
176
     1
290
     0
176
     1
 90
       50
176
     1
 90
       50
176
     1
 90
       50
176
     1
290
     0
176
     1
 90
       50
176
     1
 62
   256
176
     0
 40
1.0
176
     0
 90
        2
176
     1
  1
strokes_ogs.tif
176
     1
290
     0
176
     1
 40
1.0
176
     1
 40
1.0
176
     1
1001
ACAD
1000
AcDbSavedByObjectVersion
1070
     0
  0
VISUALSTYLE
  5
69E
102
{ACAD_REACTORS
330
4F2
102
}
330
4F2
100
AcDbVisualStyle
  2
Brighten
 70
    12
177
     3
291
     1
 70
    58
 90
        2
176
     1
 90
        2
176
     1
 90
        0
176
     1
 90
        0
176
     1
 40
0.6
176
     1
 40
30.0
176
     1
 62
     7
420
 16777215
176
     1
 90
        1
176
     1
 90
        4
176
     1
 62
     7
176
     1
 62
   257
176
     1
 90
        1
176
     1
 90
        1
176
     1
 40
1.0
176
     1
 90
        8
176
     1
 62
     7
176
     1
 40
1.0
176
     1
 90
        1
176
     1
 90
        6
176
     1
 90
        2
176
     1
 62
     7
176
     1
 90
        5
176
     1
 90
        0
176
     1
 90
        0
176
     1
290
     0
176
     1
 90
        1
176
     1
 40
50.0
176
     1
 90
        0
176
     1
290
     0
176
     1
290
     1
176
     1
290
     1
176
     1
290
     0
176
     1
290
     0
176
     1
290
     0
176
     1
290
     0
176
     1
290
     0
176
     1
290
     0
176
     1
 90
       50
176
     1
 40
0.0
176
     1
 40
1.0
176
     1
 90
        0
176
     1
 62
    18
420
        0
176
     1
 90
       50
176
     1
 90
        3
176
     1
 62
     5
420
      255
176
     1
290
     0
176
     1
 90
       50
176
     1
 90
       50
176
     1
 90
       50
176
     1
290
     0
176
     1
 90
       50
176
     1
 62
   256
176
     0
 40
1.0
176
     0
 90
        2
176
     1
  1
strokes_ogs.tif
176
     1
290
     0
176
     1
 40
1.0
176
     1
 40
1.0
176
     1
1001
ACAD
1000
AcDbSavedByObjectVersion
1070
     0
  0
VISUALSTYLE
  5
6A2
102
{ACAD_REACTORS
330
4F2
102
}
330
4F2
100
AcDbVisualStyle
  2
ColorChange
 70
    16
177
     3
291
     1
 70
    58
 90
        2
176
     1
 90
        2
176
     1
 90
        3
176
     1
 90
        0
176
     1
 40
0.6
176
     1
 40
30.0
176
     1
 62
     8
420
  8421504
176
     1
 90
        1
176
     1
 90
        4
176
     1
 62
     7
176
     1
 62
   257
176
     1
 90
        1
176
     1
 90
        1
176
     1
 40
1.0
176
     1
 90
        8
176
     1
 62
     8
420
  8421504
176
     1
 40
1.0
176
     1
 90
        1
176
     1
 90
        6
176
     1
 90
        2
176
     1
 62
     7
176
     1
 90
        5
176
     1
 90
        0
176
     1
 90
        0
176
     1
290
     0
176
     1
 90
        1
176
     1
 40
0.0
176
     1
 90
        0
176
     1
290
     0
176
     1
290
     1
176
     1
290
     1
176
     1
290
     0
176
     1
290
     0
176
     1
290
     0
176
     1
290
     0
176
     1
290
     0
176
     1
290
     0
176
     1
 90
       50
176
     1
 40
0.0
176
     1
 40
1.0
176
     1
 90
        0
176
     1
 62
    18
420
        0
176
     1
 90
       50
176
     1
 90
        3
176
     1
 62
     5
420
      255
176
     1
290
     0
176
     1
 90
       50
176
     1
 90
       50
176
     1
 90
       50
176
     1
290
     0
176
     1
 90
       50
176
     1
 62
   256
176
     0
 40
1.0
176
     0
 90
        2
176
     1
  1
strokes_ogs.tif
176
     1
290
     0
176
     1
 40
1.0
176
     1
 40
1.0
176
     1
1001
ACAD
1000
AcDbSavedByObjectVersion
1070
     0
  0
VISUALSTYLE
  5
69C
102
{ACAD_REACTORS
330
4F2
102
}
330
4F2
100
AcDbVisualStyle
  2
Conceptual
 70
     9
177
     3
291
     0
 70
    58
 90
        3
176
     1
 90
        2
176
     1
 90
        0
176
     1
 90
        0
176
     1
 40
0.6
176
     1
 40
30.0
176
     1
 62
     7
420
 16777215
176
     1
 90
        2
176
     1
 90
        2
176
     1
 62
     7
176
     1
 62
   257
176
     1
 90
        1
176
     1
 90
        1
176
     1
 40
179.0
176
     1
 90
        8
176
     1
 62
     7
176
     1
 40
1.0
176
     1
 90
        1
176
     1
 90
        6
176
     1
 90
        2
176
     1
 62
     7
176
     1
 90
        3
176
     1
 90
        0
176
     1
 90
        0
176
     1
290
     0
176
     1
 90
        1
176
     1
 40
0.0
176
     1
 90
        0
176
     1
290
     0
176
     1
290
     1
176
     1
290
     1
176
     1
290
     0
176
     1
290
     0
176
     1
290
     0
176
     1
290
     0
176
     1
290
     0
176
     1
290
     0
176
     1
 90
       50
176
     1
 40
0.0
176
     1
 40
1.0
176
     1
 90
        0
176
     1
 62
    18
420
        0
176
     1
 90
       50
176
     1
 90
        3
176
     1
 62
     5
420
      255
176
     1
290
     0
176
     1
 90
       50
176
     1
 90
       50
176
     1
 90
       50
176
     1
290
     0
176
     1
 90
       50
176
     1
 62
   256
176
     0
 40
1.0
176
     0
 90
        2
176
     1
  1
strokes_ogs.tif
176
     1
290
     0
176
     1
 40
1.0
176
     1
 40
1.0
176
     1
1001
ACAD
1000
AcDbSavedByObjectVersion
1070
     0
  0
VISUALSTYLE
  5
69D
102
{ACAD_REACTORS
330
4F2
102
}
330
4F2
100
AcDbVisualStyle
  2
Dim
 70
    11
177
     3
291
     1
 70
    58
 90
        2
176
     1
 90
        2
176
     1
 90
        0
176
     1
 90
        0
176
     1
 40
0.6
176
     1
 40
30.0
176
     1
 62
     7
420
 16777215
176
     1
 90
        1
176
     1
 90
        4
176
     1
 62
     7
176
     1
 62
   257
176
     1
 90
        1
176
     1
 90
        1
176
     1
 40
1.0
176
     1
 90
        8
176
     1
 62
     7
176
     1
 40
1.0
176
     1
 90
        1
176
     1
 90
        6
176
     1
 90
        2
176
     1
 62
     7
176
     1
 90
        5
176
     1
 90
        0
176
     1
 90
        0
176
     1
290
     0
176
     1
 90
        1
176
     1
 40
-50.0
176
     1
 90
        0
176
     1
290
     0
176
     1
290
     1
176
     1
290
     1
176
     1
290
     0
176
     1
290
     0
176
     1
290
     0
176
     1
290
     0
176
     1
290
     0
176
     1
290
     0
176
     1
 90
       50
176
     1
 40
0.0
176
     1
 40
1.0
176
     1
 90
        0
176
     1
 62
    18
420
        0
176
     1
 90
       50
176
     1
 90
        3
176
     1
 62
     5
420
      255
176
     1
290
     0
176
     1
 90
       50
176
     1
 90
       50
176
     1
 90
       50
176
     1
290
     0
176
     1
 90
       50
176
     1
 62
   256
176
     0
 40
1.0
176
     0
 90
        2
176
     1
  1
strokes_ogs.tif
176
     1
290
     0
176
     1
 40
1.0
176
     1
 40
1.0
176
     1
1001
ACAD
1000
AcDbSavedByObjectVersion
1070
     0
  0
VISUALSTYLE
  5
6AA
102
{ACAD_REACTORS
330
4F2
102
}
330
4F2
100
AcDbVisualStyle
  2
EdgeColorOff
 70
    22
177
     3
291
     1
 70
    58
 90
        2
176
     0
 90
        2
176
     0
 90
        0
176
     0
 90
        0
176
     0
 40
0.6
176
     0
 40
30.0
176
     0
 62
     7
420
 16777215
176
     0
 90
        1
176
     0
 90
        4
176
     0
 62
     7
176
     0
 62
   257
176
     0
 90
        1
176
     0
 90
        1
176
     0
 40
1.0
176
     0
 90
        8
176
     2
 62
     7
176
     0
 40
1.0
176
     0
 90
        1
176
     0
 90
        6
176
     0
 90
        2
176
     0
 62
     7
176
     0
 90
        5
176
     0
 90
        0
176
     0
 90
        0
176
     0
290
     0
176
     0
 90
        1
176
     0
 40
0.0
176
     0
 90
        0
176
     0
290
     0
176
     0
290
     1
176
     0
290
     1
176
     0
290
     0
176
     0
290
     0
176
     0
290
     0
176
     0
290
     0
176
     0
290
     0
176
     0
290
     0
176
     0
 90
       50
176
     0
 40
0.0
176
     0
 40
1.0
176
     0
 90
        0
176
     0
 62
    18
420
        0
176
     0
 90
       50
176
     0
 90
        3
176
     0
 62
     5
420
      255
176
     0
290
     0
176
     0
 90
       50
176
     0
 90
       50
176
     0
 90
       50
176
     0
290
     0
176
     0
 90
       50
176
     0
 62
   256
176
     0
 40
1.0
176
     0
 90
        2
176
     0
  1
strokes_ogs.tif
176
     0
290
     0
176
     0
 40
1.0
176
     0
 40
1.0
176
     0
1001
ACAD
1000
AcDbSavedByObjectVersion
1070
     0
  0
VISUALSTYLE
  5
6A1
102
{ACAD_REACTORS
330
4F2
102
}
330
4F2
100
AcDbVisualStyle
  2
Facepattern
 70
    15
177
     3
291
     1
 70
    58
 90
        2
176
     1
 90
        2
176
     1
 90
        0
176
     1
 90
        0
176
     1
 40
0.6
176
     1
 40
30.0
176
     1
 62
     7
420
 16777215
176
     1
 90
        1
176
     1
 90
        4
176
     1
 62
     7
176
     1
 62
   257
176
     1
 90
        1
176
     1
 90
        1
176
     1
 40
1.0
176
     1
 90
        8
176
     1
 62
     7
176
     1
 40
1.0
176
     1
 90
        1
176
     1
 90
        6
176
     1
 90
        2
176
     1
 62
     7
176
     1
 90
        5
176
     1
 90
        0
176
     1
 90
        0
176
     1
290
     0
176
     1
 90
        1
176
     1
 40
0.0
176
     1
 90
        0
176
     1
290
     0
176
     1
290
     1
176
     1
290
     1
176
     1
290
     0
176
     1
290
     0
176
     1
290
     0
176
     1
290
     0
176
     1
290
     0
176
     1
290
     0
176
     1
 90
       50
176
     1
 40
0.0
176
     1
 40
1.0
176
     1
 90
        0
176
     1
 62
    18
420
        0
176
     1
 90
       50
176
     1
 90
        3
176
     1
 62
     5
420
      255
176
     1
290
     0
176
     1
 90
       50
176
     1
 90
       50
176
     1
 90
       50
176
     1
290
     0
176
     1
 90
       50
176
     1
 62
   256
176
     0
 40
1.0
176
     0
 90
        2
176
     1
  1
strokes_ogs.tif
176
     1
290
     0
176
     1
 40
1.0
176
     1
 40
1.0
176
     1
1001
ACAD
1000
AcDbSavedByObjectVersion
1070
     0
  0
VISUALSTYLE
  5
696
102
{ACAD_REACTORS
330
4F2
102
}
330
4F2
100
AcDbVisualStyle
  2
Flat
 70
     0
177
     3
291
     1
 70
    58
 90
        2
176
     1
 90
        1
176
     1
 90
        1
176
     1
 90
        2
176
     1
 40
0.6
176
     1
 40
30.0
176
     1
 62
     7
420
 16777215
176
     1
 90
        0
176
     1
 90
        0
176
     1
 62
     7
176
     1
 62
   257
176
     1
 90
        1
176
     1
 90
        1
176
     1
 40
1.0
176
     1
 90
        8
176
     1
 62
     7
176
     1
 40
1.0
176
     1
 90
        1
176
     1
 90
        6
176
     1
 90
        2
176
     1
 62
     7
176
     1
 90
        5
176
     1
 90
        0
176
     1
 90
        0
176
     1
290
     0
176
     1
 90
       13
176
     1
 40
0.0
176
     1
 90
        0
176
     1
290
     0
176
     1
290
     1
176
     1
290
     1
176
     1
290
     0
176
     1
290
     0
176
     1
290
     0
176
     1
290
     0
176
     1
290
     0
176
     1
290
     0
176
     1
 90
       50
176
     1
 40
0.0
176
     1
 40
1.0
176
     1
 90
        0
176
     1
 62
    18
420
        0
176
     1
 90
       50
176
     1
 90
        3
176
     1
 62
     5
420
      255
176
     1
290
     0
176
     1
 90
       50
176
     1
 90
       50
176
     1
 90
       50
176
     1
290
     0
176
     1
 90
       50
176
     1
 62
   256
176
     0
 40
1.0
176
     0
 90
        2
176
     1
  1
strokes_ogs.tif
176
     1
290
     0
176
     1
 40
1.0
176
     1
 40
1.0
176
     1
1001
ACAD
1000
AcDbSavedByObjectVersion
1070
     0
  0
VISUALSTYLE
  5
697
102
{ACAD_REACTORS
330
4F2
102
}
330
4F2
100
AcDbVisualStyle
  2
FlatWithEdges
 70
     1
177
     3
291
     1
 70
    58
 90
        2
176
     1
 90
        1
176
     1
 90
        1
176
     1
 90
        2
176
     1
 40
0.6
176
     1
 40
30.0
176
     1
 62
     7
420
 16777215
176
     1
 90
        1
176
     1
 90
        0
176
     1
 62
     7
176
     1
 62
   257
176
     1
 90
        1
176
     1
 90
        1
176
     1
 40
1.0
176
     1
 90
        0
176
     1
 62
   257
176
     1
 40
1.0
176
     1
 90
        1
176
     1
 90
        6
176
     1
 90
        2
176
     1
 62
     7
176
     1
 90
        5
176
     1
 90
        0
176
     1
 90
        0
176
     1
290
     0
176
     1
 90
       13
176
     1
 40
0.0
176
     1
 90
        0
176
     1
290
     0
176
     1
290
     1
176
     1
290
     1
176
     1
290
     0
176
     1
290
     0
176
     1
290
     0
176
     1
290
     0
176
     1
290
     0
176
     1
290
     0
176
     1
 90
       50
176
     1
 40
0.0
176
     1
 40
1.0
176
     1
 90
        0
176
     1
 62
    18
420
        0
176
     1
 90
       50
176
     1
 90
        3
176
     1
 62
     5
420
      255
176
     1
290
     0
176
     1
 90
       50
176
     1
 90
       50
176
     1
 90
       50
176
     1
290
     0
176
     1
 90
       50
176
     1
 62
   256
176
     0
 40
1.0
176
     0
 90
        2
176
     1
  1
strokes_ogs.tif
176
     1
290
     0
176
     1
 40
1.0
176
     1
 40
1.0
176
     1
1001
ACAD
1000
AcDbSavedByObjectVersion
1070
     0
  0
VISUALSTYLE
  5
698
102
{ACAD_REACTORS
330
4F2
102
}
330
4F2
100
AcDbVisualStyle
  2
Gouraud
 70
     2
177
     3
291
     1
 70
    58
 90
        2
176
     1
 90
        2
176
     1
 90
        1
176
     1
 90
        2
176
     1
 40
0.6
176
     1
 40
30.0
176
     1
 62
     7
420
 16777215
176
     1
 90
        0
176
     1
 90
        0
176
     1
 62
     7
176
     1
 62
   257
176
     1
 90
        1
176
     1
 90
        1
176
     1
 40
1.0
176
     1
 90
        0
176
     1
 62
     7
176
     1
 40
1.0
176
     1
 90
        1
176
     1
 90
        6
176
     1
 90
        2
176
     1
 62
     7
176
     1
 90
        5
176
     1
 90
        0
176
     1
 90
        0
176
     1
290
     0
176
     1
 90
       13
176
     1
 40
0.0
176
     1
 90
        0
176
     1
290
     0
176
     1
290
     1
176
     1
290
     1
176
     1
290
     0
176
     1
290
     0
176
     1
290
     0
176
     1
290
     0
176
     1
290
     0
176
     1
290
     0
176
     1
 90
       50
176
     1
 40
0.0
176
     1
 40
1.0
176
     1
 90
        0
176
     1
 62
    18
420
        0
176
     1
 90
       50
176
     1
 90
        3
176
     1
 62
     5
420
      255
176
     1
290
     0
176
     1
 90
       50
176
     1
 90
       50
176
     1
 90
       50
176
     1
290
     0
176
     1
 90
       50
176
     1
 62
   256
176
     0
 40
1.0
176
     0
 90
        2
176
     1
  1
strokes_ogs.tif
176
     1
290
     0
176
     1
 40
1.0
176
     1
 40
1.0
176
     1
1001
ACAD
1000
AcDbSavedByObjectVersion
1070
     0
  0
VISUALSTYLE
  5
699
102
{ACAD_REACTORS
330
4F2
102
}
330
4F2
100
AcDbVisualStyle
  2
GouraudWithEdges
 70
     3
177
     3
291
     1
 70
    58
 90
        2
176
     1
 90
        2
176
     1
 90
        1
176
     1
 90
        2
176
     1
 40
0.6
176
     1
 40
30.0
176
     1
 62
     7
420
 16777215
176
     1
 90
        1
176
     1
 90
        0
176
     1
 62
     7
176
     1
 62
   257
176
     1
 90
        1
176
     1
 90
        1
176
     1
 40
1.0
176
     1
 90
        0
176
     1
 62
   257
176
     1
 40
1.0
176
     1
 90
        1
176
     1
 90
        6
176
     1
 90
        2
176
     1
 62
     7
176
     1
 90
        5
176
     1
 90
        0
176
     1
 90
        0
176
     1
290
     0
176
     1
 90
       13
176
     1
 40
0.0
176
     1
 90
        0
176
     1
290
     0
176
     1
290
     1
176
     1
290
     1
176
     1
290
     0
176
     1
290
     0
176
     1
290
     0
176
     1
290
     0
176
     1
290
     0
176
     1
290
     0
176
     1
 90
       50
176
     1
 40
0.0
176
     1
 40
1.0
176
     1
 90
        0
176
     1
 62
    18
420
        0
176
     1
 90
       50
176
     1
 90
        3
176
     1
 62
     5
420
      255
176
     1
290
     0
176
     1
 90
       50
176
     1
 90
       50
176
     1
 90
       50
176
     1
290
     0
176
     1
 90
       50
176
     1
 62
   256
176
     0
 40
1.0
176
     0
 90
        2
176
     1
  1
strokes_ogs.tif
176
     1
290
     0
176
     1
 40
1.0
176
     1
 40
1.0
176
     1
1001
ACAD
1000
AcDbSavedByObjectVersion
1070
     0
  0
VISUALSTYLE
  5
69B
102
{ACAD_REACTORS
330
4F2
102
}
330
4F2
100
AcDbVisualStyle
  2
Hidden
 70
     6
177
     3
291
     0
 70
    58
 90
        1
176
     1
 90
        2
176
     1
 90
        2
176
     1
 90
        0
176
     1
 40
0.6
176
     1
 40
30.0
176
     1
 62
     7
420
 16777215
176
     1
 90
        2
176
     1
 90
        2
176
     1
 62
     7
176
     1
 62
   257
176
     1
 90
        2
176
     1
 90
        1
176
     1
 40
40.0
176
     1
 90
        0
176
     1
 62
   257
176
     1
 40
1.0
176
     1
 90
        1
176
     1
 90
        6
176
     1
 90
        2
176
     1
 62
     7
176
     1
 90
        3
176
     1
 90
        0
176
     1
 90
        0
176
     1
290
     0
176
     1
 90
        1
176
     1
 40
0.0
176
     1
 90
        0
176
     1
290
     0
176
     1
290
     1
176
     1
290
     1
176
     1
290
     0
176
     1
290
     0
176
     1
290
     0
176
     1
290
     0
176
     1
290
     0
176
     1
290
     0
176
     1
 90
       50
176
     1
 40
0.0
176
     1
 40
1.0
176
     1
 90
        0
176
     1
 62
    18
420
        0
176
     1
 90
       50
176
     1
 90
        3
176
     1
 62
     5
420
      255
176
     1
290
     0
176
     1
 90
       50
176
     1
 90
       50
176
     1
 90
       50
176
     1
290
     0
176
     1
 90
       50
176
     1
 62
   256
176
     0
 40
1.0
176
     0
 90
        2
176
     1
  1
strokes_ogs.tif
176
     1
290
     0
176
     1
 40
1.0
176
     1
 40
1.0
176
     1
1001
ACAD
1000
AcDbSavedByObjectVersion
1070
     0
  0
VISUALSTYLE
  5
6A8
102
{ACAD_REACTORS
330
4F2
102
}
330
4F2
100
AcDbVisualStyle
  2
JitterOff
 70
    20
177
     3
291
     1
 70
    58
 90
        2
176
     0
 90
        2
176
     0
 90
        0
176
     0
 90
        0
176
     0
 40
0.6
176
     0
 40
30.0
176
     0
 62
     7
420
 16777215
176
     0
 90
        1
176
     0
 90
        4
176
     0
 62
     7
176
     0
 62
   257
176
     0
 90
        1
176
     0
 90
        1
176
     0
 40
1.0
176
     0
 90
       10
176
     2
 62
     7
176
     0
 40
1.0
176
     0
 90
        1
176
     0
 90
        6
176
     0
 90
        2
176
     0
 62
     7
176
     0
 90
        5
176
     0
 90
        0
176
     0
 90
        0
176
     0
290
     0
176
     0
 90
        1
176
     0
 40
0.0
176
     0
 90
        0
176
     0
290
     0
176
     0
290
     1
176
     0
290
     1
176
     0
290
     0
176
     0
290
     0
176
     0
290
     0
176
     0
290
     0
176
     0
290
     0
176
     0
290
     0
176
     0
 90
       50
176
     0
 40
0.0
176
     0
 40
1.0
176
     0
 90
        0
176
     0
 62
    18
420
        0
176
     0
 90
       50
176
     0
 90
        3
176
     0
 62
     5
420
      255
176
     0
290
     0
176
     0
 90
       50
176
     0
 90
       50
176
     0
 90
       50
176
     0
290
     0
176
     0
 90
       50
176
     0
 62
   256
176
     0
 40
1.0
176
     0
 90
        2
176
     0
  1
strokes_ogs.tif
176
     0
290
     0
176
     0
 40
1.0
176
     0
 40
1.0
176
     0
1001
ACAD
1000
AcDbSavedByObjectVersion
1070
     0
  0
VISUALSTYLE
  5
6A0
102
{ACAD_REACTORS
330
4F2
102
}
330
4F2
100
AcDbVisualStyle
  2
Linepattern
 70
    14
177
     3
291
     1
 70
    58
 90
        2
176
     1
 90
        2
176
     1
 90
        0
176
     1
 90
        0
176
     1
 40
0.6
176
     1
 40
30.0
176
     1
 62
     7
420
 16777215
176
     1
 90
        1
176
     1
 90
        4
176
     1
 62
     7
176
     1
 62
   257
176
     1
 90
        7
176
     1
 90
        7
176
     1
 40
1.0
176
     1
 90
        8
176
     1
 62
     7
176
     1
 40
1.0
176
     1
 90
        1
176
     1
 90
        6
176
     1
 90
        2
176
     1
 62
     7
176
     1
 90
        5
176
     1
 90
        0
176
     1
 90
        0
176
     1
290
     0
176
     1
 90
        1
176
     1
 40
0.0
176
     1
 90
        0
176
     1
290
     0
176
     1
290
     1
176
     1
290
     1
176
     1
290
     0
176
     1
290
     0
176
     1
290
     0
176
     1
290
     0
176
     1
290
     0
176
     1
290
     0
176
     1
 90
       50
176
     1
 40
0.0
176
     1
 40
1.0
176
     1
 90
        0
176
     1
 62
    18
420
        0
176
     1
 90
       50
176
     1
 90
        3
176
     1
 62
     5
420
      255
176
     1
290
     0
176
     1
 90
       50
176
     1
 90
       50
176
     1
 90
       50
176
     1
290
     0
176
     1
 90
       50
176
     1
 62
   256
176
     0
 40
1.0
176
     0
 90
        2
176
     1
  1
strokes_ogs.tif
176
     1
290
     0
176
     1
 40
1.0
176
     1
 40
1.0
176
     1
1001
ACAD
1000
AcDbSavedByObjectVersion
1070
     0
  0
VISUALSTYLE
  5
6A9
102
{ACAD_REACTORS
330
4F2
102
}
330
4F2
100
AcDbVisualStyle
  2
OverhangOff
 70
    21
177
     3
291
     1
 70
    58
 90
        2
176
     0
 90
        2
176
     0
 90
        0
176
     0
 90
        0
176
     0
 40
0.6
176
     0
 40
30.0
176
     0
 62
     7
420
 16777215
176
     0
 90
        1
176
     0
 90
        4
176
     0
 62
     7
176
     0
 62
   257
176
     0
 90
        1
176
     0
 90
        1
176
     0
 40
1.0
176
     0
 90
        9
176
     2
 62
     7
176
     0
 40
1.0
176
     0
 90
        1
176
     0
 90
        6
176
     0
 90
        2
176
     0
 62
     7
176
     0
 90
        5
176
     0
 90
        0
176
     0
 90
        0
176
     0
290
     0
176
     0
 90
        1
176
     0
 40
0.0
176
     0
 90
        0
176
     0
290
     0
176
     0
290
     1
176
     0
290
     1
176
     0
290
     0
176
     0
290
     0
176
     0
290
     0
176
     0
290
     0
176
     0
290
     0
176
     0
290
     0
176
     0
 90
       50
176
     0
 40
0.0
176
     0
 40
1.0
176
     0
 90
        0
176
     0
 62
    18
420
        0
176
     0
 90
       50
176
     0
 90
        3
176
     0
 62
     5
420
      255
176
     0
290
     0
176
     0
 90
       50
176
     0
 90
       50
176
     0
 90
       50
176
     0
290
     0
176
     0
 90
       50
176
     0
 62
   256
176
     0
 40
1.0
176
     0
 90
        2
176
     0
  1
strokes_ogs.tif
176
     0
290
     0
176
     0
 40
1.0
176
     0
 40
1.0
176
     0
1001
ACAD
1000
AcDbSavedByObjectVersion
1070
     0
  0
VISUALSTYLE
  5
524
102
{ACAD_REACTORS
330
4F2
102
}
330
4F2
100
AcDbVisualStyle
  2
Realistic
 70
     8
177
     3
291
     0
 70
    58
 90
        2
176
     1
 90
        2
176
     1
 90
        0
176
     1
 90
        0
176
     1
 40
0.6
176
     1
 40
30.0
176
     1
 62
     7
420
 16777215
176
     1
 90
        1
176
     1
 90
        0
176
     1
 62
     7
176
     1
 62
   257
176
     1
 90
        1
176
     1
 90
        1
176
     1
 40
1.0
176
     1
 90
        8
176
     1
 62
     8
420
  7895160
176
     1
 40
1.0
176
     1
 90
        1
176
     1
 90
        6
176
     1
 90
        2
176
     1
 62
     7
176
     1
 90
        5
176
     1
 90
        0
176
     1
 90
        0
176
     1
290
     0
176
     1
 90
       13
176
     1
 40
0.0
176
     1
 90
        0
176
     1
290
     0
176
     1
290
     1
176
     1
290
     1
176
     1
290
     0
176
     1
290
     0
176
     1
290
     0
176
     1
290
     0
176
     1
290
     0
176
     1
290
     0
176
     1
 90
       50
176
     1
 40
0.0
176
     1
 40
1.0
176
     1
 90
        0
176
     1
 62
    18
420
        0
176
     1
 90
       50
176
     1
 90
        3
176
     1
 62
     5
420
      255
176
     1
290
     0
176
     1
 90
       50
176
     1
 90
       50
176
     1
 90
       50
176
     1
290
     0
176
     1
 90
       50
176
     1
 62
   256
176
     0
 40
1.0
176
     0
 90
        2
176
     1
  1
strokes_ogs.tif
176
     1
290
     0
176
     1
 40
1.0
176
     1
 40
1.0
176
     1
1001
ACAD
1000
AcDbSavedByObjectVersion
1070
     0
  0
VISUALSTYLE
  5
6A7
102
{ACAD_REACTORS
330
4F2
102
}
330
4F2
100
AcDbVisualStyle
  2
Shaded
 70
    27
177
     3
291
     0
 70
    58
 90
        2
176
     1
 90
        2
176
     1
 90
        1
176
     1
 90
        2
176
     1
 40
0.6
176
     1
 40
30.0
176
     1
 62
     7
420
 16777215
176
     1
 90
        0
176
     1
 90
        4
176
     1
 62
     7
176
     1
 62
   257
176
     1
 90
        1
176
     1
 90
        1
176
     1
 40
1.0
176
     1
 90
        8
176
     1
 62
   257
176
     1
 40
1.0
176
     1
 90
        1
176
     1
 90
        6
176
     1
 90
        2
176
     1
 62
     8
420
  7895160
176
     1
 90
        3
176
     1
 90
        0
176
     1
 90
        0
176
     1
290
     0
176
     1
 90
        5
176
     1
 40
0.0
176
     1
 90
        0
176
     1
290
     0
176
     1
290
     1
176
     1
290
     1
176
     1
290
     0
176
     1
290
     0
176
     1
290
     0
176
     1
290
     0
176
     1
290
     0
176
     1
290
     0
176
     1
 90
       50
176
     1
 40
0.0
176
     1
 40
1.0
176
     1
 90
        0
176
     1
 62
    18
420
        0
176
     1
 90
       50
176
     1
 90
        3
176
     1
 62
     5
420
      255
176
     1
290
     0
176
     1
 90
       50
176
     1
 90
       50
176
     1
 90
       50
176
     1
290
     0
176
     1
 90
       50
176
     1
 62
   256
176
     0
 40
1.0
176
     0
 90
        2
176
     1
  1
strokes_ogs.tif
176
     1
290
     0
176
     1
 40
1.0
176
     1
 40
1.0
176
     1
1001
ACAD
1000
AcDbSavedByObjectVersion
1070
     0
  0
VISUALSTYLE
  5
6A6
102
{ACAD_REACTORS
330
4F2
102
}
330
4F2
100
AcDbVisualStyle
  2
Shaded with edges
 70
    26
177
     3
291
     0
 70
    58
 90
        2
176
     1
 90
        2
176
     1
 90
        1
176
     1
 90
        2
176
     1
 40
0.6
176
     1
 40
30.0
176
     1
 62
     7
420
 16777215
176
     1
 90
        1
176
     1
 90
        2
176
     1
 62
     7
176
     1
 62
   257
176
     1
 90
        2
176
     1
 90
        1
176
     1
 40
1.0
176
     1
 90
        8
176
     1
 62
   257
176
     1
 40
1.0
176
     1
 90
        1
176
     1
 90
        6
176
     1
 90
        2
176
     1
 62
     7
176
     1
 90
        3
176
     1
 90
        0
176
     1
 90
        0
176
     1
290
     0
176
     1
 90
        5
176
     1
 40
0.0
176
     1
 90
        0
176
     1
290
     0
176
     1
290
     1
176
     1
290
     1
176
     1
290
     0
176
     1
290
     0
176
     1
290
     0
176
     1
290
     0
176
     1
290
     0
176
     1
290
     0
176
     1
 90
       50
176
     1
 40
0.0
176
     1
 40
1.0
176
     1
 90
        0
176
     1
 62
    18
420
        0
176
     1
 90
       50
176
     1
 90
        3
176
     1
 62
     5
420
      255
176
     1
290
     0
176
     1
 90
       50
176
     1
 90
       50
176
     1
 90
       50
176
     1
290
     0
176
     1
 90
       50
176
     1
 62
   256
176
     0
 40
1.0
176
     0
 90
        2
176
     1
  1
strokes_ogs.tif
176
     1
290
     0
176
     1
 40
1.0
176
     1
 40
1.0
176
     1
1001
ACAD
1000
AcDbSavedByObjectVersion
1070
     0
  0
VISUALSTYLE
  5
6A3
102
{ACAD_REACTORS
330
4F2
102
}
330
4F2
100
AcDbVisualStyle
  2
Shades of Gray
 70
    23
177
     3
291
     0
 70
    58
 90
        2
176
     1
 90
        2
176
     1
 90
        3
176
     1
 90
        0
176
     1
 40
0.6
176
     1
 40
30.0
176
     1
 62
     7
420
 16777215
176
     1
 90
        2
176
     1
 90
        2
176
     1
 62
     7
176
     1
 62
     7
176
     1
 90
        1
176
     1
 90
        1
176
     1
 40
40.0
176
     1
 90
        8
176
     1
 62
     7
176
     1
 40
1.0
176
     1
 90
        1
176
     1
 90
        6
176
     1
 90
        2
176
     1
 62
     7
176
     1
 90
        3
176
     1
 90
        0
176
     1
 90
        0
176
     1
290
     0
176
     1
 90
        1
176
     1
 40
0.0
176
     1
 90
        0
176
     1
290
     0
176
     1
290
     1
176
     1
290
     1
176
     1
290
     0
176
     1
290
     0
176
     1
290
     0
176
     1
290
     0
176
     1
290
     0
176
     1
290
     0
176
     1
 90
       50
176
     1
 40
0.0
176
     1
 40
1.0
176
     1
 90
        0
176
     1
 62
    18
420
        0
176
     1
 90
       50
176
     1
 90
        3
176
     1
 62
     5
420
      255
176
     1
290
     0
176
     1
 90
       50
176
     1
 90
       50
176
     1
 90
       50
176
     1
290
     0
176
     1
 90
       50
176
     1
 62
   256
176
     0
 40
1.0
176
     0
 90
        2
176
     1
  1
strokes_ogs.tif
176
     1
290
     0
176
     1
 40
1.0
176
     1
 40
1.0
176
     1
1001
ACAD
1000
AcDbSavedByObjectVersion
1070
     0
  0
VISUALSTYLE
  5
6A4
102
{ACAD_REACTORS
330
4F2
102
}
330
4F2
100
AcDbVisualStyle
  2
Sketchy
 70
    24
177
     3
291
     0
 70
    58
 90
        1
176
     1
 90
        2
176
     1
 90
        2
176
     1
 90
        0
176
     1
 40
0.6
176
     1
 40
30.0
176
     1
 62
     7
420
 16777215
176
     1
 90
        2
176
     1
 90
        2
176
     1
 62
     7
176
     1
 62
     7
176
     1
 90
        1
176
     1
 90
        1
176
     1
 40
40.0
176
     1
 90
       11
176
     1
 62
     7
176
     1
 40
1.0
176
     1
 90
        1
176
     1
 90
        6
176
     1
 90
        2
176
     1
 62
     7
176
     1
 90
        6
176
     1
 90
        0
176
     1
 90
        0
176
     1
290
     0
176
     1
 90
        1
176
     1
 40
0.0
176
     1
 90
        0
176
     1
290
     0
176
     1
290
     1
176
     1
290
     1
176
     1
290
     0
176
     1
290
     0
176
     1
290
     0
176
     1
290
     0
176
     1
290
     0
176
     1
290
     0
176
     1
 90
       50
176
     1
 40
0.0
176
     1
 40
1.0
176
     1
 90
        0
176
     1
 62
    18
420
        0
176
     1
 90
       50
176
     1
 90
        3
176
     1
 62
     5
420
      255
176
     1
290
     0
176
     1
 90
       50
176
     1
 90
       50
176
     1
 90
       50
176
     1
290
     0
176
     1
 90
       50
176
     1
 62
   256
176
     0
 40
1.0
176
     0
 90
        2
176
     1
  1
strokes_ogs.tif
176
     1
290
     0
176
     1
 40
1.0
176
     1
 40
1.0
176
     1
1001
ACAD
1000
AcDbSavedByObjectVersion
1070
     0
  0
VISUALSTYLE
  5
69F
102
{ACAD_REACTORS
330
4F2
102
}
330
4F2
100
AcDbVisualStyle
  2
Thicken
 70
    13
177
     3
291
     1
 70
    58
 90
        2
176
     1
 90
        2
176
     1
 90
        0
176
     1
 90
        0
176
     1
 40
0.6
176
     1
 40
30.0
176
     1
 62
     7
420
 16777215
176
     1
 90
        1
176
     1
 90
        4
176
     1
 62
     7
176
     1
 62
   257
176
     1
 90
        1
176
     1
 90
        1
176
     1
 40
1.0
176
     1
 90
       12
176
     1
 62
     7
176
     1
 40
1.0
176
     1
 90
        1
176
     1
 90
        6
176
     1
 90
        2
176
     1
 62
     7
176
     1
 90
        5
176
     1
 90
        0
176
     1
 90
        0
176
     1
290
     0
176
     1
 90
        1
176
     1
 40
0.0
176
     1
 90
        0
176
     1
290
     0
176
     1
290
     1
176
     1
290
     1
176
     1
290
     0
176
     1
290
     0
176
     1
290
     0
176
     1
290
     0
176
     1
290
     0
176
     1
290
     0
176
     1
 90
       50
176
     1
 40
0.0
176
     1
 40
1.0
176
     1
 90
        0
176
     1
 62
    18
420
        0
176
     1
 90
       50
176
     1
 90
        3
176
     1
 62
     5
420
      255
176
     1
290
     0
176
     1
 90
       50
176
     1
 90
       50
176
     1
 90
       50
176
     1
290
     0
176
     1
 90
       50
176
     1
 62
   256
176
     0
 40
1.0
176
     0
 90
        2
176
     1
  1
strokes_ogs.tif
176
     1
290
     0
176
     1
 40
1.0
176
     1
 40
1.0
176
     1
1001
ACAD
1000
AcDbSavedByObjectVersion
1070
     0
  0
VISUALSTYLE
  5
525
102
{ACAD_REACTORS
330
4F2
102
}
330
4F2
100
AcDbVisualStyle
  2
Wireframe
 70
     5
177
     3
291
     0
 70
    58
 90
        0
176
     1
 90
        2
176
     1
 90
        0
176
     1
 90
        0
176
     1
 40
0.6
176
     1
 40
30.0
176
     1
 62
     7
420
 16777215
176
     1
 90
        1
176
     1
 90
        4
176
     1
 62
     7
176
     1
 62
   257
176
     1
 90
        1
176
     1
 90
        1
176
     1
 40
1.0
176
     1
 90
        0
176
     1
 62
   257
176
     1
 40
1.0
176
     1
 90
        1
176
     1
 90
        6
176
     1
 90
        2
176
     1
 62
     7
176
     1
 90
        3
176
     1
 90
        0
176
     1
 90
        0
176
     1
290
     0
176
     1
 90
        1
176
     1
 40
0.0
176
     1
 90
        0
176
     1
290
     0
176
     1
290
     1
176
     1
290
     1
176
     1
290
     0
176
     1
290
     0
176
     1
290
     0
176
     1
290
     0
176
     1
290
     0
176
     1
290
     0
176
     1
 90
       50
176
     1
 40
0.0
176
     1
 40
1.0
176
     1
 90
        0
176
     1
 62
    18
420
        0
176
     1
 90
       50
176
     1
 90
        3
176
     1
 62
     5
420
      255
176
     1
290
     0
176
     1
 90
       50
176
     1
 90
       50
176
     1
 90
       50
176
     1
290
     0
176
     1
 90
       50
176
     1
 62
   256
176
     0
 40
1.0
176
     0
 90
        2
176
     1
  1
strokes_ogs.tif
176
     1
290
     0
176
     1
 40
1.0
176
     1
 40
1.0
176
     1
1001
ACAD
1000
AcDbSavedByObjectVersion
1070
     0
  0
VISUALSTYLE
  5
6A5
102
{ACAD_REACTORS
330
4F2
102
}
330
4F2
100
AcDbVisualStyle
  2
X-Ray
 70
    25
177
     3
291
     0
 70
    58
 90
        2
176
     1
 90
        2
176
     1
 90
        1
176
     1
 90
        1
176
     1
 40
0.5
176
     1
 40
30.0
176
     1
 62
     7
420
 16777215
176
     1
 90
        1
176
     1
 90
        0
176
     1
 62
     7
176
     1
 62
   257
176
     1
 90
        1
176
     1
 90
        1
176
     1
 40
1.0
176
     1
 90
        8
176
     1
 62
     7
176
     1
 40
1.0
176
     1
 90
        1
176
     1
 90
        6
176
     1
 90
        2
176
     1
 62
     7
176
     1
 90
        3
176
     1
 90
        0
176
     1
 90
        0
176
     1
290
     0
176
     1
 90
       13
176
     1
 40
0.0
176
     1
 90
        0
176
     1
290
     0
176
     1
290
     1
176
     1
290
     1
176
     1
290
     0
176
     1
290
     0
176
     1
290
     0
176
     1
290
     0
176
     1
290
     0
176
     1
290
     0
176
     1
 90
       50
176
     1
 40
0.0
176
     1
 40
1.0
176
     1
 90
        0
176
     1
 62
    18
420
        0
176
     1
 90
       50
176
     1
 90
        3
176
     1
 62
     5
420
      255
176
     1
290
     0
176
     1
 90
       50
176
     1
 90
       50
176
     1
 90
       50
176
     1
290
     0
176
     1
 90
       50
176
     1
 62
   256
176
     0
 40
1.0
176
     0
 90
        2
176
     1
  1
strokes_ogs.tif
176
     1
290
     0
176
     1
 40
1.0
176
     1
 40
1.0
176
     1
1001
ACAD
1000
AcDbSavedByObjectVersion
1070
     0
  0
DICTIONARYVAR
  5
510
102
{ACAD_REACTORS
330
50F
102
}
330
50F
100
DictionaryVariables
280
     0
  1
1:1
  0
DICTIONARYVAR
  5
511
102
{ACAD_REACTORS
330
50F
102
}
330
50F
100
DictionaryVariables
280
     0
  1
STANDARD
  0
DICTIONARYVAR
  5
512
102
{ACAD_REACTORS
330
50F
102
}
330
50F
100
DictionaryVariables
280
     0
  1
STANDARD
  0
DICTIONARYVAR
  5
513
102
{ACAD_REACTORS
330
50F
102
}
330
50F
100
DictionaryVariables
280
     0
  1
Imperial24
  0
DICTIONARYVAR
  5
514
102
{ACAD_REACTORS
330
50F
102
}
330
50F
100
DictionaryVariables
280
     0
  1
Imperial24
  0
DICTIONARYVAR
  5
515
102
{ACAD_REACTORS
330
50F
102
}
330
50F
100
DictionaryVariables
280
     0
  1
1
  0
DICTIONARYVAR
  5
516
102
{ACAD_REACTORS
330
50F
102
}
330
50F
100
DictionaryVariables
280
     0
  1
15
  0
DICTIONARYVAR
  5
517
102
{ACAD_REACTORS
330
50F
102
}
330
50F
100
DictionaryVariables
280
     0
  1
0
  0
DICTIONARYVAR
  5
518
102
{ACAD_REACTORS
330
50F
102
}
330
50F
100
DictionaryVariables
280
     0
  1
0
  0
DICTIONARY
  5
BF8
102
{ACAD_REACTORS
330
BF6
102
}
330
BF6
100
AcDbDictionary
281
     1
  0
DICTIONARY
  5
BF7
102
{ACAD_REACTORS
330
BF6
102
}
330
BF6
100
AcDbDictionary
281
     1
  3
2971377901840
350
BF1
  3
2971377901856
350
BF2
  3
2971377901872
350
BF3
  3
2971377901888
350
BF4
  3
2971377901904
350
BF5
  0
XRECORD
  5
5C
102
{ACAD_REACTORS
330
687
102
}
330
687
100
AcDbXrecord
280
     1
310
0000AC02000400000013000000000000000000000000000000000000000000000000000000000000000000000000000000000000000000000000000000000000000000000000000000000000000000000000000000000000000000000000000000000000000000000000000000000000000000000000000000000000000000
310
00000000000000000000000000000000000000000000000000000000000000000000000000000000000000000000000000000000000000000000000000000000000000000000000000000000000000000000000000000000000000000000000000000000000000000000000000000000000000000000000000000000000000
310
00000000000000000000000000000000000000000000000000000000000000000000000000000000000000000000000000000000000000000000000000000000000000000000000000000000000000000000000000000000000000000000000000000000000000000000000000000000000000000000000000000000000000
310
00000000000000000000000000000000000000000000000000000000000000000000000000000000000000000000000000000000000000000000000000000000000000000000000000000000000000000000000000000000000000000000000000000000000000000000000000000000000000000000000000000000000000
310
00000000000000000000000000000000000000000000000000000000000000000000000000000000000000000000000000000000000000000000000000000000000000000000000000000000000000000000000000000000000000000000000000000000000000000000000000000000000000000000000000000000000000
310
00000000000000000000000000000000000000000000000000000000000000000000000000000000000000000000000000000000000000000000000000000000000000000000000000000000000000000000000000000000000000000000000000000000000000000000000000000000000000000000000000000000000000
310
00000000000000000000000000000000000000000000000000000000000000000000000000000000000000000000000000000000000000000000000000000000000000000000000000000000000000000000000000000000000000000000000000000000000000000000000000000000000000000000000000000000000000
310
00000000000000000000000000000000000000000000000000000000000000000000000000000000000000000000000000000000000000000000000000000000000000000000000000000000000000000000000000000000000000000000000000000000000000000000000000000000000000000000000000000000000000
310
00000000000000000000000000000000000000000000000000000000000000000000000000000000000000000000000000000000000000000000000000000000000000000000000000000000000000000000000000000000000000000000000000000000000000000000000000000000000000000000000000000000000000
310
00000000000000000000000000000000000000000000000000000000000000000000000000000000000000000000000000000000000000000000000000000000000000000000000000000000000000000000000000000000000000000000000000000000000000000000000000000000000000000000000000000000000000
310
000000000000000000000000000000000000000000000000000000000000000000000000000000000000000000000000000000000000000000000000000000000000000000000000000000000000000000000000000000000000000000000000000000000000
  0
DICTIONARY
  5
BFB
330
6AE
100
AcDbDictionary
280
     1
281
     1
  3
ACAD_XREC_ROUNDTRIP
360
BFC
  0
DICTIONARY
  5
4DF
330
4DE
100
AcDbDictionary
280
     1
281
     1
  0
DICTIONARY
  5
4DA
330
4D8
100
AcDbDictionary
280
     1
281
     1
  0
DICTIONARY
  5
504
330
503
100
AcDbDictionary
280
     1
281
     1
  3
BUMPTILE
360
505
  3
DIFFUSETILE
360
506
  3
OPACITYTILE
360
507
  3
REFLECTIONTILE
360
508
  3
REFRACTIONTILE
360
509
  3
SPECULARTILE
360
50A
  0
DICTIONARY
  5
4FC
330
4FB
100
AcDbDictionary
280
     1
281
     1
  3
BUMPTILE
360
4FD
  3
DIFFUSETILE
360
4FE
  3
OPACITYTILE
360
4FF
  3
REFLECTIONTILE
360
500
  3
REFRACTIONTILE
360
501
  3
SPECULARTILE
360
502
  0
DICTIONARY
  5
4B9
330
4B7
100
AcDbDictionary
280
     1
281
     1
  3
BUMPTILE
360
4BA
  3
DIFFUSETILE
360
4BB
  3
OPACITYTILE
360
4BC
  3
REFLECTIONTILE
360
4BD
  3
REFRACTIONTILE
360
4BE
  3
SPECULARTILE
360
4BF
  0
DICTIONARY
  5
BF9
330
6AC
100
AcDbDictionary
280
     1
281
     1
  3
ACAD_XREC_ROUNDTRIP
360
BFA
  0
DICTIONARY
  5
523
330
522
100
AcDbDictionary
280
     1
281
     1
  3
ACAD_ROUNDTRIP_2008_TABLESTYLE_CELLSTYLEMAP
360
BEF
  0
XRECORD
  5
BF1
102
{ACAD_REACTORS
330
BF7
102
}
330
BF7
100
AcDbXrecord
280
     1
  1
AcDb_Thumbnail_Schema
102
{ATTRRECORD
341
BF2
  2
AcDbDs::TreatedAsObjectData
280
     1
291
     1
102
ATTRRECORD}
102
{ATTRRECORD
341
BF3
  2
AcDbDs::Legacy
280
     1
291
     1
102
ATTRRECORD}
  2
AcDbDs::ID
280
    10
 91
        8
102
{ATTRRECORD
341
BF4
  2
AcDs:Indexable
280
     1
291
     1
102
ATTRRECORD}
102
{ATTRRECORD
341
BF5
  2
AcDbDs::HandleAttribute
280
     7
282
     1
102
ATTRRECORD}
  2
Thumbnail_Data
280
    15
 91
        0
  0
XRECORD
  5
BF2
102
{ACAD_REACTORS
330
BF7
102
}
330
BF7
100
AcDbXrecord
280
     1
  1
AcDbDs::TreatedAsObjectDataSchema
  2
AcDbDs::TreatedAsObjectData
280
     1
 91
        0
  0
XRECORD
  5
BF3
102
{ACAD_REACTORS
330
BF7
102
}
330
BF7
100
AcDbXrecord
280
     1
  1
AcDbDs::LegacySchema
  2
AcDbDs::Legacy
280
     1
 91
        0
  0
XRECORD
  5
BF4
102
{ACAD_REACTORS
330
BF7
102
}
330
BF7
100
AcDbXrecord
280
     1
  1
AcDbDs::IndexedPropertySchema
  2
AcDs:Indexable
280
     1
 91
        0
  0
XRECORD
  5
BF5
102
{ACAD_REACTORS
330
BF7
102
}
330
BF7
100
AcDbXrecord
280
     1
  1
AcDbDs::HandleAttributeSchema
  2
AcDbDs::HandleAttribute
280
     7
 91
        1
284
     1
  0
XRECORD
  5
BFC
102
{ACAD_REACTORS
330
BFB
102
}
330
BFB
100
AcDbXrecord
280
     1
102
DISPLAYNAME
  1
Imperial24
102
FLAGS
 90
        0
  0
XRECORD
  5
505
102
{ACAD_REACTORS
330
504
102
}
330
504
100
AcDbXrecord
280
     1
270
     1
271
     1
  0
XRECORD
  5
506
102
{ACAD_REACTORS
330
504
102
}
330
504
100
AcDbXrecord
280
     1
270
     1
271
     1
  0
XRECORD
  5
507
102
{ACAD_REACTORS
330
504
102
}
330
504
100
AcDbXrecord
280
     1
270
     1
271
     1
  0
XRECORD
  5
508
102
{ACAD_REACTORS
330
504
102
}
330
504
100
AcDbXrecord
280
     1
270
     1
271
     1
  0
XRECORD
  5
509
102
{ACAD_REACTORS
330
504
102
}
330
504
100
AcDbXrecord
280
     1
270
     1
271
     1
  0
XRECORD
  5
50A
102
{ACAD_REACTORS
330
504
102
}
330
504
100
AcDbXrecord
280
     1
270
     1
271
     1
  0
XRECORD
  5
4FD
102
{ACAD_REACTORS
330
4FC
102
}
330
4FC
100
AcDbXrecord
280
     1
270
     1
271
     1
  0
XRECORD
  5
4FE
102
{ACAD_REACTORS
330
4FC
102
}
330
4FC
100
AcDbXrecord
280
     1
270
     1
271
     1
  0
XRECORD
  5
4FF
102
{ACAD_REACTORS
330
4FC
102
}
330
4FC
100
AcDbXrecord
280
     1
270
     1
271
     1
  0
XRECORD
  5
500
102
{ACAD_REACTORS
330
4FC
102
}
330
4FC
100
AcDbXrecord
280
     1
270
     1
271
     1
  0
XRECORD
  5
501
102
{ACAD_REACTORS
330
4FC
102
}
330
4FC
100
AcDbXrecord
280
     1
270
     1
271
     1
  0
XRECORD
  5
502
102
{ACAD_REACTORS
330
4FC
102
}
330
4FC
100
AcDbXrecord
280
     1
270
     1
271
     1
  0
XRECORD
  5
4BA
102
{ACAD_REACTORS
330
4B9
102
}
330
4B9
100
AcDbXrecord
280
     1
270
     1
271
     1
  0
XRECORD
  5
4BB
102
{ACAD_REACTORS
330
4B9
102
}
330
4B9
100
AcDbXrecord
280
     1
270
     1
271
     1
  0
XRECORD
  5
4BC
102
{ACAD_REACTORS
330
4B9
102
}
330
4B9
100
AcDbXrecord
280
     1
270
     1
271
     1
  0
XRECORD
  5
4BD
102
{ACAD_REACTORS
330
4B9
102
}
330
4B9
100
AcDbXrecord
280
     1
270
     1
271
     1
  0
XRECORD
  5
4BE
102
{ACAD_REACTORS
330
4B9
102
}
330
4B9
100
AcDbXrecord
280
     1
270
     1
271
     1
  0
XRECORD
  5
4BF
102
{ACAD_REACTORS
330
4B9
102
}
330
4B9
100
AcDbXrecord
280
     1
270
     1
271
     1
  0
XRECORD
  5
BFA
102
{ACAD_REACTORS
330
BF9
102
}
330
BF9
100
AcDbXrecord
280
     1
102
DISPLAYNAME
  1
Imperial24
102
FLAGS
 90
        0
  0
CELLSTYLEMAP
  5
BEF
102
{ACAD_REACTORS
330
523
102
}
330
523
100
AcDbCellStyleMap
 90
        3
300
CELLSTYLE
  1
TABLEFORMAT_BEGIN
 90
        5
170
     1
 91
        0
 92
    32768
 62
   257
 93
        1
300
CONTENTFORMAT
  1
CONTENTFORMAT_BEGIN
 90
        0
 91
        0
 92
        4
 93
        0
300

 40
0.0
140
1.0
 94
        5
 62
     0
340
4E7
144
0.25
309
CONTENTFORMAT_END
171
     0
 94
        6
 95
        1
302
GRIDFORMAT
  1
GRIDFORMAT_BEGIN
 90
        0
 91
        1
 62
     0
 92
       -2
340
0
 93
        0
 40
0.045
309
GRIDFORMAT_END
 95
        2
302
GRIDFORMAT
  1
GRIDFORMAT_BEGIN
 90
        0
 91
        1
 62
     0
 92
       -2
340
0
 93
        0
 40
0.045
309
GRIDFORMAT_END
 95
        4
302
GRIDFORMAT
  1
GRIDFORMAT_BEGIN
 90
        0
 91
        1
 62
     0
 92
       -2
340
0
 93
        0
 40
0.045
309
GRIDFORMAT_END
 95
        8
302
GRIDFORMAT
  1
GRIDFORMAT_BEGIN
 90
        0
 91
        1
 62
     0
 92
       -2
340
0
 93
        0
 40
0.045
309
GRIDFORMAT_END
 95
       16
302
GRIDFORMAT
  1
GRIDFORMAT_BEGIN
 90
        0
 91
        1
 62
     0
 92
       -2
340
0
 93
        0
 40
0.045
309
GRIDFORMAT_END
 95
       32
302
GRIDFORMAT
  1
GRIDFORMAT_BEGIN
 90
        0
 91
        1
 62
     0
 92
       -2
340
0
 93
        0
 40
0.045
309
GRIDFORMAT_END
309
TABLEFORMAT_END
  1
CELLSTYLE_BEGIN
 90
        1
 91
        1
300
_TITLE
309
CELLSTYLE_END
300
CELLSTYLE
  1
TABLEFORMAT_BEGIN
 90
        5
170
     1
 91
        0
 92
        0
 62
   257
 93
        1
300
CONTENTFORMAT
  1
CONTENTFORMAT_BEGIN
 90
        0
 91
        0
 92
        4
 93
        0
300

 40
0.0
140
1.0
 94
        5
 62
     0
340
4E7
144
0.18
309
CONTENTFORMAT_END
171
     0
 94
        6
 95
        1
302
GRIDFORMAT
  1
GRIDFORMAT_BEGIN
 90
        0
 91
        1
 62
     0
 92
       -2
340
0
 93
        0
 40
0.045
309
GRIDFORMAT_END
 95
        2
302
GRIDFORMAT
  1
GRIDFORMAT_BEGIN
 90
        0
 91
        1
 62
     0
 92
       -2
340
0
 93
        0
 40
0.045
309
GRIDFORMAT_END
 95
        4
302
GRIDFORMAT
  1
GRIDFORMAT_BEGIN
 90
        0
 91
        1
 62
     0
 92
       -2
340
0
 93
        0
 40
0.045
309
GRIDFORMAT_END
 95
        8
302
GRIDFORMAT
  1
GRIDFORMAT_BEGIN
 90
        0
 91
        1
 62
     0
 92
       -2
340
0
 93
        0
 40
0.045
309
GRIDFORMAT_END
 95
       16
302
GRIDFORMAT
  1
GRIDFORMAT_BEGIN
 90
        0
 91
        1
 62
     0
 92
       -2
340
0
 93
        0
 40
0.045
309
GRIDFORMAT_END
 95
       32
302
GRIDFORMAT
  1
GRIDFORMAT_BEGIN
 90
        0
 91
        1
 62
     0
 92
       -2
340
0
 93
        0
 40
0.045
309
GRIDFORMAT_END
309
TABLEFORMAT_END
  1
CELLSTYLE_BEGIN
 90
        2
 91
        1
300
_HEADER
309
CELLSTYLE_END
300
CELLSTYLE
  1
TABLEFORMAT_BEGIN
 90
        5
170
     1
 91
        0
 92
        0
 62
   257
 93
        1
300
CONTENTFORMAT
  1
CONTENTFORMAT_BEGIN
 90
        0
 91
        0
 92
        4
 93
        0
300

 40
0.0
140
1.0
 94
        2
 62
     0
340
4E7
144
0.18
309
CONTENTFORMAT_END
171
     0
 94
        6
 95
        1
302
GRIDFORMAT
  1
GRIDFORMAT_BEGIN
 90
        0
 91
        1
 62
     0
 92
       -2
340
0
 93
        0
 40
0.045
309
GRIDFORMAT_END
 95
        2
302
GRIDFORMAT
  1
GRIDFORMAT_BEGIN
 90
        0
 91
        1
 62
     0
 92
       -2
340
0
 93
        0
 40
0.045
309
GRIDFORMAT_END
 95
        4
302
GRIDFORMAT
  1
GRIDFORMAT_BEGIN
 90
        0
 91
        1
 62
     0
 92
       -2
340
0
 93
        0
 40
0.045
309
GRIDFORMAT_END
 95
        8
302
GRIDFORMAT
  1
GRIDFORMAT_BEGIN
 90
        0
 91
        1
 62
     0
 92
       -2
340
0
 93
        0
 40
0.045
309
GRIDFORMAT_END
 95
       16
302
GRIDFORMAT
  1
GRIDFORMAT_BEGIN
 90
        0
 91
        1
 62
     0
 92
       -2
340
0
 93
        0
 40
0.045
309
GRIDFORMAT_END
 95
       32
302
GRIDFORMAT
  1
GRIDFORMAT_BEGIN
 90
        0
 91
        1
 62
     0
 92
       -2
340
0
 93
        0
 40
0.045
309
GRIDFORMAT_END
309
TABLEFORMAT_END
  1
CELLSTYLE_BEGIN
 90
        3
 91
        2
300
_DATA
309
CELLSTYLE_END
  0
ENDSEC
  0
SECTION
  2
ACDSDATA
 70
     2
 71
     8
  0
ACDSSCHEMA
 90
        0
  1
AcDb_Thumbnail_Schema
  2
AcDbDs::ID
280
    10
 91
        8
  2
Thumbnail_Data
280
    15
 91
        0
101
ACDSRECORD
 95
        0
 90
        1
  2
AcDbDs::TreatedAsObjectData
280
     1
291
     1
101
ACDSRECORD
 95
        0
 90
        2
  2
AcDbDs::Legacy
280
     1
291
     1
101
ACDSRECORD
  1
AcDbDs::ID
 90
        3
  2
AcDs:Indexable
280
     1
291
     1
101
ACDSRECORD
  1
AcDbDs::ID
 90
        4
  2
AcDbDs::HandleAttribute
280
     7
282
     1
  0
ACDSSCHEMA
 90
        1
  1
AcDbDs::TreatedAsObjectDataSchema
  2
AcDbDs::TreatedAsObjectData
280
     1
 91
        0
  0
ACDSSCHEMA
 90
        2
  1
AcDbDs::LegacySchema
  2
AcDbDs::Legacy
280
     1
 91
        0
  0
ACDSSCHEMA
 90
        3
  1
AcDbDs::IndexedPropertySchema
  2
AcDs:Indexable
280
     1
 91
        0
  0
ACDSSCHEMA
 90
        4
  1
AcDbDs::HandleAttributeSchema
  2
AcDbDs::HandleAttribute
280
     7
 91
        1
284
     1
  0
ACDSRECORD
 90
        0
  2
AcDbDs::ID
280
    10
320
4DE
  2
Thumbnail_Data
280
    15
 94
     1183
310
89504E470D0A1A0A0000000D4948445200000100000000C508030000008CFEDCE700000300504C5445FFFFFF000000FFFFFF0000000000000000000000000000000000000000000000000000330000660000990000CC0000FF0033000033330033660033990033CC0033FF0066000066330066660066990066CC0066FF0099
310
000099330099660099990099CC0099FF00CC0000CC3300CC6600CC9900CCCC00CCFF00FF0000FF3300FF6600FF9900FFCC00FFFF3300003300333300663300993300CC3300FF3333003333333333663333993333CC3333FF3366003366333366663366993366CC3366FF3399003399333399663399993399CC3399FF33CC00
310
33CC3333CC6633CC9933CCCC33CCFF33FF0033FF3333FF6633FF9933FFCC33FFFF6600006600336600666600996600CC6600FF6633006633336633666633996633CC6633FF6666006666336666666666996666CC6666FF6699006699336699666699996699CC6699FF66CC0066CC3366CC6666CC9966CCCC66CCFF66FF0066
310
FF3366FF6666FF9966FFCC66FFFF9900009900339900669900999900CC9900FF9933009933339933669933999933CC9933FF9966009966339966669966999966CC9966FF9999009999339999669999999999CC9999FF99CC0099CC3399CC6699CC9999CCCC99CCFF99FF0099FF3399FF6699FF9999FFCC99FFFFCC0000CC00
310
33CC0066CC0099CC00CCCC00FFCC3300CC3333CC3366CC3399CC33CCCC33FFCC6600CC6633CC6666CC6699CC66CCCC66FFCC9900CC9933CC9966CC9999CC99CCCC99FFCCCC00CCCC33CCCC66CCCC99CCCCCCCCCCFFCCFF00CCFF33CCFF66CCFF99CCFFCCCCFFFFFF0000FF0033FF0066FF0099FF00CCFF00FFFF3300FF3333
310
FF3366FF3399FF33CCFF33FFFF6600FF6633FF6666FF6699FF66CCFF66FFFF9900FF9933FF9966FF9999FF99CCFF99FFFFCC00FFCC33FFCC66FFCC99FFCCCCFFCCFFFFFF00FFFF33FFFF66FFFF99FFFFCCFFFFFF0000000D0D0D1A1A1A2828283535354343435050505D5D5D6B6B6B787878868686939393A1A1A1AEAEAEBB
310
BBBBC9C9C9D6D6D6E4E4E4F1F1F1FFFFFF000000000000000000000000000000000000000000000000000000000000790CAC0F0000015A4944415478DAEDD8410A8340100440FFFFCCF9C09EE61E104224896014844D579F64F420A587DE592A3A632CD5C101100F500500C0F36ACDF6D636BFCEEBAEF9E9177D0788FBF600
310
000000000000004D1000000000000000100F50FB4F4C9E8B5578FAFF0300000000000000000000000000000000B00BD069000D0000000000000000A009020000000000000000000000000000000052013A0DA001000000000000000000A8C2000000000000000000000000000000402A40FC420400000000000000002016C0
310
5900000000000000000000000000000000C803885F88000000000000000000C402380B0000000000000000000000000000000000E2003A0DA0010000000000000000344100000000000000000000000000000000C0E7C660F21C04080D0000000000000000C01F54DE73151900000000000000D0AFCDCFB6227CDDAB1C9CD7
310
5DF3D32FAA0902000000C00A109E658C110DF0000E6CC6FBCCF8EC2E0000000049454E44AE426082
  0
ACDSRECORD
 90
        0
  2
AcDbDs::ID
280
    10
320
4D8
  2
Thumbnail_Data
280
    15
 94
     1017
310
89504E470D0A1A0A0000000D4948445200000100000000890803000000F46416F000000300504C5445FEFCF0000000FFFFFF0000000000000000000000000000000000000000000000000000330000660000990000CC0000FF0033000033330033660033990033CC0033FF0066000066330066660066990066CC0066FF0099
310
000099330099660099990099CC0099FF00CC0000CC3300CC6600CC9900CCCC00CCFF00FF0000FF3300FF6600FF9900FFCC00FFFF3300003300333300663300993300CC3300FF3333003333333333663333993333CC3333FF3366003366333366663366993366CC3366FF3399003399333399663399993399CC3399FF33CC00
310
33CC3333CC6633CC9933CCCC33CCFF33FF0033FF3333FF6633FF9933FFCC33FFFF6600006600336600666600996600CC6600FF6633006633336633666633996633CC6633FF6666006666336666666666996666CC6666FF6699006699336699666699996699CC6699FF66CC0066CC3366CC6666CC9966CCCC66CCFF66FF0066
310
FF3366FF6666FF9966FFCC66FFFF9900009900339900669900999900CC9900FF9933009933339933669933999933CC9933FF9966009966339966669966999966CC9966FF9999009999339999669999999999CC9999FF99CC0099CC3399CC6699CC9999CCCC99CCFF99FF0099FF3399FF6699FF9999FFCC99FFFFCC0000CC00
310
33CC0066CC0099CC00CCCC00FFCC3300CC3333CC3366CC3399CC33CCCC33FFCC6600CC6633CC6666CC6699CC66CCCC66FFCC9900CC9933CC9966CC9999CC99CCCC99FFCCCC00CCCC33CCCC66CCCC99CCCCCCCCCCFFCCFF00CCFF33CCFF66CCFF99CCFFCCCCFFFFFF0000FF0033FF0066FF0099FF00CCFF00FFFF3300FF3333
310
FF3366FF3399FF33CCFF33FFFF6600FF6633FF6666FF6699FF66CCFF66FFFF9900FF9933FF9966FF9999FF99CCFF99FFFFCC00FFCC33FFCC66FFCC99FFCCCCFFCCFFFFFF00FFFF33FFFF66FFFF99FFFFCCFFFFFF0000000D0D0D1A1A1A2828283535354343435050505D5D5D6B6B6B787878868686939393A1A1A1AEAEAEBB
310
BBBBC9C9C9D6D6D6E4E4E4F1F1F1FFFFFF0000000000000000000000000000000000000000000000000000000000007C77BAA7000000B44944415478DAEDD0310100000C0220FBB7B48931760C22903E1701020408102040800001020408102040800001020408102040800001020408102040800001020408102040800001
310
020408102040800001020408102040800001020408102040800001020408102040800001020408102040800001020408102040800001020408102040800001020408102040800001020408102040800001020408102040800001020408102040800001020408102040C099016B33700943E05F3C0000000049454E44AE4260
310
82
  0
ENDSEC
  0
SECTION
  2
THUMBNAILIMAGE
 90
    14496
310
28000000B80000004900000001000800000000007834000001000000010000000001000000000000FFFFFF008888886E40404000F8F8F800A8A8A8FFFFFFFF2EFFFFFF00FFFFFF00FFFFFF38FFFFFF6DFFFFFF61FFFFFF4DFFFFFF6CFFFFFF4DFFFFFF6BFFFFFF46FFFFFF65FFFFFF6DFFFFFF75FFFFFF61FFFFFF00FFFFFF
310
00FFFFFF00FFFFFF00FFFFFF00FFFFFF00FFFFFF00FFFFFF00FFFFFF00FFFFFF00FFFFFF00FFFFFF00FFFFFF00FFFFFF00FFFFFF00FFFFFF00FFFFFF00FFFFFF00FFFFFF00FFFFFF00FFFFFF00FFFFFF00FFFFFF00FFFFFF00FFFFFF00FFFFFF00FFFFFF00FFFFFF00FFFFFF00FFFFFF00FFFFFF00FFFFFF00FFFFFF00FFFF
310
FF00FFFFFF00FFFFFF00FFFFFF00FFFFFF00FFFFFF00FFFFFF00FFFFFF00FFFFFF00FFFFFF00FFFFFF00FFFFFF00FFFFFF00FFFFFF00FFFFFF00FFFFFF00FFFFFF00FFFFFF00FFFFFF00FFFFFF00FFFFFF00FFFFFF00FFFFFF00FFFFFF00FFFFFF00FFFFFF00FFFFFF00FFFFFF00FFFFFF00FFFFFF00FFFFFF00FFFFFF00FF
310
FFFF00FFFFFF00FFFFFF00FFFFFF00FFFFFF00FFFFFF00FFFFFF00FFFFFF00FFFFFF00FFFFFF00FFFFFF00FFFFFF00FFFFFF00FFFFFF00FFFFFF00FFFFFF00FFFFFF00FFFFFF00FFFFFF00FFFFFF00FFFFFF00FFFFFF00FFFFFF00FFFFFF00FFFFFF00FFFFFF00FFFFFF00FFFFFF00FFFFFF00FFFFFF00FFFFFF00FFFFFF00
310
FFFFFF28FFFFFF11FFFFFFC0FFFFFFD0FFFFFF00FFFFFF00FFFFFF00FFFFFF00FFFFFF00FFFFFF00FFFFFF00FFFFFF00FFFFFF00FFFFFF00FFFFFF00FFFFFF00FFFFFF00FFFFFF00FFFFFF00FFFFFF00FFFFFF00FFFFFF00FFFFFF00FFFFFF00FFFFFF00FFFFFF00FFFFFF00FFFFFF00FFFFFF00FFFFFF00FFFFFF00FFFFFF
310
00FFFFFF00FFFFFF00FFFFFF00FFFFFF00FFFFFF00FFFFFF00FFFFFF00FFFFFF00FFFFFF00FFFFFF00FFFFFF00FFFFFF00FFFFFF00FFFFFF00FFFFFF00FFFFFF00FFFFFF00FFFFFF00FFFFFF00FFFFFF00FFFFFF00FFFFFF00FFFFFF00FFFFFF00FFFFFF00FFFFFF00FFFFFF00FFFFFF00FFFFFF00FFFFFF00FFFFFF00FFFF
310
FF00FFFFFF00FFFFFF00FFFFFF00FFFFFF00FFFFFF00FFFFFF00FFFFFF00FFFFFF00FFFFFF00FFFFFF00FFFFFF00FFFFFF00FFFFFF00FFFFFF00FFFFFF00FFFFFF00FFFFFF00FFFFFF00FFFFFF00FFFFFF00FFFFFF00FFFFFF00FFFFFF00FFFFFF00FFFFFF00FFFFFF00FFFFFF00FFFFFF00FFFFFF00FFFFFF00FFFFFF00FF
310
FFFF00FFFFFF00FFFFFF00FFFFFF77FFFFFF43FFFFFF63FFFFFF6DFFFFFF00FFFFFF00FFFFFF00FFFFFF00FFFFFF00FFFFFF00FFFFFF00FFFFFF00FFFFFF00FFFFFF00FFFFFF00FFFFFF00FFFFFF00FFFFFF00FFFFFF00FFFFFF00FFFFFF00FFFFFF00FFFFFF00FFFFFF00FFFFFF00FFFFFF00FFFFFF00FFFFFF00FFFFFF00
310
FFFFFF00FFFFFF00FFFFFF00FFFFFF00FFFFFF00FFFFFF00FFFFFF00FFFFFF00FFFFFF00FFFFFF00FFFFFF00FFFFFF0000000000000000000000000000000000000000000000000000000000000000000000000000000000000000000000000000000000000000000000000000000000000000000000000000000000000000
310
00000000000000000000000000000000000000000000000000000000000000000000000000000000000000000000000000000000000000000000000000000000000000000000000000000000000000000000000000000000000000000000000000000000000000000000000000000000000000000000000000000000000000
310
00000000000000000000000000000000000000000000000000000000000000000000000000000103030303030303030303030303030303030303030303030303030303030303030303030303030303030303030303030303030303030303030003010000000000000000000000000000000000000000000000000000000000
310
00000000000000000000000000000000000000000000000000000000000000000000000000000000000000000000000000000000000000000000000000000000000000000000000000000000000000000000000000000000000002030303000301000000000000000000000000000000000000000000000000000000000000
310
00000000000000000000000000000000000000000000000000000103030303000200000000000000000000000000000000000000000000000000000000000000000000000000000000000000000000000000000000000000000000000000000000000000000000000000000000000000000000000000000000000000000000
310
00000000000000000000000000000000000001030303000000000000000000000000000000000000000000000000000000000000000000000000000000000000000000000000000000000000000000000000000000000000030303010000000000000000000000000000000000000000000000000000000000000000000000
310
00000000000000000000000000000000000000000000000000000000000000000000000000000000000000000000000000000000000000000000000000000000000000000000000000030303010200000000000000000000000000000000000000000000000000000000000000000000000000000000000000000000000000
310
00000000000000000000000000000000000000020103030000000000000000000000000000000000000000000000000000000000000000000000000000000000000000000000000000000000000000000000000000000000000000000000000000000000000000000000000000000000000000000000000000000000000000
310
01030303000000000000000000000000000000000000000000000000000000000000000000000000000000000000000000000000000000000000000000000000000000000000000000000000000000000303010000000000000000000000000000000000000000000000000000000000000000000000000000000000000000
310
00000000000000000000000000000000000000000000000000000000000000000000000000000000000000000000000000000000000000000103010000000000000000000000000000000000000000000000000000000000000000000000000000000000000000000000000000000000000000000000000000000000000000
310
00000000000000000000000103030100000000000000000000000000000000000000000000000000000000000000000000000000000000000000000000000000000000000000000000000000000000000000000000000000000000000000000000000000000000000000000000000001030301000000000000000000000000
310
00000000000000000000000000000000000000000000000000000000000000000000000000000000000000000000000000000000000000000000000000000000000000000000010301000000000000000000000000000000000000000000000000000000000000000000000000000000000000000000000000000000000000
310
00000000000000000000000000000000000000000000000000000000000000000000000000000000000301000000000000000000000000000000000000000000000000000000000000000000000000000000000000000000000000000000000000000000000000000000000000000000000000000000000000000000000000
310
00010303000000000000000000000000000000000000000000000000000000000000000000000000000000000000000000000000000000000000000000000000000000000000000000000000000000000000000000000000000000000000000003030000000000000000000000000000000000000000000000000000000000
310
00000000000000000000000000000000000000000000000000000000000000000000000000000000000000000000000000000000000000000000000000030100000000000000000000000000000000000000000000000000000000000000000000000000000000000000000000000000000000000000000000000000000000
310
00000000000000000000000000000000000000000000000000000300000000000000000000000000000000000000000000000000000000000000000000000000000000000000000000000000000000000000000000000000000000000000000000000000000000000000000000000000000000000000010300000000000000
310
00000000000000000000000000000000000000000000000000000000000000000000000000000000000000000000000000000000000000000000000000000000000000000000000000000000000000000003030000000000000000000000000000000000000000000000000000000000000000000000000000000000000000
310
00000000000000000000000000000000000000000000000000000000000000000000000000000000000000000000000000000300000000000000000000000000000000000000000000000000000000000000000000000000000000000000000000000000000000000000000000000000000000000000000000000000000000
310
00000000000000000000010300000000000000000000000000000000000000000000000000000000000000000000000000000000000000000000000000000000000000000000000000000000000000000000000000000000000000000000000000000000000000000000000003010000000000000000000000000000000000
310
00000000000000000000000000000000000000000000000000000000000000000000000000000000000000000000000000000000000000000000000000000000000000030100000000000000000000000000000000000000000000000000000000000000000000000000000000000000000000000000000000000000000000
310
00000000000000000000000000000000000000000000000000000000000000000000000000000103000000000000000000000000000000000000000000000000000000000000000000000000000000000000000000000000000000000000000000000000000000000000000000000000000000000000000000000003000000
310
00000000000000000000000000000000000000000000000000000000000000000000000000000000000000000000000000000000000000000000000000000000000000000000000000000000000000000000000000000000000000000000000000030000000000000000000000000000000000000000000000000000000000
310
00000000000000000000000000000000000000000000000000000000000000000000000000000000000000000000000000000000010300000000000000000000000000000000000000000000000000000000000000000000000000000000000000000000000000000000000000000000000000000000000000000000000000
310
00000000000000000000000000000000000000000000000000000003010000000000000000000000000000000000000000000000000000000000000000000000000000000000000000000000000000000000000000000000000000000000000000000000000000000000000001030100000000000000000000000000000000
310
00000000000000000000000000000000000000000000000000000000000000000000000000000000000000000000000000000000000000000000000000000000000000000000000000000000000000000000000001030100000000000000000000000000000000000000000000000000000000000000000000000000000000
310
00000000000000000000000000000000000000000000000000000000000000000000000000000301000000000000000000000000000000000000000000000000000000000000000000000000000000000000000000000000000000000000000000000000000000000000000000000000000000000000000000000000000000
310
00000000000000000000000000000001030000000000000000000000000000000000000000000000000000000000000000000000000000000000000000000000000000000000000000000000000000000000000000000000000000000000010300000000000000000000000000000000000000000000000000000000000000
310
00000000000000000000000000000000000000000000000000000000000000000000000000000000000000000000000000000000000000000000000000000000000000000000000000030100000000000000000000000000000000000000000000000000000000000000000000000000000000000000000000000000000000
310
00000000000000000000000000000000000000000000000103010000000000000000000000000000000000000000000000000000000000000000000000000000000000000000000000000000000000000000000000000000000000000000000000000000000000000000000000000000000000000000000000000000000000
310
00000001030000000000000000000000000000000000000000000000000000000000000000000000000000000000000000000000000000000000000000000000000000000000000000000000000000000301000000000000000000000000000000000000000000000000000000000000000000000000000000000000000000
310
00000000000000000000000000000000000000000000000000000000000000000000000000000000000000000000000000000000000000000000000000030000000000000000000000000000000000000000000000000000000000000000000000000000000000000000000000000000000000000000000000000000000000
310
00000000000000000001030000000000000000000000000000000000000000000000000000000000000000000000000000000000000000000000000000000000000000000000000000000000000000000000000000000000000000000000000000000000000000000000000000000000000000000000000300000000000000
310
00000000000000000000000000000000000000000000000000000000000000000000000000000000000000000000000000000000000000000000000000000000000003010000000000000000000000000000000000000000000000000000000000000000000000000000000000000000000000000000000000000000000000
310
00000000000000000000000000000000000000000000000000000000000000000000000000000000000000000000000000030100000000000000000000000000000000000000000000000000000000000000000000000000000000000000000000000000000000000000000000000000000000000000000000000003000000
310
00000000000000000000000000000000000000000000000000000000000000000000000000000000000000000000000000000000000000000000000000000000000000000000000000000000000000000000000000000000000000000000000000000000000000000000010300000000000000000000000000000000000000
310
00000000000000000000000000000000000000000000000000000000000000000000000000000000000000000000000000000000040302000000000000000000000000000000000000000000000000000000000000000000000000000000000000000000000000000000000000000000000000000000000000000000000000
310
00000000000000000000000000000000000000000000000000000000000000000000000002030200000000000000000000000000000000000000000000000000000000000000000000000000000000000000000000000000000000000000000000000000000000000000000000030100000000000000000000000000000000
310
00000000000000000000000000000000000000000000000000000000000000000000000000000000000000000000000000000000000000000000000000000000000000000000000000000000000000000000000000000000000000000000030000000000000000000000000000000000000000000000000000000000000000
310
00000000000000000000000000000000000000000000000000000000000000000000000000000003000000000000000000000000000000000000000000000000000000000000000000000000000000000000000000000000000000000000000000000000000000000000000000000000000000000000000000000000000000
310
00000000000000000000000000000000000000000000000000030000000000000000000000000000000000000000000000000000000000000000000000000000000000000000000000000000000000000000000000000000000000000000000003000000000000000000000000000000000000000000000000000000000000
310
00000000000000000000000000000000000000000000000000000000000000000000000000000000000000000000000000000000000000000000000000000000000000000000000000000000000000000000030000000000000000000000000000000000000000000000000000000000000000000000000000000000000000
310
00000000000000000000000000000000000000000000000000030000000000000000000000000000000000000000000000000000000000000000000000000000000000000000000000000000000000000000000000000000000000000000000000000000000000000000000000000000000000000000000000000000000000
310
00000000000000000000000003000000000000000000000000000000000000000000000000000000000000000000000000000000000000000000000000000000000000000000000000000000000000000000030000000000000000000000000000000000000000000000000000000000000000000000000000000000000000
310
00000000000000000000000000000000000000000000000000000000000000000000000000000000000000000000000000000000000000000000000000000000000000000003010000000000000000000000000000000000000000000000000000000000000000000000000000000000000000000000000000000000000000
310
00000000000000000000000003000000000000000000000000000000000000000000000000000000000000000000000000000000000000000000000000000000000000000000000000000000000000000000000000000000000000000000000000000000000000000000000000000000000000000000000000000000000001
310
03000000000000000000000000000000000000000000000000000000000000000000000000000000000000000000000000000000000000000000000000000000000000000000000000000000000000000000000000000000000000000000000000000000000000000000000000000000000000000000000000000000000000
310
00000000000000000000000000000000000000000000000000000000000000000000000000000000000000000000000000000000000000000003000000000000000000000000000000000000000000000000000000000000000000000000000000000000000000000000000000000000000000000000000000000000000003
310
00000000000000000000000000000000000000000000000000000000000000000000000000000000000000000000000000000000000000000000000000000000000000000000000000000000000000000000000000000000000000000000000000000000000000000000000000000000000003000000000000000000000000
310
00000000000000000000000000000000000000000000000000000000000000000000000000000000000000000000000000000000000000000300000000000000000000000000000000000000000000000000000000000000000000000000000000000000000000000000000000000000000000000000000000000000000000
310
00000000000000000000000000000000000000000000000000000000000000000000000000000000000000000300000000000000000000000000000000000000000000000000000000000000000000000000000000000000000000000000000000000000000000000000000000000000000300000000000000000000000000
310
00000000000000000000000000000000000000000000000000000000000000000000000000000000000000000000000000000000000000000000000000000000000000000000000000000000000000000000000000000000000000000000000000000000000300000000000000000000000000000000000000000000000000
310
00000000000000000000000000000000000000000000000000000000000000000000000000000000000000030000000000000000000000000000000000000000000000000000000000000000030300000000030003030303030303030003030301030303030303030303030300030303030303030303030000000003030300
310
00000000000000000000000000000000000000000000000000000000000000030000000000000000000000000000000000000000000000000000000000000000000000000000000000000000000000000000000000000000000000000000000000000000030000000000000000000000000000000000000000000000000000
310
00000000000003030303030303030303030303030303030303030303030303030303030303030303030303030303030303030303030303030000000000000000000000000000000000000000000000000000000000000000030000000000000000000000000000000000000000000000000000000000000000000000000000
310
00000000000000000000000000000000000000000000000000000000000003000000000000000000000000000000000000000000000000000000000000000003030000000000000000000000000000000000000000000000000000000000000000000000000000000000000000000303030000000000000000000000000000
310
00000000000000000000000000000000000003000000000000000000000000000000000000000000000000000000000000000000000000000000000000000000000000000000000000000000000000000000000000000003000000000000000000000000000000000000000000000000000000000000000000000000000000
310
00000000000000000000000000000000000000000000000000000000000000000000000000000000000000000000000000000000000000000000000000000000000000000000000000000003000000000000000000000000000000000000000000000000000000000000000000000000000000000000000000000000000000
310
00000000000000000000000000000000000300000000000000000000000000000000000000000000000000000000000000000000000000000000000000000000000000000000000000000000000000000000000000000000000000000000000000000000000000000000000000000000000000000000000000000000000000
310
00000000000300000000000000000000000000000000000000000000000000000000000000000000000000000000000000000000000000000000000000000000000000000000000000000300000000000000000000000000000000000000000000000000000000000000000000000000000000000000000000000000000000
310
00000000000000000000000000000000000000000000000000000000000000000000000000000000000000000000000000000000000000000000000000000300000000000000000000000000000000000000000000000000000000000000000000000000000000000000000000000000000000000000000000000000000000
310
00000000030000000000000000000000000000000000000000000000000000000000000000000000000000000000000000000000000000000000000000000000000000000000000000000000000000000000000000000000000000000000000000000000000000000000000000000000000000000000000000000000000000
310
00000000000000000000000000000000000000000000000000000000000000000000000000000000000000000000000000000000000000000000000000030000000000000000000000000000000000000000000000000000000000000000000000000000000000000000000000000000000000000000000000000000000000
310
00000000000000000000000000000000000000000000000000000000000000000000000000000000000000000000000001030000000000000000000000000000000000000000000000000000000000000000000000000000000000000000000000000000000000000000000000000000000000000000030000000000000000
310
00000000000000000000000000000000000000000000000000000000000000000000000000000000000000000000000000000000000000000000000000000000000000000000000000000000000000000000000000000000000000000000000000000000000000000003010000000000000000000000000000000000000000
310
00000000000000000000000000000000000000000000000000000000000000000000000000000000000000000000000003000000000000000000000000000000000000000000000000000000000000000000000000000000000000000000000000000000000000000000000000000000000000000000000000000000000000
310
00000000000000000000000000000000000000000000000000000000000000000000000300000000000000000000000000000000000000000000000000000000000000000000000000000000000000000000000000000000000000000000000000000000000000000000030000000000000000000000000000000000000000
310
00000000000000000000000000000000000000000000000000000000000000000000000000000000000000000000000000000000000000000000000000000000000000000000000000000000000000000000000000000000000000000300000000000000000000000000000000000000000000000000000000000000000000
310
00000000000000000000000000000000000000000000000000000000000000000000000003000000000000000000000000000000000000000000000000000000000000000000000000000000000000000000000000000000000000000000000000000000000000000000000000000000000000000000000000000000000000
310
00000000000000000000000000000000000000000000030000000000000000000000000000000000000000000000000000000000000000000000000000000000000000000000000000000000000000000000000000000000000000000003010000000000000000000000000000000000000000000000000000000000000000
310
00000000000000000000000000000000000000000000000000000000000000000000000000000000000000000000000000000000000000000000000000000000000000000000000000000000000003000000000000000000000000000000000000000000000000000000000000000000000000000000000000000000000000
310
00000000000000000000000000000000000000000000000403020000000000000000000000000000000000000000000000000000000000000000000000000000000000000000000000000000000000000000000000000000000000000000000000000000000000000000000000000000000000000000000000000000000000
310
00000000000000020302000000000000000000000000000000000000000000000000000000000000000000000000000000000000000000000000000000000000000000000000000000000000000000000003000000000000000000000000000000000000000000000000000000000000000000000000000000000000000000
310
00000000000000000000000000000000000000000000000000000000000000000000000000000000000000000000000000000000000000000000000000000000010300000000000000000000000000000000000000000000000000000000000000000000000000000000000000000000000000000000000000000000000000
310
00000000000000000000000301000000000000000000000000000000000000000000000000000000000000000000000000000000000000000000000000000000000000000000000000000000000000000000000000000000000000000000000000000000000000000000000000000000000000000000000000030100000000
310
00000000000000000000000000000000000000000000000000000000000000000000000000000000000000000000000000000000000000000000000000000000000000000103000000000000000000000000000000000000000000000000000000000000000000000000000000000000000000000000000000000000000000
310
00000000000000000000000000000000000000000000000000000000000000000000000000000000000000000000000000000003000000000000000000000000000000000000000000000000000000000000000000000000000000000000000000000000000000000000000000000000000000000000000000000000000003
310
01000000000000000000000000000000000000000000000000000000000000000000000000000000000000000000000000000000000000000000000000000000000000000000000000000000000000000000000000000000000000000000000000000000000000000000000300000000000000000000000000000000000000
310
00000000000000000000000000000000000000000000000000000000000000000000000000000000000000000000000000000000000000000103010000000000000000000000000000000000000000000000000000000000000000000000000000000000000000000000000000000000000000000000000000000000000000
310
00000000000000000000000000000000000000000000000000000000000000000000000001030000000000000000000000000000000000000000000000000000000000000000000000000000000000000000000000000000000000000000000000000000000000000000000000000000000001030000000000000000000000
310
00000000000000000000000000000000000000000000000000000000000000000000000000000000000000000000000000000000000000000000000000000000000000000000000000000000000000000000000000000000000000000003010000000000000000000000000000000000000000000000000000000000000000
310
00000000000000000000000000000000000000000000000000000000000000000000000000000000000000000003010000000000000000000000000000000000000000000000000000000000000000000000000000000000000000000000000000000000000000000000000000000000000000000000000000000000000000
310
00000000000000000000000000000000000000000000010300000000000000000000000000000000000000000000000000000000000000000000000000000000000000000000000000000000000000000000000000000000000000000000000000000000000001030100000000000000000000000000000000000000000000
310
00000000000000000000000000000000000000000000000000000000000000000000000000000000000000000000000000000000000000000000000000000000000000000000000000000000000001030100000000000000000000000000000000000000000000000000000000000000000000000000000000000000000000
310
00000000000000000000000000000000000000000000000000000000000000000001030000000000000000000000000000000000000000000000000000000000000000000000000000000000000000000000000000000000000000000000000000000000000000000000000000000000000000000000000000000000000000
310
00000000000000000301000000000000000000000000000000000000000000000000000000000000000000000000000000000000000000000000000000000000000000000000000000000000000000000000000000000000000000030000000000000000000000000000000000000000000000000000000000000000000000
310
00000000000000000000000000000000000000000000000000000000000000000000000000000000000000000000000000000000000000000000000000000000000300000000000000000000000000000000000000000000000000000000000000000000000000000000000000000000000000000000000000000000000000
310
00000000000000000000000000000000000000000000030100000000000000000000000000000000000000000000000000000000000000000000000000000000000000000000000000000000000000000000000000000000000000000000000000000000000000000000000000000000000000000000000001030000000000
310
00000000000000000000000000000000000000000000000000000000000000000000000000000000000000000000000000000000000000000000000000000000000000000000000000000000000000010300000000000000000000000000000000000000000000000000000000000000000000000000000000000000000000
310
00000000000000000000000000000000000000000000000000000000000000000000000000000000000000000000000000000301000000000000000000000000000000000000000000000000000000000000000000000000000000000000000000000000000000000000000000000000000000000000000000000000000000
310
00000000000000000000000300000000000000000000000000000000000000000000000000000000000000000000000000000000000000000000000000000000000000000000000000000000000000000000000000000000000000000000000000000000000000000000030000000000000000000000000000000000000000
310
00000000000000000000000000000000000000000000000000000000000000000000000000000000000000000000000000000000000000000000000000000000000000000003000000000000000000000000000000000000000000000000000000000000000000000000000000000000000000000000000000000000000000
310
00000000000000000000000000000000000000000000000000000000000000000000010300000000000000000000000000000000000000000000000000000000000000000000000000000000000000000000000000000000000000000000000000000000000000000000000000000000000000000000000000000000000003
310
00000000000000000000000000000000000000000000000000000000000000000000000000000000000000000000000000000000000000000000000000000000000000000000000000000000000000000000000000000000000000030100000000000000000000000000000000000000000000000000000000000000000000
310
00000000000000000000000000000000000000000000000000000000000000000000000000000000000000000000000000000000000000000000030100000000000000000000000000000000000000000000000000000000000000000000000000000000000000000000000000000000000000000000000000000000000000
310
00000000000000000000000000000000000001030300000000000000000000000000000000000000000000000000000000000000000000000000000000000000000000000000000000000000000000000000000000000000000000000000000000000000000000000000000000000000000000010303010000000000000000
310
00000000000000000000000000000000000000000000000000000000000000000000000000000000000000000000000000000000000000000000000000000000000000000000000000000103010000000000000000000000000000000000000000000000000000000000000000000000000000000000000000000000000000
310
00000000000000000000000000000000000000000000000000000000000000000000000000000000000000000000000103010000000000000000000000000000000000000000000000000000000000000000000000000000000000000000000000000000000000000000000000000000000000000000000000000000000000
310
00000103030100000000000000000000000000000000000000000000000000000000000000000000000000000000000000000000000000000000000000000000000000000000000000000000000000000000000000000000000000000000000000000000000000000001030303000000000000000000000000000000000000
310
00000000000000000000000000000000000000000000000000000000000000000000000000000000000000000000000000000000000000000000030301000000000000000000000000000000000000000000000000000000000000000000000000000000000000000000000000000000000000000000000000000000000000
310
00000000000000000000000000000000000000000000000000000000000000000000000000000303030102000000000000000000000000000000000000000000000000000000000000000000000000000000000000000000000000000000000000000000000000000000000000000002010303000000000000000000000000
310
00000000000000000000000000000000000000000000000000000000000000000000000000000000000000000000000000000000000000000000000000000000000000000000000000000000000000000000000000000000000000000000000000010303030000000000000000000000000000000000000000000000000000
310
00000000000000000000000000000000000000000000000000000000000000000000000000000000030303010000000000000000000000000000000000000000000000000000000000000000000000000000000000000000000000000000000000000000000000000000000000000000000000000000000000000000000000
310
00000000000000000000000000000000000000000000000000000000000203030303030100000000000000000000000000000000000000000000000000000000000000000000000000000000000000000000000000000000000000000103030303000200000000000000000000000000000000000000000000000000000000
310
00000000000000000000000000000000000000000000000000000000000000000000000000000000000000000000000000000000000000000000000000000000000000000000000000000000000000000000000000000000000000010303030300030303030303030303030303030303030303030303030303030303030303
310
03030303030303030303030303030303000303030303030100000000000000000000000000000000000000000000000000000000000000000000000000000000000000000000000000000000000000000000000000000000000000000000000000000000000000000000000000000000000000000000000000000000000000
310
00000000000000000000000000000000000000000000000000000000000000000000000000000000000000000000000000000000000000000000000000000000000000000000000000000000000000000000000000000000000000000000000000000000000000000000000000000000000000000000000000000000000000
310
000000000000000000000000000000000000
  0
ENDSEC
  0
EOF
