  0
SECTION
  2
HEADER
  9
$ACADVER
  1
AC1027
  9
$ACADMAINTVER
 70
   125
  9
$DWGCODEPAGE
  3
ANSI_1252
  9
$AUTHOR
  1
WAEngineering2
  9
$LASTSAVEDBY
  1
WAEngineering2
  9
$CUSTOMPROPERTYTAG
  1
BentleyWorkSetProperties
  9
$CUSTOMPROPERTY
  1
02050000000B000000540200000000000000000200000057006F0072006B005300650074004E0061006D00650000000000000001000109040000000200000000000000000000000100000057006F0072006B005300650074004400650073006300720069007000740069006F006E0000000000000001000109080000000000000000000000000000000200000057006F0072006B00530070006100630065004E0061006D006500000000000000010001090C0000000200000000000000000000000400000043006F006E006E00650063007400500072006F006A006500630074004700550049004400000000000000010001091000000000000000000000000000000008000000500072006F006A00650063007400410073007300650074005400790070006500000000000000010001091400000000000000000000000000000010000000500072006F006A0065006300740049006E00640075007300740072007900000000000000010001091800000000000000000000000000000020000000500072006F006A006500630074004C006F0063006100740069006F006E00000000000000010001091C00000000000000000000000000000040000000500072006F006A006500630074004E0075006D00620065007200000000000000010001092000000000000000000000000000000080000000500072006F006A00650063007400530074006100740075007300000000000000010001092400000000000000000000000000000000010000500072006F006A006500630074004E0061006D00650000000000000001000109280000000000000000000000000000000002000031010000000000050002FCFFFF300000004A0000004A0000005A000000A4000000D2000000F4000000F600000004010000120100002C0100004D006500740072006F00530074006100740069006F006E0000004500780061006D0070006C0065000000350039003800370063003200620065002D0066003000660064002D0034003300660038002D0039006100610031002D00620039003100360035006200350030003400650032003300000050006C006100740066006F0072006D007300200061006E0064002000530074006100740069006F006E00730000005200610069006C00200061006E00640020005400720061006E0073006900740000000000310030003000310030003000000041006300740069007600650000004D006500740072006F00530074006100740069006F006E000000
  9
$REQUIREDVERSIONS
160
                 0
  9
$INSBASE
 10
0.0
 20
0.0
 30
0.0
  9
$EXTMIN
 10
0.8505
 20
0.6974
 30
0.0
  9
$EXTMAX
 10
5.9506
 20
6.267
 30
0.0
  9
$LIMMIN
 10
-11.703286
 20
-11.621636
  9
$LIMMAX
 10
18.504386
 20
18.586036
  9
$ORTHOMODE
 70
     0
  9
$REGENMODE
 70
     1
  9
$FILLMODE
 70
     1
  9
$QTEXTMODE
 70
     0
  9
$MIRRTEXT
 70
     0
  9
$LTSCALE
 40
1.0
  9
$ATTMODE
 70
     1
  9
$TEXTSIZE
 40
0.25
  9
$TRACEWID
 40
0.05
  9
$TEXTSTYLE
  7
Standard
  9
$CLAYER
  8
0
  9
$CELTYPE
  6
ByLayer
  9
$CECOLOR
 62
   256
  9
$CELTSCALE
 40
1.0
  9
$DISPSILH
 70
     0
  9
$DIMSCALE
 40
1.0
  9
$DIMASZ
 40
0.25
  9
$DIMEXO
 40
0.125
  9
$DIMDLI
 40
0.0
  9
$DIMRND
 40
0.0
  9
$DIMDLE
 40
0.0
  9
$DIMEXE
 40
0.125
  9
$DIMTP
 40
0.0
  9
$DIMTM
 40
0.0
  9
$DIMTXT
 40
0.25
  9
$DIMCEN
 40
0.0
  9
$DIMTSZ
 40
0.0
  9
$DIMTOL
 70
     0
  9
$DIMLIM
 70
     0
  9
$DIMTIH
 70
     0
  9
$DIMTOH
 70
     0
  9
$DIMSE1
 70
     0
  9
$DIMSE2
 70
     0
  9
$DIMTAD
 70
     1
  9
$DIMZIN
 70
     8
  9
$DIMBLK
  1
TerminatorOpen_0.5
  9
$DIMASO
 70
     1
  9
$DIMSHO
 70
     1
  9
$DIMPOST
  1

  9
$DIMAPOST
  1

  9
$DIMALT
 70
     0
  9
$DIMALTD
 70
     4
  9
$DIMALTF
 40
1.0
  9
$DIMLFAC
 40
1.0
  9
$DIMTOFL
 70
     0
  9
$DIMTVP
 40
0.0
  9
$DIMTIX
 70
     0
  9
$DIMSOXD
 70
     0
  9
$DIMSAH
 70
     0
  9
$DIMBLK1
  1

  9
$DIMBLK2
  1

  9
$DIMSTYLE
  2
Standard
  9
$DIMCLRD
 70
     0
  9
$DIMCLRE
 70
     0
  9
$DIMCLRT
 70
     0
  9
$DIMTFAC
 40
1.0
  9
$DIMGAP
 40
0.125
  9
$DIMJUST
 70
     0
  9
$DIMSD1
 70
     0
  9
$DIMSD2
 70
     0
  9
$DIMTOLJ
 70
     1
  9
$DIMTZIN
 70
     8
  9
$DIMALTZ
 70
    12
  9
$DIMALTTZ
 70
    12
  9
$DIMUPT
 70
     0
  9
$DIMDEC
 70
     4
  9
$DIMTDEC
 70
     0
  9
$DIMALTU
 70
     2
  9
$DIMALTTD
 70
     0
  9
$DIMTXSTY
  7
Style-Arial
  9
$DIMAUNIT
 70
     0
  9
$DIMADEC
 70
     4
  9
$DIMALTRND
 40
0.0
  9
$DIMAZIN
 70
     3
  9
$DIMDSEP
 70
     0
  9
$DIMATFIT
 70
     1
  9
$DIMFRAC
 70
     2
  9
$DIMLDRBLK
  1
TerminatorOpen_0.5
  9
$DIMLUNIT
 70
     2
  9
$DIMLWD
 70
    -2
  9
$DIMLWE
 70
    -2
  9
$DIMTMOVE
 70
     0
  9
$DIMFXL
 40
1.0
  9
$DIMFXLON
 70
     0
  9
$DIMJOGANG
 40
0.785398
  9
$DIMTFILL
 70
     0
  9
$DIMTFILLCLR
 70
     0
  9
$DIMARCSYM
 70
     0
  9
$DIMLTYPE
  6
ByBlock
  9
$DIMLTEX1
  6
ByBlock
  9
$DIMLTEX2
  6
ByBlock
  9
$DIMTXTDIRECTION
 70
     0
  9
$LUNITS
 70
     2
  9
$LUPREC
 70
     3
  9
$SKETCHINC
 40
0.1
  9
$FILLETRAD
 40
0.0
  9
$AUNITS
 70
     0
  9
$AUPREC
 70
     3
  9
$MENU
  1
.
  9
$ELEVATION
 40
0.0
  9
$PELEVATION
 40
0.0
  9
$THICKNESS
 40
0.0
  9
$LIMCHECK
 70
     0
  9
$CHAMFERA
 40
0.0
  9
$CHAMFERB
 40
0.0
  9
$CHAMFERC
 40
0.0
  9
$CHAMFERD
 40
0.0
  9
$SKPOLY
 70
     0
  9
$TDCREATE
 40
2454145.111354167
  9
$TDUCREATE
 40
2454144.778024017
  9
$TDUPDATE
 40
2459864.578402778
  9
$TDUUPDATE
 40
2459864.245069445
  9
$TDINDWG
 40
0.0058274884
  9
$TDUSRTIMER
 40
0.0058273032
  9
$USRTIMER
 70
     1
  9
$ANGBASE
 50
0.0
  9
$ANGDIR
 70
     0
  9
$PDMODE
 70
     0
  9
$PDSIZE
 40
0.0
  9
$PLINEWID
 40
0.0
  9
$SPLFRAME
 70
     0
  9
$SPLINETYPE
 70
     6
  9
$SPLINESEGS
 70
     8
  9
$HANDSEED
  5
C5B
  9
$SURFTAB1
 70
     6
  9
$SURFTAB2
 70
     6
  9
$SURFTYPE
 70
     6
  9
$SURFU
 70
     6
  9
$SURFV
 70
     6
  9
$UCSBASE
  2

  9
$UCSNAME
  2

  9
$UCSORG
 10
0.0
 20
0.0
 30
0.0
  9
$UCSXDIR
 10
1.0
 20
0.0
 30
0.0
  9
$UCSYDIR
 10
0.0
 20
1.0
 30
0.0
  9
$UCSORTHOREF
  2

  9
$UCSORTHOVIEW
 70
     0
  9
$UCSORGTOP
 10
0.0
 20
0.0
 30
0.0
  9
$UCSORGBOTTOM
 10
0.0
 20
0.0
 30
0.0
  9
$UCSORGLEFT
 10
0.0
 20
0.0
 30
0.0
  9
$UCSORGRIGHT
 10
0.0
 20
0.0
 30
0.0
  9
$UCSORGFRONT
 10
0.0
 20
0.0
 30
0.0
  9
$UCSORGBACK
 10
0.0
 20
0.0
 30
0.0
  9
$PUCSBASE
  2

  9
$PUCSNAME
  2

  9
$PUCSORG
 10
0.0
 20
0.0
 30
0.0
  9
$PUCSXDIR
 10
1.0
 20
0.0
 30
0.0
  9
$PUCSYDIR
 10
0.0
 20
1.0
 30
0.0
  9
$PUCSORTHOREF
  2

  9
$PUCSORTHOVIEW
 70
     0
  9
$PUCSORGTOP
 10
0.0
 20
0.0
 30
0.0
  9
$PUCSORGBOTTOM
 10
0.0
 20
0.0
 30
0.0
  9
$PUCSORGLEFT
 10
0.0
 20
0.0
 30
0.0
  9
$PUCSORGRIGHT
 10
0.0
 20
0.0
 30
0.0
  9
$PUCSORGFRONT
 10
0.0
 20
0.0
 30
0.0
  9
$PUCSORGBACK
 10
0.0
 20
0.0
 30
0.0
  9
$USERI1
 70
     0
  9
$USERI2
 70
     0
  9
$USERI3
 70
     0
  9
$USERI4
 70
     0
  9
$USERI5
 70
     0
  9
$USERR1
 40
0.0
  9
$USERR2
 40
0.0
  9
$USERR3
 40
0.0
  9
$USERR4
 40
0.0
  9
$USERR5
 40
0.0
  9
$WORLDVIEW
 70
     1
  9
$SHADEDGE
 70
     3
  9
$SHADEDIF
 70
    70
  9
$TILEMODE
 70
     1
  9
$MAXACTVP
 70
    64
  9
$PINSBASE
 10
0.0
 20
0.0
 30
0.0
  9
$PLIMCHECK
 70
     0
  9
$PEXTMIN
 10
1.05
 20
0.8
 30
0.0
  9
$PEXTMAX
 10
9.45
 20
7.2
 30
0.0
  9
$PLIMMIN
 10
-0.25
 20
-0.25
  9
$PLIMMAX
 10
10.75
 20
8.25
  9
$UNITMODE
 70
     0
  9
$VISRETAIN
 70
     1
  9
$PLINEGEN
 70
     0
  9
$PSLTSCALE
 70
     0
  9
$TREEDEPTH
 70
  3020
  9
$CMLSTYLE
  2
Standard
  9
$CMLJUST
 70
     0
  9
$CMLSCALE
 40
1.0
  9
$PROXYGRAPHICS
 70
     1
  9
$MEASUREMENT
 70
     0
  9
$CELWEIGHT
370
    -1
  9
$ENDCAPS
280
     0
  9
$JOINSTYLE
280
     0
  9
$LWDISPLAY
290
     1
  9
$INSUNITS
 70
     6
  9
$HYPERLINKBASE
  1

  9
$STYLESHEET
  1

  9
$XEDIT
290
     1
  9
$CEPSNTYPE
380
     0
  9
$PSTYLEMODE
290
     1
  9
$FINGERPRINTGUID
  2
{969DC086-52E3-EF4B-84C8-1E2B1FBFC6B5}
  9
$VERSIONGUID
  2
{38E7CD85-556C-4D6E-9C4C-B935CE7E055D}
  9
$EXTNAMES
290
     1
  9
$PSVPSCALE
 40
0.0
  9
$OLESTARTUP
290
     0
  9
$SORTENTS
280
   127
  9
$INDEXCTL
280
     0
  9
$HIDETEXT
280
     1
  9
$XCLIPFRAME
280
     0
  9
$HALOGAP
280
     0
  9
$OBSCOLOR
 70
   257
  9
$OBSLTYPE
280
     0
  9
$INTERSECTIONDISPLAY
280
     0
  9
$INTERSECTIONCOLOR
 70
   257
  9
$DIMASSOC
280
     2
  9
$PROJECTNAME
  1

  9
$CAMERADISPLAY
290
     0
  9
$LENSLENGTH
 40
50.0
  9
$CAMERAHEIGHT
 40
0.0
  9
$STEPSPERSEC
 40
2.0
  9
$STEPSIZE
 40
6.0
  9
$3DDWFPREC
 40
2.0
  9
$PSOLWIDTH
 40
0.25
  9
$PSOLHEIGHT
 40
4.0
  9
$LOFTANG1
 40
1.570796
  9
$LOFTANG2
 40
1.570796
  9
$LOFTMAG1
 40
0.0
  9
$LOFTMAG2
 40
0.0
  9
$LOFTPARAM
 70
     7
  9
$LOFTNORMALS
280
     1
  9
$LATITUDE
 40
37.795
  9
$LONGITUDE
 40
-122.394
  9
$NORTHDIRECTION
 40
0.0
  9
$TIMEZONE
 70
 -8000
  9
$LIGHTGLYPHDISPLAY
280
     1
  9
$TILEMODELIGHTSYNCH
280
     1
  9
$CMATERIAL
347
5F1
  9
$SOLIDHIST
280
     1
  9
$SHOWHIST
280
     1
  9
$DWFFRAME
280
     2
  9
$DGNFRAME
280
     0
  9
$REALWORLDSCALE
290
     1
  9
$INTERFERECOLOR
 62
     1
  9
$INTERFEREOBJVS
345
61A
  9
$INTERFEREVPVS
346
61B
  9
$CSHADOW
280
     0
  9
$SHADOWPLANELOCATION
 40
0.0
  0
ENDSEC
  0
SECTION
  2
CLASSES
  0
CLASS
  1
ACDBDICTIONARYWDFLT
  2
AcDbDictionaryWithDefault
  3
ObjectDBX Classes
 90
        0
 91
        1
280
     0
281
     0
  0
CLASS
  1
DICTIONARYVAR
  2
AcDbDictionaryVar
  3
ObjectDBX Classes
 90
        0
 91
        9
280
     0
281
     0
  0
CLASS
  1
TABLESTYLE
  2
AcDbTableStyle
  3
ObjectDBX Classes
 90
     4095
 91
        1
280
     0
281
     0
  0
CLASS
  1
MATERIAL
  2
AcDbMaterial
  3
ObjectDBX Classes
 90
     1153
 91
        3
280
     0
281
     0
  0
CLASS
  1
VISUALSTYLE
  2
AcDbVisualStyle
  3
ObjectDBX Classes
 90
     4095
 91
       24
280
     0
281
     0
  0
CLASS
  1
SCALE
  2
AcDbScale
  3
ObjectDBX Classes
 90
     1153
 91
       33
280
     0
281
     0
  0
CLASS
  1
MLEADERSTYLE
  2
AcDbMLeaderStyle
  3
ACDB_MLEADERSTYLE_CLASS
 90
     4095
 91
        1
280
     0
281
     0
  0
CLASS
  1
EXACXREFPANELOBJECT
  2
ExAcXREFPanelObject
  3
EXAC_ESW
 90
     1025
 91
        0
280
     1
281
     0
  0
CLASS
  1
NPOCOLLECTION
  2
AcDbImpNonPersistentObjectsCollection
  3
ObjectDBX Classes
 90
     1153
 91
        0
280
     0
281
     0
  0
CLASS
  1
CELLSTYLEMAP
  2
AcDbCellStyleMap
  3
ObjectDBX Classes
 90
     1152
 91
        1
280
     0
281
     0
  0
CLASS
  1
ACDBSECTIONVIEWSTYLE
  2
AcDbSectionViewStyle
  3
ObjectDBX Classes
 90
     1025
 91
        1
280
     0
281
     0
  0
CLASS
  1
ACDBDETAILVIEWSTYLE
  2
AcDbDetailViewStyle
  3
ObjectDBX Classes
 90
     1025
 91
        1
280
     0
281
     0
  0
CLASS
  1
SORTENTSTABLE
  2
AcDbSortentsTable
  3
ObjectDBX Classes
 90
        0
 91
        1
280
     0
281
     0
  0
ENDSEC
  0
SECTION
  2
TABLES
  0
TABLE
  2
VPORT
  5
5E5
330
0
100
AcDbSymbolTable
 70
     1
1001
ACAD
1000
DbSaveVer
1071
      253
  0
VPORT
  5
4B
330
5E5
100
AcDbSymbolTableRecord
100
AcDbViewportTableRecord
  2
*ACTIVE
 70
     0
 10
0.0
 20
0.0
 11
1.0
 21
1.0
 12
3.548669
 22
3.421425
 13
0.0
 23
0.0
 14
0.1
 24
0.1
 15
1.0
 25
1.0
 16
0.0
 26
0.0
 36
1.0
 17
0.0
 27
0.0
 37
0.0
 40
5.913903
 41
2.437741
 42
50.0
 43
0.0
 44
0.0
 50
0.0
 51
0.0
 71
     0
 72
 20000
 73
     1
 74
     1
 75
     0
 76
     0
 77
     0
 78
     1
281
     0
 65
     1
110
0.0
120
0.0
130
0.0
111
1.0
121
0.0
131
0.0
112
0.0
122
1.0
132
0.0
 79
     0
146
0.0
348
5E7
 60
     3
 61
    10
292
     0
282
     1
141
0.0
142
0.0
 63
     7
421
 16777215
  0
ENDTAB
  0
TABLE
  2
LTYPE
  5
5E0
330
0
100
AcDbSymbolTable
 70
     2
  0
LTYPE
  5
5E1
330
5E0
100
AcDbSymbolTableRecord
100
AcDbLinetypeTableRecord
  2
ByBlock
 70
     0
  3

 72
    65
 73
     0
 40
0.0
  0
LTYPE
  5
5E2
330
5E0
100
AcDbSymbolTableRecord
100
AcDbLinetypeTableRecord
  2
ByLayer
 70
     0
  3

 72
    65
 73
     0
 40
0.0
  0
LTYPE
  5
5B6
330
5E0
100
AcDbSymbolTableRecord
100
AcDbLinetypeTableRecord
  2
Continuous
 70
     0
  3
Solid line
 72
    65
 73
     0
 40
0.0
  0
LTYPE
  5
781
330
5E0
100
AcDbSymbolTableRecord
100
AcDbLinetypeTableRecord
  2
DGN Style 2
 70
     0
  3
Dgn Style 2
 72
    65
 73
     2
 40
0.144166
 49
0.086499
 74
     0
 49
-0.057666
 74
     0
  0
ENDTAB
  0
TABLE
  2
LAYER
  5
5D7
102
{ACAD_XDICTIONARY
360
5D8
102
}
330
0
100
AcDbSymbolTable
 70
   330
  0
LAYER
  5
5A7
102
{ACAD_XDICTIONARY
360
5A8
102
}
330
5D7
100
AcDbSymbolTableRecord
100
AcDbLayerTableRecord
  2
0
 70
     0
 62
     7
  6
Continuous
370
    -3
390
5AA
347
5AD
348
0
1001
AcCmTransparency
1071
 33554687
  0
LAYER
  5
60F
330
5D7
100
AcDbSymbolTableRecord
100
AcDbLayerTableRecord
  2
Level 1
 70
     0
 62
     7
  6
Continuous
370
     0
390
5AA
347
5AD
348
0
1001
AcCmTransparency
1071
 33554687
  0
LAYER
  5
598
330
5D7
100
AcDbSymbolTableRecord
100
AcDbLayerTableRecord
  2
Level 14
 70
     0
 62
     7
  6
Continuous
370
     0
390
5AA
347
5AD
348
0
1001
AcAecLayerStandard
1000

1000
Fall Zone Individual
1001
AcCmTransparency
1071
 33554687
  0
LAYER
  5
599
330
5D7
100
AcDbSymbolTableRecord
100
AcDbLayerTableRecord
  2
ninja1 - Level 26
 70
     0
 62
     7
  6
Continuous
370
     0
390
5AA
347
5AD
348
0
1001
AcAecLayerStandard
1000

1000
Assemblies - Colour Locked
1001
AcCmTransparency
1071
 33554687
  0
LAYER
  5
59A
330
5D7
100
AcDbSymbolTableRecord
100
AcDbLayerTableRecord
  2
ninja1 - Level 31
 70
     0
 62
     7
  6
Continuous
370
     0
390
5AA
347
5AD
348
0
1001
AcAecLayerStandard
1000

1000
Assemblies - Secondary 31
1001
AcCmTransparency
1071
 33554687
  0
LAYER
  5
59B
330
5D7
100
AcDbSymbolTableRecord
100
AcDbLayerTableRecord
  2
ninja1 - Level 30
 70
     0
 62
     7
  6
Continuous
370
     0
390
5AA
347
5AD
348
0
1001
AcAecLayerStandard
1000

1000
Assemblies - Secondary 30
1001
AcCmTransparency
1071
 33554687
  0
LAYER
  5
59C
330
5D7
100
AcDbSymbolTableRecord
100
AcDbLayerTableRecord
  2
ninja1 - Level 33
 70
     0
 62
     7
  6
Continuous
370
     0
390
5AA
347
5AD
348
0
1001
AcAecLayerStandard
1000

1000
Assemblies - Secondary 33
1001
AcCmTransparency
1071
 33554687
  0
LAYER
  5
59D
330
5D7
100
AcDbSymbolTableRecord
100
AcDbLayerTableRecord
  2
ninja1 - Level 32
 70
     0
 62
     7
  6
Continuous
370
     0
390
5AA
347
5AD
348
0
1001
AcAecLayerStandard
1000

1000
Assemblies - Secondary 32
1001
AcCmTransparency
1071
 33554687
  0
LAYER
  5
59E
330
5D7
100
AcDbSymbolTableRecord
100
AcDbLayerTableRecord
  2
ninja1 - Level 42
 70
     0
 62
     7
  6
Continuous
370
     0
390
5AA
347
5AD
348
0
1001
AcAecLayerStandard
1000

1000
Assemblies - Tertiary 42
1001
AcCmTransparency
1071
 33554687
  0
LAYER
  5
59F
330
5D7
100
AcDbSymbolTableRecord
100
AcDbLayerTableRecord
  2
ninja1 - Level 41
 70
     0
 62
     7
  6
Continuous
370
     0
390
5AA
347
5AD
348
0
1001
AcAecLayerStandard
1000

1000
Assemblies - Tertiary 41
1001
AcCmTransparency
1071
 33554687
  0
LAYER
  5
5A0
330
5D7
100
AcDbSymbolTableRecord
100
AcDbLayerTableRecord
  2
ninja1 - Level 44
 70
     0
 62
     7
  6
Continuous
370
     0
390
5AA
347
5AD
348
0
1001
AcAecLayerStandard
1000

1000
Assemblies - Tertiary 44
1001
AcCmTransparency
1071
 33554687
  0
LAYER
  5
5A1
330
5D7
100
AcDbSymbolTableRecord
100
AcDbLayerTableRecord
  2
ninja1 - Level 43
 70
     0
 62
     7
  6
Continuous
370
     0
390
5AA
347
5AD
348
0
1001
AcAecLayerStandard
1000

1000
Assemblies - Tertiary 43
1001
AcCmTransparency
1071
 33554687
  0
ENDTAB
  0
TABLE
  2
STYLE
  5
5DC
330
0
100
AcDbSymbolTable
 70
     3
  0
STYLE
  5
5DD
330
5DC
100
AcDbSymbolTableRecord
100
AcDbTextStyleTableRecord
  2
Standard
 70
     0
 40
0.0
 41
1.0
 50
0.0
 71
     0
 42
0.25
  3
txt.shx
  4

1001
AcadAnnotative
1000
AnnotativeData
1002
{
1070
     1
1070
     1
1002
}
  0
STYLE
  5
610
330
5DC
100
AcDbSymbolTableRecord
100
AcDbTextStyleTableRecord
  2
Style-STANDARD
 70
     0
 40
0.0
 41
1.0
 50
0.0
 71
     0
 42
3.5
  3
STANDARD.shx
  4

1001
AcadAnnotative
1000
AnnotativeData
1002
{
1070
     1
1070
     1
1002
}
  0
STYLE
  5
77E
330
5DC
100
AcDbSymbolTableRecord
100
AcDbTextStyleTableRecord
  2
Style-Arial
 70
     0
 40
0.0
 41
1.0
 50
0.0
 71
     0
 42
0.25
  3
arial.ttf
  4

1001
ACAD
1000
Arial
1071
       39
  0
ENDTAB
  0
TABLE
  2
VIEW
  5
5E3
330
0
100
AcDbSymbolTable
 70
     0
  0
ENDTAB
  0
TABLE
  2
UCS
  5
5E4
330
0
100
AcDbSymbolTable
 70
     0
  0
ENDTAB
  0
TABLE
  2
APPID
  5
5E9
330
0
100
AcDbSymbolTable
 70
     6
  0
APPID
  5
5EA
330
5E9
100
AcDbSymbolTableRecord
100
AcDbRegAppTableRecord
  2
ACAD
 70
     0
  0
APPID
  5
5D6
330
5E9
100
AcDbSymbolTableRecord
100
AcDbRegAppTableRecord
  2
ACAD_PSEXT
 70
     0
  0
APPID
  5
5B7
330
5E9
100
AcDbSymbolTableRecord
100
AcDbRegAppTableRecord
  2
AcCmTransparency
 70
     0
  0
APPID
  5
5DE
330
5E9
100
AcDbSymbolTableRecord
100
AcDbRegAppTableRecord
  2
AcadAnnotative
 70
     0
  0
APPID
  5
5BC
330
5E9
100
AcDbSymbolTableRecord
100
AcDbRegAppTableRecord
  2
MStation
 70
     0
  0
APPID
  5
77C
330
5E9
100
AcDbSymbolTableRecord
100
AcDbRegAppTableRecord
  2
AcAecLayerStandard
 70
     0
  0
ENDTAB
  0
TABLE
  2
DIMSTYLE
  5
5EB
330
0
100
AcDbSymbolTable
 70
     1
100
AcDbDimStyleTable
 71
     1
340
5EC
  0
DIMSTYLE
105
5EC
330
5EB
100
AcDbSymbolTableRecord
100
AcDbDimStyleTableRecord
  2
Standard
 70
     0
 42
0.0625
 44
0.18
 78
     3
272
     0
274
     0
278
     0
284
     3
285
     3
286
     3
289
     1
340
5DD
345
5B6
346
5B6
347
5B6
  0
ENDTAB
  0
TABLE
  2
BLOCK_RECORD
  5
5A2
330
0
100
AcDbSymbolTable
 70
     6
  0
BLOCK_RECORD
  5
5A3
102
{ACAD_XDICTIONARY
360
5A4
102
}
330
5A2
100
AcDbSymbolTableRecord
100
AcDbBlockTableRecord
  2
*Model_Space
340
5CE
 70
     0
280
     1
281
     0
  0
BLOCK_RECORD
  5
5D1
330
5A2
100
AcDbSymbolTableRecord
100
AcDbBlockTableRecord
  2
*Paper_Space
340
5D4
 70
     0
280
     1
281
     0
  0
BLOCK_RECORD
  5
611
330
5A2
100
AcDbSymbolTableRecord
100
AcDbBlockTableRecord
  2
TerminatorOpen_0.5
340
0
 70
     0
280
     1
281
     0
  0
ENDTAB
  0
ENDSEC
  0
SECTION
  2
BLOCKS
  0
BLOCK
  5
5A6
330
5A3
100
AcDbEntity
  8
0
100
AcDbBlockBegin
  2
*Model_Space
 70
     0
 10
0.0
 20
0.0
 30
0.0
  3
*Model_Space
  1

  0
ENDBLK
  5
5CD
330
5A3
100
AcDbEntity
  8
0
100
AcDbBlockEnd
  0
BLOCK
  5
5D2
330
5D1
100
AcDbEntity
 67
     1
  8
0
100
AcDbBlockBegin
  2
*Paper_Space
 70
     0
 10
0.0
 20
0.0
 30
0.0
  3
*Paper_Space
  1

  0
ENDBLK
  5
5D3
330
5D1
100
AcDbEntity
 67
     1
  8
0
100
AcDbBlockEnd
  0
BLOCK
  5
612
330
611
100
AcDbEntity
  8
0
 62
     7
370
    30
100
AcDbBlockBegin
  2
TerminatorOpen_0.5
 70
     0
 10
0.0
 20
0.0
 30
0.0
  3
TerminatorOpen_0.5
  1

  0
LINE
  5
613
330
611
100
AcDbEntity
  8
0
  6
ByBlock
 62
     0
370
    -2
100
AcDbLine
 10
0.0
 20
0.0
 30
0.0
 11
-1.0
 21
0.0
 31
0.0
  0
LINE
  5
614
330
611
100
AcDbEntity
  8
0
  6
ByBlock
 62
     0
370
    -2
100
AcDbLine
 10
0.0
 20
0.0
 30
0.0
 11
-1.0
 21
0.25
 31
0.0
  0
LINE
  5
615
330
611
100
AcDbEntity
  8
0
  6
ByBlock
 62
     0
370
    -2
100
AcDbLine
 10
0.0
 20
0.0
 30
0.0
 11
-1.0
 21
-0.25
 31
0.0
  0
ENDBLK
  5
616
330
611
100
AcDbEntity
  8
0
 62
     7
370
    30
100
AcDbBlockEnd
  0
ENDSEC
  0
SECTION
  2
ENTITIES
  0
LWPOLYLINE
  5
24B
330
5A3
100
AcDbEntity
  8
Level 14
  6
DGN Style 2
 62
     7
370
    13
100
AcDbPolyline
 90
        9
 70
   128
 43
0.0
 10
0.850589
 20
2.797486
 10
0.850589
 20
4.166986
 42
-0.414214
 10
2.950589
 20
6.266986
 10
3.850589
 20
6.266986
 42
-0.414214
 10
5.950589
 20
4.166986
 10
5.950589
 20
2.797486
 42
-0.414214
 10
3.850589
 20
0.697486
 10
2.950589
 20
0.697486
 42
-0.414214
 10
0.850589
 20
2.797486
  0
LINE
  5
254
330
5A3
100
AcDbEntity
  8
ninja1 - Level 26
  6
Continuous
 62
     7
370
    13
100
AcDbLine
 10
3.023589
 20
3.006736
 30
0.0
 11
3.023589
 21
2.992236
 31
0.0
  0
ARC
  5
255
330
5A3
100
AcDbEntity
  8
ninja1 - Level 26
  6
Continuous
 62
     7
370
    13
100
AcDbCircle
 10
3.029101
 20
3.006736
 30
0.0
 40
0.0155124999999988
100
AcDbArc
 50
222.085675
 51
249.184577
  0
LINE
  5
256
330
5A3
100
AcDbEntity
  8
ninja1 - Level 26
  6
Continuous
 62
     7
370
    13
100
AcDbLine
 10
3.017589
 20
3.006736
 30
0.0
 11
3.023589
 21
3.006736
 31
0.0
  0
LINE
  5
257
330
5A3
100
AcDbEntity
  8
ninja1 - Level 26
  6
Continuous
 62
     7
370
    13
100
AcDbLine
 10
3.017589
 20
3.157736
 30
0.0
 11
3.023589
 21
3.157736
 31
0.0
  0
LINE
  5
258
330
5A3
100
AcDbEntity
  8
ninja1 - Level 26
  6
Continuous
 62
     7
370
    13
100
AcDbLine
 10
3.023589
 20
3.157736
 30
0.0
 11
3.023589
 21
3.006736
 31
0.0
  0
LINE
  5
259
330
5A3
100
AcDbEntity
  8
ninja1 - Level 26
  6
Continuous
 62
     7
370
    13
100
AcDbLine
 10
3.023589
 20
3.157736
 30
0.0
 11
3.023589
 21
3.172236
 31
0.0
  0
ARC
  5
25A
330
5A3
100
AcDbEntity
  8
ninja1 - Level 26
  6
Continuous
 62
     7
370
    13
100
AcDbCircle
 10
3.029101
 20
3.157736
 30
0.0
 40
0.0155124999999988
100
AcDbArc
 50
110.815423
 51
137.914325
  0
ARC
  5
25B
330
5A3
100
AcDbEntity
  8
ninja1 - Level 26
  6
Continuous
 62
     7
370
    13
100
AcDbCircle
 10
3.024076
 20
3.006736
 30
0.0
 40
0.0155124999999988
100
AcDbArc
 50
290.815423
 51
360.0
  0
LINE
  5
25C
330
5A3
100
AcDbEntity
  8
ninja1 - Level 26
  6
Continuous
 62
     7
370
    13
100
AcDbLine
 10
3.039589
 20
3.006736
 30
0.0
 11
3.029589
 21
3.006736
 31
0.0
  0
LINE
  5
25D
330
5A3
100
AcDbEntity
  8
ninja1 - Level 26
  6
Continuous
 62
     7
370
    13
100
AcDbLine
 10
3.039589
 20
3.006736
 30
0.0
 11
3.039589
 21
3.157736
 31
0.0
  0
LINE
  5
25E
330
5A3
100
AcDbEntity
  8
ninja1 - Level 26
  6
Continuous
 62
     7
370
    13
100
AcDbLine
 10
3.039589
 20
3.157736
 30
0.0
 11
3.029589
 21
3.157736
 31
0.0
  0
LINE
  5
25F
330
5A3
100
AcDbEntity
  8
ninja1 - Level 26
  6
Continuous
 62
     7
370
    13
100
AcDbLine
 10
3.029589
 20
3.157736
 30
0.0
 11
3.029589
 21
3.006736
 31
0.0
  0
ARC
  5
260
330
5A3
100
AcDbEntity
  8
ninja1 - Level 26
  6
Continuous
 62
     7
370
    13
100
AcDbCircle
 10
3.024076
 20
3.157736
 30
0.0
 40
0.0155124999999988
100
AcDbArc
 50
360.0
 51
69.184577
  0
LINE
  5
261
330
5A3
100
AcDbEntity
  8
ninja1 - Level 26
  6
Continuous
 62
     7
370
    13
100
AcDbLine
 10
3.771589
 20
3.006736
 30
0.0
 11
3.771589
 21
2.992236
 31
0.0
  0
ARC
  5
262
330
5A3
100
AcDbEntity
  8
ninja1 - Level 26
  6
Continuous
 62
     7
370
    13
100
AcDbCircle
 10
3.777101
 20
3.006736
 30
0.0
 40
0.0155124999999988
100
AcDbArc
 50
180.0
 51
249.184577
  0
LINE
  5
263
330
5A3
100
AcDbEntity
  8
ninja1 - Level 26
  6
Continuous
 62
     7
370
    13
100
AcDbLine
 10
3.761589
 20
3.006736
 30
0.0
 11
3.771589
 21
3.006736
 31
0.0
  0
LINE
  5
264
330
5A3
100
AcDbEntity
  8
ninja1 - Level 26
  6
Continuous
 62
     7
370
    13
100
AcDbLine
 10
3.761589
 20
3.157736
 30
0.0
 11
3.761589
 21
3.006736
 31
0.0
  0
LINE
  5
265
330
5A3
100
AcDbEntity
  8
ninja1 - Level 26
  6
Continuous
 62
     7
370
    13
100
AcDbLine
 10
3.761589
 20
3.157736
 30
0.0
 11
3.771589
 21
3.157736
 31
0.0
  0
LINE
  5
266
330
5A3
100
AcDbEntity
  8
ninja1 - Level 26
  6
Continuous
 62
     7
370
    13
100
AcDbLine
 10
3.771589
 20
3.157736
 30
0.0
 11
3.771589
 21
3.006736
 31
0.0
  0
LINE
  5
267
330
5A3
100
AcDbEntity
  8
ninja1 - Level 26
  6
Continuous
 62
     7
370
    13
100
AcDbLine
 10
3.771589
 20
3.157736
 30
0.0
 11
3.771589
 21
3.172236
 31
0.0
  0
ARC
  5
268
330
5A3
100
AcDbEntity
  8
ninja1 - Level 26
  6
Continuous
 62
     7
370
    13
100
AcDbCircle
 10
3.777101
 20
3.157736
 30
0.0
 40
0.0155124999999988
100
AcDbArc
 50
110.815423
 51
180.0
  0
ARC
  5
269
330
5A3
100
AcDbEntity
  8
ninja1 - Level 26
  6
Continuous
 62
     7
370
    13
100
AcDbCircle
 10
3.772076
 20
3.006736
 30
0.0
 40
0.0155124999999988
100
AcDbArc
 50
290.815423
 51
317.914344
  0
LINE
  5
26A
330
5A3
100
AcDbEntity
  8
ninja1 - Level 26
  6
Continuous
 62
     7
370
    13
100
AcDbLine
 10
3.783589
 20
3.006736
 30
0.0
 11
3.777589
 21
3.006736
 31
0.0
  0
LINE
  5
26B
330
5A3
100
AcDbEntity
  8
ninja1 - Level 26
  6
Continuous
 62
     7
370
    13
100
AcDbLine
 10
3.783589
 20
3.157736
 30
0.0
 11
3.777589
 21
3.157736
 31
0.0
  0
LINE
  5
26C
330
5A3
100
AcDbEntity
  8
ninja1 - Level 26
  6
Continuous
 62
     7
370
    13
100
AcDbLine
 10
3.777589
 20
3.157736
 30
0.0
 11
3.777589
 21
3.006736
 31
0.0
  0
ARC
  5
26D
330
5A3
100
AcDbEntity
  8
ninja1 - Level 26
  6
Continuous
 62
     7
370
    13
100
AcDbCircle
 10
3.772076
 20
3.157736
 30
0.0
 40
0.0155124999999988
100
AcDbArc
 50
42.085656
 51
69.184577
  0
LINE
  5
26E
330
5A3
100
AcDbEntity
  8
ninja1 - Level 26
  6
Continuous
 62
     7
370
    13
100
AcDbLine
 10
3.750589
 20
3.284486
 30
0.0
 11
3.738589
 21
3.284486
 31
0.0
  0
LINE
  5
26F
330
5A3
100
AcDbEntity
  8
ninja1 - Level 26
  6
Continuous
 62
     7
370
    13
100
AcDbLine
 10
3.750589
 20
3.349486
 30
0.0
 11
3.738589
 21
3.349486
 31
0.0
  0
LINE
  5
270
330
5A3
100
AcDbEntity
  8
ninja1 - Level 26
  6
Continuous
 62
     7
370
    13
100
AcDbLine
 10
3.738589
 20
3.349486
 30
0.0
 11
3.738589
 21
3.284486
 31
0.0
  0
LINE
  5
271
330
5A3
100
AcDbEntity
  8
ninja1 - Level 26
  6
Continuous
 62
     7
370
    13
100
AcDbLine
 10
3.715848
 20
3.294486
 30
0.0
 11
3.738589
 21
3.294486
 31
0.0
  0
SPLINE
  5
272
330
5A3
100
AcDbEntity
  8
ninja1 - Level 26
  6
Continuous
 62
     7
370
    13
100
AcDbSpline
210
0.0
220
0.0
230
1.0
 70
     8
 71
     3
 72
     8
 73
     4
 74
     0
 42
0.000000001
 43
0.0000000001
 40
0.0
 40
0.0
 40
0.0
 40
0.0
 40
1.0
 40
1.0
 40
1.0
 40
1.0
 10
3.708588702603258
 20
3.284486119389773
 30
0.0
 10
3.708516419462889
 20
3.284448132041981
 30
0.0
 10
3.711908923602439
 20
3.28854813701097
 30
0.0
 10
3.715847537388289
 20
3.29448611938979
 30
0.0
  0
LINE
  5
275
330
5A3
100
AcDbEntity
  8
ninja1 - Level 26
  6
Continuous
 62
     7
370
    13
100
AcDbLine
 10
3.708589
 20
3.284486
 30
0.0
 11
3.738589
 21
3.284486
 31
0.0
  0
LINE
  5
276
330
5A3
100
AcDbEntity
  8
ninja1 - Level 26
  6
Continuous
 62
     7
370
    13
100
AcDbLine
 10
3.715848
 20
3.339486
 30
0.0
 11
3.738589
 21
3.339486
 31
0.0
  0
SPLINE
  5
277
330
5A3
100
AcDbEntity
  8
ninja1 - Level 26
  6
Continuous
 62
     7
370
    13
100
AcDbSpline
210
0.0
220
0.0
230
1.0
 70
     8
 71
     3
 72
     8
 73
     4
 74
     0
 42
0.000000001
 43
0.0000000001
 40
0.0
 40
0.0
 40
0.0
 40
0.0
 40
1.0
 40
1.0
 40
1.0
 40
1.0
 10
3.715847537388277
 20
3.339486119389787
 30
0.0
 10
3.711911673210719
 20
3.345419883306309
 30
0.0
 10
3.708514303138972
 20
3.349527282678717
 30
0.0
 10
3.708588702603258
 20
3.349486119389787
 30
0.0
  0
LINE
  5
27A
330
5A3
100
AcDbEntity
  8
ninja1 - Level 26
  6
Continuous
 62
     7
370
    13
100
AcDbLine
 10
3.708589
 20
3.349486
 30
0.0
 11
3.738589
 21
3.349486
 31
0.0
  0
LINE
  5
27B
330
5A3
100
AcDbEntity
  8
ninja1 - Level 26
  6
Continuous
 62
     7
370
    13
100
AcDbLine
 10
3.708589
 20
3.284486
 30
0.0
 11
3.708589
 21
3.349486
 31
0.0
  0
LINE
  5
27C
330
5A3
100
AcDbEntity
  8
ninja1 - Level 26
  6
Continuous
 62
     7
370
    13
100
AcDbLine
 10
3.750589
 20
4.084486
 30
0.0
 11
3.738589
 21
4.084486
 31
0.0
  0
LINE
  5
27D
330
5A3
100
AcDbEntity
  8
ninja1 - Level 26
  6
Continuous
 62
     7
370
    13
100
AcDbLine
 10
3.750589
 20
4.149486
 30
0.0
 11
3.738589
 21
4.149486
 31
0.0
  0
LINE
  5
27E
330
5A3
100
AcDbEntity
  8
ninja1 - Level 26
  6
Continuous
 62
     7
370
    13
100
AcDbLine
 10
3.738589
 20
4.084486
 30
0.0
 11
3.738589
 21
4.149486
 31
0.0
  0
LINE
  5
27F
330
5A3
100
AcDbEntity
  8
ninja1 - Level 26
  6
Continuous
 62
     7
370
    13
100
AcDbLine
 10
3.715848
 20
4.139486
 30
0.0
 11
3.738589
 21
4.139486
 31
0.0
  0
SPLINE
  5
280
330
5A3
100
AcDbEntity
  8
ninja1 - Level 26
  6
Continuous
 62
     7
370
    13
100
AcDbSpline
210
0.0
220
0.0
230
1.0
 70
     8
 71
     3
 72
     8
 73
     4
 74
     0
 42
0.000000001
 43
0.0000000001
 40
0.0
 40
0.0
 40
0.0
 40
0.0
 40
1.0
 40
1.0
 40
1.0
 40
1.0
 10
3.708588702603258
 20
4.149486112474769
 30
0.0
 10
3.708516419462886
 20
4.149524099822559
 30
0.0
 10
3.711908923602439
 20
4.145424094853574
 30
0.0
 10
3.715847537388289
 20
4.139486112474751
 30
0.0
  0
LINE
  5
283
330
5A3
100
AcDbEntity
  8
ninja1 - Level 26
  6
Continuous
 62
     7
370
    13
100
AcDbLine
 10
3.708589
 20
4.149486
 30
0.0
 11
3.738589
 21
4.149486
 31
0.0
  0
LINE
  5
284
330
5A3
100
AcDbEntity
  8
ninja1 - Level 26
  6
Continuous
 62
     7
370
    13
100
AcDbLine
 10
3.715848
 20
4.094486
 30
0.0
 11
3.738589
 21
4.094486
 31
0.0
  0
SPLINE
  5
285
330
5A3
100
AcDbEntity
  8
ninja1 - Level 26
  6
Continuous
 62
     7
370
    13
100
AcDbSpline
210
0.0
220
0.0
230
1.0
 70
     8
 71
     3
 72
     8
 73
     4
 74
     0
 42
0.000000001
 43
0.0000000001
 40
0.0
 40
0.0
 40
0.0
 40
0.0
 40
1.0
 40
1.0
 40
1.0
 40
1.0
 10
3.715847537388277
 20
4.094486112474754
 30
0.0
 10
3.711911673210719
 20
4.088552348558232
 30
0.0
 10
3.708514303138969
 20
4.084444949185825
 30
0.0
 10
3.708588702603258
 20
4.084486112474754
 30
0.0
  0
LINE
  5
288
330
5A3
100
AcDbEntity
  8
ninja1 - Level 26
  6
Continuous
 62
     7
370
    13
100
AcDbLine
 10
3.708589
 20
4.084486
 30
0.0
 11
3.738589
 21
4.084486
 31
0.0
  0
LINE
  5
289
330
5A3
100
AcDbEntity
  8
ninja1 - Level 26
  6
Continuous
 62
     7
370
    13
100
AcDbLine
 10
3.708589
 20
4.149486
 30
0.0
 11
3.708589
 21
4.084486
 31
0.0
  0
LINE
  5
28A
330
5A3
100
AcDbEntity
  8
ninja1 - Level 31
  6
Continuous
 62
     7
370
    13
100
AcDbLine
 10
3.708589
 20
3.333986
 30
0.0
 11
3.092589
 21
3.333986
 31
0.0
  0
LINE
  5
28B
330
5A3
100
AcDbEntity
  8
ninja1 - Level 31
  6
Continuous
 62
     7
370
    13
100
AcDbLine
 10
3.092589
 20
3.299986
 30
0.0
 11
3.708589
 21
3.299986
 31
0.0
  0
LINE
  5
28C
330
5A3
100
AcDbEntity
  8
ninja1 - Level 30
  6
Continuous
 62
     7
370
    13
100
AcDbLine
 10
3.708589
 20
4.133986
 30
0.0
 11
3.092589
 21
4.133986
 31
0.0
  0
LINE
  5
28D
330
5A3
100
AcDbEntity
  8
ninja1 - Level 30
  6
Continuous
 62
     7
370
    13
100
AcDbLine
 10
3.092589
 20
4.099986
 30
0.0
 11
3.708589
 21
4.099986
 31
0.0
  0
LINE
  5
28E
330
5A3
100
AcDbEntity
  8
ninja1 - Level 26
  6
Continuous
 62
     7
370
    13
100
AcDbLine
 10
2.968089
 20
2.897486
 30
0.0
 11
2.968089
 21
2.909486
 31
0.0
  0
LINE
  5
28F
330
5A3
100
AcDbEntity
  8
ninja1 - Level 26
  6
Continuous
 62
     7
370
    13
100
AcDbLine
 10
3.033089
 20
2.897486
 30
0.0
 11
3.033089
 21
2.909486
 31
0.0
  0
LINE
  5
290
330
5A3
100
AcDbEntity
  8
ninja1 - Level 26
  6
Continuous
 62
     7
370
    13
100
AcDbLine
 10
3.033089
 20
2.909486
 30
0.0
 11
2.968089
 21
2.909486
 31
0.0
  0
LINE
  5
291
330
5A3
100
AcDbEntity
  8
ninja1 - Level 26
  6
Continuous
 62
     7
370
    13
100
AcDbLine
 10
2.978089
 20
2.932227
 30
0.0
 11
2.978089
 21
2.909486
 31
0.0
  0
SPLINE
  5
292
330
5A3
100
AcDbEntity
  8
ninja1 - Level 26
  6
Continuous
 62
     7
370
    13
100
AcDbSpline
210
0.0
220
0.0
230
1.0
 70
     8
 71
     3
 72
     8
 73
     4
 74
     0
 42
0.000000001
 43
0.0000000001
 40
0.0
 40
0.0
 40
0.0
 40
0.0
 40
1.0
 40
1.0
 40
1.0
 40
1.0
 10
2.968088706060688
 20
2.939486115932282
 30
0.0
 10
2.968050718712892
 20
2.939558399072654
 30
0.0
 10
2.972150723681881
 20
2.936165894933104
 30
0.0
 10
2.9780887060607
 20
2.932227281147253
 30
0.0
  0
LINE
  5
295
330
5A3
100
AcDbEntity
  8
ninja1 - Level 26
  6
Continuous
 62
     7
370
    13
100
AcDbLine
 10
2.968089
 20
2.939486
 30
0.0
 11
2.968089
 21
2.909486
 31
0.0
  0
LINE
  5
296
330
5A3
100
AcDbEntity
  8
ninja1 - Level 26
  6
Continuous
 62
     7
370
    13
100
AcDbLine
 10
3.023089
 20
2.932227
 30
0.0
 11
3.023089
 21
2.909486
 31
0.0
  0
SPLINE
  5
297
330
5A3
100
AcDbEntity
  8
ninja1 - Level 26
  6
Continuous
 62
     7
370
    13
100
AcDbSpline
210
0.0
220
0.0
230
1.0
 70
     8
 71
     3
 72
     8
 73
     4
 74
     0
 42
0.000000001
 43
0.0000000001
 40
0.0
 40
0.0
 40
0.0
 40
0.0
 40
1.0
 40
1.0
 40
1.0
 40
1.0
 10
3.0230887060607
 20
2.932227281147265
 30
0.0
 10
3.029022469977223
 20
2.936163145324825
 30
0.0
 10
3.03312986934963
 20
2.939560515396572
 30
0.0
 10
3.0330887060607
 20
2.939486115932282
 30
0.0
  0
LINE
  5
29A
330
5A3
100
AcDbEntity
  8
ninja1 - Level 26
  6
Continuous
 62
     7
370
    13
100
AcDbLine
 10
3.033089
 20
2.939486
 30
0.0
 11
3.033089
 21
2.909486
 31
0.0
  0
LINE
  5
29B
330
5A3
100
AcDbEntity
  8
ninja1 - Level 26
  6
Continuous
 62
     7
370
    13
100
AcDbLine
 10
2.968089
 20
2.939486
 30
0.0
 11
3.033089
 21
2.939486
 31
0.0
  0
LINE
  5
29C
330
5A3
100
AcDbEntity
  8
ninja1 - Level 26
  6
Continuous
 62
     7
370
    13
100
AcDbLine
 10
3.768089
 20
2.897486
 30
0.0
 11
3.768089
 21
2.909486
 31
0.0
  0
LINE
  5
29D
330
5A3
100
AcDbEntity
  8
ninja1 - Level 26
  6
Continuous
 62
     7
370
    13
100
AcDbLine
 10
3.833089
 20
2.897486
 30
0.0
 11
3.833089
 21
2.909486
 31
0.0
  0
LINE
  5
29E
330
5A3
100
AcDbEntity
  8
ninja1 - Level 26
  6
Continuous
 62
     7
370
    13
100
AcDbLine
 10
3.768089
 20
2.909486
 30
0.0
 11
3.833089
 21
2.909486
 31
0.0
  0
LINE
  5
29F
330
5A3
100
AcDbEntity
  8
ninja1 - Level 26
  6
Continuous
 62
     7
370
    13
100
AcDbLine
 10
3.823089
 20
2.932227
 30
0.0
 11
3.823089
 21
2.909486
 31
0.0
  0
SPLINE
  5
2A0
330
5A3
100
AcDbEntity
  8
ninja1 - Level 26
  6
Continuous
 62
     7
370
    13
100
AcDbSpline
210
0.0
220
0.0
230
1.0
 70
     8
 71
     3
 72
     8
 73
     4
 74
     0
 42
0.000000001
 43
0.0000000001
 40
0.0
 40
0.0
 40
0.0
 40
0.0
 40
1.0
 40
1.0
 40
1.0
 40
1.0
 10
3.833088702603244
 20
2.939486115932282
 30
0.0
 10
3.833126689951032
 20
2.939558399072652
 30
0.0
 10
3.829026684982048
 20
2.936165894933106
 30
0.0
 10
3.823088702603226
 20
2.932227281147253
 30
0.0
  0
LINE
  5
2A3
330
5A3
100
AcDbEntity
  8
ninja1 - Level 26
  6
Continuous
 62
     7
370
    13
100
AcDbLine
 10
3.833089
 20
2.939486
 30
0.0
 11
3.833089
 21
2.909486
 31
0.0
  0
LINE
  5
2A4
330
5A3
100
AcDbEntity
  8
ninja1 - Level 26
  6
Continuous
 62
     7
370
    13
100
AcDbLine
 10
3.778089
 20
2.932227
 30
0.0
 11
3.778089
 21
2.909486
 31
0.0
  0
SPLINE
  5
2A5
330
5A3
100
AcDbEntity
  8
ninja1 - Level 26
  6
Continuous
 62
     7
370
    13
100
AcDbSpline
210
0.0
220
0.0
230
1.0
 70
     8
 71
     3
 72
     8
 73
     4
 74
     0
 42
0.000000001
 43
0.0000000001
 40
0.0
 40
0.0
 40
0.0
 40
0.0
 40
1.0
 40
1.0
 40
1.0
 40
1.0
 10
3.778088702603229
 20
2.932227281147265
 30
0.0
 10
3.772154938686707
 20
2.936163145324826
 30
0.0
 10
3.768047539314296
 20
2.939560515396571
 30
0.0
 10
3.768088702603229
 20
2.939486115932282
 30
0.0
  0
LINE
  5
2A8
330
5A3
100
AcDbEntity
  8
ninja1 - Level 26
  6
Continuous
 62
     7
370
    13
100
AcDbLine
 10
3.768089
 20
2.939486
 30
0.0
 11
3.768089
 21
2.909486
 31
0.0
  0
LINE
  5
2A9
330
5A3
100
AcDbEntity
  8
ninja1 - Level 26
  6
Continuous
 62
     7
370
    13
100
AcDbLine
 10
3.833089
 20
2.939486
 30
0.0
 11
3.768089
 21
2.939486
 31
0.0
  0
LINE
  5
2AA
330
5A3
100
AcDbEntity
  8
ninja1 - Level 26
  6
Continuous
 62
     7
370
    13
100
AcDbLine
 10
3.033089
 20
3.266986
 30
0.0
 11
3.033089
 21
3.254986
 31
0.0
  0
LINE
  5
2AB
330
5A3
100
AcDbEntity
  8
ninja1 - Level 26
  6
Continuous
 62
     7
370
    13
100
AcDbLine
 10
2.968089
 20
3.266986
 30
0.0
 11
2.968089
 21
3.254986
 31
0.0
  0
LINE
  5
2AC
330
5A3
100
AcDbEntity
  8
ninja1 - Level 26
  6
Continuous
 62
     7
370
    13
100
AcDbLine
 10
3.033089
 20
3.254986
 30
0.0
 11
2.968089
 21
3.254986
 31
0.0
  0
LINE
  5
2AD
330
5A3
100
AcDbEntity
  8
ninja1 - Level 26
  6
Continuous
 62
     7
370
    13
100
AcDbLine
 10
2.978089
 20
3.232245
 30
0.0
 11
2.978089
 21
3.254986
 31
0.0
  0
SPLINE
  5
2AE
330
5A3
100
AcDbEntity
  8
ninja1 - Level 26
  6
Continuous
 62
     7
370
    13
100
AcDbSpline
210
0.0
220
0.0
230
1.0
 70
     8
 71
     3
 72
     8
 73
     4
 74
     0
 42
0.000000001
 43
0.0000000001
 40
0.0
 40
0.0
 40
0.0
 40
0.0
 40
1.0
 40
1.0
 40
1.0
 40
1.0
 10
2.968088706060688
 20
3.224986115932292
 30
0.0
 10
2.968050718712892
 20
3.224913832791919
 30
0.0
 10
2.972150723681881
 20
3.228306336931471
 30
0.0
 10
2.9780887060607
 20
3.232244950717321
 30
0.0
  0
LINE
  5
2B1
330
5A3
100
AcDbEntity
  8
ninja1 - Level 26
  6
Continuous
 62
     7
370
    13
100
AcDbLine
 10
2.968089
 20
3.224986
 30
0.0
 11
2.968089
 21
3.254986
 31
0.0
  0
LINE
  5
2B2
330
5A3
100
AcDbEntity
  8
ninja1 - Level 26
  6
Continuous
 62
     7
370
    13
100
AcDbLine
 10
3.023089
 20
3.232245
 30
0.0
 11
3.023089
 21
3.254986
 31
0.0
  0
SPLINE
  5
2B3
330
5A3
100
AcDbEntity
  8
ninja1 - Level 26
  6
Continuous
 62
     7
370
    13
100
AcDbSpline
210
0.0
220
0.0
230
1.0
 70
     8
 71
     3
 72
     8
 73
     4
 74
     0
 42
0.000000001
 43
0.0000000001
 40
0.0
 40
0.0
 40
0.0
 40
0.0
 40
1.0
 40
1.0
 40
1.0
 40
1.0
 10
3.0230887060607
 20
3.23224495071731
 30
0.0
 10
3.029022469977223
 20
3.228309086539749
 30
0.0
 10
3.03312986934963
 20
3.224911716468001
 30
0.0
 10
3.0330887060607
 20
3.224986115932292
 30
0.0
  0
LINE
  5
2B6
330
5A3
100
AcDbEntity
  8
ninja1 - Level 26
  6
Continuous
 62
     7
370
    13
100
AcDbLine
 10
3.033089
 20
3.224986
 30
0.0
 11
3.033089
 21
3.254986
 31
0.0
  0
LINE
  5
2B7
330
5A3
100
AcDbEntity
  8
ninja1 - Level 26
  6
Continuous
 62
     7
370
    13
100
AcDbLine
 10
2.968089
 20
3.224986
 30
0.0
 11
3.033089
 21
3.224986
 31
0.0
  0
LINE
  5
2B8
330
5A3
100
AcDbEntity
  8
ninja1 - Level 26
  6
Continuous
 62
     7
370
    13
100
AcDbLine
 10
3.833089
 20
3.266986
 30
0.0
 11
3.833089
 21
3.254986
 31
0.0
  0
LINE
  5
2B9
330
5A3
100
AcDbEntity
  8
ninja1 - Level 26
  6
Continuous
 62
     7
370
    13
100
AcDbLine
 10
3.768089
 20
3.266986
 30
0.0
 11
3.768089
 21
3.254986
 31
0.0
  0
LINE
  5
2BA
330
5A3
100
AcDbEntity
  8
ninja1 - Level 26
  6
Continuous
 62
     7
370
    13
100
AcDbLine
 10
3.768089
 20
3.254986
 30
0.0
 11
3.833089
 21
3.254986
 31
0.0
  0
LINE
  5
2BB
330
5A3
100
AcDbEntity
  8
ninja1 - Level 26
  6
Continuous
 62
     7
370
    13
100
AcDbLine
 10
3.823089
 20
3.232245
 30
0.0
 11
3.823089
 21
3.254986
 31
0.0
  0
SPLINE
  5
2BC
330
5A3
100
AcDbEntity
  8
ninja1 - Level 26
  6
Continuous
 62
     7
370
    13
100
AcDbSpline
210
0.0
220
0.0
230
1.0
 70
     8
 71
     3
 72
     8
 73
     4
 74
     0
 42
0.000000001
 43
0.0000000001
 40
0.0
 40
0.0
 40
0.0
 40
0.0
 40
1.0
 40
1.0
 40
1.0
 40
1.0
 10
3.833088702603244
 20
3.224986115932292
 30
0.0
 10
3.833126689951032
 20
3.224913832791921
 30
0.0
 10
3.829026684982048
 20
3.228306336931471
 30
0.0
 10
3.823088702603226
 20
3.232244950717321
 30
0.0
  0
LINE
  5
2BF
330
5A3
100
AcDbEntity
  8
ninja1 - Level 26
  6
Continuous
 62
     7
370
    13
100
AcDbLine
 10
3.833089
 20
3.224986
 30
0.0
 11
3.833089
 21
3.254986
 31
0.0
  0
LINE
  5
2C0
330
5A3
100
AcDbEntity
  8
ninja1 - Level 26
  6
Continuous
 62
     7
370
    13
100
AcDbLine
 10
3.778089
 20
3.232245
 30
0.0
 11
3.778089
 21
3.254986
 31
0.0
  0
SPLINE
  5
2C1
330
5A3
100
AcDbEntity
  8
ninja1 - Level 26
  6
Continuous
 62
     7
370
    13
100
AcDbSpline
210
0.0
220
0.0
230
1.0
 70
     8
 71
     3
 72
     8
 73
     4
 74
     0
 42
0.000000001
 43
0.0000000001
 40
0.0
 40
0.0
 40
0.0
 40
0.0
 40
1.0
 40
1.0
 40
1.0
 40
1.0
 10
3.778088702603229
 20
3.23224495071731
 30
0.0
 10
3.772154938686707
 20
3.228309086539749
 30
0.0
 10
3.768047539314296
 20
3.224911716468002
 30
0.0
 10
3.768088702603229
 20
3.224986115932292
 30
0.0
  0
LINE
  5
2C4
330
5A3
100
AcDbEntity
  8
ninja1 - Level 26
  6
Continuous
 62
     7
370
    13
100
AcDbLine
 10
3.768089
 20
3.224986
 30
0.0
 11
3.768089
 21
3.254986
 31
0.0
  0
LINE
  5
2C5
330
5A3
100
AcDbEntity
  8
ninja1 - Level 26
  6
Continuous
 62
     7
370
    13
100
AcDbLine
 10
3.833089
 20
3.224986
 30
0.0
 11
3.768089
 21
3.224986
 31
0.0
  0
LINE
  5
2C6
330
5A3
100
AcDbEntity
  8
ninja1 - Level 26
  6
Continuous
 62
     7
370
    13
100
AcDbLine
 10
3.043089
 20
4.061611
 30
0.0
 11
3.043089
 21
4.066611
 31
0.0
  0
LINE
  5
2C7
330
5A3
100
AcDbEntity
  8
ninja1 - Level 26
  6
Continuous
 62
     7
370
    13
100
AcDbLine
 10
3.048089
 20
4.066611
 30
0.0
 11
3.048089
 21
4.061611
 31
0.0
  0
LINE
  5
2C8
330
5A3
100
AcDbEntity
  8
ninja1 - Level 26
  6
Continuous
 62
     7
370
    13
100
AcDbLine
 10
3.043089
 20
4.061611
 30
0.0
 11
3.048089
 21
4.061611
 31
0.0
  0
LINE
  5
2C9
330
5A3
100
AcDbEntity
  8
ninja1 - Level 26
  6
Continuous
 62
     7
370
    13
100
AcDbLine
 10
3.048089
 20
4.066611
 30
0.0
 11
3.043089
 21
4.066611
 31
0.0
  0
LINE
  5
2CA
330
5A3
100
AcDbEntity
  8
ninja1 - Level 26
  6
Continuous
 62
     7
370
    13
100
AcDbLine
 10
3.048089
 20
3.368611
 30
0.0
 11
3.048089
 21
3.373611
 31
0.0
  0
LINE
  5
2CB
330
5A3
100
AcDbEntity
  8
ninja1 - Level 26
  6
Continuous
 62
     7
370
    13
100
AcDbLine
 10
3.043089
 20
3.373611
 30
0.0
 11
3.043089
 21
3.368611
 31
0.0
  0
LINE
  5
2CC
330
5A3
100
AcDbEntity
  8
ninja1 - Level 26
  6
Continuous
 62
     7
370
    13
100
AcDbLine
 10
3.043089
 20
3.373611
 30
0.0
 11
3.048089
 21
3.373611
 31
0.0
  0
LINE
  5
2CD
330
5A3
100
AcDbEntity
  8
ninja1 - Level 26
  6
Continuous
 62
     7
370
    13
100
AcDbLine
 10
3.048089
 20
3.368611
 30
0.0
 11
3.043089
 21
3.368611
 31
0.0
  0
ARC
  5
2CE
330
5A3
100
AcDbEntity
  8
ninja1 - Level 26
  6
Continuous
 62
     7
370
    13
100
AcDbCircle
 10
-3.018089
 20
3.373611
 30
0.0
 40
0.005
210
0.0
220
0.0
230
-1.0
100
AcDbArc
 50
270.0
 51
0.0
  0
LINE
  5
2CF
330
5A3
100
AcDbEntity
  8
ninja1 - Level 26
  6
Continuous
 62
     7
370
    13
100
AcDbLine
 10
3.013089
 20
4.061611
 30
0.0
 11
3.013089
 21
4.015111
 31
0.0
  0
LINE
  5
2D0
330
5A3
100
AcDbEntity
  8
ninja1 - Level 26
  6
Continuous
 62
     7
370
    13
100
AcDbLine
 10
3.013089
 20
3.960109
 30
0.0
 11
3.013089
 21
3.880111
 31
0.0
  0
LINE
  5
2D1
330
5A3
100
AcDbEntity
  8
ninja1 - Level 26
  6
Continuous
 62
     7
370
    13
100
AcDbLine
 10
3.013089
 20
3.825111
 30
0.0
 11
3.013089
 21
3.745111
 31
0.0
  0
LINE
  5
2D2
330
5A3
100
AcDbEntity
  8
ninja1 - Level 26
  6
Continuous
 62
     7
370
    13
100
AcDbLine
 10
3.013089
 20
3.690111
 30
0.0
 11
3.013089
 21
3.610111
 31
0.0
  0
LINE
  5
2D3
330
5A3
100
AcDbEntity
  8
ninja1 - Level 26
  6
Continuous
 62
     7
370
    13
100
AcDbLine
 10
3.013089
 20
3.555111
 30
0.0
 11
3.013089
 21
3.475111
 31
0.0
  0
LINE
  5
2D4
330
5A3
100
AcDbEntity
  8
ninja1 - Level 26
  6
Continuous
 62
     7
370
    13
100
AcDbLine
 10
3.013089
 20
3.420111
 30
0.0
 11
3.013089
 21
3.373611
 31
0.0
  0
ARC
  5
2D5
330
5A3
100
AcDbEntity
  8
ninja1 - Level 26
  6
Continuous
 62
     7
370
    13
100
AcDbCircle
 10
-3.018089
 20
4.061611
 30
0.0
 40
0.005
210
0.0
220
0.0
230
-1.0
100
AcDbArc
 50
0.0
 51
90.0
  0
LINE
  5
2D6
330
5A3
100
AcDbEntity
  8
ninja1 - Level 26
  6
Continuous
 62
     7
370
    13
100
AcDbLine
 10
3.018089
 20
3.373611
 30
0.0
 11
3.018089
 21
4.061611
 31
0.0
  0
LINE
  5
2D7
330
5A3
100
AcDbEntity
  8
ninja1 - Level 26
  6
Continuous
 62
     7
370
    13
100
AcDbLine
 10
3.018089
 20
4.061611
 30
0.0
 11
3.043089
 21
4.061611
 31
0.0
  0
LINE
  5
2D8
330
5A3
100
AcDbEntity
  8
ninja1 - Level 26
  6
Continuous
 62
     7
370
    13
100
AcDbLine
 10
3.018089
 20
3.373611
 30
0.0
 11
3.043089
 21
3.373611
 31
0.0
  0
LINE
  5
2D9
330
5A3
100
AcDbEntity
  8
ninja1 - Level 26
  6
Continuous
 62
     7
370
    13
100
AcDbLine
 10
3.043089
 20
3.368611
 30
0.0
 11
3.018089
 21
3.368611
 31
0.0
  0
LINE
  5
2DA
330
5A3
100
AcDbEntity
  8
ninja1 - Level 26
  6
Continuous
 62
     7
370
    13
100
AcDbLine
 10
3.043089
 20
4.066611
 30
0.0
 11
3.018089
 21
4.066611
 31
0.0
  0
LINE
  5
2DB
330
5A3
100
AcDbEntity
  8
ninja1 - Level 26
  6
Continuous
 62
     7
370
    13
100
AcDbLine
 10
3.753089
 20
4.066611
 30
0.0
 11
3.753089
 21
4.061611
 31
0.0
  0
LINE
  5
2DC
330
5A3
100
AcDbEntity
  8
ninja1 - Level 26
  6
Continuous
 62
     7
370
    13
100
AcDbLine
 10
3.758089
 20
4.061611
 30
0.0
 11
3.758089
 21
4.066611
 31
0.0
  0
LINE
  5
2DD
330
5A3
100
AcDbEntity
  8
ninja1 - Level 26
  6
Continuous
 62
     7
370
    13
100
AcDbLine
 10
3.758089
 20
4.061611
 30
0.0
 11
3.753089
 21
4.061611
 31
0.0
  0
LINE
  5
2DE
330
5A3
100
AcDbEntity
  8
ninja1 - Level 26
  6
Continuous
 62
     7
370
    13
100
AcDbLine
 10
3.753089
 20
4.066611
 30
0.0
 11
3.758089
 21
4.066611
 31
0.0
  0
LINE
  5
2DF
330
5A3
100
AcDbEntity
  8
ninja1 - Level 26
  6
Continuous
 62
     7
370
    13
100
AcDbLine
 10
3.758089
 20
3.373611
 30
0.0
 11
3.758089
 21
3.368611
 31
0.0
  0
LINE
  5
2E0
330
5A3
100
AcDbEntity
  8
ninja1 - Level 26
  6
Continuous
 62
     7
370
    13
100
AcDbLine
 10
3.753089
 20
3.368611
 30
0.0
 11
3.753089
 21
3.373611
 31
0.0
  0
LINE
  5
2E1
330
5A3
100
AcDbEntity
  8
ninja1 - Level 26
  6
Continuous
 62
     7
370
    13
100
AcDbLine
 10
3.758089
 20
3.373611
 30
0.0
 11
3.753089
 21
3.373611
 31
0.0
  0
LINE
  5
2E2
330
5A3
100
AcDbEntity
  8
ninja1 - Level 26
  6
Continuous
 62
     7
370
    13
100
AcDbLine
 10
3.753089
 20
3.368611
 30
0.0
 11
3.758089
 21
3.368611
 31
0.0
  0
LINE
  5
2E3
330
5A3
100
AcDbEntity
  8
ninja1 - Level 26
  6
Continuous
 62
     7
370
    13
100
AcDbLine
 10
3.783089
 20
3.373611
 30
0.0
 11
3.783089
 21
4.061611
 31
0.0
  0
ARC
  5
2E4
330
5A3
100
AcDbEntity
  8
ninja1 - Level 26
  6
Continuous
 62
     7
370
    13
100
AcDbCircle
 10
3.783089
 20
4.061611
 30
0.0
 40
0.005
100
AcDbArc
 50
0.0
 51
90.0
  0
LINE
  5
2E5
330
5A3
100
AcDbEntity
  8
ninja1 - Level 26
  6
Continuous
 62
     7
370
    13
100
AcDbLine
 10
3.788089
 20
4.061611
 30
0.0
 11
3.788089
 21
4.015111
 31
0.0
  0
LINE
  5
2E6
330
5A3
100
AcDbEntity
  8
ninja1 - Level 26
  6
Continuous
 62
     7
370
    13
100
AcDbLine
 10
3.788089
 20
3.960109
 30
0.0
 11
3.788089
 21
3.880111
 31
0.0
  0
LINE
  5
2E7
330
5A3
100
AcDbEntity
  8
ninja1 - Level 26
  6
Continuous
 62
     7
370
    13
100
AcDbLine
 10
3.788089
 20
3.825111
 30
0.0
 11
3.788089
 21
3.745111
 31
0.0
  0
LINE
  5
2E8
330
5A3
100
AcDbEntity
  8
ninja1 - Level 26
  6
Continuous
 62
     7
370
    13
100
AcDbLine
 10
3.788089
 20
3.690111
 30
0.0
 11
3.788089
 21
3.610111
 31
0.0
  0
LINE
  5
2E9
330
5A3
100
AcDbEntity
  8
ninja1 - Level 26
  6
Continuous
 62
     7
370
    13
100
AcDbLine
 10
3.788089
 20
3.555111
 30
0.0
 11
3.788089
 21
3.475111
 31
0.0
  0
LINE
  5
2EA
330
5A3
100
AcDbEntity
  8
ninja1 - Level 26
  6
Continuous
 62
     7
370
    13
100
AcDbLine
 10
3.788089
 20
3.420111
 30
0.0
 11
3.788089
 21
3.373611
 31
0.0
  0
ARC
  5
2EB
330
5A3
100
AcDbEntity
  8
ninja1 - Level 26
  6
Continuous
 62
     7
370
    13
100
AcDbCircle
 10
3.783089
 20
3.373611
 30
0.0
 40
0.005
100
AcDbArc
 50
270.0
 51
0.0
  0
LINE
  5
2EC
330
5A3
100
AcDbEntity
  8
ninja1 - Level 26
  6
Continuous
 62
     7
370
    13
100
AcDbLine
 10
3.783089
 20
4.061611
 30
0.0
 11
3.758089
 21
4.061611
 31
0.0
  0
LINE
  5
2ED
330
5A3
100
AcDbEntity
  8
ninja1 - Level 26
  6
Continuous
 62
     7
370
    13
100
AcDbLine
 10
3.783089
 20
3.373611
 30
0.0
 11
3.758089
 21
3.373611
 31
0.0
  0
LINE
  5
2EE
330
5A3
100
AcDbEntity
  8
ninja1 - Level 26
  6
Continuous
 62
     7
370
    13
100
AcDbLine
 10
3.758089
 20
3.368611
 30
0.0
 11
3.783089
 21
3.368611
 31
0.0
  0
LINE
  5
2EF
330
5A3
100
AcDbEntity
  8
ninja1 - Level 26
  6
Continuous
 62
     7
370
    13
100
AcDbLine
 10
3.758089
 20
4.066611
 30
0.0
 11
3.783089
 21
4.066611
 31
0.0
  0
ARC
  5
2F0
330
5A3
100
AcDbEntity
  8
ninja1 - Level 26
  6
Continuous
 62
     7
370
    13
100
AcDbCircle
 10
3.012089
 20
3.447611
 30
0.0
 40
0.0134749260041462
100
AcDbArc
 50
296.440708
 51
0.0
  0
ARC
  5
2F1
330
5A3
100
AcDbEntity
  8
ninja1 - Level 26
  6
Continuous
 62
     7
370
    13
100
AcDbCircle
 10
3.012089
 20
3.447611
 30
0.0
 40
0.0134749260041462
100
AcDbArc
 50
0.0
 51
63.559292
  0
ARC
  5
2F2
330
5A3
100
AcDbEntity
  8
ninja1 - Level 26
  6
Continuous
 62
     7
370
    13
100
AcDbCircle
 10
3.789089
 20
3.447611
 30
0.0
 40
0.0134749260041462
100
AcDbArc
 50
116.440708
 51
243.559292
  0
ARC
  5
2F3
330
5A3
100
AcDbEntity
  8
ninja1 - Level 26
  6
Continuous
 62
     7
370
    13
100
AcDbCircle
 10
3.789089
 20
3.582611
 30
0.0
 40
0.0134749260041462
100
AcDbArc
 50
116.440708
 51
243.559292
  0
ARC
  5
2F4
330
5A3
100
AcDbEntity
  8
ninja1 - Level 26
  6
Continuous
 62
     7
370
    13
100
AcDbCircle
 10
3.789089
 20
3.717611
 30
0.0
 40
0.0134749260041462
100
AcDbArc
 50
116.440708
 51
243.559292
  0
LINE
  5
2F5
330
5A3
100
AcDbEntity
  8
ninja1 - Level 33
  6
Continuous
 62
     7
370
    13
100
AcDbLine
 10
3.783589
 20
3.224986
 30
0.0
 11
3.783589
 21
2.939486
 31
0.0
  0
LINE
  5
2F6
330
5A3
100
AcDbEntity
  8
ninja1 - Level 33
  6
Continuous
 62
     7
370
    13
100
AcDbLine
 10
3.817589
 20
2.939486
 30
0.0
 11
3.817589
 21
3.224986
 31
0.0
  0
LINE
  5
2F7
330
5A3
100
AcDbEntity
  8
ninja1 - Level 32
  6
Continuous
 62
     7
370
    13
100
AcDbLine
 10
2.983589
 20
3.224986
 30
0.0
 11
2.983589
 21
2.939486
 31
0.0
  0
LINE
  5
2F8
330
5A3
100
AcDbEntity
  8
ninja1 - Level 32
  6
Continuous
 62
     7
370
    13
100
AcDbLine
 10
3.017589
 20
2.939486
 30
0.0
 11
3.017589
 21
3.224986
 31
0.0
  0
ARC
  5
2F9
330
5A3
100
AcDbEntity
  8
ninja1 - Level 42
  6
Continuous
 62
     7
370
    13
100
AcDbCircle
 10
-3.800589
 20
3.475111
 30
0.0
 40
0.0125
210
0.0
220
0.0
230
-1.0
100
AcDbArc
 50
0.0
 51
177.708037
  0
LINE
  5
2FA
330
5A3
100
AcDbEntity
  8
ninja1 - Level 42
  6
Continuous
 62
     7
370
    13
100
AcDbLine
 10
3.788089
 20
3.457611
 30
0.0
 11
3.788089
 21
3.475111
 31
0.0
  0
LINE
  5
2FB
330
5A3
100
AcDbEntity
  8
ninja1 - Level 42
  6
Continuous
 62
     7
370
    13
100
AcDbLine
 10
3.788089
 20
3.420111
 30
0.0
 11
3.788089
 21
3.437611
 31
0.0
  0
ARC
  5
2FC
330
5A3
100
AcDbEntity
  8
ninja1 - Level 42
  6
Continuous
 62
     7
370
    13
100
AcDbCircle
 10
-3.800589
 20
3.420111
 30
0.0
 40
0.0125
210
0.0
220
0.0
230
-1.0
100
AcDbArc
 50
182.291984
 51
0.0
  0
ARC
  5
2FD
330
5A3
100
AcDbEntity
  8
ninja1 - Level 42
  6
Continuous
 62
     7
370
    13
100
AcDbCircle
 10
-3.813089
 20
3.420111
 30
0.0
 40
0.0005
210
0.0
220
0.0
230
-1.0
100
AcDbArc
 50
90.0
 51
271.145992
  0
LINE
  5
2FE
330
5A3
100
AcDbEntity
  8
ninja1 - Level 42
  6
Continuous
 62
     7
370
    13
100
AcDbLine
 10
3.813089
 20
3.428778
 30
0.0
 11
3.813089
 21
3.420611
 31
0.0
  0
ARC
  5
2FF
330
5A3
100
AcDbEntity
  8
ninja1 - Level 42
  6
Continuous
 62
     7
370
    13
100
AcDbCircle
 10
-3.813089
 20
3.429278
 30
0.0
 40
0.0004999999999985
210
0.0
220
0.0
230
-1.0
100
AcDbArc
 50
90.0
 51
270.0
  0
LINE
  5
300
330
5A3
100
AcDbEntity
  8
ninja1 - Level 42
  6
Continuous
 62
     7
370
    13
100
AcDbLine
 10
3.813089
 20
3.437944
 30
0.0
 11
3.813089
 21
3.429778
 31
0.0
  0
ARC
  5
301
330
5A3
100
AcDbEntity
  8
ninja1 - Level 42
  6
Continuous
 62
     7
370
    13
100
AcDbCircle
 10
-3.813089
 20
3.438444
 30
0.0
 40
0.0004999999999985
210
0.0
220
0.0
230
-1.0
100
AcDbArc
 50
90.0
 51
270.0
  0
LINE
  5
302
330
5A3
100
AcDbEntity
  8
ninja1 - Level 42
  6
Continuous
 62
     7
370
    13
100
AcDbLine
 10
3.813089
 20
3.447111
 30
0.0
 11
3.813089
 21
3.438944
 31
0.0
  0
ARC
  5
303
330
5A3
100
AcDbEntity
  8
ninja1 - Level 42
  6
Continuous
 62
     7
370
    13
100
AcDbCircle
 10
-3.813089
 20
3.447611
 30
0.0
 40
0.0004999999999985
210
0.0
220
0.0
230
-1.0
100
AcDbArc
 50
90.0
 51
270.0
  0
LINE
  5
304
330
5A3
100
AcDbEntity
  8
ninja1 - Level 42
  6
Continuous
 62
     7
370
    13
100
AcDbLine
 10
3.813089
 20
3.456278
 30
0.0
 11
3.813089
 21
3.448111
 31
0.0
  0
ARC
  5
305
330
5A3
100
AcDbEntity
  8
ninja1 - Level 42
  6
Continuous
 62
     7
370
    13
100
AcDbCircle
 10
-3.813089
 20
3.456778
 30
0.0
 40
0.0004999999999985
210
0.0
220
0.0
230
-1.0
100
AcDbArc
 50
90.0
 51
270.0
  0
LINE
  5
306
330
5A3
100
AcDbEntity
  8
ninja1 - Level 42
  6
Continuous
 62
     7
370
    13
100
AcDbLine
 10
3.813089
 20
3.465444
 30
0.0
 11
3.813089
 21
3.457278
 31
0.0
  0
ARC
  5
307
330
5A3
100
AcDbEntity
  8
ninja1 - Level 42
  6
Continuous
 62
     7
370
    13
100
AcDbCircle
 10
-3.813089
 20
3.465944
 30
0.0
 40
0.0004999999999985
210
0.0
220
0.0
230
-1.0
100
AcDbArc
 50
90.0
 51
270.0
  0
LINE
  5
308
330
5A3
100
AcDbEntity
  8
ninja1 - Level 42
  6
Continuous
 62
     7
370
    13
100
AcDbLine
 10
3.813089
 20
3.474611
 30
0.0
 11
3.813089
 21
3.466444
 31
0.0
  0
ARC
  5
309
330
5A3
100
AcDbEntity
  8
ninja1 - Level 42
  6
Continuous
 62
     7
370
    13
100
AcDbCircle
 10
-3.813089
 20
3.475111
 30
0.0
 40
0.0005
210
0.0
220
0.0
230
-1.0
100
AcDbArc
 50
88.854029
 51
270.0
  0
ARC
  5
30A
330
5A3
100
AcDbEntity
  8
ninja1 - Level 42
  6
Continuous
 62
     7
370
    13
100
AcDbCircle
 10
-3.800589
 20
3.610111
 30
0.0
 40
0.0125
210
0.0
220
0.0
230
-1.0
100
AcDbArc
 50
0.0
 51
177.708037
  0
LINE
  5
30B
330
5A3
100
AcDbEntity
  8
ninja1 - Level 42
  6
Continuous
 62
     7
370
    13
100
AcDbLine
 10
3.788089
 20
3.592611
 30
0.0
 11
3.788089
 21
3.610111
 31
0.0
  0
LINE
  5
30C
330
5A3
100
AcDbEntity
  8
ninja1 - Level 42
  6
Continuous
 62
     7
370
    13
100
AcDbLine
 10
3.788089
 20
3.555111
 30
0.0
 11
3.788089
 21
3.572611
 31
0.0
  0
ARC
  5
30D
330
5A3
100
AcDbEntity
  8
ninja1 - Level 42
  6
Continuous
 62
     7
370
    13
100
AcDbCircle
 10
-3.800589
 20
3.555111
 30
0.0
 40
0.0125
210
0.0
220
0.0
230
-1.0
100
AcDbArc
 50
182.291984
 51
0.0
  0
ARC
  5
30E
330
5A3
100
AcDbEntity
  8
ninja1 - Level 42
  6
Continuous
 62
     7
370
    13
100
AcDbCircle
 10
-3.813089
 20
3.555111
 30
0.0
 40
0.0005
210
0.0
220
0.0
230
-1.0
100
AcDbArc
 50
90.0
 51
271.145992
  0
LINE
  5
30F
330
5A3
100
AcDbEntity
  8
ninja1 - Level 42
  6
Continuous
 62
     7
370
    13
100
AcDbLine
 10
3.813089
 20
3.563778
 30
0.0
 11
3.813089
 21
3.555611
 31
0.0
  0
ARC
  5
310
330
5A3
100
AcDbEntity
  8
ninja1 - Level 42
  6
Continuous
 62
     7
370
    13
100
AcDbCircle
 10
-3.813089
 20
3.564278
 30
0.0
 40
0.0004999999999985
210
0.0
220
0.0
230
-1.0
100
AcDbArc
 50
90.0
 51
270.0
  0
LINE
  5
311
330
5A3
100
AcDbEntity
  8
ninja1 - Level 42
  6
Continuous
 62
     7
370
    13
100
AcDbLine
 10
3.813089
 20
3.572944
 30
0.0
 11
3.813089
 21
3.564778
 31
0.0
  0
ARC
  5
312
330
5A3
100
AcDbEntity
  8
ninja1 - Level 42
  6
Continuous
 62
     7
370
    13
100
AcDbCircle
 10
-3.813089
 20
3.573444
 30
0.0
 40
0.0004999999999985
210
0.0
220
0.0
230
-1.0
100
AcDbArc
 50
90.0
 51
270.0
  0
LINE
  5
313
330
5A3
100
AcDbEntity
  8
ninja1 - Level 42
  6
Continuous
 62
     7
370
    13
100
AcDbLine
 10
3.813089
 20
3.582111
 30
0.0
 11
3.813089
 21
3.573944
 31
0.0
  0
ARC
  5
314
330
5A3
100
AcDbEntity
  8
ninja1 - Level 42
  6
Continuous
 62
     7
370
    13
100
AcDbCircle
 10
-3.813089
 20
3.582611
 30
0.0
 40
0.0004999999999985
210
0.0
220
0.0
230
-1.0
100
AcDbArc
 50
90.0
 51
270.0
  0
LINE
  5
315
330
5A3
100
AcDbEntity
  8
ninja1 - Level 42
  6
Continuous
 62
     7
370
    13
100
AcDbLine
 10
3.813089
 20
3.591278
 30
0.0
 11
3.813089
 21
3.583111
 31
0.0
  0
ARC
  5
316
330
5A3
100
AcDbEntity
  8
ninja1 - Level 42
  6
Continuous
 62
     7
370
    13
100
AcDbCircle
 10
-3.813089
 20
3.591778
 30
0.0
 40
0.0004999999999985
210
0.0
220
0.0
230
-1.0
100
AcDbArc
 50
90.0
 51
270.0
  0
LINE
  5
317
330
5A3
100
AcDbEntity
  8
ninja1 - Level 42
  6
Continuous
 62
     7
370
    13
100
AcDbLine
 10
3.813089
 20
3.600444
 30
0.0
 11
3.813089
 21
3.592278
 31
0.0
  0
ARC
  5
318
330
5A3
100
AcDbEntity
  8
ninja1 - Level 42
  6
Continuous
 62
     7
370
    13
100
AcDbCircle
 10
-3.813089
 20
3.600944
 30
0.0
 40
0.0004999999999985
210
0.0
220
0.0
230
-1.0
100
AcDbArc
 50
90.0
 51
270.0
  0
LINE
  5
319
330
5A3
100
AcDbEntity
  8
ninja1 - Level 42
  6
Continuous
 62
     7
370
    13
100
AcDbLine
 10
3.813089
 20
3.609611
 30
0.0
 11
3.813089
 21
3.601444
 31
0.0
  0
ARC
  5
31A
330
5A3
100
AcDbEntity
  8
ninja1 - Level 42
  6
Continuous
 62
     7
370
    13
100
AcDbCircle
 10
-3.813089
 20
3.610111
 30
0.0
 40
0.0005
210
0.0
220
0.0
230
-1.0
100
AcDbArc
 50
88.854029
 51
270.0
  0
ARC
  5
31B
330
5A3
100
AcDbEntity
  8
ninja1 - Level 42
  6
Continuous
 62
     7
370
    13
100
AcDbCircle
 10
-3.800589
 20
3.745111
 30
0.0
 40
0.0125
210
0.0
220
0.0
230
-1.0
100
AcDbArc
 50
0.0
 51
177.708037
  0
LINE
  5
31C
330
5A3
100
AcDbEntity
  8
ninja1 - Level 42
  6
Continuous
 62
     7
370
    13
100
AcDbLine
 10
3.788089
 20
3.727611
 30
0.0
 11
3.788089
 21
3.745111
 31
0.0
  0
LINE
  5
31D
330
5A3
100
AcDbEntity
  8
ninja1 - Level 42
  6
Continuous
 62
     7
370
    13
100
AcDbLine
 10
3.788089
 20
3.690111
 30
0.0
 11
3.788089
 21
3.707611
 31
0.0
  0
ARC
  5
31E
330
5A3
100
AcDbEntity
  8
ninja1 - Level 42
  6
Continuous
 62
     7
370
    13
100
AcDbCircle
 10
-3.800589
 20
3.690111
 30
0.0
 40
0.0125
210
0.0
220
0.0
230
-1.0
100
AcDbArc
 50
182.291984
 51
0.0
  0
ARC
  5
31F
330
5A3
100
AcDbEntity
  8
ninja1 - Level 42
  6
Continuous
 62
     7
370
    13
100
AcDbCircle
 10
-3.813089
 20
3.690111
 30
0.0
 40
0.0005
210
0.0
220
0.0
230
-1.0
100
AcDbArc
 50
90.0
 51
271.145992
  0
LINE
  5
320
330
5A3
100
AcDbEntity
  8
ninja1 - Level 42
  6
Continuous
 62
     7
370
    13
100
AcDbLine
 10
3.813089
 20
3.698778
 30
0.0
 11
3.813089
 21
3.690611
 31
0.0
  0
ARC
  5
321
330
5A3
100
AcDbEntity
  8
ninja1 - Level 42
  6
Continuous
 62
     7
370
    13
100
AcDbCircle
 10
-3.813089
 20
3.699278
 30
0.0
 40
0.0004999999999985
210
0.0
220
0.0
230
-1.0
100
AcDbArc
 50
90.0
 51
270.0
  0
LINE
  5
322
330
5A3
100
AcDbEntity
  8
ninja1 - Level 42
  6
Continuous
 62
     7
370
    13
100
AcDbLine
 10
3.813089
 20
3.707944
 30
0.0
 11
3.813089
 21
3.699778
 31
0.0
  0
ARC
  5
323
330
5A3
100
AcDbEntity
  8
ninja1 - Level 42
  6
Continuous
 62
     7
370
    13
100
AcDbCircle
 10
-3.813089
 20
3.708444
 30
0.0
 40
0.0004999999999985
210
0.0
220
0.0
230
-1.0
100
AcDbArc
 50
90.0
 51
270.0
  0
LINE
  5
324
330
5A3
100
AcDbEntity
  8
ninja1 - Level 42
  6
Continuous
 62
     7
370
    13
100
AcDbLine
 10
3.813089
 20
3.717111
 30
0.0
 11
3.813089
 21
3.708944
 31
0.0
  0
ARC
  5
325
330
5A3
100
AcDbEntity
  8
ninja1 - Level 42
  6
Continuous
 62
     7
370
    13
100
AcDbCircle
 10
-3.813089
 20
3.717611
 30
0.0
 40
0.0004999999999985
210
0.0
220
0.0
230
-1.0
100
AcDbArc
 50
90.0
 51
270.0
  0
LINE
  5
326
330
5A3
100
AcDbEntity
  8
ninja1 - Level 42
  6
Continuous
 62
     7
370
    13
100
AcDbLine
 10
3.813089
 20
3.726278
 30
0.0
 11
3.813089
 21
3.718111
 31
0.0
  0
ARC
  5
327
330
5A3
100
AcDbEntity
  8
ninja1 - Level 42
  6
Continuous
 62
     7
370
    13
100
AcDbCircle
 10
-3.813089
 20
3.726778
 30
0.0
 40
0.0004999999999985
210
0.0
220
0.0
230
-1.0
100
AcDbArc
 50
90.0
 51
270.0
  0
LINE
  5
328
330
5A3
100
AcDbEntity
  8
ninja1 - Level 42
  6
Continuous
 62
     7
370
    13
100
AcDbLine
 10
3.813089
 20
3.735444
 30
0.0
 11
3.813089
 21
3.727278
 31
0.0
  0
ARC
  5
329
330
5A3
100
AcDbEntity
  8
ninja1 - Level 42
  6
Continuous
 62
     7
370
    13
100
AcDbCircle
 10
-3.813089
 20
3.735944
 30
0.0
 40
0.0004999999999985
210
0.0
220
0.0
230
-1.0
100
AcDbArc
 50
90.0
 51
270.0
  0
LINE
  5
32A
330
5A3
100
AcDbEntity
  8
ninja1 - Level 42
  6
Continuous
 62
     7
370
    13
100
AcDbLine
 10
3.813089
 20
3.744611
 30
0.0
 11
3.813089
 21
3.736444
 31
0.0
  0
ARC
  5
32B
330
5A3
100
AcDbEntity
  8
ninja1 - Level 42
  6
Continuous
 62
     7
370
    13
100
AcDbCircle
 10
-3.813089
 20
3.745111
 30
0.0
 40
0.0005
210
0.0
220
0.0
230
-1.0
100
AcDbArc
 50
88.854029
 51
270.0
  0
LINE
  5
32C
330
5A3
100
AcDbEntity
  8
ninja1 - Level 26
  6
Continuous
 62
     7
370
    13
100
AcDbLine
 10
3.015589
 20
3.366986
 30
0.0
 11
3.015589
 21
3.369281
 31
0.0
  0
LINE
  5
32D
330
5A3
100
AcDbEntity
  8
ninja1 - Level 26
  6
Continuous
 62
     7
370
    13
100
AcDbLine
 10
3.015589
 20
4.065942
 30
0.0
 11
3.015589
 21
4.066986
 31
0.0
  0
LINE
  5
32E
330
5A3
100
AcDbEntity
  8
ninja1 - Level 26
  6
Continuous
 62
     7
370
    13
100
AcDbLine
 10
3.020589
 20
3.366986
 30
0.0
 11
3.020589
 21
3.368611
 31
0.0
  0
LINE
  5
32F
330
5A3
100
AcDbEntity
  8
ninja1 - Level 26
  6
Continuous
 62
     7
370
    13
100
AcDbLine
 10
3.020589
 20
3.373611
 30
0.0
 11
3.020589
 21
3.437155
 31
0.0
  0
LINE
  5
330
330
5A3
100
AcDbEntity
  8
ninja1 - Level 26
  6
Continuous
 62
     7
370
    13
100
AcDbLine
 10
3.020589
 20
3.458067
 30
0.0
 11
3.020589
 21
3.572155
 31
0.0
  0
LINE
  5
331
330
5A3
100
AcDbEntity
  8
ninja1 - Level 26
  6
Continuous
 62
     7
370
    13
100
AcDbLine
 10
3.020589
 20
3.593067
 30
0.0
 11
3.020589
 21
3.707155
 31
0.0
  0
LINE
  5
332
330
5A3
100
AcDbEntity
  8
ninja1 - Level 26
  6
Continuous
 62
     7
370
    13
100
AcDbLine
 10
3.020589
 20
3.728067
 30
0.0
 11
3.020589
 21
3.842155
 31
0.0
  0
LINE
  5
333
330
5A3
100
AcDbEntity
  8
ninja1 - Level 26
  6
Continuous
 62
     7
370
    13
100
AcDbLine
 10
3.020589
 20
3.863067
 30
0.0
 11
3.020589
 21
3.977155
 31
0.0
  0
LINE
  5
334
330
5A3
100
AcDbEntity
  8
ninja1 - Level 26
  6
Continuous
 62
     7
370
    13
100
AcDbLine
 10
3.020589
 20
3.998067
 30
0.0
 11
3.020589
 21
4.061611
 31
0.0
  0
LINE
  5
335
330
5A3
100
AcDbEntity
  8
ninja1 - Level 26
  6
Continuous
 62
     7
370
    13
100
AcDbLine
 10
3.020589
 20
4.066611
 30
0.0
 11
3.020589
 21
4.066986
 31
0.0
  0
LWPOLYLINE
  5
336
330
5A3
100
AcDbEntity
  8
ninja1 - Level 26
  6
Continuous
 62
     7
370
    13
100
AcDbPolyline
 90
        3
 70
   128
 43
0.0
 10
3.750589
 20
4.074986
 10
3.750589
 20
4.066986
 10
3.758589
 20
4.066986
  0
LINE
  5
337
330
5A3
100
AcDbEntity
  8
ninja1 - Level 26
  6
Continuous
 62
     7
370
    13
100
AcDbLine
 10
3.780589
 20
4.066986
 30
0.0
 11
3.780589
 21
4.066611
 31
0.0
  0
LINE
  5
338
330
5A3
100
AcDbEntity
  8
ninja1 - Level 26
  6
Continuous
 62
     7
370
    13
100
AcDbLine
 10
3.780589
 20
4.061611
 30
0.0
 11
3.780589
 21
3.998067
 31
0.0
  0
LINE
  5
339
330
5A3
100
AcDbEntity
  8
ninja1 - Level 26
  6
Continuous
 62
     7
370
    13
100
AcDbLine
 10
3.780589
 20
3.977155
 30
0.0
 11
3.780589
 21
3.863067
 31
0.0
  0
LINE
  5
33A
330
5A3
100
AcDbEntity
  8
ninja1 - Level 26
  6
Continuous
 62
     7
370
    13
100
AcDbLine
 10
3.780589
 20
3.842155
 30
0.0
 11
3.780589
 21
3.728067
 31
0.0
  0
LINE
  5
33B
330
5A3
100
AcDbEntity
  8
ninja1 - Level 26
  6
Continuous
 62
     7
370
    13
100
AcDbLine
 10
3.780589
 20
3.707155
 30
0.0
 11
3.780589
 21
3.593067
 31
0.0
  0
LINE
  5
33C
330
5A3
100
AcDbEntity
  8
ninja1 - Level 26
  6
Continuous
 62
     7
370
    13
100
AcDbLine
 10
3.780589
 20
3.572155
 30
0.0
 11
3.780589
 21
3.458067
 31
0.0
  0
LINE
  5
33D
330
5A3
100
AcDbEntity
  8
ninja1 - Level 26
  6
Continuous
 62
     7
370
    13
100
AcDbLine
 10
3.780589
 20
3.437155
 30
0.0
 11
3.780589
 21
3.373611
 31
0.0
  0
LWPOLYLINE
  5
33E
330
5A3
100
AcDbEntity
  8
ninja1 - Level 26
  6
Continuous
 62
     7
370
    13
100
AcDbPolyline
 90
        3
 70
   128
 43
0.0
 10
3.780589
 20
3.368611
 10
3.780589
 20
3.366986
 10
3.780589
 20
3.366986
  0
LWPOLYLINE
  5
33F
330
5A3
100
AcDbEntity
  8
ninja1 - Level 26
  6
Continuous
 62
     7
370
    13
100
AcDbPolyline
 90
        3
 70
   128
 43
0.0
 10
3.758589
 20
3.366986
 10
3.750589
 20
3.366986
 10
3.750589
 20
3.358986
  0
LINE
  5
340
330
5A3
100
AcDbEntity
  8
ninja1 - Level 26
  6
Continuous
 62
     7
370
    13
100
AcDbLine
 10
3.708589
 20
3.336986
 30
0.0
 11
3.092589
 21
3.336986
 31
0.0
  0
LWPOLYLINE
  5
341
330
5A3
100
AcDbEntity
  8
ninja1 - Level 26
  6
Continuous
 62
     7
370
    13
100
AcDbPolyline
 90
        3
 70
   128
 43
0.0
 10
3.050589
 20
3.358986
 10
3.050589
 20
3.366986
 10
3.042589
 20
3.366986
  0
LWPOLYLINE
  5
342
330
5A3
100
AcDbEntity
  8
ninja1 - Level 26
  6
Continuous
 62
     7
370
    13
100
AcDbPolyline
 90
        3
 70
   128
 43
0.0
 10
3.042589
 20
4.066986
 10
3.050589
 20
4.066986
 10
3.050589
 20
4.074986
  0
LINE
  5
343
330
5A3
100
AcDbEntity
  8
ninja1 - Level 26
  6
Continuous
 62
     7
370
    13
100
AcDbLine
 10
3.092589
 20
4.096986
 30
0.0
 11
3.708589
 21
4.096986
 31
0.0
  0
ARC
  5
344
330
5A3
100
AcDbEntity
  8
ninja1 - Level 41
  6
Continuous
 62
     7
370
    13
100
AcDbCircle
 10
3.000589
 20
3.475111
 30
0.0
 40
0.0125
100
AcDbArc
 50
0.0
 51
177.708037
  0
LINE
  5
345
330
5A3
100
AcDbEntity
  8
ninja1 - Level 41
  6
Continuous
 62
     7
370
    13
100
AcDbLine
 10
3.013089
 20
3.457611
 30
0.0
 11
3.013089
 21
3.475111
 31
0.0
  0
LINE
  5
346
330
5A3
100
AcDbEntity
  8
ninja1 - Level 41
  6
Continuous
 62
     7
370
    13
100
AcDbLine
 10
3.013089
 20
3.420111
 30
0.0
 11
3.013089
 21
3.437611
 31
0.0
  0
ARC
  5
347
330
5A3
100
AcDbEntity
  8
ninja1 - Level 41
  6
Continuous
 62
     7
370
    13
100
AcDbCircle
 10
3.000589
 20
3.420111
 30
0.0
 40
0.0125
100
AcDbArc
 50
182.291984
 51
0.0
  0
ARC
  5
348
330
5A3
100
AcDbEntity
  8
ninja1 - Level 41
  6
Continuous
 62
     7
370
    13
100
AcDbCircle
 10
2.988089
 20
3.420111
 30
0.0
 40
0.0005
100
AcDbArc
 50
90.0
 51
271.145992
  0
LINE
  5
349
330
5A3
100
AcDbEntity
  8
ninja1 - Level 41
  6
Continuous
 62
     7
370
    13
100
AcDbLine
 10
2.988089
 20
3.428778
 30
0.0
 11
2.988089
 21
3.420611
 31
0.0
  0
ARC
  5
34A
330
5A3
100
AcDbEntity
  8
ninja1 - Level 41
  6
Continuous
 62
     7
370
    13
100
AcDbCircle
 10
2.988089
 20
3.429278
 30
0.0
 40
0.0004999999999985
100
AcDbArc
 50
90.0
 51
270.0
  0
LINE
  5
34B
330
5A3
100
AcDbEntity
  8
ninja1 - Level 41
  6
Continuous
 62
     7
370
    13
100
AcDbLine
 10
2.988089
 20
3.437944
 30
0.0
 11
2.988089
 21
3.429778
 31
0.0
  0
ARC
  5
34C
330
5A3
100
AcDbEntity
  8
ninja1 - Level 41
  6
Continuous
 62
     7
370
    13
100
AcDbCircle
 10
2.988089
 20
3.438444
 30
0.0
 40
0.0004999999999985
100
AcDbArc
 50
90.0
 51
270.0
  0
LINE
  5
34D
330
5A3
100
AcDbEntity
  8
ninja1 - Level 41
  6
Continuous
 62
     7
370
    13
100
AcDbLine
 10
2.988089
 20
3.447111
 30
0.0
 11
2.988089
 21
3.438944
 31
0.0
  0
ARC
  5
34E
330
5A3
100
AcDbEntity
  8
ninja1 - Level 41
  6
Continuous
 62
     7
370
    13
100
AcDbCircle
 10
2.988089
 20
3.447611
 30
0.0
 40
0.0004999999999985
100
AcDbArc
 50
90.0
 51
270.0
  0
LINE
  5
34F
330
5A3
100
AcDbEntity
  8
ninja1 - Level 41
  6
Continuous
 62
     7
370
    13
100
AcDbLine
 10
2.988089
 20
3.456278
 30
0.0
 11
2.988089
 21
3.448111
 31
0.0
  0
ARC
  5
350
330
5A3
100
AcDbEntity
  8
ninja1 - Level 41
  6
Continuous
 62
     7
370
    13
100
AcDbCircle
 10
2.988089
 20
3.456778
 30
0.0
 40
0.0004999999999985
100
AcDbArc
 50
90.0
 51
270.0
  0
LINE
  5
351
330
5A3
100
AcDbEntity
  8
ninja1 - Level 41
  6
Continuous
 62
     7
370
    13
100
AcDbLine
 10
2.988089
 20
3.465444
 30
0.0
 11
2.988089
 21
3.457278
 31
0.0
  0
ARC
  5
352
330
5A3
100
AcDbEntity
  8
ninja1 - Level 41
  6
Continuous
 62
     7
370
    13
100
AcDbCircle
 10
2.988089
 20
3.465944
 30
0.0
 40
0.0004999999999985
100
AcDbArc
 50
90.0
 51
270.0
  0
LINE
  5
353
330
5A3
100
AcDbEntity
  8
ninja1 - Level 41
  6
Continuous
 62
     7
370
    13
100
AcDbLine
 10
2.988089
 20
3.474611
 30
0.0
 11
2.988089
 21
3.466444
 31
0.0
  0
ARC
  5
354
330
5A3
100
AcDbEntity
  8
ninja1 - Level 41
  6
Continuous
 62
     7
370
    13
100
AcDbCircle
 10
2.988089
 20
3.475111
 30
0.0
 40
0.0005
100
AcDbArc
 50
88.854029
 51
270.0
  0
ARC
  5
355
330
5A3
100
AcDbEntity
  8
ninja1 - Level 41
  6
Continuous
 62
     7
370
    13
100
AcDbCircle
 10
3.000589
 20
3.610111
 30
0.0
 40
0.0125
100
AcDbArc
 50
0.0
 51
177.708037
  0
LINE
  5
356
330
5A3
100
AcDbEntity
  8
ninja1 - Level 41
  6
Continuous
 62
     7
370
    13
100
AcDbLine
 10
3.013089
 20
3.592611
 30
0.0
 11
3.013089
 21
3.610111
 31
0.0
  0
LINE
  5
357
330
5A3
100
AcDbEntity
  8
ninja1 - Level 41
  6
Continuous
 62
     7
370
    13
100
AcDbLine
 10
3.013089
 20
3.555111
 30
0.0
 11
3.013089
 21
3.572611
 31
0.0
  0
ARC
  5
358
330
5A3
100
AcDbEntity
  8
ninja1 - Level 41
  6
Continuous
 62
     7
370
    13
100
AcDbCircle
 10
3.000589
 20
3.555111
 30
0.0
 40
0.0125
100
AcDbArc
 50
182.291984
 51
0.0
  0
ARC
  5
359
330
5A3
100
AcDbEntity
  8
ninja1 - Level 41
  6
Continuous
 62
     7
370
    13
100
AcDbCircle
 10
2.988089
 20
3.555111
 30
0.0
 40
0.0005
100
AcDbArc
 50
90.0
 51
271.145992
  0
LINE
  5
35A
330
5A3
100
AcDbEntity
  8
ninja1 - Level 41
  6
Continuous
 62
     7
370
    13
100
AcDbLine
 10
2.988089
 20
3.563778
 30
0.0
 11
2.988089
 21
3.555611
 31
0.0
  0
ARC
  5
35B
330
5A3
100
AcDbEntity
  8
ninja1 - Level 41
  6
Continuous
 62
     7
370
    13
100
AcDbCircle
 10
2.988089
 20
3.564278
 30
0.0
 40
0.0004999999999985
100
AcDbArc
 50
90.0
 51
270.0
  0
LINE
  5
35C
330
5A3
100
AcDbEntity
  8
ninja1 - Level 41
  6
Continuous
 62
     7
370
    13
100
AcDbLine
 10
2.988089
 20
3.572944
 30
0.0
 11
2.988089
 21
3.564778
 31
0.0
  0
ARC
  5
35D
330
5A3
100
AcDbEntity
  8
ninja1 - Level 41
  6
Continuous
 62
     7
370
    13
100
AcDbCircle
 10
2.988089
 20
3.573444
 30
0.0
 40
0.0004999999999985
100
AcDbArc
 50
90.0
 51
270.0
  0
LINE
  5
35E
330
5A3
100
AcDbEntity
  8
ninja1 - Level 41
  6
Continuous
 62
     7
370
    13
100
AcDbLine
 10
2.988089
 20
3.582111
 30
0.0
 11
2.988089
 21
3.573944
 31
0.0
  0
ARC
  5
35F
330
5A3
100
AcDbEntity
  8
ninja1 - Level 41
  6
Continuous
 62
     7
370
    13
100
AcDbCircle
 10
2.988089
 20
3.582611
 30
0.0
 40
0.0004999999999985
100
AcDbArc
 50
90.0
 51
270.0
  0
LINE
  5
360
330
5A3
100
AcDbEntity
  8
ninja1 - Level 41
  6
Continuous
 62
     7
370
    13
100
AcDbLine
 10
2.988089
 20
3.591278
 30
0.0
 11
2.988089
 21
3.583111
 31
0.0
  0
ARC
  5
361
330
5A3
100
AcDbEntity
  8
ninja1 - Level 41
  6
Continuous
 62
     7
370
    13
100
AcDbCircle
 10
2.988089
 20
3.591778
 30
0.0
 40
0.0004999999999985
100
AcDbArc
 50
90.0
 51
270.0
  0
LINE
  5
362
330
5A3
100
AcDbEntity
  8
ninja1 - Level 41
  6
Continuous
 62
     7
370
    13
100
AcDbLine
 10
2.988089
 20
3.600444
 30
0.0
 11
2.988089
 21
3.592278
 31
0.0
  0
ARC
  5
363
330
5A3
100
AcDbEntity
  8
ninja1 - Level 41
  6
Continuous
 62
     7
370
    13
100
AcDbCircle
 10
2.988089
 20
3.600944
 30
0.0
 40
0.0004999999999985
100
AcDbArc
 50
90.0
 51
270.0
  0
LINE
  5
364
330
5A3
100
AcDbEntity
  8
ninja1 - Level 41
  6
Continuous
 62
     7
370
    13
100
AcDbLine
 10
2.988089
 20
3.609611
 30
0.0
 11
2.988089
 21
3.601444
 31
0.0
  0
ARC
  5
365
330
5A3
100
AcDbEntity
  8
ninja1 - Level 41
  6
Continuous
 62
     7
370
    13
100
AcDbCircle
 10
2.988089
 20
3.610111
 30
0.0
 40
0.0005
100
AcDbArc
 50
88.854029
 51
270.0
  0
ARC
  5
366
330
5A3
100
AcDbEntity
  8
ninja1 - Level 41
  6
Continuous
 62
     7
370
    13
100
AcDbCircle
 10
3.000589
 20
3.745111
 30
0.0
 40
0.0125
100
AcDbArc
 50
0.0
 51
177.708037
  0
LINE
  5
367
330
5A3
100
AcDbEntity
  8
ninja1 - Level 41
  6
Continuous
 62
     7
370
    13
100
AcDbLine
 10
3.013089
 20
3.727611
 30
0.0
 11
3.013089
 21
3.745111
 31
0.0
  0
LINE
  5
368
330
5A3
100
AcDbEntity
  8
ninja1 - Level 41
  6
Continuous
 62
     7
370
    13
100
AcDbLine
 10
3.013089
 20
3.690111
 30
0.0
 11
3.013089
 21
3.707611
 31
0.0
  0
ARC
  5
369
330
5A3
100
AcDbEntity
  8
ninja1 - Level 41
  6
Continuous
 62
     7
370
    13
100
AcDbCircle
 10
3.000589
 20
3.690111
 30
0.0
 40
0.0125
100
AcDbArc
 50
182.291984
 51
0.0
  0
ARC
  5
36A
330
5A3
100
AcDbEntity
  8
ninja1 - Level 41
  6
Continuous
 62
     7
370
    13
100
AcDbCircle
 10
2.988089
 20
3.690111
 30
0.0
 40
0.0005
100
AcDbArc
 50
90.0
 51
271.145992
  0
LINE
  5
36B
330
5A3
100
AcDbEntity
  8
ninja1 - Level 41
  6
Continuous
 62
     7
370
    13
100
AcDbLine
 10
2.988089
 20
3.698778
 30
0.0
 11
2.988089
 21
3.690611
 31
0.0
  0
ARC
  5
36C
330
5A3
100
AcDbEntity
  8
ninja1 - Level 41
  6
Continuous
 62
     7
370
    13
100
AcDbCircle
 10
2.988089
 20
3.699278
 30
0.0
 40
0.0004999999999985
100
AcDbArc
 50
90.0
 51
270.0
  0
LINE
  5
36D
330
5A3
100
AcDbEntity
  8
ninja1 - Level 41
  6
Continuous
 62
     7
370
    13
100
AcDbLine
 10
2.988089
 20
3.707944
 30
0.0
 11
2.988089
 21
3.699778
 31
0.0
  0
ARC
  5
36E
330
5A3
100
AcDbEntity
  8
ninja1 - Level 41
  6
Continuous
 62
     7
370
    13
100
AcDbCircle
 10
2.988089
 20
3.708444
 30
0.0
 40
0.0004999999999985
100
AcDbArc
 50
90.0
 51
270.0
  0
LINE
  5
36F
330
5A3
100
AcDbEntity
  8
ninja1 - Level 41
  6
Continuous
 62
     7
370
    13
100
AcDbLine
 10
2.988089
 20
3.717111
 30
0.0
 11
2.988089
 21
3.708944
 31
0.0
  0
ARC
  5
370
330
5A3
100
AcDbEntity
  8
ninja1 - Level 41
  6
Continuous
 62
     7
370
    13
100
AcDbCircle
 10
2.988089
 20
3.717611
 30
0.0
 40
0.0004999999999985
100
AcDbArc
 50
90.0
 51
270.0
  0
LINE
  5
371
330
5A3
100
AcDbEntity
  8
ninja1 - Level 41
  6
Continuous
 62
     7
370
    13
100
AcDbLine
 10
2.988089
 20
3.726278
 30
0.0
 11
2.988089
 21
3.718111
 31
0.0
  0
ARC
  5
372
330
5A3
100
AcDbEntity
  8
ninja1 - Level 41
  6
Continuous
 62
     7
370
    13
100
AcDbCircle
 10
2.988089
 20
3.726778
 30
0.0
 40
0.0004999999999985
100
AcDbArc
 50
90.0
 51
270.0
  0
LINE
  5
373
330
5A3
100
AcDbEntity
  8
ninja1 - Level 41
  6
Continuous
 62
     7
370
    13
100
AcDbLine
 10
2.988089
 20
3.735444
 30
0.0
 11
2.988089
 21
3.727278
 31
0.0
  0
ARC
  5
374
330
5A3
100
AcDbEntity
  8
ninja1 - Level 41
  6
Continuous
 62
     7
370
    13
100
AcDbCircle
 10
2.988089
 20
3.735944
 30
0.0
 40
0.0004999999999985
100
AcDbArc
 50
90.0
 51
270.0
  0
LINE
  5
375
330
5A3
100
AcDbEntity
  8
ninja1 - Level 41
  6
Continuous
 62
     7
370
    13
100
AcDbLine
 10
2.988089
 20
3.744611
 30
0.0
 11
2.988089
 21
3.736444
 31
0.0
  0
ARC
  5
376
330
5A3
100
AcDbEntity
  8
ninja1 - Level 41
  6
Continuous
 62
     7
370
    13
100
AcDbCircle
 10
2.988089
 20
3.745111
 30
0.0
 40
0.0005
100
AcDbArc
 50
88.854029
 51
270.0
  0
ARC
  5
377
330
5A3
100
AcDbEntity
  8
ninja1 - Level 41
  6
Continuous
 62
     7
370
    13
100
AcDbCircle
 10
3.000589
 20
3.880111
 30
0.0
 40
0.0125
100
AcDbArc
 50
0.0
 51
177.708037
  0
LINE
  5
378
330
5A3
100
AcDbEntity
  8
ninja1 - Level 41
  6
Continuous
 62
     7
370
    13
100
AcDbLine
 10
3.013089
 20
3.862611
 30
0.0
 11
3.013089
 21
3.880111
 31
0.0
  0
LINE
  5
379
330
5A3
100
AcDbEntity
  8
ninja1 - Level 41
  6
Continuous
 62
     7
370
    13
100
AcDbLine
 10
3.013089
 20
3.825111
 30
0.0
 11
3.013089
 21
3.842611
 31
0.0
  0
ARC
  5
37A
330
5A3
100
AcDbEntity
  8
ninja1 - Level 41
  6
Continuous
 62
     7
370
    13
100
AcDbCircle
 10
3.000589
 20
3.825111
 30
0.0
 40
0.0125
100
AcDbArc
 50
182.291984
 51
0.0
  0
ARC
  5
37B
330
5A3
100
AcDbEntity
  8
ninja1 - Level 41
  6
Continuous
 62
     7
370
    13
100
AcDbCircle
 10
2.988089
 20
3.825111
 30
0.0
 40
0.0005
100
AcDbArc
 50
90.0
 51
271.145992
  0
LINE
  5
37C
330
5A3
100
AcDbEntity
  8
ninja1 - Level 41
  6
Continuous
 62
     7
370
    13
100
AcDbLine
 10
2.988089
 20
3.833778
 30
0.0
 11
2.988089
 21
3.825611
 31
0.0
  0
ARC
  5
37D
330
5A3
100
AcDbEntity
  8
ninja1 - Level 41
  6
Continuous
 62
     7
370
    13
100
AcDbCircle
 10
2.988089
 20
3.834278
 30
0.0
 40
0.0004999999999985
100
AcDbArc
 50
90.0
 51
270.0
  0
LINE
  5
37E
330
5A3
100
AcDbEntity
  8
ninja1 - Level 41
  6
Continuous
 62
     7
370
    13
100
AcDbLine
 10
2.988089
 20
3.842944
 30
0.0
 11
2.988089
 21
3.834778
 31
0.0
  0
ARC
  5
37F
330
5A3
100
AcDbEntity
  8
ninja1 - Level 41
  6
Continuous
 62
     7
370
    13
100
AcDbCircle
 10
2.988089
 20
3.843444
 30
0.0
 40
0.0004999999999985
100
AcDbArc
 50
90.0
 51
270.0
  0
LINE
  5
380
330
5A3
100
AcDbEntity
  8
ninja1 - Level 41
  6
Continuous
 62
     7
370
    13
100
AcDbLine
 10
2.988089
 20
3.852111
 30
0.0
 11
2.988089
 21
3.843944
 31
0.0
  0
ARC
  5
381
330
5A3
100
AcDbEntity
  8
ninja1 - Level 41
  6
Continuous
 62
     7
370
    13
100
AcDbCircle
 10
2.988089
 20
3.852611
 30
0.0
 40
0.0004999999999985
100
AcDbArc
 50
90.0
 51
270.0
  0
LINE
  5
382
330
5A3
100
AcDbEntity
  8
ninja1 - Level 41
  6
Continuous
 62
     7
370
    13
100
AcDbLine
 10
2.988089
 20
3.861278
 30
0.0
 11
2.988089
 21
3.853111
 31
0.0
  0
ARC
  5
383
330
5A3
100
AcDbEntity
  8
ninja1 - Level 41
  6
Continuous
 62
     7
370
    13
100
AcDbCircle
 10
2.988089
 20
3.861778
 30
0.0
 40
0.0004999999999985
100
AcDbArc
 50
90.0
 51
270.0
  0
LINE
  5
384
330
5A3
100
AcDbEntity
  8
ninja1 - Level 41
  6
Continuous
 62
     7
370
    13
100
AcDbLine
 10
2.988089
 20
3.870444
 30
0.0
 11
2.988089
 21
3.862278
 31
0.0
  0
ARC
  5
385
330
5A3
100
AcDbEntity
  8
ninja1 - Level 41
  6
Continuous
 62
     7
370
    13
100
AcDbCircle
 10
2.988089
 20
3.870944
 30
0.0
 40
0.0004999999999985
100
AcDbArc
 50
90.0
 51
270.0
  0
LINE
  5
386
330
5A3
100
AcDbEntity
  8
ninja1 - Level 41
  6
Continuous
 62
     7
370
    13
100
AcDbLine
 10
2.988089
 20
3.879611
 30
0.0
 11
2.988089
 21
3.871444
 31
0.0
  0
ARC
  5
387
330
5A3
100
AcDbEntity
  8
ninja1 - Level 41
  6
Continuous
 62
     7
370
    13
100
AcDbCircle
 10
2.988089
 20
3.880111
 30
0.0
 40
0.0005
100
AcDbArc
 50
88.854029
 51
270.0
  0
LINE
  5
388
330
5A3
100
AcDbEntity
  8
ninja1 - Level 41
  6
Continuous
 62
     7
370
    13
100
AcDbLine
 10
3.013089
 20
3.997609
 30
0.0
 11
3.013089
 21
4.015109
 31
0.0
  0
LINE
  5
389
330
5A3
100
AcDbEntity
  8
ninja1 - Level 41
  6
Continuous
 62
     7
370
    13
100
AcDbLine
 10
3.013089
 20
3.960109
 30
0.0
 11
3.013089
 21
3.977609
 31
0.0
  0
ARC
  5
38A
330
5A3
100
AcDbEntity
  8
ninja1 - Level 41
  6
Continuous
 62
     7
370
    13
100
AcDbCircle
 10
3.000589
 20
3.960109
 30
0.0
 40
0.0125
100
AcDbArc
 50
182.291984
 51
0.0
  0
ARC
  5
38B
330
5A3
100
AcDbEntity
  8
ninja1 - Level 41
  6
Continuous
 62
     7
370
    13
100
AcDbCircle
 10
2.988089
 20
3.960109
 30
0.0
 40
0.0005
100
AcDbArc
 50
90.0
 51
271.145992
  0
LINE
  5
38C
330
5A3
100
AcDbEntity
  8
ninja1 - Level 41
  6
Continuous
 62
     7
370
    13
100
AcDbLine
 10
2.988089
 20
3.968775
 30
0.0
 11
2.988089
 21
3.960609
 31
0.0
  0
ARC
  5
38D
330
5A3
100
AcDbEntity
  8
ninja1 - Level 41
  6
Continuous
 62
     7
370
    13
100
AcDbCircle
 10
2.988089
 20
3.969275
 30
0.0
 40
0.0004999999999985
100
AcDbArc
 50
90.0
 51
270.0
  0
LINE
  5
38E
330
5A3
100
AcDbEntity
  8
ninja1 - Level 41
  6
Continuous
 62
     7
370
    13
100
AcDbLine
 10
2.988089
 20
3.977942
 30
0.0
 11
2.988089
 21
3.969775
 31
0.0
  0
ARC
  5
38F
330
5A3
100
AcDbEntity
  8
ninja1 - Level 41
  6
Continuous
 62
     7
370
    13
100
AcDbCircle
 10
2.988089
 20
3.978442
 30
0.0
 40
0.0004999999999985
100
AcDbArc
 50
90.0
 51
270.0
  0
LINE
  5
390
330
5A3
100
AcDbEntity
  8
ninja1 - Level 41
  6
Continuous
 62
     7
370
    13
100
AcDbLine
 10
2.988089
 20
3.987109
 30
0.0
 11
2.988089
 21
3.978942
 31
0.0
  0
ARC
  5
391
330
5A3
100
AcDbEntity
  8
ninja1 - Level 41
  6
Continuous
 62
     7
370
    13
100
AcDbCircle
 10
2.988089
 20
3.987609
 30
0.0
 40
0.0004999999999985
100
AcDbArc
 50
90.0
 51
270.0
  0
LINE
  5
392
330
5A3
100
AcDbEntity
  8
ninja1 - Level 41
  6
Continuous
 62
     7
370
    13
100
AcDbLine
 10
2.988089
 20
3.996275
 30
0.0
 11
2.988089
 21
3.988109
 31
0.0
  0
ARC
  5
393
330
5A3
100
AcDbEntity
  8
ninja1 - Level 41
  6
Continuous
 62
     7
370
    13
100
AcDbCircle
 10
2.988089
 20
3.996775
 30
0.0
 40
0.0004999999999985
100
AcDbArc
 50
90.0
 51
270.0
  0
LINE
  5
394
330
5A3
100
AcDbEntity
  8
ninja1 - Level 41
  6
Continuous
 62
     7
370
    13
100
AcDbLine
 10
2.988089
 20
4.005442
 30
0.0
 11
2.988089
 21
3.997275
 31
0.0
  0
ARC
  5
395
330
5A3
100
AcDbEntity
  8
ninja1 - Level 41
  6
Continuous
 62
     7
370
    13
100
AcDbCircle
 10
2.988089
 20
4.005942
 30
0.0
 40
0.0004999999999985
100
AcDbArc
 50
90.0
 51
270.0
  0
LINE
  5
396
330
5A3
100
AcDbEntity
  8
ninja1 - Level 41
  6
Continuous
 62
     7
370
    13
100
AcDbLine
 10
2.988089
 20
4.014609
 30
0.0
 11
2.988089
 21
4.006442
 31
0.0
  0
ARC
  5
397
330
5A3
100
AcDbEntity
  8
ninja1 - Level 41
  6
Continuous
 62
     7
370
    13
100
AcDbCircle
 10
2.988089
 20
4.015109
 30
0.0
 40
0.0005
100
AcDbArc
 50
88.865461
 51
270.0
  0
LINE
  5
398
330
5A3
100
AcDbEntity
  8
ninja1 - Level 26
  6
Continuous
 62
     7
370
    13
100
AcDbLine
 10
3.785589
 20
4.066986
 30
0.0
 11
3.785589
 21
4.065942
 31
0.0
  0
LINE
  5
399
330
5A3
100
AcDbEntity
  8
ninja1 - Level 26
  6
Continuous
 62
     7
370
    13
100
AcDbLine
 10
3.785589
 20
3.369281
 30
0.0
 11
3.785589
 21
3.366986
 31
0.0
  0
LINE
  5
39A
330
5A3
100
AcDbEntity
  8
ninja1 - Level 26
  6
Continuous
 62
     7
370
    13
100
AcDbLine
 10
3.050589
 20
3.349486
 30
0.0
 11
3.062589
 21
3.349486
 31
0.0
  0
LINE
  5
39B
330
5A3
100
AcDbEntity
  8
ninja1 - Level 26
  6
Continuous
 62
     7
370
    13
100
AcDbLine
 10
3.050589
 20
3.284486
 30
0.0
 11
3.062589
 21
3.284486
 31
0.0
  0
LINE
  5
39C
330
5A3
100
AcDbEntity
  8
ninja1 - Level 26
  6
Continuous
 62
     7
370
    13
100
AcDbLine
 10
3.062589
 20
3.349486
 30
0.0
 11
3.062589
 21
3.284486
 31
0.0
  0
LINE
  5
39D
330
5A3
100
AcDbEntity
  8
ninja1 - Level 26
  6
Continuous
 62
     7
370
    13
100
AcDbLine
 10
3.08533
 20
3.294486
 30
0.0
 11
3.062589
 21
3.294486
 31
0.0
  0
SPLINE
  5
39E
330
5A3
100
AcDbEntity
  8
ninja1 - Level 26
  6
Continuous
 62
     7
370
    13
100
AcDbSpline
210
0.0
220
0.0
230
1.0
 70
     8
 71
     3
 72
     8
 73
     4
 74
     0
 42
0.000000001
 43
0.0000000001
 40
0.0
 40
0.0
 40
0.0
 40
0.0
 40
1.0
 40
1.0
 40
1.0
 40
1.0
 10
3.0925887026032
 20
3.284486119389773
 30
0.0
 10
3.092660985743566
 20
3.284448132041981
 30
0.0
 10
3.089268481604019
 20
3.28854813701097
 30
0.0
 10
3.085329867818169
 20
3.29448611938979
 30
0.0
  0
LINE
  5
3A1
330
5A3
100
AcDbEntity
  8
ninja1 - Level 26
  6
Continuous
 62
     7
370
    13
100
AcDbLine
 10
3.092589
 20
3.284486
 30
0.0
 11
3.062589
 21
3.284486
 31
0.0
  0
LINE
  5
3A2
330
5A3
100
AcDbEntity
  8
ninja1 - Level 26
  6
Continuous
 62
     7
370
    13
100
AcDbLine
 10
3.08533
 20
3.339486
 30
0.0
 11
3.062589
 21
3.339486
 31
0.0
  0
SPLINE
  5
3A3
330
5A3
100
AcDbEntity
  8
ninja1 - Level 26
  6
Continuous
 62
     7
370
    13
100
AcDbSpline
210
0.0
220
0.0
230
1.0
 70
     8
 71
     3
 72
     8
 73
     4
 74
     0
 42
0.000000001
 43
0.0000000001
 40
0.0
 40
0.0
 40
0.0
 40
0.0
 40
1.0
 40
1.0
 40
1.0
 40
1.0
 10
3.085329867818181
 20
3.339486119389787
 30
0.0
 10
3.089265731995742
 20
3.345419883306309
 30
0.0
 10
3.092663102067486
 20
3.349527282678717
 30
0.0
 10
3.0925887026032
 20
3.349486119389787
 30
0.0
  0
LINE
  5
3A6
330
5A3
100
AcDbEntity
  8
ninja1 - Level 26
  6
Continuous
 62
     7
370
    13
100
AcDbLine
 10
3.092589
 20
3.349486
 30
0.0
 11
3.062589
 21
3.349486
 31
0.0
  0
LINE
  5
3A7
330
5A3
100
AcDbEntity
  8
ninja1 - Level 26
  6
Continuous
 62
     7
370
    13
100
AcDbLine
 10
3.092589
 20
3.284486
 30
0.0
 11
3.092589
 21
3.349486
 31
0.0
  0
ARC
  5
3A8
330
5A3
100
AcDbEntity
  8
ninja1 - Level 26
  6
Continuous
 62
     7
370
    13
100
AcDbCircle
 10
3.012089
 20
3.582611
 30
0.0
 40
0.0134749260041462
100
AcDbArc
 50
296.440708
 51
0.0
  0
ARC
  5
3A9
330
5A3
100
AcDbEntity
  8
ninja1 - Level 26
  6
Continuous
 62
     7
370
    13
100
AcDbCircle
 10
3.012089
 20
3.582611
 30
0.0
 40
0.0134749260041462
100
AcDbArc
 50
0.0
 51
63.559292
  0
LINE
  5
3AA
330
5A3
100
AcDbEntity
  8
ninja1 - Level 26
  6
Continuous
 62
     7
370
    13
100
AcDbLine
 10
2.993089
 20
3.475111
 30
0.0
 11
2.993089
 21
3.420111
 31
0.0
  0
ARC
  5
3AB
330
5A3
100
AcDbEntity
  8
ninja1 - Level 26
  6
Continuous
 62
     7
370
    13
100
AcDbCircle
 10
3.000589
 20
3.475111
 30
0.0
 40
0.0075000000000009
100
AcDbArc
 50
0.0
 51
180.0
  0
LINE
  5
3AC
330
5A3
100
AcDbEntity
  8
ninja1 - Level 26
  6
Continuous
 62
     7
370
    13
100
AcDbLine
 10
3.008089
 20
3.475111
 30
0.0
 11
3.008089
 21
3.420111
 31
0.0
  0
ARC
  5
3AD
330
5A3
100
AcDbEntity
  8
ninja1 - Level 26
  6
Continuous
 62
     7
370
    13
100
AcDbCircle
 10
-3.000589
 20
3.420111
 30
0.0
 40
0.0075000000000009
210
0.0
220
0.0
230
-1.0
100
AcDbArc
 50
180.0
 51
0.0
  0
LINE
  5
3AE
330
5A3
100
AcDbEntity
  8
ninja1 - Level 26
  6
Continuous
 62
     7
370
    13
100
AcDbLine
 10
2.993089
 20
3.420111
 30
0.0
 11
2.988089
 21
3.420111
 31
0.0
  0
LINE
  5
3AF
330
5A3
100
AcDbEntity
  8
ninja1 - Level 26
  6
Continuous
 62
     7
370
    13
100
AcDbLine
 10
3.013089
 20
3.420111
 30
0.0
 11
3.008089
 21
3.420111
 31
0.0
  0
ARC
  5
3B0
330
5A3
100
AcDbEntity
  8
ninja1 - Level 26
  6
Continuous
 62
     7
370
    13
100
AcDbCircle
 10
3.000589
 20
3.420111
 30
0.0
 40
0.0125000000000009
100
AcDbArc
 50
180.0
 51
182.291984
  0
LINE
  5
3B1
330
5A3
100
AcDbEntity
  8
ninja1 - Level 26
  6
Continuous
 62
     7
370
    13
100
AcDbLine
 10
3.008089
 20
3.475111
 30
0.0
 11
3.013089
 21
3.475111
 31
0.0
  0
LINE
  5
3B2
330
5A3
100
AcDbEntity
  8
ninja1 - Level 26
  6
Continuous
 62
     7
370
    13
100
AcDbLine
 10
3.013089
 20
3.457611
 30
0.0
 11
3.013089
 21
3.437611
 31
0.0
  0
LINE
  5
3B3
330
5A3
100
AcDbEntity
  8
ninja1 - Level 26
  6
Continuous
 62
     7
370
    13
100
AcDbLine
 10
2.988089
 20
3.475111
 30
0.0
 11
2.993089
 21
3.475111
 31
0.0
  0
ARC
  5
3B4
330
5A3
100
AcDbEntity
  8
ninja1 - Level 26
  6
Continuous
 62
     7
370
    13
100
AcDbCircle
 10
-3.000589
 20
3.475111
 30
0.0
 40
0.0125000000000009
210
0.0
220
0.0
230
-1.0
100
AcDbArc
 50
177.708037
 51
180.0
  0
LINE
  5
3B5
330
5A3
100
AcDbEntity
  8
ninja1 - Level 26
  6
Continuous
 62
     7
370
    13
100
AcDbLine
 10
2.988089
 20
3.475111
 30
0.0
 11
2.988089
 21
3.474611
 31
0.0
  0
LINE
  5
3B6
330
5A3
100
AcDbEntity
  8
ninja1 - Level 26
  6
Continuous
 62
     7
370
    13
100
AcDbLine
 10
2.988089
 20
3.466444
 30
0.0
 11
2.988089
 21
3.465444
 31
0.0
  0
LINE
  5
3B7
330
5A3
100
AcDbEntity
  8
ninja1 - Level 26
  6
Continuous
 62
     7
370
    13
100
AcDbLine
 10
2.988089
 20
3.457278
 30
0.0
 11
2.988089
 21
3.456278
 31
0.0
  0
LINE
  5
3B8
330
5A3
100
AcDbEntity
  8
ninja1 - Level 26
  6
Continuous
 62
     7
370
    13
100
AcDbLine
 10
2.988089
 20
3.448111
 30
0.0
 11
2.988089
 21
3.447111
 31
0.0
  0
LINE
  5
3B9
330
5A3
100
AcDbEntity
  8
ninja1 - Level 26
  6
Continuous
 62
     7
370
    13
100
AcDbLine
 10
2.988089
 20
3.438944
 30
0.0
 11
2.988089
 21
3.437944
 31
0.0
  0
LINE
  5
3BA
330
5A3
100
AcDbEntity
  8
ninja1 - Level 26
  6
Continuous
 62
     7
370
    13
100
AcDbLine
 10
2.988089
 20
3.429778
 30
0.0
 11
2.988089
 21
3.428778
 31
0.0
  0
LINE
  5
3BB
330
5A3
100
AcDbEntity
  8
ninja1 - Level 26
  6
Continuous
 62
     7
370
    13
100
AcDbLine
 10
2.988089
 20
3.420611
 30
0.0
 11
2.988089
 21
3.420111
 31
0.0
  0
LINE
  5
3BC
330
5A3
100
AcDbEntity
  8
ninja1 - Level 26
  6
Continuous
 62
     7
370
    13
100
AcDbLine
 10
3.793089
 20
3.475111
 30
0.0
 11
3.793089
 21
3.420111
 31
0.0
  0
ARC
  5
3BD
330
5A3
100
AcDbEntity
  8
ninja1 - Level 26
  6
Continuous
 62
     7
370
    13
100
AcDbCircle
 10
-3.800589
 20
3.475111
 30
0.0
 40
0.0075000000000009
210
0.0
220
0.0
230
-1.0
100
AcDbArc
 50
0.0
 51
180.0
  0
LINE
  5
3BE
330
5A3
100
AcDbEntity
  8
ninja1 - Level 26
  6
Continuous
 62
     7
370
    13
100
AcDbLine
 10
3.808089
 20
3.475111
 30
0.0
 11
3.808089
 21
3.420111
 31
0.0
  0
ARC
  5
3BF
330
5A3
100
AcDbEntity
  8
ninja1 - Level 26
  6
Continuous
 62
     7
370
    13
100
AcDbCircle
 10
3.800589
 20
3.420111
 30
0.0
 40
0.0075000000000009
100
AcDbArc
 50
180.0
 51
0.0
  0
LINE
  5
3C0
330
5A3
100
AcDbEntity
  8
ninja1 - Level 26
  6
Continuous
 62
     7
370
    13
100
AcDbLine
 10
3.788089
 20
3.420111
 30
0.0
 11
3.793089
 21
3.420111
 31
0.0
  0
LINE
  5
3C1
330
5A3
100
AcDbEntity
  8
ninja1 - Level 26
  6
Continuous
 62
     7
370
    13
100
AcDbLine
 10
3.808089
 20
3.420111
 30
0.0
 11
3.813089
 21
3.420111
 31
0.0
  0
ARC
  5
3C2
330
5A3
100
AcDbEntity
  8
ninja1 - Level 26
  6
Continuous
 62
     7
370
    13
100
AcDbCircle
 10
-3.800589
 20
3.420111
 30
0.0
 40
0.0125000000000009
210
0.0
220
0.0
230
-1.0
100
AcDbArc
 50
357.708016
 51
0.0
  0
LINE
  5
3C3
330
5A3
100
AcDbEntity
  8
ninja1 - Level 26
  6
Continuous
 62
     7
370
    13
100
AcDbLine
 10
3.788089
 20
3.457611
 30
0.0
 11
3.788089
 21
3.437611
 31
0.0
  0
LINE
  5
3C4
330
5A3
100
AcDbEntity
  8
ninja1 - Level 26
  6
Continuous
 62
     7
370
    13
100
AcDbLine
 10
3.793089
 20
3.475111
 30
0.0
 11
3.788089
 21
3.475111
 31
0.0
  0
LINE
  5
3C5
330
5A3
100
AcDbEntity
  8
ninja1 - Level 26
  6
Continuous
 62
     7
370
    13
100
AcDbLine
 10
3.813089
 20
3.475111
 30
0.0
 11
3.808089
 21
3.475111
 31
0.0
  0
ARC
  5
3C6
330
5A3
100
AcDbEntity
  8
ninja1 - Level 26
  6
Continuous
 62
     7
370
    13
100
AcDbCircle
 10
3.800589
 20
3.475111
 30
0.0
 40
0.0125000000000009
100
AcDbArc
 50
360.0
 51
2.291963
  0
LINE
  5
3C7
330
5A3
100
AcDbEntity
  8
ninja1 - Level 26
  6
Continuous
 62
     7
370
    13
100
AcDbLine
 10
3.813089
 20
3.475111
 30
0.0
 11
3.813089
 21
3.474611
 31
0.0
  0
LINE
  5
3C8
330
5A3
100
AcDbEntity
  8
ninja1 - Level 26
  6
Continuous
 62
     7
370
    13
100
AcDbLine
 10
3.813089
 20
3.466444
 30
0.0
 11
3.813089
 21
3.465444
 31
0.0
  0
LINE
  5
3C9
330
5A3
100
AcDbEntity
  8
ninja1 - Level 26
  6
Continuous
 62
     7
370
    13
100
AcDbLine
 10
3.813089
 20
3.457278
 30
0.0
 11
3.813089
 21
3.456278
 31
0.0
  0
LINE
  5
3CA
330
5A3
100
AcDbEntity
  8
ninja1 - Level 26
  6
Continuous
 62
     7
370
    13
100
AcDbLine
 10
3.813089
 20
3.448111
 30
0.0
 11
3.813089
 21
3.447111
 31
0.0
  0
LINE
  5
3CB
330
5A3
100
AcDbEntity
  8
ninja1 - Level 26
  6
Continuous
 62
     7
370
    13
100
AcDbLine
 10
3.813089
 20
3.438944
 30
0.0
 11
3.813089
 21
3.437944
 31
0.0
  0
LINE
  5
3CC
330
5A3
100
AcDbEntity
  8
ninja1 - Level 26
  6
Continuous
 62
     7
370
    13
100
AcDbLine
 10
3.813089
 20
3.429778
 30
0.0
 11
3.813089
 21
3.428778
 31
0.0
  0
LINE
  5
3CD
330
5A3
100
AcDbEntity
  8
ninja1 - Level 26
  6
Continuous
 62
     7
370
    13
100
AcDbLine
 10
3.813089
 20
3.420611
 30
0.0
 11
3.813089
 21
3.420111
 31
0.0
  0
LINE
  5
3CE
330
5A3
100
AcDbEntity
  8
ninja1 - Level 26
  6
Continuous
 62
     7
370
    13
100
AcDbLine
 10
2.993089
 20
3.610111
 30
0.0
 11
2.993089
 21
3.555111
 31
0.0
  0
ARC
  5
3CF
330
5A3
100
AcDbEntity
  8
ninja1 - Level 26
  6
Continuous
 62
     7
370
    13
100
AcDbCircle
 10
3.000589
 20
3.610111
 30
0.0
 40
0.0075000000000009
100
AcDbArc
 50
0.0
 51
180.0
  0
LINE
  5
3D0
330
5A3
100
AcDbEntity
  8
ninja1 - Level 26
  6
Continuous
 62
     7
370
    13
100
AcDbLine
 10
3.008089
 20
3.610111
 30
0.0
 11
3.008089
 21
3.555111
 31
0.0
  0
ARC
  5
3D1
330
5A3
100
AcDbEntity
  8
ninja1 - Level 26
  6
Continuous
 62
     7
370
    13
100
AcDbCircle
 10
-3.000589
 20
3.555111
 30
0.0
 40
0.0075000000000009
210
0.0
220
0.0
230
-1.0
100
AcDbArc
 50
180.0
 51
0.0
  0
LINE
  5
3D2
330
5A3
100
AcDbEntity
  8
ninja1 - Level 26
  6
Continuous
 62
     7
370
    13
100
AcDbLine
 10
2.993089
 20
3.555111
 30
0.0
 11
2.988089
 21
3.555111
 31
0.0
  0
LINE
  5
3D3
330
5A3
100
AcDbEntity
  8
ninja1 - Level 26
  6
Continuous
 62
     7
370
    13
100
AcDbLine
 10
3.013089
 20
3.555111
 30
0.0
 11
3.008089
 21
3.555111
 31
0.0
  0
ARC
  5
3D4
330
5A3
100
AcDbEntity
  8
ninja1 - Level 26
  6
Continuous
 62
     7
370
    13
100
AcDbCircle
 10
3.000589
 20
3.555111
 30
0.0
 40
0.0125000000000009
100
AcDbArc
 50
180.0
 51
182.291984
  0
LINE
  5
3D5
330
5A3
100
AcDbEntity
  8
ninja1 - Level 26
  6
Continuous
 62
     7
370
    13
100
AcDbLine
 10
3.008089
 20
3.610111
 30
0.0
 11
3.013089
 21
3.610111
 31
0.0
  0
LINE
  5
3D6
330
5A3
100
AcDbEntity
  8
ninja1 - Level 26
  6
Continuous
 62
     7
370
    13
100
AcDbLine
 10
3.013089
 20
3.592611
 30
0.0
 11
3.013089
 21
3.572611
 31
0.0
  0
LINE
  5
3D7
330
5A3
100
AcDbEntity
  8
ninja1 - Level 26
  6
Continuous
 62
     7
370
    13
100
AcDbLine
 10
2.988089
 20
3.610111
 30
0.0
 11
2.993089
 21
3.610111
 31
0.0
  0
ARC
  5
3D8
330
5A3
100
AcDbEntity
  8
ninja1 - Level 26
  6
Continuous
 62
     7
370
    13
100
AcDbCircle
 10
-3.000589
 20
3.610111
 30
0.0
 40
0.0125000000000009
210
0.0
220
0.0
230
-1.0
100
AcDbArc
 50
177.708037
 51
180.0
  0
LINE
  5
3D9
330
5A3
100
AcDbEntity
  8
ninja1 - Level 26
  6
Continuous
 62
     7
370
    13
100
AcDbLine
 10
2.988089
 20
3.610111
 30
0.0
 11
2.988089
 21
3.609611
 31
0.0
  0
LINE
  5
3DA
330
5A3
100
AcDbEntity
  8
ninja1 - Level 26
  6
Continuous
 62
     7
370
    13
100
AcDbLine
 10
2.988089
 20
3.601444
 30
0.0
 11
2.988089
 21
3.600444
 31
0.0
  0
LINE
  5
3DB
330
5A3
100
AcDbEntity
  8
ninja1 - Level 26
  6
Continuous
 62
     7
370
    13
100
AcDbLine
 10
2.988089
 20
3.592278
 30
0.0
 11
2.988089
 21
3.591278
 31
0.0
  0
LINE
  5
3DC
330
5A3
100
AcDbEntity
  8
ninja1 - Level 26
  6
Continuous
 62
     7
370
    13
100
AcDbLine
 10
2.988089
 20
3.583111
 30
0.0
 11
2.988089
 21
3.582111
 31
0.0
  0
LINE
  5
3DD
330
5A3
100
AcDbEntity
  8
ninja1 - Level 26
  6
Continuous
 62
     7
370
    13
100
AcDbLine
 10
2.988089
 20
3.573944
 30
0.0
 11
2.988089
 21
3.572944
 31
0.0
  0
LINE
  5
3DE
330
5A3
100
AcDbEntity
  8
ninja1 - Level 26
  6
Continuous
 62
     7
370
    13
100
AcDbLine
 10
2.988089
 20
3.564778
 30
0.0
 11
2.988089
 21
3.563778
 31
0.0
  0
LINE
  5
3DF
330
5A3
100
AcDbEntity
  8
ninja1 - Level 26
  6
Continuous
 62
     7
370
    13
100
AcDbLine
 10
2.988089
 20
3.555611
 30
0.0
 11
2.988089
 21
3.555111
 31
0.0
  0
LINE
  5
3E0
330
5A3
100
AcDbEntity
  8
ninja1 - Level 26
  6
Continuous
 62
     7
370
    13
100
AcDbLine
 10
3.793089
 20
3.610111
 30
0.0
 11
3.793089
 21
3.555111
 31
0.0
  0
ARC
  5
3E1
330
5A3
100
AcDbEntity
  8
ninja1 - Level 26
  6
Continuous
 62
     7
370
    13
100
AcDbCircle
 10
-3.800589
 20
3.610111
 30
0.0
 40
0.0075000000000009
210
0.0
220
0.0
230
-1.0
100
AcDbArc
 50
0.0
 51
180.0
  0
LINE
  5
3E2
330
5A3
100
AcDbEntity
  8
ninja1 - Level 26
  6
Continuous
 62
     7
370
    13
100
AcDbLine
 10
3.808089
 20
3.610111
 30
0.0
 11
3.808089
 21
3.555111
 31
0.0
  0
ARC
  5
3E3
330
5A3
100
AcDbEntity
  8
ninja1 - Level 26
  6
Continuous
 62
     7
370
    13
100
AcDbCircle
 10
3.800589
 20
3.555111
 30
0.0
 40
0.0075000000000009
100
AcDbArc
 50
180.0
 51
0.0
  0
LINE
  5
3E4
330
5A3
100
AcDbEntity
  8
ninja1 - Level 26
  6
Continuous
 62
     7
370
    13
100
AcDbLine
 10
3.788089
 20
3.555111
 30
0.0
 11
3.793089
 21
3.555111
 31
0.0
  0
LINE
  5
3E5
330
5A3
100
AcDbEntity
  8
ninja1 - Level 26
  6
Continuous
 62
     7
370
    13
100
AcDbLine
 10
3.808089
 20
3.555111
 30
0.0
 11
3.813089
 21
3.555111
 31
0.0
  0
ARC
  5
3E6
330
5A3
100
AcDbEntity
  8
ninja1 - Level 26
  6
Continuous
 62
     7
370
    13
100
AcDbCircle
 10
-3.800589
 20
3.555111
 30
0.0
 40
0.0125000000000009
210
0.0
220
0.0
230
-1.0
100
AcDbArc
 50
357.708016
 51
0.0
  0
LINE
  5
3E7
330
5A3
100
AcDbEntity
  8
ninja1 - Level 26
  6
Continuous
 62
     7
370
    13
100
AcDbLine
 10
3.788089
 20
3.592611
 30
0.0
 11
3.788089
 21
3.572611
 31
0.0
  0
LINE
  5
3E8
330
5A3
100
AcDbEntity
  8
ninja1 - Level 26
  6
Continuous
 62
     7
370
    13
100
AcDbLine
 10
3.793089
 20
3.610111
 30
0.0
 11
3.788089
 21
3.610111
 31
0.0
  0
LINE
  5
3E9
330
5A3
100
AcDbEntity
  8
ninja1 - Level 26
  6
Continuous
 62
     7
370
    13
100
AcDbLine
 10
3.813089
 20
3.610111
 30
0.0
 11
3.808089
 21
3.610111
 31
0.0
  0
ARC
  5
3EA
330
5A3
100
AcDbEntity
  8
ninja1 - Level 26
  6
Continuous
 62
     7
370
    13
100
AcDbCircle
 10
3.800589
 20
3.610111
 30
0.0
 40
0.0125000000000009
100
AcDbArc
 50
360.0
 51
2.291963
  0
LINE
  5
3EB
330
5A3
100
AcDbEntity
  8
ninja1 - Level 26
  6
Continuous
 62
     7
370
    13
100
AcDbLine
 10
3.813089
 20
3.610111
 30
0.0
 11
3.813089
 21
3.609611
 31
0.0
  0
LINE
  5
3EC
330
5A3
100
AcDbEntity
  8
ninja1 - Level 26
  6
Continuous
 62
     7
370
    13
100
AcDbLine
 10
3.813089
 20
3.601444
 30
0.0
 11
3.813089
 21
3.600444
 31
0.0
  0
LINE
  5
3ED
330
5A3
100
AcDbEntity
  8
ninja1 - Level 26
  6
Continuous
 62
     7
370
    13
100
AcDbLine
 10
3.813089
 20
3.592278
 30
0.0
 11
3.813089
 21
3.591278
 31
0.0
  0
LINE
  5
3EE
330
5A3
100
AcDbEntity
  8
ninja1 - Level 26
  6
Continuous
 62
     7
370
    13
100
AcDbLine
 10
3.813089
 20
3.583111
 30
0.0
 11
3.813089
 21
3.582111
 31
0.0
  0
LINE
  5
3EF
330
5A3
100
AcDbEntity
  8
ninja1 - Level 26
  6
Continuous
 62
     7
370
    13
100
AcDbLine
 10
3.813089
 20
3.573944
 30
0.0
 11
3.813089
 21
3.572944
 31
0.0
  0
LINE
  5
3F0
330
5A3
100
AcDbEntity
  8
ninja1 - Level 26
  6
Continuous
 62
     7
370
    13
100
AcDbLine
 10
3.813089
 20
3.564778
 30
0.0
 11
3.813089
 21
3.563778
 31
0.0
  0
LINE
  5
3F1
330
5A3
100
AcDbEntity
  8
ninja1 - Level 26
  6
Continuous
 62
     7
370
    13
100
AcDbLine
 10
3.813089
 20
3.555611
 30
0.0
 11
3.813089
 21
3.555111
 31
0.0
  0
LINE
  5
3F2
330
5A3
100
AcDbEntity
  8
ninja1 - Level 26
  6
Continuous
 62
     7
370
    13
100
AcDbLine
 10
3.042589
 20
2.805486
 30
0.0
 11
3.042589
 21
2.889486
 31
0.0
  0
LINE
  5
3F3
330
5A3
100
AcDbEntity
  8
ninja1 - Level 26
  6
Continuous
 62
     7
370
    13
100
AcDbLine
 10
2.958589
 20
2.805486
 30
0.0
 11
3.042589
 21
2.805486
 31
0.0
  0
LINE
  5
3F4
330
5A3
100
AcDbEntity
  8
ninja1 - Level 26
  6
Continuous
 62
     7
370
    13
100
AcDbLine
 10
2.958589
 20
2.889486
 30
0.0
 11
2.958589
 21
2.805486
 31
0.0
  0
LINE
  5
3F5
330
5A3
100
AcDbEntity
  8
ninja1 - Level 26
  6
Continuous
 62
     7
370
    13
100
AcDbLine
 10
3.042589
 20
2.889486
 30
0.0
 11
2.958589
 21
2.889486
 31
0.0
  0
LINE
  5
3F6
330
5A3
100
AcDbEntity
  8
ninja1 - Level 26
  6
Continuous
 62
     7
370
    13
100
AcDbLine
 10
3.042589
 20
2.797486
 30
0.0
 11
3.042589
 21
2.805486
 31
0.0
  0
LINE
  5
3F7
330
5A3
100
AcDbEntity
  8
ninja1 - Level 26
  6
Continuous
 62
     7
370
    13
100
AcDbLine
 10
3.042589
 20
2.797486
 30
0.0
 11
2.958589
 21
2.797486
 31
0.0
  0
LINE
  5
3F8
330
5A3
100
AcDbEntity
  8
ninja1 - Level 26
  6
Continuous
 62
     7
370
    13
100
AcDbLine
 10
2.958589
 20
2.797486
 30
0.0
 11
2.958589
 21
2.805486
 31
0.0
  0
ARC
  5
3F9
330
5A3
100
AcDbEntity
  8
ninja1 - Level 26
  6
Continuous
 62
     7
370
    13
100
AcDbCircle
 10
-3.042589
 20
2.805486
 30
0.0
 40
0.008
210
0.0
220
0.0
230
-1.0
100
AcDbArc
 50
180.0
 51
270.0
  0
LINE
  5
3FA
330
5A3
100
AcDbEntity
  8
ninja1 - Level 26
  6
Continuous
 62
     7
370
    13
100
AcDbLine
 10
3.050589
 20
2.805486
 30
0.0
 11
3.042589
 21
2.805486
 31
0.0
  0
LINE
  5
3FB
330
5A3
100
AcDbEntity
  8
ninja1 - Level 26
  6
Continuous
 62
     7
370
    13
100
AcDbLine
 10
3.050589
 20
2.889486
 30
0.0
 11
3.042589
 21
2.889486
 31
0.0
  0
LINE
  5
3FC
330
5A3
100
AcDbEntity
  8
ninja1 - Level 26
  6
Continuous
 62
     7
370
    13
100
AcDbLine
 10
3.050589
 20
2.889486
 30
0.0
 11
3.050589
 21
2.805486
 31
0.0
  0
ARC
  5
3FD
330
5A3
100
AcDbEntity
  8
ninja1 - Level 26
  6
Continuous
 62
     7
370
    13
100
AcDbCircle
 10
-3.042589
 20
2.889486
 30
0.0
 40
0.008
210
0.0
220
0.0
230
-1.0
100
AcDbArc
 50
90.0
 51
180.0
  0
LINE
  5
3FE
330
5A3
100
AcDbEntity
  8
ninja1 - Level 26
  6
Continuous
 62
     7
370
    13
100
AcDbLine
 10
3.042589
 20
2.897486
 30
0.0
 11
3.042589
 21
2.889486
 31
0.0
  0
LINE
  5
3FF
330
5A3
100
AcDbEntity
  8
ninja1 - Level 26
  6
Continuous
 62
     7
370
    13
100
AcDbLine
 10
2.950589
 20
2.889486
 30
0.0
 11
2.958589
 21
2.889486
 31
0.0
  0
ARC
  5
400
330
5A3
100
AcDbEntity
  8
ninja1 - Level 26
  6
Continuous
 62
     7
370
    13
100
AcDbCircle
 10
2.958589
 20
2.889486
 30
0.0
 40
0.008
100
AcDbArc
 50
90.0
 51
180.0
  0
LINE
  5
401
330
5A3
100
AcDbEntity
  8
ninja1 - Level 26
  6
Continuous
 62
     7
370
    13
100
AcDbLine
 10
2.958589
 20
2.889486
 30
0.0
 11
2.958589
 21
2.897486
 31
0.0
  0
LINE
  5
402
330
5A3
100
AcDbEntity
  8
ninja1 - Level 26
  6
Continuous
 62
     7
370
    13
100
AcDbLine
 10
2.958589
 20
2.897486
 30
0.0
 11
3.042589
 21
2.897486
 31
0.0
  0
LINE
  5
403
330
5A3
100
AcDbEntity
  8
ninja1 - Level 26
  6
Continuous
 62
     7
370
    13
100
AcDbLine
 10
2.950589
 20
2.805486
 30
0.0
 11
2.950589
 21
2.889486
 31
0.0
  0
LINE
  5
404
330
5A3
100
AcDbEntity
  8
ninja1 - Level 26
  6
Continuous
 62
     7
370
    13
100
AcDbLine
 10
2.950589
 20
2.805486
 30
0.0
 11
2.958589
 21
2.805486
 31
0.0
  0
ARC
  5
405
330
5A3
100
AcDbEntity
  8
ninja1 - Level 26
  6
Continuous
 62
     7
370
    13
100
AcDbCircle
 10
-2.958589
 20
2.805486
 30
0.0
 40
0.008
210
0.0
220
0.0
230
-1.0
100
AcDbArc
 50
270.0
 51
0.0
  0
LINE
  5
406
330
5A3
100
AcDbEntity
  8
ninja1 - Level 26
  6
Continuous
 62
     7
370
    13
100
AcDbLine
 10
3.842589
 20
2.889486
 30
0.0
 11
3.842589
 21
2.805486
 31
0.0
  0
LINE
  5
407
330
5A3
100
AcDbEntity
  8
ninja1 - Level 26
  6
Continuous
 62
     7
370
    13
100
AcDbLine
 10
3.842589
 20
2.805486
 30
0.0
 11
3.758589
 21
2.805486
 31
0.0
  0
LINE
  5
408
330
5A3
100
AcDbEntity
  8
ninja1 - Level 26
  6
Continuous
 62
     7
370
    13
100
AcDbLine
 10
3.758589
 20
2.805486
 30
0.0
 11
3.758589
 21
2.889486
 31
0.0
  0
LINE
  5
409
330
5A3
100
AcDbEntity
  8
ninja1 - Level 26
  6
Continuous
 62
     7
370
    13
100
AcDbLine
 10
3.758589
 20
2.889486
 30
0.0
 11
3.842589
 21
2.889486
 31
0.0
  0
LINE
  5
40A
330
5A3
100
AcDbEntity
  8
ninja1 - Level 26
  6
Continuous
 62
     7
370
    13
100
AcDbLine
 10
3.842589
 20
2.797486
 30
0.0
 11
3.842589
 21
2.805486
 31
0.0
  0
LINE
  5
40B
330
5A3
100
AcDbEntity
  8
ninja1 - Level 26
  6
Continuous
 62
     7
370
    13
100
AcDbLine
 10
3.758589
 20
2.797486
 30
0.0
 11
3.842589
 21
2.797486
 31
0.0
  0
LINE
  5
40C
330
5A3
100
AcDbEntity
  8
ninja1 - Level 26
  6
Continuous
 62
     7
370
    13
100
AcDbLine
 10
3.758589
 20
2.797486
 30
0.0
 11
3.758589
 21
2.805486
 31
0.0
  0
ARC
  5
40D
330
5A3
100
AcDbEntity
  8
ninja1 - Level 26
  6
Continuous
 62
     7
370
    13
100
AcDbCircle
 10
3.758589
 20
2.805486
 30
0.0
 40
0.008
100
AcDbArc
 50
180.0
 51
270.0
  0
LINE
  5
40E
330
5A3
100
AcDbEntity
  8
ninja1 - Level 26
  6
Continuous
 62
     7
370
    13
100
AcDbLine
 10
3.750589
 20
2.805486
 30
0.0
 11
3.758589
 21
2.805486
 31
0.0
  0
LINE
  5
40F
330
5A3
100
AcDbEntity
  8
ninja1 - Level 26
  6
Continuous
 62
     7
370
    13
100
AcDbLine
 10
3.750589
 20
2.889486
 30
0.0
 11
3.750589
 21
2.805486
 31
0.0
  0
LINE
  5
410
330
5A3
100
AcDbEntity
  8
ninja1 - Level 26
  6
Continuous
 62
     7
370
    13
100
AcDbLine
 10
3.750589
 20
2.889486
 30
0.0
 11
3.758589
 21
2.889486
 31
0.0
  0
ARC
  5
411
330
5A3
100
AcDbEntity
  8
ninja1 - Level 26
  6
Continuous
 62
     7
370
    13
100
AcDbCircle
 10
3.758589
 20
2.889486
 30
0.0
 40
0.008
100
AcDbArc
 50
90.0
 51
180.0
  0
LINE
  5
412
330
5A3
100
AcDbEntity
  8
ninja1 - Level 26
  6
Continuous
 62
     7
370
    13
100
AcDbLine
 10
3.758589
 20
2.897486
 30
0.0
 11
3.758589
 21
2.889486
 31
0.0
  0
ARC
  5
413
330
5A3
100
AcDbEntity
  8
ninja1 - Level 26
  6
Continuous
 62
     7
370
    13
100
AcDbCircle
 10
-3.842589
 20
2.889486
 30
0.0
 40
0.008
210
0.0
220
0.0
230
-1.0
100
AcDbArc
 50
90.0
 51
180.0
  0
LINE
  5
414
330
5A3
100
AcDbEntity
  8
ninja1 - Level 26
  6
Continuous
 62
     7
370
    13
100
AcDbLine
 10
3.850589
 20
2.889486
 30
0.0
 11
3.842589
 21
2.889486
 31
0.0
  0
LINE
  5
415
330
5A3
100
AcDbEntity
  8
ninja1 - Level 26
  6
Continuous
 62
     7
370
    13
100
AcDbLine
 10
3.842589
 20
2.889486
 30
0.0
 11
3.842589
 21
2.897486
 31
0.0
  0
LINE
  5
416
330
5A3
100
AcDbEntity
  8
ninja1 - Level 26
  6
Continuous
 62
     7
370
    13
100
AcDbLine
 10
3.842589
 20
2.897486
 30
0.0
 11
3.758589
 21
2.897486
 31
0.0
  0
LINE
  5
417
330
5A3
100
AcDbEntity
  8
ninja1 - Level 26
  6
Continuous
 62
     7
370
    13
100
AcDbLine
 10
3.850589
 20
2.805486
 30
0.0
 11
3.850589
 21
2.889486
 31
0.0
  0
LINE
  5
418
330
5A3
100
AcDbEntity
  8
ninja1 - Level 26
  6
Continuous
 62
     7
370
    13
100
AcDbLine
 10
3.850589
 20
2.805486
 30
0.0
 11
3.842589
 21
2.805486
 31
0.0
  0
ARC
  5
419
330
5A3
100
AcDbEntity
  8
ninja1 - Level 26
  6
Continuous
 62
     7
370
    13
100
AcDbCircle
 10
3.842589
 20
2.805486
 30
0.0
 40
0.008
100
AcDbArc
 50
270.0
 51
0.0
  0
LINE
  5
41A
330
5A3
100
AcDbEntity
  8
ninja1 - Level 26
  6
Continuous
 62
     7
370
    13
100
AcDbLine
 10
2.958589
 20
3.274986
 30
0.0
 11
2.958589
 21
3.358986
 31
0.0
  0
LINE
  5
41B
330
5A3
100
AcDbEntity
  8
ninja1 - Level 26
  6
Continuous
 62
     7
370
    13
100
AcDbLine
 10
2.958589
 20
3.358986
 30
0.0
 11
3.042589
 21
3.358986
 31
0.0
  0
LINE
  5
41C
330
5A3
100
AcDbEntity
  8
ninja1 - Level 26
  6
Continuous
 62
     7
370
    13
100
AcDbLine
 10
3.042589
 20
3.358986
 30
0.0
 11
3.042589
 21
3.274986
 31
0.0
  0
LINE
  5
41D
330
5A3
100
AcDbEntity
  8
ninja1 - Level 26
  6
Continuous
 62
     7
370
    13
100
AcDbLine
 10
3.042589
 20
3.274986
 30
0.0
 11
2.958589
 21
3.274986
 31
0.0
  0
LINE
  5
41E
330
5A3
100
AcDbEntity
  8
ninja1 - Level 26
  6
Continuous
 62
     7
370
    13
100
AcDbLine
 10
2.958589
 20
3.366986
 30
0.0
 11
2.958589
 21
3.358986
 31
0.0
  0
LINE
  5
41F
330
5A3
100
AcDbEntity
  8
ninja1 - Level 26
  6
Continuous
 62
     7
370
    13
100
AcDbLine
 10
3.042589
 20
3.366986
 30
0.0
 11
2.958589
 21
3.366986
 31
0.0
  0
LINE
  5
420
330
5A3
100
AcDbEntity
  8
ninja1 - Level 26
  6
Continuous
 62
     7
370
    13
100
AcDbLine
 10
3.042589
 20
3.366986
 30
0.0
 11
3.042589
 21
3.358986
 31
0.0
  0
ARC
  5
421
330
5A3
100
AcDbEntity
  8
ninja1 - Level 26
  6
Continuous
 62
     7
370
    13
100
AcDbCircle
 10
3.042589
 20
3.358986
 30
0.0
 40
0.008
100
AcDbArc
 50
0.0
 51
90.0
  0
LINE
  5
422
330
5A3
100
AcDbEntity
  8
ninja1 - Level 26
  6
Continuous
 62
     7
370
    13
100
AcDbLine
 10
3.050589
 20
3.358986
 30
0.0
 11
3.042589
 21
3.358986
 31
0.0
  0
LINE
  5
423
330
5A3
100
AcDbEntity
  8
ninja1 - Level 26
  6
Continuous
 62
     7
370
    13
100
AcDbLine
 10
3.050589
 20
3.274986
 30
0.0
 11
3.050589
 21
3.358986
 31
0.0
  0
LINE
  5
424
330
5A3
100
AcDbEntity
  8
ninja1 - Level 26
  6
Continuous
 62
     7
370
    13
100
AcDbLine
 10
3.050589
 20
3.274986
 30
0.0
 11
3.042589
 21
3.274986
 31
0.0
  0
ARC
  5
425
330
5A3
100
AcDbEntity
  8
ninja1 - Level 26
  6
Continuous
 62
     7
370
    13
100
AcDbCircle
 10
3.042589
 20
3.274986
 30
0.0
 40
0.008
100
AcDbArc
 50
270.0
 51
0.0
  0
LINE
  5
426
330
5A3
100
AcDbEntity
  8
ninja1 - Level 26
  6
Continuous
 62
     7
370
    13
100
AcDbLine
 10
3.042589
 20
3.266986
 30
0.0
 11
3.042589
 21
3.274986
 31
0.0
  0
ARC
  5
427
330
5A3
100
AcDbEntity
  8
ninja1 - Level 26
  6
Continuous
 62
     7
370
    13
100
AcDbCircle
 10
-2.958589
 20
3.274986
 30
0.0
 40
0.008
210
0.0
220
0.0
230
-1.0
100
AcDbArc
 50
270.0
 51
0.0
  0
LINE
  5
428
330
5A3
100
AcDbEntity
  8
ninja1 - Level 26
  6
Continuous
 62
     7
370
    13
100
AcDbLine
 10
2.950589
 20
3.274986
 30
0.0
 11
2.958589
 21
3.274986
 31
0.0
  0
LINE
  5
429
330
5A3
100
AcDbEntity
  8
ninja1 - Level 26
  6
Continuous
 62
     7
370
    13
100
AcDbLine
 10
2.958589
 20
3.274986
 30
0.0
 11
2.958589
 21
3.266986
 31
0.0
  0
LINE
  5
42A
330
5A3
100
AcDbEntity
  8
ninja1 - Level 26
  6
Continuous
 62
     7
370
    13
100
AcDbLine
 10
2.958589
 20
3.266986
 30
0.0
 11
3.042589
 21
3.266986
 31
0.0
  0
LINE
  5
42B
330
5A3
100
AcDbEntity
  8
ninja1 - Level 26
  6
Continuous
 62
     7
370
    13
100
AcDbLine
 10
2.950589
 20
3.358986
 30
0.0
 11
2.950589
 21
3.274986
 31
0.0
  0
LINE
  5
42C
330
5A3
100
AcDbEntity
  8
ninja1 - Level 26
  6
Continuous
 62
     7
370
    13
100
AcDbLine
 10
2.950589
 20
3.358986
 30
0.0
 11
2.958589
 21
3.358986
 31
0.0
  0
ARC
  5
42D
330
5A3
100
AcDbEntity
  8
ninja1 - Level 26
  6
Continuous
 62
     7
370
    13
100
AcDbCircle
 10
2.958589
 20
3.358986
 30
0.0
 40
0.008
100
AcDbArc
 50
90.0
 51
180.0
  0
LINE
  5
42E
330
5A3
100
AcDbEntity
  8
ninja1 - Level 26
  6
Continuous
 62
     7
370
    13
100
AcDbLine
 10
3.758589
 20
3.358986
 30
0.0
 11
3.758589
 21
3.274986
 31
0.0
  0
LINE
  5
42F
330
5A3
100
AcDbEntity
  8
ninja1 - Level 26
  6
Continuous
 62
     7
370
    13
100
AcDbLine
 10
3.842589
 20
3.358986
 30
0.0
 11
3.758589
 21
3.358986
 31
0.0
  0
LINE
  5
430
330
5A3
100
AcDbEntity
  8
ninja1 - Level 26
  6
Continuous
 62
     7
370
    13
100
AcDbLine
 10
3.842589
 20
3.274986
 30
0.0
 11
3.842589
 21
3.358986
 31
0.0
  0
LINE
  5
431
330
5A3
100
AcDbEntity
  8
ninja1 - Level 26
  6
Continuous
 62
     7
370
    13
100
AcDbLine
 10
3.758589
 20
3.274986
 30
0.0
 11
3.842589
 21
3.274986
 31
0.0
  0
LINE
  5
432
330
5A3
100
AcDbEntity
  8
ninja1 - Level 26
  6
Continuous
 62
     7
370
    13
100
AcDbLine
 10
3.758589
 20
3.366986
 30
0.0
 11
3.758589
 21
3.358986
 31
0.0
  0
LINE
  5
433
330
5A3
100
AcDbEntity
  8
ninja1 - Level 26
  6
Continuous
 62
     7
370
    13
100
AcDbLine
 10
3.758589
 20
3.366986
 30
0.0
 11
3.842589
 21
3.366986
 31
0.0
  0
LINE
  5
434
330
5A3
100
AcDbEntity
  8
ninja1 - Level 26
  6
Continuous
 62
     7
370
    13
100
AcDbLine
 10
3.842589
 20
3.366986
 30
0.0
 11
3.842589
 21
3.358986
 31
0.0
  0
ARC
  5
435
330
5A3
100
AcDbEntity
  8
ninja1 - Level 26
  6
Continuous
 62
     7
370
    13
100
AcDbCircle
 10
-3.758589
 20
3.358986
 30
0.0
 40
0.008
210
0.0
220
0.0
230
-1.0
100
AcDbArc
 50
0.0
 51
90.0
  0
LINE
  5
436
330
5A3
100
AcDbEntity
  8
ninja1 - Level 26
  6
Continuous
 62
     7
370
    13
100
AcDbLine
 10
3.750589
 20
3.358986
 30
0.0
 11
3.758589
 21
3.358986
 31
0.0
  0
LINE
  5
437
330
5A3
100
AcDbEntity
  8
ninja1 - Level 26
  6
Continuous
 62
     7
370
    13
100
AcDbLine
 10
3.750589
 20
3.274986
 30
0.0
 11
3.758589
 21
3.274986
 31
0.0
  0
LINE
  5
438
330
5A3
100
AcDbEntity
  8
ninja1 - Level 26
  6
Continuous
 62
     7
370
    13
100
AcDbLine
 10
3.750589
 20
3.274986
 30
0.0
 11
3.750589
 21
3.358986
 31
0.0
  0
ARC
  5
439
330
5A3
100
AcDbEntity
  8
ninja1 - Level 26
  6
Continuous
 62
     7
370
    13
100
AcDbCircle
 10
-3.758589
 20
3.274986
 30
0.0
 40
0.008
210
0.0
220
0.0
230
-1.0
100
AcDbArc
 50
270.0
 51
0.0
  0
LINE
  5
43A
330
5A3
100
AcDbEntity
  8
ninja1 - Level 26
  6
Continuous
 62
     7
370
    13
100
AcDbLine
 10
3.758589
 20
3.266986
 30
0.0
 11
3.758589
 21
3.274986
 31
0.0
  0
LINE
  5
43B
330
5A3
100
AcDbEntity
  8
ninja1 - Level 26
  6
Continuous
 62
     7
370
    13
100
AcDbLine
 10
3.850589
 20
3.274986
 30
0.0
 11
3.842589
 21
3.274986
 31
0.0
  0
ARC
  5
43C
330
5A3
100
AcDbEntity
  8
ninja1 - Level 26
  6
Continuous
 62
     7
370
    13
100
AcDbCircle
 10
3.842589
 20
3.274986
 30
0.0
 40
0.008
100
AcDbArc
 50
270.0
 51
0.0
  0
LINE
  5
43D
330
5A3
100
AcDbEntity
  8
ninja1 - Level 26
  6
Continuous
 62
     7
370
    13
100
AcDbLine
 10
3.842589
 20
3.274986
 30
0.0
 11
3.842589
 21
3.266986
 31
0.0
  0
LINE
  5
43E
330
5A3
100
AcDbEntity
  8
ninja1 - Level 26
  6
Continuous
 62
     7
370
    13
100
AcDbLine
 10
3.842589
 20
3.266986
 30
0.0
 11
3.758589
 21
3.266986
 31
0.0
  0
LINE
  5
43F
330
5A3
100
AcDbEntity
  8
ninja1 - Level 26
  6
Continuous
 62
     7
370
    13
100
AcDbLine
 10
3.850589
 20
3.358986
 30
0.0
 11
3.850589
 21
3.274986
 31
0.0
  0
LINE
  5
440
330
5A3
100
AcDbEntity
  8
ninja1 - Level 26
  6
Continuous
 62
     7
370
    13
100
AcDbLine
 10
3.850589
 20
3.358986
 30
0.0
 11
3.842589
 21
3.358986
 31
0.0
  0
ARC
  5
441
330
5A3
100
AcDbEntity
  8
ninja1 - Level 26
  6
Continuous
 62
     7
370
    13
100
AcDbCircle
 10
-3.842589
 20
3.358986
 30
0.0
 40
0.008
210
0.0
220
0.0
230
-1.0
100
AcDbArc
 50
90.0
 51
180.0
  0
SPLINE
  5
442
330
5A3
100
AcDbEntity
  8
ninja1 - Level 26
  6
Continuous
 62
     7
370
    13
100
AcDbSpline
210
0.0
220
0.0
230
1.0
 70
     8
 71
     3
 72
     8
 73
     4
 74
     0
 42
0.000000001
 43
0.0000000001
 40
0.0
 40
0.0
 40
0.0
 40
0.0
 40
0.0209858797530417
 40
0.0209858797530417
 40
0.0209858797530417
 40
0.0209858797530417
 10
3.708588702603258
 20
4.149486112474769
 30
0.0
 10
3.708587185677968
 20
4.149486909672682
 30
0.0
 10
3.708587194669765
 20
4.149485884469195
 30
0.0
 10
3.708588702603261
 20
4.149483058121811
 30
0.0
  0
ARC
  5
44B
330
5A3
100
AcDbEntity
  8
ninja1 - Level 42
  6
Continuous
 62
     7
370
    13
100
AcDbCircle
 10
-3.800589
 20
3.880111
 30
0.0
 40
0.0125
210
0.0
220
0.0
230
-1.0
100
AcDbArc
 50
0.0
 51
177.708037
  0
LINE
  5
44C
330
5A3
100
AcDbEntity
  8
ninja1 - Level 42
  6
Continuous
 62
     7
370
    13
100
AcDbLine
 10
3.788089
 20
3.862611
 30
0.0
 11
3.788089
 21
3.880111
 31
0.0
  0
LINE
  5
44D
330
5A3
100
AcDbEntity
  8
ninja1 - Level 42
  6
Continuous
 62
     7
370
    13
100
AcDbLine
 10
3.788089
 20
3.825111
 30
0.0
 11
3.788089
 21
3.842611
 31
0.0
  0
ARC
  5
44E
330
5A3
100
AcDbEntity
  8
ninja1 - Level 42
  6
Continuous
 62
     7
370
    13
100
AcDbCircle
 10
-3.800589
 20
3.825111
 30
0.0
 40
0.0125
210
0.0
220
0.0
230
-1.0
100
AcDbArc
 50
182.291984
 51
0.0
  0
ARC
  5
44F
330
5A3
100
AcDbEntity
  8
ninja1 - Level 42
  6
Continuous
 62
     7
370
    13
100
AcDbCircle
 10
-3.813089
 20
3.825111
 30
0.0
 40
0.0005
210
0.0
220
0.0
230
-1.0
100
AcDbArc
 50
90.0
 51
271.145992
  0
LINE
  5
450
330
5A3
100
AcDbEntity
  8
ninja1 - Level 42
  6
Continuous
 62
     7
370
    13
100
AcDbLine
 10
3.813089
 20
3.833778
 30
0.0
 11
3.813089
 21
3.825611
 31
0.0
  0
ARC
  5
451
330
5A3
100
AcDbEntity
  8
ninja1 - Level 42
  6
Continuous
 62
     7
370
    13
100
AcDbCircle
 10
-3.813089
 20
3.834278
 30
0.0
 40
0.0004999999999985
210
0.0
220
0.0
230
-1.0
100
AcDbArc
 50
90.0
 51
270.0
  0
LINE
  5
452
330
5A3
100
AcDbEntity
  8
ninja1 - Level 42
  6
Continuous
 62
     7
370
    13
100
AcDbLine
 10
3.813089
 20
3.842944
 30
0.0
 11
3.813089
 21
3.834778
 31
0.0
  0
ARC
  5
453
330
5A3
100
AcDbEntity
  8
ninja1 - Level 42
  6
Continuous
 62
     7
370
    13
100
AcDbCircle
 10
-3.813089
 20
3.843444
 30
0.0
 40
0.0004999999999985
210
0.0
220
0.0
230
-1.0
100
AcDbArc
 50
90.0
 51
270.0
  0
LINE
  5
454
330
5A3
100
AcDbEntity
  8
ninja1 - Level 42
  6
Continuous
 62
     7
370
    13
100
AcDbLine
 10
3.813089
 20
3.852111
 30
0.0
 11
3.813089
 21
3.843944
 31
0.0
  0
ARC
  5
455
330
5A3
100
AcDbEntity
  8
ninja1 - Level 42
  6
Continuous
 62
     7
370
    13
100
AcDbCircle
 10
-3.813089
 20
3.852611
 30
0.0
 40
0.0004999999999985
210
0.0
220
0.0
230
-1.0
100
AcDbArc
 50
90.0
 51
270.0
  0
LINE
  5
456
330
5A3
100
AcDbEntity
  8
ninja1 - Level 42
  6
Continuous
 62
     7
370
    13
100
AcDbLine
 10
3.813089
 20
3.861278
 30
0.0
 11
3.813089
 21
3.853111
 31
0.0
  0
ARC
  5
457
330
5A3
100
AcDbEntity
  8
ninja1 - Level 42
  6
Continuous
 62
     7
370
    13
100
AcDbCircle
 10
-3.813089
 20
3.861778
 30
0.0
 40
0.0004999999999985
210
0.0
220
0.0
230
-1.0
100
AcDbArc
 50
90.0
 51
270.0
  0
LINE
  5
458
330
5A3
100
AcDbEntity
  8
ninja1 - Level 42
  6
Continuous
 62
     7
370
    13
100
AcDbLine
 10
3.813089
 20
3.870444
 30
0.0
 11
3.813089
 21
3.862278
 31
0.0
  0
ARC
  5
459
330
5A3
100
AcDbEntity
  8
ninja1 - Level 42
  6
Continuous
 62
     7
370
    13
100
AcDbCircle
 10
-3.813089
 20
3.870944
 30
0.0
 40
0.0004999999999985
210
0.0
220
0.0
230
-1.0
100
AcDbArc
 50
90.0
 51
270.0
  0
LINE
  5
45A
330
5A3
100
AcDbEntity
  8
ninja1 - Level 42
  6
Continuous
 62
     7
370
    13
100
AcDbLine
 10
3.813089
 20
3.879611
 30
0.0
 11
3.813089
 21
3.871444
 31
0.0
  0
ARC
  5
45B
330
5A3
100
AcDbEntity
  8
ninja1 - Level 42
  6
Continuous
 62
     7
370
    13
100
AcDbCircle
 10
-3.813089
 20
3.880111
 30
0.0
 40
0.0005
210
0.0
220
0.0
230
-1.0
100
AcDbArc
 50
88.854029
 51
270.0
  0
LINE
  5
45C
330
5A3
100
AcDbEntity
  8
ninja1 - Level 42
  6
Continuous
 62
     7
370
    13
100
AcDbLine
 10
3.788089
 20
3.997609
 30
0.0
 11
3.788089
 21
4.015109
 31
0.0
  0
LINE
  5
45D
330
5A3
100
AcDbEntity
  8
ninja1 - Level 42
  6
Continuous
 62
     7
370
    13
100
AcDbLine
 10
3.788089
 20
3.960109
 30
0.0
 11
3.788089
 21
3.977609
 31
0.0
  0
ARC
  5
45E
330
5A3
100
AcDbEntity
  8
ninja1 - Level 42
  6
Continuous
 62
     7
370
    13
100
AcDbCircle
 10
-3.800589
 20
3.960109
 30
0.0
 40
0.0125
210
0.0
220
0.0
230
-1.0
100
AcDbArc
 50
182.291984
 51
0.0
  0
ARC
  5
45F
330
5A3
100
AcDbEntity
  8
ninja1 - Level 42
  6
Continuous
 62
     7
370
    13
100
AcDbCircle
 10
-3.813089
 20
3.960109
 30
0.0
 40
0.0005
210
0.0
220
0.0
230
-1.0
100
AcDbArc
 50
90.0
 51
271.145992
  0
LINE
  5
460
330
5A3
100
AcDbEntity
  8
ninja1 - Level 42
  6
Continuous
 62
     7
370
    13
100
AcDbLine
 10
3.813089
 20
3.968775
 30
0.0
 11
3.813089
 21
3.960609
 31
0.0
  0
ARC
  5
461
330
5A3
100
AcDbEntity
  8
ninja1 - Level 42
  6
Continuous
 62
     7
370
    13
100
AcDbCircle
 10
-3.813089
 20
3.969275
 30
0.0
 40
0.0004999999999985
210
0.0
220
0.0
230
-1.0
100
AcDbArc
 50
90.0
 51
270.0
  0
LINE
  5
462
330
5A3
100
AcDbEntity
  8
ninja1 - Level 42
  6
Continuous
 62
     7
370
    13
100
AcDbLine
 10
3.813089
 20
3.977942
 30
0.0
 11
3.813089
 21
3.969775
 31
0.0
  0
ARC
  5
463
330
5A3
100
AcDbEntity
  8
ninja1 - Level 42
  6
Continuous
 62
     7
370
    13
100
AcDbCircle
 10
-3.813089
 20
3.978442
 30
0.0
 40
0.0004999999999985
210
0.0
220
0.0
230
-1.0
100
AcDbArc
 50
90.0
 51
270.0
  0
LINE
  5
464
330
5A3
100
AcDbEntity
  8
ninja1 - Level 42
  6
Continuous
 62
     7
370
    13
100
AcDbLine
 10
3.813089
 20
3.987109
 30
0.0
 11
3.813089
 21
3.978942
 31
0.0
  0
ARC
  5
465
330
5A3
100
AcDbEntity
  8
ninja1 - Level 42
  6
Continuous
 62
     7
370
    13
100
AcDbCircle
 10
-3.813089
 20
3.987609
 30
0.0
 40
0.0004999999999985
210
0.0
220
0.0
230
-1.0
100
AcDbArc
 50
90.0
 51
270.0
  0
LINE
  5
466
330
5A3
100
AcDbEntity
  8
ninja1 - Level 42
  6
Continuous
 62
     7
370
    13
100
AcDbLine
 10
3.813089
 20
3.996275
 30
0.0
 11
3.813089
 21
3.988109
 31
0.0
  0
ARC
  5
467
330
5A3
100
AcDbEntity
  8
ninja1 - Level 42
  6
Continuous
 62
     7
370
    13
100
AcDbCircle
 10
-3.813089
 20
3.996775
 30
0.0
 40
0.0004999999999985
210
0.0
220
0.0
230
-1.0
100
AcDbArc
 50
90.0
 51
270.0
  0
LINE
  5
468
330
5A3
100
AcDbEntity
  8
ninja1 - Level 42
  6
Continuous
 62
     7
370
    13
100
AcDbLine
 10
3.813089
 20
4.005442
 30
0.0
 11
3.813089
 21
3.997275
 31
0.0
  0
ARC
  5
469
330
5A3
100
AcDbEntity
  8
ninja1 - Level 42
  6
Continuous
 62
     7
370
    13
100
AcDbCircle
 10
-3.813089
 20
4.005942
 30
0.0
 40
0.0004999999999985
210
0.0
220
0.0
230
-1.0
100
AcDbArc
 50
90.0
 51
270.0
  0
LINE
  5
46A
330
5A3
100
AcDbEntity
  8
ninja1 - Level 42
  6
Continuous
 62
     7
370
    13
100
AcDbLine
 10
3.813089
 20
4.014609
 30
0.0
 11
3.813089
 21
4.006442
 31
0.0
  0
ARC
  5
46B
330
5A3
100
AcDbEntity
  8
ninja1 - Level 42
  6
Continuous
 62
     7
370
    13
100
AcDbCircle
 10
-3.813089
 20
4.015109
 30
0.0
 40
0.0005
210
0.0
220
0.0
230
-1.0
100
AcDbArc
 50
88.865461
 51
270.0
  0
LINE
  5
46C
330
5A3
100
AcDbEntity
  8
ninja1 - Level 26
  6
Continuous
 62
     7
370
    13
100
AcDbLine
 10
3.050589
 20
4.149486
 30
0.0
 11
3.062589
 21
4.149486
 31
0.0
  0
LINE
  5
46D
330
5A3
100
AcDbEntity
  8
ninja1 - Level 26
  6
Continuous
 62
     7
370
    13
100
AcDbLine
 10
3.050589
 20
4.084486
 30
0.0
 11
3.062589
 21
4.084486
 31
0.0
  0
LINE
  5
46E
330
5A3
100
AcDbEntity
  8
ninja1 - Level 26
  6
Continuous
 62
     7
370
    13
100
AcDbLine
 10
3.062589
 20
4.084486
 30
0.0
 11
3.062589
 21
4.149486
 31
0.0
  0
LINE
  5
46F
330
5A3
100
AcDbEntity
  8
ninja1 - Level 26
  6
Continuous
 62
     7
370
    13
100
AcDbLine
 10
3.08533
 20
4.139486
 30
0.0
 11
3.062589
 21
4.139486
 31
0.0
  0
SPLINE
  5
470
330
5A3
100
AcDbEntity
  8
ninja1 - Level 26
  6
Continuous
 62
     7
370
    13
100
AcDbSpline
210
0.0
220
0.0
230
1.0
 70
     8
 71
     3
 72
     8
 73
     4
 74
     0
 42
0.000000001
 43
0.0000000001
 40
0.0
 40
0.0
 40
0.0
 40
0.0
 40
1.0
 40
1.0
 40
1.0
 40
1.0
 10
3.0925887026032
 20
4.149486112474769
 30
0.0
 10
3.092660985743572
 20
4.149524099822559
 30
0.0
 10
3.089268481604019
 20
4.145424094853574
 30
0.0
 10
3.085329867818169
 20
4.139486112474751
 30
0.0
  0
LINE
  5
473
330
5A3
100
AcDbEntity
  8
ninja1 - Level 26
  6
Continuous
 62
     7
370
    13
100
AcDbLine
 10
3.092589
 20
4.149486
 30
0.0
 11
3.062589
 21
4.149486
 31
0.0
  0
LINE
  5
474
330
5A3
100
AcDbEntity
  8
ninja1 - Level 26
  6
Continuous
 62
     7
370
    13
100
AcDbLine
 10
3.08533
 20
4.094486
 30
0.0
 11
3.062589
 21
4.094486
 31
0.0
  0
SPLINE
  5
475
330
5A3
100
AcDbEntity
  8
ninja1 - Level 26
  6
Continuous
 62
     7
370
    13
100
AcDbSpline
210
0.0
220
0.0
230
1.0
 70
     8
 71
     3
 72
     8
 73
     4
 74
     0
 42
0.000000001
 43
0.0000000001
 40
0.0
 40
0.0
 40
0.0
 40
0.0
 40
1.0
 40
1.0
 40
1.0
 40
1.0
 10
3.085329867818181
 20
4.094486112474754
 30
0.0
 10
3.089265731995742
 20
4.088552348558232
 30
0.0
 10
3.092663102067492
 20
4.084444949185825
 30
0.0
 10
3.0925887026032
 20
4.084486112474754
 30
0.0
  0
LINE
  5
478
330
5A3
100
AcDbEntity
  8
ninja1 - Level 26
  6
Continuous
 62
     7
370
    13
100
AcDbLine
 10
3.092589
 20
4.084486
 30
0.0
 11
3.062589
 21
4.084486
 31
0.0
  0
LINE
  5
479
330
5A3
100
AcDbEntity
  8
ninja1 - Level 26
  6
Continuous
 62
     7
370
    13
100
AcDbLine
 10
3.092589
 20
4.149486
 30
0.0
 11
3.092589
 21
4.084486
 31
0.0
  0
ARC
  5
47A
330
5A3
100
AcDbEntity
  8
ninja1 - Level 26
  6
Continuous
 62
     7
370
    13
100
AcDbCircle
 10
3.012089
 20
3.717611
 30
0.0
 40
0.0134749260041462
100
AcDbArc
 50
296.440708
 51
0.0
  0
ARC
  5
47B
330
5A3
100
AcDbEntity
  8
ninja1 - Level 26
  6
Continuous
 62
     7
370
    13
100
AcDbCircle
 10
3.012089
 20
3.717611
 30
0.0
 40
0.0134749260041462
100
AcDbArc
 50
0.0
 51
63.559292
  0
ARC
  5
47C
330
5A3
100
AcDbEntity
  8
ninja1 - Level 26
  6
Continuous
 62
     7
370
    13
100
AcDbCircle
 10
3.012089
 20
3.852611
 30
0.0
 40
0.0134749260041462
100
AcDbArc
 50
296.440708
 51
0.0
  0
ARC
  5
47D
330
5A3
100
AcDbEntity
  8
ninja1 - Level 26
  6
Continuous
 62
     7
370
    13
100
AcDbCircle
 10
3.012089
 20
3.852611
 30
0.0
 40
0.0134749260041462
100
AcDbArc
 50
0.0
 51
63.559292
  0
ARC
  5
47E
330
5A3
100
AcDbEntity
  8
ninja1 - Level 26
  6
Continuous
 62
     7
370
    13
100
AcDbCircle
 10
3.012089
 20
3.987611
 30
0.0
 40
0.0134749260041462
100
AcDbArc
 50
296.440708
 51
0.0
  0
ARC
  5
47F
330
5A3
100
AcDbEntity
  8
ninja1 - Level 26
  6
Continuous
 62
     7
370
    13
100
AcDbCircle
 10
3.012089
 20
3.987611
 30
0.0
 40
0.0134749260041462
100
AcDbArc
 50
0.0
 51
63.559292
  0
LINE
  5
480
330
5A3
100
AcDbEntity
  8
ninja1 - Level 26
  6
Continuous
 62
     7
370
    13
100
AcDbLine
 10
3.008089
 20
3.690111
 30
0.0
 11
3.008089
 21
3.745111
 31
0.0
  0
ARC
  5
481
330
5A3
100
AcDbEntity
  8
ninja1 - Level 26
  6
Continuous
 62
     7
370
    13
100
AcDbCircle
 10
-3.000589
 20
3.690111
 30
0.0
 40
0.0075000000000009
210
0.0
220
0.0
230
-1.0
100
AcDbArc
 50
180.0
 51
0.0
  0
LINE
  5
482
330
5A3
100
AcDbEntity
  8
ninja1 - Level 26
  6
Continuous
 62
     7
370
    13
100
AcDbLine
 10
2.993089
 20
3.690111
 30
0.0
 11
2.993089
 21
3.745111
 31
0.0
  0
ARC
  5
483
330
5A3
100
AcDbEntity
  8
ninja1 - Level 26
  6
Continuous
 62
     7
370
    13
100
AcDbCircle
 10
3.000589
 20
3.745111
 30
0.0
 40
0.0075000000000009
100
AcDbArc
 50
0.0
 51
180.0
  0
LINE
  5
484
330
5A3
100
AcDbEntity
  8
ninja1 - Level 26
  6
Continuous
 62
     7
370
    13
100
AcDbLine
 10
3.013089
 20
3.745111
 30
0.0
 11
3.008089
 21
3.745111
 31
0.0
  0
LINE
  5
485
330
5A3
100
AcDbEntity
  8
ninja1 - Level 26
  6
Continuous
 62
     7
370
    13
100
AcDbLine
 10
2.993089
 20
3.745111
 30
0.0
 11
2.988089
 21
3.745111
 31
0.0
  0
ARC
  5
486
330
5A3
100
AcDbEntity
  8
ninja1 - Level 26
  6
Continuous
 62
     7
370
    13
100
AcDbCircle
 10
-3.000589
 20
3.745111
 30
0.0
 40
0.0125000000000009
210
0.0
220
0.0
230
-1.0
100
AcDbArc
 50
177.708037
 51
180.0
  0
LINE
  5
487
330
5A3
100
AcDbEntity
  8
ninja1 - Level 26
  6
Continuous
 62
     7
370
    13
100
AcDbLine
 10
3.013089
 20
3.707611
 30
0.0
 11
3.013089
 21
3.727611
 31
0.0
  0
LINE
  5
488
330
5A3
100
AcDbEntity
  8
ninja1 - Level 26
  6
Continuous
 62
     7
370
    13
100
AcDbLine
 10
3.008089
 20
3.690111
 30
0.0
 11
3.013089
 21
3.690111
 31
0.0
  0
LINE
  5
489
330
5A3
100
AcDbEntity
  8
ninja1 - Level 26
  6
Continuous
 62
     7
370
    13
100
AcDbLine
 10
2.988089
 20
3.690111
 30
0.0
 11
2.993089
 21
3.690111
 31
0.0
  0
ARC
  5
48A
330
5A3
100
AcDbEntity
  8
ninja1 - Level 26
  6
Continuous
 62
     7
370
    13
100
AcDbCircle
 10
3.000589
 20
3.690111
 30
0.0
 40
0.0125000000000009
100
AcDbArc
 50
180.0
 51
182.291984
  0
LINE
  5
48B
330
5A3
100
AcDbEntity
  8
ninja1 - Level 26
  6
Continuous
 62
     7
370
    13
100
AcDbLine
 10
2.988089
 20
3.690111
 30
0.0
 11
2.988089
 21
3.690611
 31
0.0
  0
LINE
  5
48C
330
5A3
100
AcDbEntity
  8
ninja1 - Level 26
  6
Continuous
 62
     7
370
    13
100
AcDbLine
 10
2.988089
 20
3.698778
 30
0.0
 11
2.988089
 21
3.699778
 31
0.0
  0
LINE
  5
48D
330
5A3
100
AcDbEntity
  8
ninja1 - Level 26
  6
Continuous
 62
     7
370
    13
100
AcDbLine
 10
2.988089
 20
3.707944
 30
0.0
 11
2.988089
 21
3.708944
 31
0.0
  0
LINE
  5
48E
330
5A3
100
AcDbEntity
  8
ninja1 - Level 26
  6
Continuous
 62
     7
370
    13
100
AcDbLine
 10
2.988089
 20
3.717111
 30
0.0
 11
2.988089
 21
3.718111
 31
0.0
  0
LINE
  5
48F
330
5A3
100
AcDbEntity
  8
ninja1 - Level 26
  6
Continuous
 62
     7
370
    13
100
AcDbLine
 10
2.988089
 20
3.726278
 30
0.0
 11
2.988089
 21
3.727278
 31
0.0
  0
LINE
  5
490
330
5A3
100
AcDbEntity
  8
ninja1 - Level 26
  6
Continuous
 62
     7
370
    13
100
AcDbLine
 10
2.988089
 20
3.735444
 30
0.0
 11
2.988089
 21
3.736444
 31
0.0
  0
LINE
  5
491
330
5A3
100
AcDbEntity
  8
ninja1 - Level 26
  6
Continuous
 62
     7
370
    13
100
AcDbLine
 10
2.988089
 20
3.744611
 30
0.0
 11
2.988089
 21
3.745111
 31
0.0
  0
LINE
  5
492
330
5A3
100
AcDbEntity
  8
ninja1 - Level 26
  6
Continuous
 62
     7
370
    13
100
AcDbLine
 10
3.008089
 20
3.825111
 30
0.0
 11
3.008089
 21
3.880111
 31
0.0
  0
ARC
  5
493
330
5A3
100
AcDbEntity
  8
ninja1 - Level 26
  6
Continuous
 62
     7
370
    13
100
AcDbCircle
 10
-3.000589
 20
3.825111
 30
0.0
 40
0.0075000000000009
210
0.0
220
0.0
230
-1.0
100
AcDbArc
 50
180.0
 51
0.0
  0
LINE
  5
494
330
5A3
100
AcDbEntity
  8
ninja1 - Level 26
  6
Continuous
 62
     7
370
    13
100
AcDbLine
 10
2.993089
 20
3.825111
 30
0.0
 11
2.993089
 21
3.880111
 31
0.0
  0
ARC
  5
495
330
5A3
100
AcDbEntity
  8
ninja1 - Level 26
  6
Continuous
 62
     7
370
    13
100
AcDbCircle
 10
3.000589
 20
3.880111
 30
0.0
 40
0.0075000000000009
100
AcDbArc
 50
0.0
 51
180.0
  0
LINE
  5
496
330
5A3
100
AcDbEntity
  8
ninja1 - Level 26
  6
Continuous
 62
     7
370
    13
100
AcDbLine
 10
3.013089
 20
3.880111
 30
0.0
 11
3.008089
 21
3.880111
 31
0.0
  0
LINE
  5
497
330
5A3
100
AcDbEntity
  8
ninja1 - Level 26
  6
Continuous
 62
     7
370
    13
100
AcDbLine
 10
2.993089
 20
3.880111
 30
0.0
 11
2.988089
 21
3.880111
 31
0.0
  0
ARC
  5
498
330
5A3
100
AcDbEntity
  8
ninja1 - Level 26
  6
Continuous
 62
     7
370
    13
100
AcDbCircle
 10
-3.000589
 20
3.880111
 30
0.0
 40
0.0125000000000009
210
0.0
220
0.0
230
-1.0
100
AcDbArc
 50
177.708037
 51
180.0
  0
LINE
  5
499
330
5A3
100
AcDbEntity
  8
ninja1 - Level 26
  6
Continuous
 62
     7
370
    13
100
AcDbLine
 10
3.013089
 20
3.842611
 30
0.0
 11
3.013089
 21
3.862611
 31
0.0
  0
LINE
  5
49A
330
5A3
100
AcDbEntity
  8
ninja1 - Level 26
  6
Continuous
 62
     7
370
    13
100
AcDbLine
 10
3.008089
 20
3.825111
 30
0.0
 11
3.013089
 21
3.825111
 31
0.0
  0
LINE
  5
49B
330
5A3
100
AcDbEntity
  8
ninja1 - Level 26
  6
Continuous
 62
     7
370
    13
100
AcDbLine
 10
2.988089
 20
3.825111
 30
0.0
 11
2.993089
 21
3.825111
 31
0.0
  0
ARC
  5
49C
330
5A3
100
AcDbEntity
  8
ninja1 - Level 26
  6
Continuous
 62
     7
370
    13
100
AcDbCircle
 10
3.000589
 20
3.825111
 30
0.0
 40
0.0125000000000009
100
AcDbArc
 50
180.0
 51
182.291984
  0
LINE
  5
49D
330
5A3
100
AcDbEntity
  8
ninja1 - Level 26
  6
Continuous
 62
     7
370
    13
100
AcDbLine
 10
2.988089
 20
3.825111
 30
0.0
 11
2.988089
 21
3.825611
 31
0.0
  0
LINE
  5
49E
330
5A3
100
AcDbEntity
  8
ninja1 - Level 26
  6
Continuous
 62
     7
370
    13
100
AcDbLine
 10
2.988089
 20
3.833778
 30
0.0
 11
2.988089
 21
3.834778
 31
0.0
  0
LINE
  5
49F
330
5A3
100
AcDbEntity
  8
ninja1 - Level 26
  6
Continuous
 62
     7
370
    13
100
AcDbLine
 10
2.988089
 20
3.842944
 30
0.0
 11
2.988089
 21
3.843944
 31
0.0
  0
LINE
  5
4A0
330
5A3
100
AcDbEntity
  8
ninja1 - Level 26
  6
Continuous
 62
     7
370
    13
100
AcDbLine
 10
2.988089
 20
3.852111
 30
0.0
 11
2.988089
 21
3.853111
 31
0.0
  0
LINE
  5
4A1
330
5A3
100
AcDbEntity
  8
ninja1 - Level 26
  6
Continuous
 62
     7
370
    13
100
AcDbLine
 10
2.988089
 20
3.861278
 30
0.0
 11
2.988089
 21
3.862278
 31
0.0
  0
LINE
  5
4A2
330
5A3
100
AcDbEntity
  8
ninja1 - Level 26
  6
Continuous
 62
     7
370
    13
100
AcDbLine
 10
2.988089
 20
3.870444
 30
0.0
 11
2.988089
 21
3.871444
 31
0.0
  0
LINE
  5
4A3
330
5A3
100
AcDbEntity
  8
ninja1 - Level 26
  6
Continuous
 62
     7
370
    13
100
AcDbLine
 10
2.988089
 20
3.879611
 30
0.0
 11
2.988089
 21
3.880111
 31
0.0
  0
LINE
  5
4A4
330
5A3
100
AcDbEntity
  8
ninja1 - Level 26
  6
Continuous
 62
     7
370
    13
100
AcDbLine
 10
3.008089
 20
3.960111
 30
0.0
 11
3.008089
 21
4.015111
 31
0.0
  0
ARC
  5
4A5
330
5A3
100
AcDbEntity
  8
ninja1 - Level 26
  6
Continuous
 62
     7
370
    13
100
AcDbCircle
 10
-3.000589
 20
3.960111
 30
0.0
 40
0.0075000000000009
210
0.0
220
0.0
230
-1.0
100
AcDbArc
 50
180.0
 51
0.0
  0
LINE
  5
4A6
330
5A3
100
AcDbEntity
  8
ninja1 - Level 26
  6
Continuous
 62
     7
370
    13
100
AcDbLine
 10
2.993089
 20
3.960111
 30
0.0
 11
2.993089
 21
4.015111
 31
0.0
  0
ARC
  5
4A7
330
5A3
100
AcDbEntity
  8
ninja1 - Level 26
  6
Continuous
 62
     7
370
    13
100
AcDbCircle
 10
3.000589
 20
4.015111
 30
0.0
 40
0.0075000000000009
100
AcDbArc
 50
0.0
 51
180.0
  0
LINE
  5
4A8
330
5A3
100
AcDbEntity
  8
ninja1 - Level 26
  6
Continuous
 62
     7
370
    13
100
AcDbLine
 10
3.013089
 20
4.015111
 30
0.0
 11
3.008089
 21
4.015111
 31
0.0
  0
LINE
  5
4A9
330
5A3
100
AcDbEntity
  8
ninja1 - Level 26
  6
Continuous
 62
     7
370
    13
100
AcDbLine
 10
2.993089
 20
4.015111
 30
0.0
 11
2.988089
 21
4.015111
 31
0.0
  0
ARC
  5
4AA
330
5A3
100
AcDbEntity
  8
ninja1 - Level 26
  6
Continuous
 62
     7
370
    13
100
AcDbCircle
 10
-3.000589
 20
4.015111
 30
0.0
 40
0.0125000000000009
210
0.0
220
0.0
230
-1.0
100
AcDbArc
 50
360.0
 51
180.0
  0
LINE
  5
4AB
330
5A3
100
AcDbEntity
  8
ninja1 - Level 26
  6
Continuous
 62
     7
370
    13
100
AcDbLine
 10
3.013089
 20
3.977609
 30
0.0
 11
3.013089
 21
3.997609
 31
0.0
  0
LINE
  5
4AC
330
5A3
100
AcDbEntity
  8
ninja1 - Level 26
  6
Continuous
 62
     7
370
    13
100
AcDbLine
 10
3.013089
 20
4.015109
 30
0.0
 11
3.013089
 21
4.015111
 31
0.0
  0
LINE
  5
4AD
330
5A3
100
AcDbEntity
  8
ninja1 - Level 26
  6
Continuous
 62
     7
370
    13
100
AcDbLine
 10
3.008089
 20
3.960111
 30
0.0
 11
3.013089
 21
3.960111
 31
0.0
  0
LINE
  5
4AE
330
5A3
100
AcDbEntity
  8
ninja1 - Level 26
  6
Continuous
 62
     7
370
    13
100
AcDbLine
 10
2.988089
 20
3.960111
 30
0.0
 11
2.993089
 21
3.960111
 31
0.0
  0
ARC
  5
4AF
330
5A3
100
AcDbEntity
  8
ninja1 - Level 26
  6
Continuous
 62
     7
370
    13
100
AcDbCircle
 10
3.000589
 20
3.960111
 30
0.0
 40
0.0125000000000009
100
AcDbArc
 50
180.0
 51
0.0
  0
LINE
  5
4B0
330
5A3
100
AcDbEntity
  8
ninja1 - Level 26
  6
Continuous
 62
     7
370
    13
100
AcDbLine
 10
2.988089
 20
3.960111
 30
0.0
 11
2.988089
 21
3.960609
 31
0.0
  0
LINE
  5
4B1
330
5A3
100
AcDbEntity
  8
ninja1 - Level 26
  6
Continuous
 62
     7
370
    13
100
AcDbLine
 10
2.988089
 20
3.968775
 30
0.0
 11
2.988089
 21
3.969775
 31
0.0
  0
LINE
  5
4B2
330
5A3
100
AcDbEntity
  8
ninja1 - Level 26
  6
Continuous
 62
     7
370
    13
100
AcDbLine
 10
2.988089
 20
3.977942
 30
0.0
 11
2.988089
 21
3.978942
 31
0.0
  0
LINE
  5
4B3
330
5A3
100
AcDbEntity
  8
ninja1 - Level 26
  6
Continuous
 62
     7
370
    13
100
AcDbLine
 10
2.988089
 20
3.987109
 30
0.0
 11
2.988089
 21
3.988109
 31
0.0
  0
LINE
  5
4B4
330
5A3
100
AcDbEntity
  8
ninja1 - Level 26
  6
Continuous
 62
     7
370
    13
100
AcDbLine
 10
2.988089
 20
3.996275
 30
0.0
 11
2.988089
 21
3.997275
 31
0.0
  0
LINE
  5
4B5
330
5A3
100
AcDbEntity
  8
ninja1 - Level 26
  6
Continuous
 62
     7
370
    13
100
AcDbLine
 10
2.988089
 20
4.005442
 30
0.0
 11
2.988089
 21
4.006442
 31
0.0
  0
LINE
  5
4B6
330
5A3
100
AcDbEntity
  8
ninja1 - Level 26
  6
Continuous
 62
     7
370
    13
100
AcDbLine
 10
2.988089
 20
4.014609
 30
0.0
 11
2.988089
 21
4.015111
 31
0.0
  0
LINE
  5
4B7
330
5A3
100
AcDbEntity
  8
ninja1 - Level 26
  6
Continuous
 62
     7
370
    13
100
AcDbLine
 10
3.042589
 20
4.074986
 30
0.0
 11
3.042589
 21
4.158986
 31
0.0
  0
LINE
  5
4B8
330
5A3
100
AcDbEntity
  8
ninja1 - Level 26
  6
Continuous
 62
     7
370
    13
100
AcDbLine
 10
2.958589
 20
4.074986
 30
0.0
 11
3.042589
 21
4.074986
 31
0.0
  0
LINE
  5
4B9
330
5A3
100
AcDbEntity
  8
ninja1 - Level 26
  6
Continuous
 62
     7
370
    13
100
AcDbLine
 10
2.958589
 20
4.158986
 30
0.0
 11
2.958589
 21
4.074986
 31
0.0
  0
LINE
  5
4BA
330
5A3
100
AcDbEntity
  8
ninja1 - Level 26
  6
Continuous
 62
     7
370
    13
100
AcDbLine
 10
3.042589
 20
4.158986
 30
0.0
 11
2.958589
 21
4.158986
 31
0.0
  0
LINE
  5
4BB
330
5A3
100
AcDbEntity
  8
ninja1 - Level 26
  6
Continuous
 62
     7
370
    13
100
AcDbLine
 10
3.042589
 20
4.066986
 30
0.0
 11
3.042589
 21
4.074986
 31
0.0
  0
LINE
  5
4BC
330
5A3
100
AcDbEntity
  8
ninja1 - Level 26
  6
Continuous
 62
     7
370
    13
100
AcDbLine
 10
3.042589
 20
4.066986
 30
0.0
 11
2.958589
 21
4.066986
 31
0.0
  0
LINE
  5
4BD
330
5A3
100
AcDbEntity
  8
ninja1 - Level 26
  6
Continuous
 62
     7
370
    13
100
AcDbLine
 10
2.958589
 20
4.066986
 30
0.0
 11
2.958589
 21
4.074986
 31
0.0
  0
ARC
  5
4BE
330
5A3
100
AcDbEntity
  8
ninja1 - Level 26
  6
Continuous
 62
     7
370
    13
100
AcDbCircle
 10
-3.042589
 20
4.074986
 30
0.0
 40
0.008
210
0.0
220
0.0
230
-1.0
100
AcDbArc
 50
180.0
 51
270.0
  0
LINE
  5
4BF
330
5A3
100
AcDbEntity
  8
ninja1 - Level 26
  6
Continuous
 62
     7
370
    13
100
AcDbLine
 10
3.050589
 20
4.074986
 30
0.0
 11
3.042589
 21
4.074986
 31
0.0
  0
LINE
  5
4C0
330
5A3
100
AcDbEntity
  8
ninja1 - Level 26
  6
Continuous
 62
     7
370
    13
100
AcDbLine
 10
3.050589
 20
4.158986
 30
0.0
 11
3.042589
 21
4.158986
 31
0.0
  0
LINE
  5
4C1
330
5A3
100
AcDbEntity
  8
ninja1 - Level 26
  6
Continuous
 62
     7
370
    13
100
AcDbLine
 10
3.050589
 20
4.158986
 30
0.0
 11
3.050589
 21
4.074986
 31
0.0
  0
ARC
  5
4C2
330
5A3
100
AcDbEntity
  8
ninja1 - Level 26
  6
Continuous
 62
     7
370
    13
100
AcDbCircle
 10
-3.042589
 20
4.158986
 30
0.0
 40
0.008
210
0.0
220
0.0
230
-1.0
100
AcDbArc
 50
90.0
 51
180.0
  0
LINE
  5
4C3
330
5A3
100
AcDbEntity
  8
ninja1 - Level 26
  6
Continuous
 62
     7
370
    13
100
AcDbLine
 10
3.042589
 20
4.166986
 30
0.0
 11
3.042589
 21
4.158986
 31
0.0
  0
LINE
  5
4C4
330
5A3
100
AcDbEntity
  8
ninja1 - Level 26
  6
Continuous
 62
     7
370
    13
100
AcDbLine
 10
2.950589
 20
4.158986
 30
0.0
 11
2.958589
 21
4.158986
 31
0.0
  0
ARC
  5
4C5
330
5A3
100
AcDbEntity
  8
ninja1 - Level 26
  6
Continuous
 62
     7
370
    13
100
AcDbCircle
 10
2.958589
 20
4.158986
 30
0.0
 40
0.008
100
AcDbArc
 50
90.0
 51
180.0
  0
LINE
  5
4C6
330
5A3
100
AcDbEntity
  8
ninja1 - Level 26
  6
Continuous
 62
     7
370
    13
100
AcDbLine
 10
2.958589
 20
4.158986
 30
0.0
 11
2.958589
 21
4.166986
 31
0.0
  0
LINE
  5
4C7
330
5A3
100
AcDbEntity
  8
ninja1 - Level 26
  6
Continuous
 62
     7
370
    13
100
AcDbLine
 10
2.958589
 20
4.166986
 30
0.0
 11
3.042589
 21
4.166986
 31
0.0
  0
LINE
  5
4C8
330
5A3
100
AcDbEntity
  8
ninja1 - Level 26
  6
Continuous
 62
     7
370
    13
100
AcDbLine
 10
2.950589
 20
4.074986
 30
0.0
 11
2.950589
 21
4.158986
 31
0.0
  0
LINE
  5
4C9
330
5A3
100
AcDbEntity
  8
ninja1 - Level 26
  6
Continuous
 62
     7
370
    13
100
AcDbLine
 10
2.950589
 20
4.074986
 30
0.0
 11
2.958589
 21
4.074986
 31
0.0
  0
ARC
  5
4CA
330
5A3
100
AcDbEntity
  8
ninja1 - Level 26
  6
Continuous
 62
     7
370
    13
100
AcDbCircle
 10
-2.958589
 20
4.074986
 30
0.0
 40
0.008
210
0.0
220
0.0
230
-1.0
100
AcDbArc
 50
270.0
 51
0.0
  0
LINE
  5
4CB
330
5A3
100
AcDbEntity
  8
ninja1 - Level 44
  6
Continuous
 62
     7
370
    13
100
AcDbLine
 10
3.777589
 20
3.224986
 30
0.0
 11
3.777589
 21
3.157736
 31
0.0
  0
LINE
  5
4CC
330
5A3
100
AcDbEntity
  8
ninja1 - Level 44
  6
Continuous
 62
     7
370
    13
100
AcDbLine
 10
3.777589
 20
3.006736
 30
0.0
 11
3.777589
 21
2.939486
 31
0.0
  0
LINE
  5
4CD
330
5A3
100
AcDbEntity
  8
ninja1 - Level 44
  6
Continuous
 62
     7
370
    13
100
AcDbLine
 10
3.771589
 20
3.224986
 30
0.0
 11
3.771589
 21
3.157736
 31
0.0
  0
LINE
  5
4CE
330
5A3
100
AcDbEntity
  8
ninja1 - Level 44
  6
Continuous
 62
     7
370
    13
100
AcDbLine
 10
3.771589
 20
3.006736
 30
0.0
 11
3.771589
 21
2.939486
 31
0.0
  0
SPLINE
  5
4CF
330
5A3
100
AcDbEntity
  8
ninja1 - Level 26
  6
Continuous
 62
     7
370
    13
100
AcDbSpline
210
0.0
220
0.0
230
1.0
 70
     8
 71
     3
 72
     8
 73
     4
 74
     0
 42
0.000000001
 43
0.0000000001
 40
0.0
 40
0.0
 40
0.0
 40
0.0
 40
0.0209858797530417
 40
0.0209858797530417
 40
0.0209858797530417
 40
0.0209858797530417
 10
3.0925887026032
 20
4.149486112474769
 30
0.0
 10
3.092590219528487
 20
4.149486909672682
 30
0.0
 10
3.09259021053669
 20
4.149485884469195
 30
0.0
 10
3.092588702603194
 20
4.149483058121811
 30
0.0
  0
ARC
  5
4E1
330
5A3
100
AcDbEntity
  8
ninja1 - Level 26
  6
Continuous
 62
     7
370
    13
100
AcDbCircle
 10
3.789089
 20
3.852611
 30
0.0
 40
0.0134749260041462
100
AcDbArc
 50
116.440708
 51
243.559292
  0
ARC
  5
4E2
330
5A3
100
AcDbEntity
  8
ninja1 - Level 26
  6
Continuous
 62
     7
370
    13
100
AcDbCircle
 10
3.789089
 20
3.987611
 30
0.0
 40
0.0134749260041462
100
AcDbArc
 50
116.440708
 51
243.559292
  0
LINE
  5
4E3
330
5A3
100
AcDbEntity
  8
ninja1 - Level 26
  6
Continuous
 62
     7
370
    13
100
AcDbLine
 10
3.808089
 20
3.690111
 30
0.0
 11
3.808089
 21
3.745111
 31
0.0
  0
ARC
  5
4E4
330
5A3
100
AcDbEntity
  8
ninja1 - Level 26
  6
Continuous
 62
     7
370
    13
100
AcDbCircle
 10
3.800589
 20
3.690111
 30
0.0
 40
0.0075000000000009
100
AcDbArc
 50
180.0
 51
0.0
  0
LINE
  5
4E5
330
5A3
100
AcDbEntity
  8
ninja1 - Level 26
  6
Continuous
 62
     7
370
    13
100
AcDbLine
 10
3.793089
 20
3.690111
 30
0.0
 11
3.793089
 21
3.745111
 31
0.0
  0
ARC
  5
4E6
330
5A3
100
AcDbEntity
  8
ninja1 - Level 26
  6
Continuous
 62
     7
370
    13
100
AcDbCircle
 10
-3.800589
 20
3.745111
 30
0.0
 40
0.0075000000000009
210
0.0
220
0.0
230
-1.0
100
AcDbArc
 50
0.0
 51
180.0
  0
LINE
  5
4E7
330
5A3
100
AcDbEntity
  8
ninja1 - Level 26
  6
Continuous
 62
     7
370
    13
100
AcDbLine
 10
3.808089
 20
3.745111
 30
0.0
 11
3.813089
 21
3.745111
 31
0.0
  0
LINE
  5
4E8
330
5A3
100
AcDbEntity
  8
ninja1 - Level 26
  6
Continuous
 62
     7
370
    13
100
AcDbLine
 10
3.788089
 20
3.745111
 30
0.0
 11
3.793089
 21
3.745111
 31
0.0
  0
ARC
  5
4E9
330
5A3
100
AcDbEntity
  8
ninja1 - Level 26
  6
Continuous
 62
     7
370
    13
100
AcDbCircle
 10
3.800589
 20
3.745111
 30
0.0
 40
0.0125000000000009
100
AcDbArc
 50
360.0
 51
2.291963
  0
LINE
  5
4EA
330
5A3
100
AcDbEntity
  8
ninja1 - Level 26
  6
Continuous
 62
     7
370
    13
100
AcDbLine
 10
3.793089
 20
3.690111
 30
0.0
 11
3.788089
 21
3.690111
 31
0.0
  0
LINE
  5
4EB
330
5A3
100
AcDbEntity
  8
ninja1 - Level 26
  6
Continuous
 62
     7
370
    13
100
AcDbLine
 10
3.788089
 20
3.707611
 30
0.0
 11
3.788089
 21
3.727611
 31
0.0
  0
LINE
  5
4EC
330
5A3
100
AcDbEntity
  8
ninja1 - Level 26
  6
Continuous
 62
     7
370
    13
100
AcDbLine
 10
3.813089
 20
3.690111
 30
0.0
 11
3.808089
 21
3.690111
 31
0.0
  0
ARC
  5
4ED
330
5A3
100
AcDbEntity
  8
ninja1 - Level 26
  6
Continuous
 62
     7
370
    13
100
AcDbCircle
 10
-3.800589
 20
3.690111
 30
0.0
 40
0.0125000000000009
210
0.0
220
0.0
230
-1.0
100
AcDbArc
 50
357.708016
 51
0.0
  0
LINE
  5
4EE
330
5A3
100
AcDbEntity
  8
ninja1 - Level 26
  6
Continuous
 62
     7
370
    13
100
AcDbLine
 10
3.813089
 20
3.690111
 30
0.0
 11
3.813089
 21
3.690611
 31
0.0
  0
LINE
  5
4EF
330
5A3
100
AcDbEntity
  8
ninja1 - Level 26
  6
Continuous
 62
     7
370
    13
100
AcDbLine
 10
3.813089
 20
3.698778
 30
0.0
 11
3.813089
 21
3.699778
 31
0.0
  0
LINE
  5
4F0
330
5A3
100
AcDbEntity
  8
ninja1 - Level 26
  6
Continuous
 62
     7
370
    13
100
AcDbLine
 10
3.813089
 20
3.707944
 30
0.0
 11
3.813089
 21
3.708944
 31
0.0
  0
LINE
  5
4F1
330
5A3
100
AcDbEntity
  8
ninja1 - Level 26
  6
Continuous
 62
     7
370
    13
100
AcDbLine
 10
3.813089
 20
3.717111
 30
0.0
 11
3.813089
 21
3.718111
 31
0.0
  0
LINE
  5
4F2
330
5A3
100
AcDbEntity
  8
ninja1 - Level 26
  6
Continuous
 62
     7
370
    13
100
AcDbLine
 10
3.813089
 20
3.726278
 30
0.0
 11
3.813089
 21
3.727278
 31
0.0
  0
LINE
  5
4F3
330
5A3
100
AcDbEntity
  8
ninja1 - Level 26
  6
Continuous
 62
     7
370
    13
100
AcDbLine
 10
3.813089
 20
3.735444
 30
0.0
 11
3.813089
 21
3.736444
 31
0.0
  0
LINE
  5
4F4
330
5A3
100
AcDbEntity
  8
ninja1 - Level 26
  6
Continuous
 62
     7
370
    13
100
AcDbLine
 10
3.813089
 20
3.744611
 30
0.0
 11
3.813089
 21
3.745111
 31
0.0
  0
LINE
  5
4F5
330
5A3
100
AcDbEntity
  8
ninja1 - Level 26
  6
Continuous
 62
     7
370
    13
100
AcDbLine
 10
3.808089
 20
3.825111
 30
0.0
 11
3.808089
 21
3.880111
 31
0.0
  0
ARC
  5
4F6
330
5A3
100
AcDbEntity
  8
ninja1 - Level 26
  6
Continuous
 62
     7
370
    13
100
AcDbCircle
 10
3.800589
 20
3.825111
 30
0.0
 40
0.0075000000000009
100
AcDbArc
 50
180.0
 51
0.0
  0
LINE
  5
4F7
330
5A3
100
AcDbEntity
  8
ninja1 - Level 26
  6
Continuous
 62
     7
370
    13
100
AcDbLine
 10
3.793089
 20
3.825111
 30
0.0
 11
3.793089
 21
3.880111
 31
0.0
  0
ARC
  5
4F8
330
5A3
100
AcDbEntity
  8
ninja1 - Level 26
  6
Continuous
 62
     7
370
    13
100
AcDbCircle
 10
-3.800589
 20
3.880111
 30
0.0
 40
0.0075000000000009
210
0.0
220
0.0
230
-1.0
100
AcDbArc
 50
0.0
 51
180.0
  0
LINE
  5
4F9
330
5A3
100
AcDbEntity
  8
ninja1 - Level 26
  6
Continuous
 62
     7
370
    13
100
AcDbLine
 10
3.808089
 20
3.880111
 30
0.0
 11
3.813089
 21
3.880111
 31
0.0
  0
LINE
  5
4FA
330
5A3
100
AcDbEntity
  8
ninja1 - Level 26
  6
Continuous
 62
     7
370
    13
100
AcDbLine
 10
3.788089
 20
3.880111
 30
0.0
 11
3.793089
 21
3.880111
 31
0.0
  0
ARC
  5
4FB
330
5A3
100
AcDbEntity
  8
ninja1 - Level 26
  6
Continuous
 62
     7
370
    13
100
AcDbCircle
 10
3.800589
 20
3.880111
 30
0.0
 40
0.0125000000000009
100
AcDbArc
 50
360.0
 51
2.291963
  0
LINE
  5
4FC
330
5A3
100
AcDbEntity
  8
ninja1 - Level 26
  6
Continuous
 62
     7
370
    13
100
AcDbLine
 10
3.793089
 20
3.825111
 30
0.0
 11
3.788089
 21
3.825111
 31
0.0
  0
LINE
  5
4FD
330
5A3
100
AcDbEntity
  8
ninja1 - Level 26
  6
Continuous
 62
     7
370
    13
100
AcDbLine
 10
3.788089
 20
3.842611
 30
0.0
 11
3.788089
 21
3.862611
 31
0.0
  0
LINE
  5
4FE
330
5A3
100
AcDbEntity
  8
ninja1 - Level 26
  6
Continuous
 62
     7
370
    13
100
AcDbLine
 10
3.813089
 20
3.825111
 30
0.0
 11
3.808089
 21
3.825111
 31
0.0
  0
ARC
  5
4FF
330
5A3
100
AcDbEntity
  8
ninja1 - Level 26
  6
Continuous
 62
     7
370
    13
100
AcDbCircle
 10
-3.800589
 20
3.825111
 30
0.0
 40
0.0125000000000009
210
0.0
220
0.0
230
-1.0
100
AcDbArc
 50
357.708016
 51
0.0
  0
LINE
  5
500
330
5A3
100
AcDbEntity
  8
ninja1 - Level 26
  6
Continuous
 62
     7
370
    13
100
AcDbLine
 10
3.813089
 20
3.825111
 30
0.0
 11
3.813089
 21
3.825611
 31
0.0
  0
LINE
  5
501
330
5A3
100
AcDbEntity
  8
ninja1 - Level 26
  6
Continuous
 62
     7
370
    13
100
AcDbLine
 10
3.813089
 20
3.833778
 30
0.0
 11
3.813089
 21
3.834778
 31
0.0
  0
LINE
  5
502
330
5A3
100
AcDbEntity
  8
ninja1 - Level 26
  6
Continuous
 62
     7
370
    13
100
AcDbLine
 10
3.813089
 20
3.842944
 30
0.0
 11
3.813089
 21
3.843944
 31
0.0
  0
LINE
  5
503
330
5A3
100
AcDbEntity
  8
ninja1 - Level 26
  6
Continuous
 62
     7
370
    13
100
AcDbLine
 10
3.813089
 20
3.852111
 30
0.0
 11
3.813089
 21
3.853111
 31
0.0
  0
LINE
  5
504
330
5A3
100
AcDbEntity
  8
ninja1 - Level 26
  6
Continuous
 62
     7
370
    13
100
AcDbLine
 10
3.813089
 20
3.861278
 30
0.0
 11
3.813089
 21
3.862278
 31
0.0
  0
LINE
  5
505
330
5A3
100
AcDbEntity
  8
ninja1 - Level 26
  6
Continuous
 62
     7
370
    13
100
AcDbLine
 10
3.813089
 20
3.870444
 30
0.0
 11
3.813089
 21
3.871444
 31
0.0
  0
LINE
  5
506
330
5A3
100
AcDbEntity
  8
ninja1 - Level 26
  6
Continuous
 62
     7
370
    13
100
AcDbLine
 10
3.813089
 20
3.879611
 30
0.0
 11
3.813089
 21
3.880111
 31
0.0
  0
LINE
  5
507
330
5A3
100
AcDbEntity
  8
ninja1 - Level 26
  6
Continuous
 62
     7
370
    13
100
AcDbLine
 10
3.808089
 20
3.960111
 30
0.0
 11
3.808089
 21
4.015111
 31
0.0
  0
ARC
  5
508
330
5A3
100
AcDbEntity
  8
ninja1 - Level 26
  6
Continuous
 62
     7
370
    13
100
AcDbCircle
 10
3.800589
 20
3.960111
 30
0.0
 40
0.0075000000000009
100
AcDbArc
 50
180.0
 51
0.0
  0
LINE
  5
509
330
5A3
100
AcDbEntity
  8
ninja1 - Level 26
  6
Continuous
 62
     7
370
    13
100
AcDbLine
 10
3.793089
 20
3.960111
 30
0.0
 11
3.793089
 21
4.015111
 31
0.0
  0
ARC
  5
50A
330
5A3
100
AcDbEntity
  8
ninja1 - Level 26
  6
Continuous
 62
     7
370
    13
100
AcDbCircle
 10
-3.800589
 20
4.015111
 30
0.0
 40
0.0075000000000009
210
0.0
220
0.0
230
-1.0
100
AcDbArc
 50
0.0
 51
180.0
  0
LINE
  5
50B
330
5A3
100
AcDbEntity
  8
ninja1 - Level 26
  6
Continuous
 62
     7
370
    13
100
AcDbLine
 10
3.808089
 20
4.015111
 30
0.0
 11
3.813089
 21
4.015111
 31
0.0
  0
LINE
  5
50C
330
5A3
100
AcDbEntity
  8
ninja1 - Level 26
  6
Continuous
 62
     7
370
    13
100
AcDbLine
 10
3.788089
 20
4.015111
 30
0.0
 11
3.793089
 21
4.015111
 31
0.0
  0
ARC
  5
50D
330
5A3
100
AcDbEntity
  8
ninja1 - Level 26
  6
Continuous
 62
     7
370
    13
100
AcDbCircle
 10
3.800589
 20
4.015111
 30
0.0
 40
0.0125000000000009
100
AcDbArc
 50
360.0
 51
180.0
  0
LINE
  5
50E
330
5A3
100
AcDbEntity
  8
ninja1 - Level 26
  6
Continuous
 62
     7
370
    13
100
AcDbLine
 10
3.793089
 20
3.960111
 30
0.0
 11
3.788089
 21
3.960111
 31
0.0
  0
LINE
  5
50F
330
5A3
100
AcDbEntity
  8
ninja1 - Level 26
  6
Continuous
 62
     7
370
    13
100
AcDbLine
 10
3.788089
 20
3.977609
 30
0.0
 11
3.788089
 21
3.997609
 31
0.0
  0
LINE
  5
510
330
5A3
100
AcDbEntity
  8
ninja1 - Level 26
  6
Continuous
 62
     7
370
    13
100
AcDbLine
 10
3.788089
 20
4.015109
 30
0.0
 11
3.788089
 21
4.015111
 31
0.0
  0
LINE
  5
511
330
5A3
100
AcDbEntity
  8
ninja1 - Level 26
  6
Continuous
 62
     7
370
    13
100
AcDbLine
 10
3.813089
 20
3.960111
 30
0.0
 11
3.808089
 21
3.960111
 31
0.0
  0
ARC
  5
512
330
5A3
100
AcDbEntity
  8
ninja1 - Level 26
  6
Continuous
 62
     7
370
    13
100
AcDbCircle
 10
-3.800589
 20
3.960111
 30
0.0
 40
0.0125000000000009
210
0.0
220
0.0
230
-1.0
100
AcDbArc
 50
180.0
 51
0.0
  0
LINE
  5
513
330
5A3
100
AcDbEntity
  8
ninja1 - Level 26
  6
Continuous
 62
     7
370
    13
100
AcDbLine
 10
3.813089
 20
3.960111
 30
0.0
 11
3.813089
 21
3.960609
 31
0.0
  0
LINE
  5
514
330
5A3
100
AcDbEntity
  8
ninja1 - Level 26
  6
Continuous
 62
     7
370
    13
100
AcDbLine
 10
3.813089
 20
3.968775
 30
0.0
 11
3.813089
 21
3.969775
 31
0.0
  0
LINE
  5
515
330
5A3
100
AcDbEntity
  8
ninja1 - Level 26
  6
Continuous
 62
     7
370
    13
100
AcDbLine
 10
3.813089
 20
3.977942
 30
0.0
 11
3.813089
 21
3.978942
 31
0.0
  0
LINE
  5
516
330
5A3
100
AcDbEntity
  8
ninja1 - Level 26
  6
Continuous
 62
     7
370
    13
100
AcDbLine
 10
3.813089
 20
3.987109
 30
0.0
 11
3.813089
 21
3.988109
 31
0.0
  0
LINE
  5
517
330
5A3
100
AcDbEntity
  8
ninja1 - Level 26
  6
Continuous
 62
     7
370
    13
100
AcDbLine
 10
3.813089
 20
3.996275
 30
0.0
 11
3.813089
 21
3.997275
 31
0.0
  0
LINE
  5
518
330
5A3
100
AcDbEntity
  8
ninja1 - Level 26
  6
Continuous
 62
     7
370
    13
100
AcDbLine
 10
3.813089
 20
4.005442
 30
0.0
 11
3.813089
 21
4.006442
 31
0.0
  0
LINE
  5
519
330
5A3
100
AcDbEntity
  8
ninja1 - Level 26
  6
Continuous
 62
     7
370
    13
100
AcDbLine
 10
3.813089
 20
4.014609
 30
0.0
 11
3.813089
 21
4.015111
 31
0.0
  0
LINE
  5
51A
330
5A3
100
AcDbEntity
  8
ninja1 - Level 26
  6
Continuous
 62
     7
370
    13
100
AcDbLine
 10
3.842589
 20
4.158986
 30
0.0
 11
3.842589
 21
4.074986
 31
0.0
  0
LINE
  5
51B
330
5A3
100
AcDbEntity
  8
ninja1 - Level 26
  6
Continuous
 62
     7
370
    13
100
AcDbLine
 10
3.842589
 20
4.074986
 30
0.0
 11
3.758589
 21
4.074986
 31
0.0
  0
LINE
  5
51C
330
5A3
100
AcDbEntity
  8
ninja1 - Level 26
  6
Continuous
 62
     7
370
    13
100
AcDbLine
 10
3.758589
 20
4.074986
 30
0.0
 11
3.758589
 21
4.158986
 31
0.0
  0
LINE
  5
51D
330
5A3
100
AcDbEntity
  8
ninja1 - Level 26
  6
Continuous
 62
     7
370
    13
100
AcDbLine
 10
3.758589
 20
4.158986
 30
0.0
 11
3.842589
 21
4.158986
 31
0.0
  0
LINE
  5
51E
330
5A3
100
AcDbEntity
  8
ninja1 - Level 26
  6
Continuous
 62
     7
370
    13
100
AcDbLine
 10
3.842589
 20
4.066986
 30
0.0
 11
3.842589
 21
4.074986
 31
0.0
  0
LINE
  5
51F
330
5A3
100
AcDbEntity
  8
ninja1 - Level 26
  6
Continuous
 62
     7
370
    13
100
AcDbLine
 10
3.758589
 20
4.066986
 30
0.0
 11
3.842589
 21
4.066986
 31
0.0
  0
LINE
  5
520
330
5A3
100
AcDbEntity
  8
ninja1 - Level 26
  6
Continuous
 62
     7
370
    13
100
AcDbLine
 10
3.758589
 20
4.066986
 30
0.0
 11
3.758589
 21
4.074986
 31
0.0
  0
ARC
  5
521
330
5A3
100
AcDbEntity
  8
ninja1 - Level 26
  6
Continuous
 62
     7
370
    13
100
AcDbCircle
 10
3.758589
 20
4.074986
 30
0.0
 40
0.008
100
AcDbArc
 50
180.0
 51
270.0
  0
LINE
  5
522
330
5A3
100
AcDbEntity
  8
ninja1 - Level 26
  6
Continuous
 62
     7
370
    13
100
AcDbLine
 10
3.750589
 20
4.074986
 30
0.0
 11
3.758589
 21
4.074986
 31
0.0
  0
LINE
  5
523
330
5A3
100
AcDbEntity
  8
ninja1 - Level 26
  6
Continuous
 62
     7
370
    13
100
AcDbLine
 10
3.750589
 20
4.158986
 30
0.0
 11
3.750589
 21
4.074986
 31
0.0
  0
LINE
  5
524
330
5A3
100
AcDbEntity
  8
ninja1 - Level 26
  6
Continuous
 62
     7
370
    13
100
AcDbLine
 10
3.750589
 20
4.158986
 30
0.0
 11
3.758589
 21
4.158986
 31
0.0
  0
ARC
  5
525
330
5A3
100
AcDbEntity
  8
ninja1 - Level 26
  6
Continuous
 62
     7
370
    13
100
AcDbCircle
 10
3.758589
 20
4.158986
 30
0.0
 40
0.008
100
AcDbArc
 50
90.0
 51
180.0
  0
LINE
  5
526
330
5A3
100
AcDbEntity
  8
ninja1 - Level 26
  6
Continuous
 62
     7
370
    13
100
AcDbLine
 10
3.758589
 20
4.166986
 30
0.0
 11
3.758589
 21
4.158986
 31
0.0
  0
ARC
  5
527
330
5A3
100
AcDbEntity
  8
ninja1 - Level 26
  6
Continuous
 62
     7
370
    13
100
AcDbCircle
 10
-3.842589
 20
4.158986
 30
0.0
 40
0.008
210
0.0
220
0.0
230
-1.0
100
AcDbArc
 50
90.0
 51
180.0
  0
LINE
  5
528
330
5A3
100
AcDbEntity
  8
ninja1 - Level 26
  6
Continuous
 62
     7
370
    13
100
AcDbLine
 10
3.850589
 20
4.158986
 30
0.0
 11
3.842589
 21
4.158986
 31
0.0
  0
LINE
  5
529
330
5A3
100
AcDbEntity
  8
ninja1 - Level 26
  6
Continuous
 62
     7
370
    13
100
AcDbLine
 10
3.842589
 20
4.158986
 30
0.0
 11
3.842589
 21
4.166986
 31
0.0
  0
LINE
  5
52A
330
5A3
100
AcDbEntity
  8
ninja1 - Level 26
  6
Continuous
 62
     7
370
    13
100
AcDbLine
 10
3.842589
 20
4.166986
 30
0.0
 11
3.758589
 21
4.166986
 31
0.0
  0
LINE
  5
52B
330
5A3
100
AcDbEntity
  8
ninja1 - Level 26
  6
Continuous
 62
     7
370
    13
100
AcDbLine
 10
3.850589
 20
4.074986
 30
0.0
 11
3.850589
 21
4.158986
 31
0.0
  0
LINE
  5
52C
330
5A3
100
AcDbEntity
  8
ninja1 - Level 26
  6
Continuous
 62
     7
370
    13
100
AcDbLine
 10
3.850589
 20
4.074986
 30
0.0
 11
3.842589
 21
4.074986
 31
0.0
  0
ARC
  5
52D
330
5A3
100
AcDbEntity
  8
ninja1 - Level 26
  6
Continuous
 62
     7
370
    13
100
AcDbCircle
 10
3.842589
 20
4.074986
 30
0.0
 40
0.008
100
AcDbArc
 50
270.0
 51
0.0
  0
LINE
  5
52E
330
5A3
100
AcDbEntity
  8
ninja1 - Level 43
  6
Continuous
 62
     7
370
    13
100
AcDbLine
 10
3.023589
 20
3.224986
 30
0.0
 11
3.023589
 21
3.157736
 31
0.0
  0
LINE
  5
52F
330
5A3
100
AcDbEntity
  8
ninja1 - Level 43
  6
Continuous
 62
     7
370
    13
100
AcDbLine
 10
3.023589
 20
3.006736
 30
0.0
 11
3.023589
 21
2.939486
 31
0.0
  0
LINE
  5
530
330
5A3
100
AcDbEntity
  8
ninja1 - Level 43
  6
Continuous
 62
     7
370
    13
100
AcDbLine
 10
3.029589
 20
3.224986
 30
0.0
 11
3.029589
 21
3.157736
 31
0.0
  0
LINE
  5
531
330
5A3
100
AcDbEntity
  8
ninja1 - Level 43
  6
Continuous
 62
     7
370
    13
100
AcDbLine
 10
3.029589
 20
3.006736
 30
0.0
 11
3.029589
 21
2.939486
 31
0.0
  0
SPLINE
  5
536
330
5A3
100
AcDbEntity
  8
ninja1 - Level 26
  6
Continuous
 62
     7
370
    13
100
AcDbSpline
210
0.0
220
0.0
230
1.0
 70
     8
 71
     3
 72
     8
 73
     4
 74
     0
 42
0.000000001
 43
0.0000000001
 40
0.0
 40
0.0
 40
0.0
 40
0.0
 40
1.0
 40
1.0
 40
1.0
 40
1.0
 10
3.085329867818181
 20
3.339486119389787
 30
0.0
 10
3.087299088873717
 20
3.342484188511429
 30
0.0
 10
3.089137120046941
 20
3.34496778598318
 30
0.0
 10
3.090459523479312
 20
3.34671826870277
 30
0.0
  0
SPLINE
  5
538
330
5A3
100
AcDbEntity
  8
ninja1 - Level 26
  6
Continuous
 62
     7
370
    13
100
AcDbSpline
210
0.0
220
0.0
230
1.0
 70
     8
 71
     3
 72
     8
 73
     4
 74
     0
 42
0.000000001
 43
0.0000000001
 40
0.0
 40
0.0
 40
0.0
 40
0.0
 40
1.0
 40
1.0
 40
1.0
 40
1.0
 10
3.090468295275173
 20
3.287242351371174
 30
0.0
 10
3.089146190559978
 20
3.288992379304473
 30
0.0
 10
3.08730028374242
 20
3.291486231122967
 30
0.0
 10
3.085329867818169
 20
3.29448611938979
 30
0.0
  0
SPLINE
  5
53F
330
5A3
100
AcDbEntity
  8
ninja1 - Level 26
  6
Continuous
 62
     7
370
    13
100
AcDbSpline
210
0.0
220
0.0
230
1.0
 70
     8
 71
     3
 72
     8
 73
     4
 74
     0
 42
0.000000001
 43
0.0000000001
 40
0.0
 40
0.0
 40
0.0
 40
0.0
 40
1.0
 40
1.0
 40
1.0
 40
1.0
 10
3.085329867818181
 20
4.094486112474754
 30
0.0
 10
3.087299088873717
 20
4.091488043353113
 30
0.0
 10
3.089137120046941
 20
4.089004445881361
 30
0.0
 10
3.090459523479312
 20
4.087253963161771
 30
0.0
  0
SPLINE
  5
541
330
5A3
100
AcDbEntity
  8
ninja1 - Level 26
  6
Continuous
 62
     7
370
    13
100
AcDbSpline
210
0.0
220
0.0
230
1.0
 70
     8
 71
     3
 72
     8
 73
     4
 74
     0
 42
0.000000001
 43
0.0000000001
 40
0.0
 40
0.0
 40
0.0
 40
0.0
 40
1.0
 40
1.0
 40
1.0
 40
1.0
 10
3.085329867818169
 20
4.139486112474751
 30
0.0
 10
3.087299088873712
 20
4.142484181596397
 30
0.0
 10
3.089137120046935
 20
4.144967779068153
 30
0.0
 10
3.090459523479306
 20
4.146718261787746
 30
0.0
  0
SPLINE
  5
544
330
5A3
100
AcDbEntity
  8
ninja1 - Level 26
  6
Continuous
 62
     7
370
    13
100
AcDbSpline
210
0.0
220
0.0
230
1.0
 70
     8
 71
     3
 72
     8
 73
     4
 74
     0
 42
0.000000001
 43
0.0000000001
 40
0.0
 40
0.0
 40
0.0
 40
0.0
 40
1.0
 40
1.0
 40
1.0
 40
1.0
 10
3.090468039861453
 20
4.146729542212028
 30
0.0
 10
3.089145862044345
 20
4.144979402983658
 30
0.0
 10
3.087299991334757
 20
4.142485555561287
 30
0.0
 10
3.085329867818169
 20
4.139486112474751
 30
0.0
  0
LINE
  5
549
330
5A3
100
AcDbEntity
  8
ninja1 - Level 26
  6
Continuous
 62
     7
370
    13
100
AcDbLine
 10
3.092589
 20
4.133986
 30
0.0
 11
3.092589
 21
4.149486
 31
0.0
  0
ENDSEC
  0
SECTION
  2
OBJECTS
  0
DICTIONARY
  5
5AC
330
0
100
AcDbDictionary
281
     1
  3
ACAD_COLOR
350
601
  3
ACAD_DETAILVIEWSTYLE
350
7A3
  3
ACAD_GROUP
350
5EE
  3
ACAD_LAYOUT
350
5CF
  3
ACAD_MATERIAL
350
5AE
  3
ACAD_MLEADERSTYLE
350
604
  3
ACAD_MLINESTYLE
350
5EF
  3
ACAD_PLOTSETTINGS
350
5F0
  3
ACAD_PLOTSTYLENAME
350
5AB
  3
ACAD_SCALELIST
350
602
  3
ACAD_SECTIONVIEWSTYLE
350
7A1
  3
ACAD_TABLESTYLE
350
603
  3
ACAD_VISUALSTYLE
350
5E8
  3
AcadDim
350
77F
  3
ACDB_RECOMPOSE_DATA
350
C4E
  3
AcDbVariableDictionary
350
605
  3
AcDsDecomposeData
350
C54
  3
MicroStation
350
77D
  0
DICTIONARY
  5
5D8
330
5D7
100
AcDbDictionary
280
     1
281
     1
  3
ACAD_LAYERFILTERS
360
5D9
  3
ACAD_LAYERSTATES
360
5DA
  3
ACLYDICTIONARY
360
5DB
  0
DICTIONARY
  5
5A8
330
5A7
100
AcDbDictionary
280
     1
281
     1
  3
ADSK_XREC_LAYER_RECONCILED
360
5A9
  0
DICTIONARY
  5
5A4
330
5A3
100
AcDbDictionary
280
     1
281
     1
  3
ACAD_SORTENTS
360
77B
  0
DICTIONARY
  5
601
102
{ACAD_REACTORS
330
5AC
102
}
330
5AC
100
AcDbDictionary
281
     1
  0
DICTIONARY
  5
7A3
102
{ACAD_REACTORS
330
5AC
102
}
330
5AC
100
AcDbDictionary
281
     1
  3
Imperial24
350
7A4
  0
DICTIONARY
  5
5EE
102
{ACAD_REACTORS
330
5AC
102
}
330
5AC
100
AcDbDictionary
281
     1
  0
DICTIONARY
  5
5CF
102
{ACAD_REACTORS
330
5AC
102
}
330
5AC
100
AcDbDictionary
281
     1
  3
Layout1
350
5D4
  3
Model
350
5CE
  0
DICTIONARY
  5
5AE
102
{ACAD_REACTORS
330
5AC
102
}
330
5AC
100
AcDbDictionary
281
     1
  3
ByBlock
350
5F9
  3
ByLayer
350
5F1
  3
Global
350
5AD
  0
DICTIONARY
  5
604
102
{ACAD_REACTORS
330
5AC
102
}
330
5AC
100
AcDbDictionary
281
     1
  3
Standard
350
780
  0
DICTIONARY
  5
5EF
102
{ACAD_REACTORS
330
5AC
102
}
330
5AC
100
AcDbDictionary
281
     1
  3
Standard
350
617
  0
DICTIONARY
  5
5F0
102
{ACAD_REACTORS
330
5AC
102
}
330
5AC
100
AcDbDictionary
281
     1
  0
ACDBDICTIONARYWDFLT
  5
5AB
102
{ACAD_REACTORS
330
5AC
102
}
330
5AC
100
AcDbDictionary
281
     1
  3
Normal
350
5AA
100
AcDbDictionaryWithDefault
340
5AA
  0
DICTIONARY
  5
602
102
{ACAD_REACTORS
330
5AC
102
}
330
5AC
100
AcDbDictionary
281
     1
  3
A0
350
61C
  3
A1
350
61D
  3
A2
350
61E
  3
A3
350
61F
  3
A4
350
620
  3
A5
350
621
  3
A6
350
622
  3
A7
350
623
  3
A8
350
624
  3
A9
350
625
  3
B0
350
626
  3
B1
350
627
  3
B2
350
628
  3
B3
350
629
  3
B4
350
62A
  3
B5
350
62B
  3
B6
350
62C
  3
B7
350
62D
  3
B8
350
62E
  3
B9
350
62F
  3
C0
350
630
  3
C1
350
631
  3
C2
350
632
  3
C3
350
633
  3
C4
350
634
  3
C5
350
635
  3
C6
350
636
  3
C7
350
637
  3
C8
350
638
  3
C9
350
639
  3
D0
350
63A
  3
D1
350
63B
  3
D2
350
63C
  0
DICTIONARY
  5
7A1
102
{ACAD_REACTORS
330
5AC
102
}
330
5AC
100
AcDbDictionary
281
     1
  3
Imperial24
350
7A2
  0
DICTIONARY
  5
603
102
{ACAD_REACTORS
330
5AC
102
}
330
5AC
100
AcDbDictionary
281
     1
  3
Standard
350
618
  0
DICTIONARY
  5
5E8
102
{ACAD_REACTORS
330
5AC
102
}
330
5AC
100
AcDbDictionary
281
     1
  3
2dWireframe
350
5E7
  3
Basic
350
790
  3
Brighten
350
794
  3
ColorChange
350
798
  3
Conceptual
350
792
  3
Dim
350
793
  3
EdgeColorOff
350
7A0
  3
Facepattern
350
797
  3
Flat
350
78C
  3
FlatWithEdges
350
78D
  3
Gouraud
350
78E
  3
GouraudWithEdges
350
78F
  3
Hidden
350
791
  3
JitterOff
350
79E
  3
Linepattern
350
796
  3
OverhangOff
350
79F
  3
Realistic
350
61A
  3
Shaded
350
79D
  3
Shaded with edges
350
79C
  3
Shades of Gray
350
799
  3
Sketchy
350
79A
  3
Thicken
350
795
  3
Wireframe
350
61B
  3
X-Ray
350
79B
  0
XRECORD
  5
77F
102
{ACAD_REACTORS
330
5AC
102
}
330
5AC
100
AcDbXrecord
280
     1
 90
   990106
  3
 
 60
     0
 61
     0
 62
     1
 63
     1
 64
     0
 65
     0
 66
     0
 67
     3
 68
     1
 69
     1
 70
     0
 71
     0
 72
     0
 40
0.0
170
     0
  0
XRECORD
  5
C4E
102
{ACAD_REACTORS
330
5AC
102
}
330
5AC
100
AcDbXrecord
280
     1
 90
        1
330
618
  0
DICTIONARY
  5
605
102
{ACAD_REACTORS
330
5AC
102
}
330
5AC
100
AcDbDictionary
281
     1
  3
CANNOSCALE
350
606
  3
CMLEADERSTYLE
350
607
  3
CTABLESTYLE
350
608
  3
CVIEWDETAILSTYLE
350
609
  3
CVIEWSECTIONSTYLE
350
60A
  3
LAYEREVAL
350
60B
  3
LAYERNOTIFY
350
60C
  3
MSLTSCALE
350
60D
  3
PDFFRAME
350
60E
  0
DICTIONARY
  5
C54
102
{ACAD_REACTORS
330
5AC
102
}
330
5AC
100
AcDbDictionary
281
     1
  3
AcDsRecords
350
C56
  3
AcDsSchemas
350
C55
1001
ACAD
1070
     2
  0
DICTIONARY
  5
77D
102
{ACAD_REACTORS
330
5AC
102
}
330
5AC
100
AcDbDictionary
281
     1
  3
ModelApplicationElement 0 92 702
350
5C
  0
DICTIONARY
  5
5D9
102
{ACAD_REACTORS
330
5D8
102
}
330
5D8
100
AcDbDictionary
281
     1
  0
DICTIONARY
  5
5DA
102
{ACAD_REACTORS
330
5D8
102
}
330
5D8
100
AcDbDictionary
281
     1
  0
DICTIONARY
  5
5DB
102
{ACAD_REACTORS
330
5D8
102
}
330
5D8
100
AcDbDictionary
281
     1
  0
XRECORD
  5
5A9
102
{ACAD_REACTORS
330
5A8
102
}
330
5A8
100
AcDbXrecord
280
     1
290
     1
  0
SORTENTSTABLE
  5
77B
102
{ACAD_REACTORS
330
5A4
102
}
330
5A4
100
AcDbSortentsTable
330
5A3
  0
ACDBDETAILVIEWSTYLE
  5
7A4
102
{ACAD_XDICTIONARY
360
C59
102
}
102
{ACAD_REACTORS
330
7A3
102
}
330
7A3
100
AcDbModelDocViewStyle
 70
     0
  3
Imperial24
290
     0
100
AcDbDetailViewStyle
 70
     0
 71
     0
 90
        3
 71
     1
340
5DD
 62
   256
 40
0.24
340
0
 62
   256
 40
0.24
300

 40
0.36
280
     3
 71
     2
340
5B6
 90
       25
 62
   256
 71
     3
340
5DD
 62
   256
 40
0.24
 90
        1
 40
0.75
 90
        1
300
%<\AcVar ViewType \f "%tc1">% %<\AcVar ViewDetailId>%\PSCALE %<\AcVar ViewScale \f "%sn">%
 71
     4
340
5B6
 90
       25
 62
   256
340
5B6
 90
       25
 62
   256
280
     0
  0
LAYOUT
  5
5D4
102
{ACAD_XDICTIONARY
360
5D5
102
}
102
{ACAD_REACTORS
330
5CF
102
}
330
5CF
100
AcDbPlotSettings
  1

  2
none_device
  4
Letter_(8.50_x_11.00_Inches)
  6

 40
6.35
 41
6.35
 42
6.350006
 43
6.350006
 44
215.899994
 45
279.399994
 46
0.0
 47
0.0
 48
0.0
 49
0.0
140
0.0
141
0.0
142
1.0
143
1.0
 70
   688
 72
     0
 73
     1
 74
     5
  7

 75
    16
147
1.0
 76
     0
 77
     2
 78
   300
148
0.0
149
0.0
100
AcDbLayout
  1
Layout1
 70
     1
 71
     1
 10
-0.25
 20
-0.25
 11
10.75
 21
8.25
 12
0.0
 22
0.0
 32
0.0
 14
1.05
 24
0.8
 34
0.0
 15
9.45
 25
7.2
 35
0.0
146
0.0
 13
0.0
 23
0.0
 33
0.0
 16
1.0
 26
0.0
 36
0.0
 17
0.0
 27
1.0
 37
0.0
 76
     0
330
5D1
1001
ACAD_PSEXT
1000
None
1000
None
1000
Not applicable
1000
The layout will not be plotted unless a new plotter configuration name is selected.
1070
     0
  0
LAYOUT
  5
5CE
102
{ACAD_XDICTIONARY
360
5D0
102
}
102
{ACAD_REACTORS
330
5CF
102
}
330
5CF
100
AcDbPlotSettings
  1

  2
none_device
  4
ANSI_A_(8.50_x_11.00_Inches)
  6

 40
6.35
 41
19.049999
 42
6.350006
 43
19.049988
 44
215.899994
 45
279.399994
 46
0.0
 47
0.0
 48
0.0
 49
0.0
140
0.0
141
0.0
142
1.0
143
2.584895
 70
 11952
 72
     0
 73
     1
 74
     0
  7

 75
     0
147
0.386863
 76
     0
 77
     2
 78
   300
148
0.0
149
0.0
100
AcDbLayout
  1
Model
 70
     1
 71
     0
 10
0.0
 20
0.0
 11
12.0
 21
9.0
 12
0.0
 22
0.0
 32
0.0
 14
0.0
 24
0.0
 34
0.0
 15
0.0
 25
0.0
 35
0.0
146
0.0
 13
0.0
 23
0.0
 33
0.0
 16
1.0
 26
0.0
 36
0.0
 17
0.0
 27
1.0
 37
0.0
 76
     0
330
5A3
  0
MATERIAL
  5
5F9
102
{ACAD_XDICTIONARY
360
5FA
102
}
102
{ACAD_REACTORS
330
5AE
102
}
330
5AE
100
AcDbMaterial
  1
ByBlock
 72
     0
 43
0.020833
 43
0.0
 43
0.0
 43
0.0
 43
0.0
 43
0.020833
 43
0.0
 43
0.0
 43
0.0
 43
0.0
 43
1.0
 43
0.0
 43
0.0
 43
0.0
 43
0.0
 43
1.0
 77
     0
 47
0.020833
 47
0.0
 47
0.0
 47
0.0
 47
0.0
 47
0.020833
 47
0.0
 47
0.0
 47
0.0
 47
0.0
 47
1.0
 47
0.0
 47
0.0
 47
0.0
 47
0.0
 47
1.0
171
     0
 49
0.020833
 49
0.0
 49
0.0
 49
0.0
 49
0.0
 49
0.020833
 49
0.0
 49
0.0
 49
0.0
 49
0.0
 49
1.0
 49
0.0
 49
0.0
 49
0.0
 49
0.0
 49
1.0
175
     0
142
0.020833
142
0.0
142
0.0
142
0.0
142
0.0
142
0.020833
142
0.0
142
0.0
142
0.0
142
0.0
142
1.0
142
0.0
142
0.0
142
0.0
142
0.0
142
1.0
179
     0
144
0.020833
144
0.0
144
0.0
144
0.0
144
0.0
144
0.020833
144
0.0
144
0.0
144
0.0
144
0.0
144
1.0
144
0.0
144
0.0
144
0.0
144
0.0
144
1.0
147
0.020833
147
0.0
147
0.0
147
0.0
147
0.0
147
0.020833
147
0.0
147
0.0
147
0.0
147
0.0
147
1.0
147
0.0
147
0.0
147
0.0
147
0.0
147
1.0
  0
MATERIAL
  5
5F1
102
{ACAD_XDICTIONARY
360
5F2
102
}
102
{ACAD_REACTORS
330
5AE
102
}
330
5AE
100
AcDbMaterial
  1
ByLayer
 72
     0
 43
0.020833
 43
0.0
 43
0.0
 43
0.0
 43
0.0
 43
0.020833
 43
0.0
 43
0.0
 43
0.0
 43
0.0
 43
1.0
 43
0.0
 43
0.0
 43
0.0
 43
0.0
 43
1.0
 77
     0
 47
0.020833
 47
0.0
 47
0.0
 47
0.0
 47
0.0
 47
0.020833
 47
0.0
 47
0.0
 47
0.0
 47
0.0
 47
1.0
 47
0.0
 47
0.0
 47
0.0
 47
0.0
 47
1.0
171
     0
 49
0.020833
 49
0.0
 49
0.0
 49
0.0
 49
0.0
 49
0.020833
 49
0.0
 49
0.0
 49
0.0
 49
0.0
 49
1.0
 49
0.0
 49
0.0
 49
0.0
 49
0.0
 49
1.0
175
     0
142
0.020833
142
0.0
142
0.0
142
0.0
142
0.0
142
0.020833
142
0.0
142
0.0
142
0.0
142
0.0
142
1.0
142
0.0
142
0.0
142
0.0
142
0.0
142
1.0
179
     0
144
0.020833
144
0.0
144
0.0
144
0.0
144
0.0
144
0.020833
144
0.0
144
0.0
144
0.0
144
0.0
144
1.0
144
0.0
144
0.0
144
0.0
144
0.0
144
1.0
147
0.020833
147
0.0
147
0.0
147
0.0
147
0.0
147
0.020833
147
0.0
147
0.0
147
0.0
147
0.0
147
1.0
147
0.0
147
0.0
147
0.0
147
0.0
147
1.0
  0
MATERIAL
  5
5AD
102
{ACAD_XDICTIONARY
360
5AF
102
}
102
{ACAD_REACTORS
330
5AE
102
}
330
5AE
100
AcDbMaterial
  1
Global
 72
     0
 43
0.020833
 43
0.0
 43
0.0
 43
0.0
 43
0.0
 43
0.020833
 43
0.0
 43
0.0
 43
0.0
 43
0.0
 43
1.0
 43
0.0
 43
0.0
 43
0.0
 43
0.0
 43
1.0
 77
     0
 47
0.020833
 47
0.0
 47
0.0
 47
0.0
 47
0.0
 47
0.020833
 47
0.0
 47
0.0
 47
0.0
 47
0.0
 47
1.0
 47
0.0
 47
0.0
 47
0.0
 47
0.0
 47
1.0
171
     0
 49
0.020833
 49
0.0
 49
0.0
 49
0.0
 49
0.0
 49
0.020833
 49
0.0
 49
0.0
 49
0.0
 49
0.0
 49
1.0
 49
0.0
 49
0.0
 49
0.0
 49
0.0
 49
1.0
175
     0
142
0.020833
142
0.0
142
0.0
142
0.0
142
0.0
142
0.020833
142
0.0
142
0.0
142
0.0
142
0.0
142
1.0
142
0.0
142
0.0
142
0.0
142
0.0
142
1.0
179
     0
144
0.020833
144
0.0
144
0.0
144
0.0
144
0.0
144
0.020833
144
0.0
144
0.0
144
0.0
144
0.0
144
1.0
144
0.0
144
0.0
144
0.0
144
0.0
144
1.0
147
0.020833
147
0.0
147
0.0
147
0.0
147
0.0
147
0.020833
147
0.0
147
0.0
147
0.0
147
0.0
147
1.0
147
0.0
147
0.0
147
0.0
147
0.0
147
1.0
  0
MLEADERSTYLE
  5
780
102
{ACAD_REACTORS
330
604
102
}
330
604
100
AcDbMLeaderStyle
179
     2
170
     2
171
     1
172
     0
 90
        2
 40
0.0
 41
0.0
173
     1
 91
-1073741824
 92
       -2
290
     1
 42
0.125
291
     1
 43
0.5
  3

341
611
 44
0.25
300

342
77E
174
     1
178
     1
175
     1
176
     0
 93
-1073741824
 45
0.25
292
     0
297
     1
 46
5.0
 94
-1073741824
 47
1.0
 49
1.0
140
1.0
293
     1
141
0.0
294
     1
177
     0
142
1.0
295
     0
296
     1
143
0.125
271
     0
272
     9
273
     9
298
     0
  0
MLINESTYLE
  5
617
102
{ACAD_REACTORS
330
5EF
102
}
330
5EF
100
AcDbMlineStyle
  2
STANDARD
 70
     0
  3

 62
   256
 51
90.0
 52
90.0
 71
     2
 49
0.5
 62
   256
  6
BYLAYER
 49
-0.5
 62
   256
  6
BYLAYER
  0
ACDBPLACEHOLDER
  5
5AA
102
{ACAD_REACTORS
330
5AB
102
}
330
5AB
  0
SCALE
  5
61C
102
{ACAD_REACTORS
330
602
102
}
330
602
100
AcDbScale
 70
     0
300
1:1
140
1.0
141
1.0
290
     1
  0
SCALE
  5
61D
102
{ACAD_REACTORS
330
602
102
}
330
602
100
AcDbScale
 70
     0
300
1:2
140
1.0
141
2.0
290
     0
  0
SCALE
  5
61E
102
{ACAD_REACTORS
330
602
102
}
330
602
100
AcDbScale
 70
     0
300
1:4
140
1.0
141
4.0
290
     0
  0
SCALE
  5
61F
102
{ACAD_REACTORS
330
602
102
}
330
602
100
AcDbScale
 70
     0
300
1:5
140
1.0
141
5.0
290
     0
  0
SCALE
  5
620
102
{ACAD_REACTORS
330
602
102
}
330
602
100
AcDbScale
 70
     0
300
1:8
140
1.0
141
8.0
290
     0
  0
SCALE
  5
621
102
{ACAD_REACTORS
330
602
102
}
330
602
100
AcDbScale
 70
     0
300
1:10
140
1.0
141
10.0
290
     0
  0
SCALE
  5
622
102
{ACAD_REACTORS
330
602
102
}
330
602
100
AcDbScale
 70
     0
300
1:16
140
1.0
141
16.0
290
     0
  0
SCALE
  5
623
102
{ACAD_REACTORS
330
602
102
}
330
602
100
AcDbScale
 70
     0
300
1:20
140
1.0
141
20.0
290
     0
  0
SCALE
  5
624
102
{ACAD_REACTORS
330
602
102
}
330
602
100
AcDbScale
 70
     0
300
1:30
140
1.0
141
30.0
290
     0
  0
SCALE
  5
625
102
{ACAD_REACTORS
330
602
102
}
330
602
100
AcDbScale
 70
     0
300
1:40
140
1.0
141
40.0
290
     0
  0
SCALE
  5
626
102
{ACAD_REACTORS
330
602
102
}
330
602
100
AcDbScale
 70
     0
300
1:50
140
1.0
141
50.0
290
     0
  0
SCALE
  5
627
102
{ACAD_REACTORS
330
602
102
}
330
602
100
AcDbScale
 70
     0
300
1:100
140
1.0
141
100.0
290
     0
  0
SCALE
  5
628
102
{ACAD_REACTORS
330
602
102
}
330
602
100
AcDbScale
 70
     0
300
2:1
140
2.0
141
1.0
290
     0
  0
SCALE
  5
629
102
{ACAD_REACTORS
330
602
102
}
330
602
100
AcDbScale
 70
     0
300
4:1
140
4.0
141
1.0
290
     0
  0
SCALE
  5
62A
102
{ACAD_REACTORS
330
602
102
}
330
602
100
AcDbScale
 70
     0
300
8:1
140
8.0
141
1.0
290
     0
  0
SCALE
  5
62B
102
{ACAD_REACTORS
330
602
102
}
330
602
100
AcDbScale
 70
     0
300
10:1
140
10.0
141
1.0
290
     0
  0
SCALE
  5
62C
102
{ACAD_REACTORS
330
602
102
}
330
602
100
AcDbScale
 70
     0
300
100:1
140
100.0
141
1.0
290
     0
  0
SCALE
  5
62D
102
{ACAD_REACTORS
330
602
102
}
330
602
100
AcDbScale
 70
     0
300
1/128" = 1'-0"
140
0.007813
141
12.0
290
     0
  0
SCALE
  5
62E
102
{ACAD_REACTORS
330
602
102
}
330
602
100
AcDbScale
 70
     0
300
1/64" = 1'-0"
140
0.015625
141
12.0
290
     0
  0
SCALE
  5
62F
102
{ACAD_REACTORS
330
602
102
}
330
602
100
AcDbScale
 70
     0
300
1/32" = 1'-0"
140
0.03125
141
12.0
290
     0
  0
SCALE
  5
630
102
{ACAD_REACTORS
330
602
102
}
330
602
100
AcDbScale
 70
     0
300
1/16" = 1'-0"
140
0.0625
141
12.0
290
     0
  0
SCALE
  5
631
102
{ACAD_REACTORS
330
602
102
}
330
602
100
AcDbScale
 70
     0
300
3/32" = 1'-0"
140
0.09375
141
12.0
290
     0
  0
SCALE
  5
632
102
{ACAD_REACTORS
330
602
102
}
330
602
100
AcDbScale
 70
     0
300
1/8" = 1'-0"
140
0.125
141
12.0
290
     0
  0
SCALE
  5
633
102
{ACAD_REACTORS
330
602
102
}
330
602
100
AcDbScale
 70
     0
300
3/16" = 1'-0"
140
0.1875
141
12.0
290
     0
  0
SCALE
  5
634
102
{ACAD_REACTORS
330
602
102
}
330
602
100
AcDbScale
 70
     0
300
1/4" = 1'-0"
140
0.25
141
12.0
290
     0
  0
SCALE
  5
635
102
{ACAD_REACTORS
330
602
102
}
330
602
100
AcDbScale
 70
     0
300
3/8" = 1'-0"
140
0.375
141
12.0
290
     0
  0
SCALE
  5
636
102
{ACAD_REACTORS
330
602
102
}
330
602
100
AcDbScale
 70
     0
300
1/2" = 1'-0"
140
0.5
141
12.0
290
     0
  0
SCALE
  5
637
102
{ACAD_REACTORS
330
602
102
}
330
602
100
AcDbScale
 70
     0
300
3/4" = 1'-0"
140
0.75
141
12.0
290
     0
  0
SCALE
  5
638
102
{ACAD_REACTORS
330
602
102
}
330
602
100
AcDbScale
 70
     0
300
1" = 1'-0"
140
1.0
141
12.0
290
     0
  0
SCALE
  5
639
102
{ACAD_REACTORS
330
602
102
}
330
602
100
AcDbScale
 70
     0
300
1-1/2" = 1'-0"
140
1.5
141
12.0
290
     0
  0
SCALE
  5
63A
102
{ACAD_REACTORS
330
602
102
}
330
602
100
AcDbScale
 70
     0
300
3" = 1'-0"
140
3.0
141
12.0
290
     0
  0
SCALE
  5
63B
102
{ACAD_REACTORS
330
602
102
}
330
602
100
AcDbScale
 70
     0
300
6" = 1'-0"
140
6.0
141
12.0
290
     0
  0
SCALE
  5
63C
102
{ACAD_REACTORS
330
602
102
}
330
602
100
AcDbScale
 70
     0
300
1'-0" = 1'-0"
140
12.0
141
12.0
290
     0
  0
ACDBSECTIONVIEWSTYLE
  5
7A2
102
{ACAD_XDICTIONARY
360
C57
102
}
102
{ACAD_REACTORS
330
7A1
102
}
330
7A1
100
AcDbModelDocViewStyle
 70
     0
  3
Imperial24
290
     0
100
AcDbSectionViewStyle
 70
     0
 71
     0
 90
       78
 71
     1
340
5DD
 62
   256
 40
0.24
340
0
340
0
 62
   256
 40
0.24
300
I, O, Q, S, X, Z
 40
0.48
 90
        3
 40
0.18
 90
        1
 71
     2
340
5B6
 90
       25
 62
   256
340
5B6
 90
       50
 62
   256
 40
0.24
 40
0.0
 40
0.24
 71
     3
340
5DD
 62
   256
 40
0.24
 90
        1
 40
0.75
 90
        1
300
%<\AcVar ViewType \f "%tc1">% %<\AcVar ViewSectionStartId>%-%<\AcVar ViewSectionEndId>%\PSCALE %<\AcVar ViewScale \f "%sn">%
 71
     4
 62
   256
 62
   257
300
ANSI31
 40
1.0
 90
        0
290
     0
290
     0
 90
        6
 40
0.0
 40
1.570796
 40
0.261799
 40
1.308997
 40
-0.261799
 40
1.832596
  0
TABLESTYLE
  5
618
102
{ACAD_XDICTIONARY
360
619
102
}
102
{ACAD_REACTORS
330
603
102
}
330
603
100
AcDbTableStyle
280
     0
  3
Standard
 70
     0
 71
     0
 40
0.06
 41
0.06
280
     0
281
     0
  7
Standard
140
0.18
170
     2
 62
     0
 63
     7
283
     0
 90
        4
 91
        0
  1

274
    -2
284
     1
 64
     0
275
    -2
285
     1
 65
     0
276
    -2
286
     1
 66
     0
277
    -2
287
     1
 67
     0
278
    -2
288
     1
 68
     0
279
    -2
289
     1
 69
     0
  7
Standard
140
0.25
170
     5
 62
     0
 63
     7
283
     0
 90
        4
 91
        0
  1

274
    -2
284
     1
 64
     0
275
    -2
285
     1
 65
     0
276
    -2
286
     1
 66
     0
277
    -2
287
     1
 67
     0
278
    -2
288
     1
 68
     0
279
    -2
289
     1
 69
     0
  7
Standard
140
0.18
170
     5
 62
     0
 63
     7
283
     0
 90
        4
 91
        0
  1

274
    -2
284
     1
 64
     0
275
    -2
285
     1
 65
     0
276
    -2
286
     1
 66
     0
277
    -2
287
     1
 67
     0
278
    -2
288
     1
 68
     0
279
    -2
289
     1
 69
     0
  0
VISUALSTYLE
  5
5E7
102
{ACAD_REACTORS
330
5E8
102
}
330
5E8
100
AcDbVisualStyle
  2
2dWireframe
 70
     4
177
     3
291
     0
 70
    58
 90
        0
176
     1
 90
        2
176
     1
 90
        0
176
     1
 90
        0
176
     1
 40
0.6
176
     1
 40
30.0
176
     1
 62
     7
420
 16777215
176
     1
 90
        1
176
     1
 90
        4
176
     1
 62
     7
176
     1
 62
   257
176
     1
 90
        1
176
     1
 90
        1
176
     1
 40
1.0
176
     1
 90
        0
176
     1
 62
   257
176
     1
 40
1.0
176
     1
 90
        1
176
     1
 90
        6
176
     1
 90
        2
176
     1
 62
     7
176
     1
 90
        5
176
     1
 90
        0
176
     1
 90
        0
176
     1
290
     0
176
     1
 90
        1
176
     1
 40
0.0
176
     1
 90
        0
176
     1
290
     1
176
     1
290
     1
176
     1
290
     0
176
     1
290
     0
176
     1
290
     0
176
     1
290
     0
176
     1
290
     0
176
     1
290
     0
176
     1
290
     0
176
     1
 90
       50
176
     1
 40
0.0
176
     1
 40
1.0
176
     1
 90
        0
176
     1
 62
    18
420
        0
176
     1
 90
       50
176
     1
 90
        3
176
     1
 62
     5
420
      255
176
     1
290
     0
176
     1
 90
       50
176
     1
 90
       50
176
     1
 90
       50
176
     1
290
     0
176
     1
 90
       50
176
     1
 62
   256
176
     0
 40
1.0
176
     0
 90
        2
176
     1
  1
strokes_ogs.tif
176
     1
290
     0
176
     1
 40
1.0
176
     1
 40
1.0
176
     1
1001
ACAD
1000
AcDbSavedByObjectVersion
1070
     0
  0
VISUALSTYLE
  5
790
102
{ACAD_REACTORS
330
5E8
102
}
330
5E8
100
AcDbVisualStyle
  2
Basic
 70
     7
177
     3
291
     1
 70
    58
 90
        1
176
     1
 90
        0
176
     1
 90
        1
176
     1
 90
        0
176
     1
 40
0.6
176
     1
 40
30.0
176
     1
 62
     7
420
 16777215
176
     1
 90
        0
176
     1
 90
        4
176
     1
 62
     7
176
     1
 62
   257
176
     1
 90
        1
176
     1
 90
        1
176
     1
 40
1.0
176
     1
 90
        8
176
     1
 62
     7
176
     1
 40
1.0
176
     1
 90
        1
176
     1
 90
        6
176
     1
 90
        2
176
     1
 62
     7
176
     1
 90
        5
176
     1
 90
        0
176
     1
 90
        0
176
     1
290
     0
176
     1
 90
        1
176
     1
 40
0.0
176
     1
 90
        0
176
     1
290
     0
176
     1
290
     1
176
     1
290
     1
176
     1
290
     0
176
     1
290
     0
176
     1
290
     0
176
     1
290
     0
176
     1
290
     0
176
     1
290
     0
176
     1
 90
       50
176
     1
 40
0.0
176
     1
 40
1.0
176
     1
 90
        0
176
     1
 62
    18
420
        0
176
     1
 90
       50
176
     1
 90
        3
176
     1
 62
     5
420
      255
176
     1
290
     0
176
     1
 90
       50
176
     1
 90
       50
176
     1
 90
       50
176
     1
290
     0
176
     1
 90
       50
176
     1
 62
   256
176
     0
 40
1.0
176
     0
 90
        2
176
     1
  1
strokes_ogs.tif
176
     1
290
     0
176
     1
 40
1.0
176
     1
 40
1.0
176
     1
1001
ACAD
1000
AcDbSavedByObjectVersion
1070
     0
  0
VISUALSTYLE
  5
794
102
{ACAD_REACTORS
330
5E8
102
}
330
5E8
100
AcDbVisualStyle
  2
Brighten
 70
    12
177
     3
291
     1
 70
    58
 90
        2
176
     1
 90
        2
176
     1
 90
        0
176
     1
 90
        0
176
     1
 40
0.6
176
     1
 40
30.0
176
     1
 62
     7
420
 16777215
176
     1
 90
        1
176
     1
 90
        4
176
     1
 62
     7
176
     1
 62
   257
176
     1
 90
        1
176
     1
 90
        1
176
     1
 40
1.0
176
     1
 90
        8
176
     1
 62
     7
176
     1
 40
1.0
176
     1
 90
        1
176
     1
 90
        6
176
     1
 90
        2
176
     1
 62
     7
176
     1
 90
        5
176
     1
 90
        0
176
     1
 90
        0
176
     1
290
     0
176
     1
 90
        1
176
     1
 40
50.0
176
     1
 90
        0
176
     1
290
     0
176
     1
290
     1
176
     1
290
     1
176
     1
290
     0
176
     1
290
     0
176
     1
290
     0
176
     1
290
     0
176
     1
290
     0
176
     1
290
     0
176
     1
 90
       50
176
     1
 40
0.0
176
     1
 40
1.0
176
     1
 90
        0
176
     1
 62
    18
420
        0
176
     1
 90
       50
176
     1
 90
        3
176
     1
 62
     5
420
      255
176
     1
290
     0
176
     1
 90
       50
176
     1
 90
       50
176
     1
 90
       50
176
     1
290
     0
176
     1
 90
       50
176
     1
 62
   256
176
     0
 40
1.0
176
     0
 90
        2
176
     1
  1
strokes_ogs.tif
176
     1
290
     0
176
     1
 40
1.0
176
     1
 40
1.0
176
     1
1001
ACAD
1000
AcDbSavedByObjectVersion
1070
     0
  0
VISUALSTYLE
  5
798
102
{ACAD_REACTORS
330
5E8
102
}
330
5E8
100
AcDbVisualStyle
  2
ColorChange
 70
    16
177
     3
291
     1
 70
    58
 90
        2
176
     1
 90
        2
176
     1
 90
        3
176
     1
 90
        0
176
     1
 40
0.6
176
     1
 40
30.0
176
     1
 62
     8
420
  8421504
176
     1
 90
        1
176
     1
 90
        4
176
     1
 62
     7
176
     1
 62
   257
176
     1
 90
        1
176
     1
 90
        1
176
     1
 40
1.0
176
     1
 90
        8
176
     1
 62
     8
420
  8421504
176
     1
 40
1.0
176
     1
 90
        1
176
     1
 90
        6
176
     1
 90
        2
176
     1
 62
     7
176
     1
 90
        5
176
     1
 90
        0
176
     1
 90
        0
176
     1
290
     0
176
     1
 90
        1
176
     1
 40
0.0
176
     1
 90
        0
176
     1
290
     0
176
     1
290
     1
176
     1
290
     1
176
     1
290
     0
176
     1
290
     0
176
     1
290
     0
176
     1
290
     0
176
     1
290
     0
176
     1
290
     0
176
     1
 90
       50
176
     1
 40
0.0
176
     1
 40
1.0
176
     1
 90
        0
176
     1
 62
    18
420
        0
176
     1
 90
       50
176
     1
 90
        3
176
     1
 62
     5
420
      255
176
     1
290
     0
176
     1
 90
       50
176
     1
 90
       50
176
     1
 90
       50
176
     1
290
     0
176
     1
 90
       50
176
     1
 62
   256
176
     0
 40
1.0
176
     0
 90
        2
176
     1
  1
strokes_ogs.tif
176
     1
290
     0
176
     1
 40
1.0
176
     1
 40
1.0
176
     1
1001
ACAD
1000
AcDbSavedByObjectVersion
1070
     0
  0
VISUALSTYLE
  5
792
102
{ACAD_REACTORS
330
5E8
102
}
330
5E8
100
AcDbVisualStyle
  2
Conceptual
 70
     9
177
     3
291
     0
 70
    58
 90
        3
176
     1
 90
        2
176
     1
 90
        0
176
     1
 90
        0
176
     1
 40
0.6
176
     1
 40
30.0
176
     1
 62
     7
420
 16777215
176
     1
 90
        2
176
     1
 90
        2
176
     1
 62
     7
176
     1
 62
   257
176
     1
 90
        1
176
     1
 90
        1
176
     1
 40
179.0
176
     1
 90
        8
176
     1
 62
     7
176
     1
 40
1.0
176
     1
 90
        1
176
     1
 90
        6
176
     1
 90
        2
176
     1
 62
     7
176
     1
 90
        3
176
     1
 90
        0
176
     1
 90
        0
176
     1
290
     0
176
     1
 90
        1
176
     1
 40
0.0
176
     1
 90
        0
176
     1
290
     0
176
     1
290
     1
176
     1
290
     1
176
     1
290
     0
176
     1
290
     0
176
     1
290
     0
176
     1
290
     0
176
     1
290
     0
176
     1
290
     0
176
     1
 90
       50
176
     1
 40
0.0
176
     1
 40
1.0
176
     1
 90
        0
176
     1
 62
    18
420
        0
176
     1
 90
       50
176
     1
 90
        3
176
     1
 62
     5
420
      255
176
     1
290
     0
176
     1
 90
       50
176
     1
 90
       50
176
     1
 90
       50
176
     1
290
     0
176
     1
 90
       50
176
     1
 62
   256
176
     0
 40
1.0
176
     0
 90
        2
176
     1
  1
strokes_ogs.tif
176
     1
290
     0
176
     1
 40
1.0
176
     1
 40
1.0
176
     1
1001
ACAD
1000
AcDbSavedByObjectVersion
1070
     0
  0
VISUALSTYLE
  5
793
102
{ACAD_REACTORS
330
5E8
102
}
330
5E8
100
AcDbVisualStyle
  2
Dim
 70
    11
177
     3
291
     1
 70
    58
 90
        2
176
     1
 90
        2
176
     1
 90
        0
176
     1
 90
        0
176
     1
 40
0.6
176
     1
 40
30.0
176
     1
 62
     7
420
 16777215
176
     1
 90
        1
176
     1
 90
        4
176
     1
 62
     7
176
     1
 62
   257
176
     1
 90
        1
176
     1
 90
        1
176
     1
 40
1.0
176
     1
 90
        8
176
     1
 62
     7
176
     1
 40
1.0
176
     1
 90
        1
176
     1
 90
        6
176
     1
 90
        2
176
     1
 62
     7
176
     1
 90
        5
176
     1
 90
        0
176
     1
 90
        0
176
     1
290
     0
176
     1
 90
        1
176
     1
 40
-50.0
176
     1
 90
        0
176
     1
290
     0
176
     1
290
     1
176
     1
290
     1
176
     1
290
     0
176
     1
290
     0
176
     1
290
     0
176
     1
290
     0
176
     1
290
     0
176
     1
290
     0
176
     1
 90
       50
176
     1
 40
0.0
176
     1
 40
1.0
176
     1
 90
        0
176
     1
 62
    18
420
        0
176
     1
 90
       50
176
     1
 90
        3
176
     1
 62
     5
420
      255
176
     1
290
     0
176
     1
 90
       50
176
     1
 90
       50
176
     1
 90
       50
176
     1
290
     0
176
     1
 90
       50
176
     1
 62
   256
176
     0
 40
1.0
176
     0
 90
        2
176
     1
  1
strokes_ogs.tif
176
     1
290
     0
176
     1
 40
1.0
176
     1
 40
1.0
176
     1
1001
ACAD
1000
AcDbSavedByObjectVersion
1070
     0
  0
VISUALSTYLE
  5
7A0
102
{ACAD_REACTORS
330
5E8
102
}
330
5E8
100
AcDbVisualStyle
  2
EdgeColorOff
 70
    22
177
     3
291
     1
 70
    58
 90
        2
176
     0
 90
        2
176
     0
 90
        0
176
     0
 90
        0
176
     0
 40
0.6
176
     0
 40
30.0
176
     0
 62
     7
420
 16777215
176
     0
 90
        1
176
     0
 90
        4
176
     0
 62
     7
176
     0
 62
   257
176
     0
 90
        1
176
     0
 90
        1
176
     0
 40
1.0
176
     0
 90
        8
176
     2
 62
     7
176
     0
 40
1.0
176
     0
 90
        1
176
     0
 90
        6
176
     0
 90
        2
176
     0
 62
     7
176
     0
 90
        5
176
     0
 90
        0
176
     0
 90
        0
176
     0
290
     0
176
     0
 90
        1
176
     0
 40
0.0
176
     0
 90
        0
176
     0
290
     0
176
     0
290
     1
176
     0
290
     1
176
     0
290
     0
176
     0
290
     0
176
     0
290
     0
176
     0
290
     0
176
     0
290
     0
176
     0
290
     0
176
     0
 90
       50
176
     0
 40
0.0
176
     0
 40
1.0
176
     0
 90
        0
176
     0
 62
    18
420
        0
176
     0
 90
       50
176
     0
 90
        3
176
     0
 62
     5
420
      255
176
     0
290
     0
176
     0
 90
       50
176
     0
 90
       50
176
     0
 90
       50
176
     0
290
     0
176
     0
 90
       50
176
     0
 62
   256
176
     0
 40
1.0
176
     0
 90
        2
176
     0
  1
strokes_ogs.tif
176
     0
290
     0
176
     0
 40
1.0
176
     0
 40
1.0
176
     0
1001
ACAD
1000
AcDbSavedByObjectVersion
1070
     0
  0
VISUALSTYLE
  5
797
102
{ACAD_REACTORS
330
5E8
102
}
330
5E8
100
AcDbVisualStyle
  2
Facepattern
 70
    15
177
     3
291
     1
 70
    58
 90
        2
176
     1
 90
        2
176
     1
 90
        0
176
     1
 90
        0
176
     1
 40
0.6
176
     1
 40
30.0
176
     1
 62
     7
420
 16777215
176
     1
 90
        1
176
     1
 90
        4
176
     1
 62
     7
176
     1
 62
   257
176
     1
 90
        1
176
     1
 90
        1
176
     1
 40
1.0
176
     1
 90
        8
176
     1
 62
     7
176
     1
 40
1.0
176
     1
 90
        1
176
     1
 90
        6
176
     1
 90
        2
176
     1
 62
     7
176
     1
 90
        5
176
     1
 90
        0
176
     1
 90
        0
176
     1
290
     0
176
     1
 90
        1
176
     1
 40
0.0
176
     1
 90
        0
176
     1
290
     0
176
     1
290
     1
176
     1
290
     1
176
     1
290
     0
176
     1
290
     0
176
     1
290
     0
176
     1
290
     0
176
     1
290
     0
176
     1
290
     0
176
     1
 90
       50
176
     1
 40
0.0
176
     1
 40
1.0
176
     1
 90
        0
176
     1
 62
    18
420
        0
176
     1
 90
       50
176
     1
 90
        3
176
     1
 62
     5
420
      255
176
     1
290
     0
176
     1
 90
       50
176
     1
 90
       50
176
     1
 90
       50
176
     1
290
     0
176
     1
 90
       50
176
     1
 62
   256
176
     0
 40
1.0
176
     0
 90
        2
176
     1
  1
strokes_ogs.tif
176
     1
290
     0
176
     1
 40
1.0
176
     1
 40
1.0
176
     1
1001
ACAD
1000
AcDbSavedByObjectVersion
1070
     0
  0
VISUALSTYLE
  5
78C
102
{ACAD_REACTORS
330
5E8
102
}
330
5E8
100
AcDbVisualStyle
  2
Flat
 70
     0
177
     3
291
     1
 70
    58
 90
        2
176
     1
 90
        1
176
     1
 90
        1
176
     1
 90
        2
176
     1
 40
0.6
176
     1
 40
30.0
176
     1
 62
     7
420
 16777215
176
     1
 90
        0
176
     1
 90
        0
176
     1
 62
     7
176
     1
 62
   257
176
     1
 90
        1
176
     1
 90
        1
176
     1
 40
1.0
176
     1
 90
        8
176
     1
 62
     7
176
     1
 40
1.0
176
     1
 90
        1
176
     1
 90
        6
176
     1
 90
        2
176
     1
 62
     7
176
     1
 90
        5
176
     1
 90
        0
176
     1
 90
        0
176
     1
290
     0
176
     1
 90
       13
176
     1
 40
0.0
176
     1
 90
        0
176
     1
290
     0
176
     1
290
     1
176
     1
290
     1
176
     1
290
     0
176
     1
290
     0
176
     1
290
     0
176
     1
290
     0
176
     1
290
     0
176
     1
290
     0
176
     1
 90
       50
176
     1
 40
0.0
176
     1
 40
1.0
176
     1
 90
        0
176
     1
 62
    18
420
        0
176
     1
 90
       50
176
     1
 90
        3
176
     1
 62
     5
420
      255
176
     1
290
     0
176
     1
 90
       50
176
     1
 90
       50
176
     1
 90
       50
176
     1
290
     0
176
     1
 90
       50
176
     1
 62
   256
176
     0
 40
1.0
176
     0
 90
        2
176
     1
  1
strokes_ogs.tif
176
     1
290
     0
176
     1
 40
1.0
176
     1
 40
1.0
176
     1
1001
ACAD
1000
AcDbSavedByObjectVersion
1070
     0
  0
VISUALSTYLE
  5
78D
102
{ACAD_REACTORS
330
5E8
102
}
330
5E8
100
AcDbVisualStyle
  2
FlatWithEdges
 70
     1
177
     3
291
     1
 70
    58
 90
        2
176
     1
 90
        1
176
     1
 90
        1
176
     1
 90
        2
176
     1
 40
0.6
176
     1
 40
30.0
176
     1
 62
     7
420
 16777215
176
     1
 90
        1
176
     1
 90
        0
176
     1
 62
     7
176
     1
 62
   257
176
     1
 90
        1
176
     1
 90
        1
176
     1
 40
1.0
176
     1
 90
        0
176
     1
 62
   257
176
     1
 40
1.0
176
     1
 90
        1
176
     1
 90
        6
176
     1
 90
        2
176
     1
 62
     7
176
     1
 90
        5
176
     1
 90
        0
176
     1
 90
        0
176
     1
290
     0
176
     1
 90
       13
176
     1
 40
0.0
176
     1
 90
        0
176
     1
290
     0
176
     1
290
     1
176
     1
290
     1
176
     1
290
     0
176
     1
290
     0
176
     1
290
     0
176
     1
290
     0
176
     1
290
     0
176
     1
290
     0
176
     1
 90
       50
176
     1
 40
0.0
176
     1
 40
1.0
176
     1
 90
        0
176
     1
 62
    18
420
        0
176
     1
 90
       50
176
     1
 90
        3
176
     1
 62
     5
420
      255
176
     1
290
     0
176
     1
 90
       50
176
     1
 90
       50
176
     1
 90
       50
176
     1
290
     0
176
     1
 90
       50
176
     1
 62
   256
176
     0
 40
1.0
176
     0
 90
        2
176
     1
  1
strokes_ogs.tif
176
     1
290
     0
176
     1
 40
1.0
176
     1
 40
1.0
176
     1
1001
ACAD
1000
AcDbSavedByObjectVersion
1070
     0
  0
VISUALSTYLE
  5
78E
102
{ACAD_REACTORS
330
5E8
102
}
330
5E8
100
AcDbVisualStyle
  2
Gouraud
 70
     2
177
     3
291
     1
 70
    58
 90
        2
176
     1
 90
        2
176
     1
 90
        1
176
     1
 90
        2
176
     1
 40
0.6
176
     1
 40
30.0
176
     1
 62
     7
420
 16777215
176
     1
 90
        0
176
     1
 90
        0
176
     1
 62
     7
176
     1
 62
   257
176
     1
 90
        1
176
     1
 90
        1
176
     1
 40
1.0
176
     1
 90
        0
176
     1
 62
     7
176
     1
 40
1.0
176
     1
 90
        1
176
     1
 90
        6
176
     1
 90
        2
176
     1
 62
     7
176
     1
 90
        5
176
     1
 90
        0
176
     1
 90
        0
176
     1
290
     0
176
     1
 90
       13
176
     1
 40
0.0
176
     1
 90
        0
176
     1
290
     0
176
     1
290
     1
176
     1
290
     1
176
     1
290
     0
176
     1
290
     0
176
     1
290
     0
176
     1
290
     0
176
     1
290
     0
176
     1
290
     0
176
     1
 90
       50
176
     1
 40
0.0
176
     1
 40
1.0
176
     1
 90
        0
176
     1
 62
    18
420
        0
176
     1
 90
       50
176
     1
 90
        3
176
     1
 62
     5
420
      255
176
     1
290
     0
176
     1
 90
       50
176
     1
 90
       50
176
     1
 90
       50
176
     1
290
     0
176
     1
 90
       50
176
     1
 62
   256
176
     0
 40
1.0
176
     0
 90
        2
176
     1
  1
strokes_ogs.tif
176
     1
290
     0
176
     1
 40
1.0
176
     1
 40
1.0
176
     1
1001
ACAD
1000
AcDbSavedByObjectVersion
1070
     0
  0
VISUALSTYLE
  5
78F
102
{ACAD_REACTORS
330
5E8
102
}
330
5E8
100
AcDbVisualStyle
  2
GouraudWithEdges
 70
     3
177
     3
291
     1
 70
    58
 90
        2
176
     1
 90
        2
176
     1
 90
        1
176
     1
 90
        2
176
     1
 40
0.6
176
     1
 40
30.0
176
     1
 62
     7
420
 16777215
176
     1
 90
        1
176
     1
 90
        0
176
     1
 62
     7
176
     1
 62
   257
176
     1
 90
        1
176
     1
 90
        1
176
     1
 40
1.0
176
     1
 90
        0
176
     1
 62
   257
176
     1
 40
1.0
176
     1
 90
        1
176
     1
 90
        6
176
     1
 90
        2
176
     1
 62
     7
176
     1
 90
        5
176
     1
 90
        0
176
     1
 90
        0
176
     1
290
     0
176
     1
 90
       13
176
     1
 40
0.0
176
     1
 90
        0
176
     1
290
     0
176
     1
290
     1
176
     1
290
     1
176
     1
290
     0
176
     1
290
     0
176
     1
290
     0
176
     1
290
     0
176
     1
290
     0
176
     1
290
     0
176
     1
 90
       50
176
     1
 40
0.0
176
     1
 40
1.0
176
     1
 90
        0
176
     1
 62
    18
420
        0
176
     1
 90
       50
176
     1
 90
        3
176
     1
 62
     5
420
      255
176
     1
290
     0
176
     1
 90
       50
176
     1
 90
       50
176
     1
 90
       50
176
     1
290
     0
176
     1
 90
       50
176
     1
 62
   256
176
     0
 40
1.0
176
     0
 90
        2
176
     1
  1
strokes_ogs.tif
176
     1
290
     0
176
     1
 40
1.0
176
     1
 40
1.0
176
     1
1001
ACAD
1000
AcDbSavedByObjectVersion
1070
     0
  0
VISUALSTYLE
  5
791
102
{ACAD_REACTORS
330
5E8
102
}
330
5E8
100
AcDbVisualStyle
  2
Hidden
 70
     6
177
     3
291
     0
 70
    58
 90
        1
176
     1
 90
        2
176
     1
 90
        2
176
     1
 90
        0
176
     1
 40
0.6
176
     1
 40
30.0
176
     1
 62
     7
420
 16777215
176
     1
 90
        2
176
     1
 90
        2
176
     1
 62
     7
176
     1
 62
   257
176
     1
 90
        2
176
     1
 90
        1
176
     1
 40
40.0
176
     1
 90
        0
176
     1
 62
   257
176
     1
 40
1.0
176
     1
 90
        1
176
     1
 90
        6
176
     1
 90
        2
176
     1
 62
     7
176
     1
 90
        3
176
     1
 90
        0
176
     1
 90
        0
176
     1
290
     0
176
     1
 90
        1
176
     1
 40
0.0
176
     1
 90
        0
176
     1
290
     0
176
     1
290
     1
176
     1
290
     1
176
     1
290
     0
176
     1
290
     0
176
     1
290
     0
176
     1
290
     0
176
     1
290
     0
176
     1
290
     0
176
     1
 90
       50
176
     1
 40
0.0
176
     1
 40
1.0
176
     1
 90
        0
176
     1
 62
    18
420
        0
176
     1
 90
       50
176
     1
 90
        3
176
     1
 62
     5
420
      255
176
     1
290
     0
176
     1
 90
       50
176
     1
 90
       50
176
     1
 90
       50
176
     1
290
     0
176
     1
 90
       50
176
     1
 62
   256
176
     0
 40
1.0
176
     0
 90
        2
176
     1
  1
strokes_ogs.tif
176
     1
290
     0
176
     1
 40
1.0
176
     1
 40
1.0
176
     1
1001
ACAD
1000
AcDbSavedByObjectVersion
1070
     0
  0
VISUALSTYLE
  5
79E
102
{ACAD_REACTORS
330
5E8
102
}
330
5E8
100
AcDbVisualStyle
  2
JitterOff
 70
    20
177
     3
291
     1
 70
    58
 90
        2
176
     0
 90
        2
176
     0
 90
        0
176
     0
 90
        0
176
     0
 40
0.6
176
     0
 40
30.0
176
     0
 62
     7
420
 16777215
176
     0
 90
        1
176
     0
 90
        4
176
     0
 62
     7
176
     0
 62
   257
176
     0
 90
        1
176
     0
 90
        1
176
     0
 40
1.0
176
     0
 90
       10
176
     2
 62
     7
176
     0
 40
1.0
176
     0
 90
        1
176
     0
 90
        6
176
     0
 90
        2
176
     0
 62
     7
176
     0
 90
        5
176
     0
 90
        0
176
     0
 90
        0
176
     0
290
     0
176
     0
 90
        1
176
     0
 40
0.0
176
     0
 90
        0
176
     0
290
     0
176
     0
290
     1
176
     0
290
     1
176
     0
290
     0
176
     0
290
     0
176
     0
290
     0
176
     0
290
     0
176
     0
290
     0
176
     0
290
     0
176
     0
 90
       50
176
     0
 40
0.0
176
     0
 40
1.0
176
     0
 90
        0
176
     0
 62
    18
420
        0
176
     0
 90
       50
176
     0
 90
        3
176
     0
 62
     5
420
      255
176
     0
290
     0
176
     0
 90
       50
176
     0
 90
       50
176
     0
 90
       50
176
     0
290
     0
176
     0
 90
       50
176
     0
 62
   256
176
     0
 40
1.0
176
     0
 90
        2
176
     0
  1
strokes_ogs.tif
176
     0
290
     0
176
     0
 40
1.0
176
     0
 40
1.0
176
     0
1001
ACAD
1000
AcDbSavedByObjectVersion
1070
     0
  0
VISUALSTYLE
  5
796
102
{ACAD_REACTORS
330
5E8
102
}
330
5E8
100
AcDbVisualStyle
  2
Linepattern
 70
    14
177
     3
291
     1
 70
    58
 90
        2
176
     1
 90
        2
176
     1
 90
        0
176
     1
 90
        0
176
     1
 40
0.6
176
     1
 40
30.0
176
     1
 62
     7
420
 16777215
176
     1
 90
        1
176
     1
 90
        4
176
     1
 62
     7
176
     1
 62
   257
176
     1
 90
        7
176
     1
 90
        7
176
     1
 40
1.0
176
     1
 90
        8
176
     1
 62
     7
176
     1
 40
1.0
176
     1
 90
        1
176
     1
 90
        6
176
     1
 90
        2
176
     1
 62
     7
176
     1
 90
        5
176
     1
 90
        0
176
     1
 90
        0
176
     1
290
     0
176
     1
 90
        1
176
     1
 40
0.0
176
     1
 90
        0
176
     1
290
     0
176
     1
290
     1
176
     1
290
     1
176
     1
290
     0
176
     1
290
     0
176
     1
290
     0
176
     1
290
     0
176
     1
290
     0
176
     1
290
     0
176
     1
 90
       50
176
     1
 40
0.0
176
     1
 40
1.0
176
     1
 90
        0
176
     1
 62
    18
420
        0
176
     1
 90
       50
176
     1
 90
        3
176
     1
 62
     5
420
      255
176
     1
290
     0
176
     1
 90
       50
176
     1
 90
       50
176
     1
 90
       50
176
     1
290
     0
176
     1
 90
       50
176
     1
 62
   256
176
     0
 40
1.0
176
     0
 90
        2
176
     1
  1
strokes_ogs.tif
176
     1
290
     0
176
     1
 40
1.0
176
     1
 40
1.0
176
     1
1001
ACAD
1000
AcDbSavedByObjectVersion
1070
     0
  0
VISUALSTYLE
  5
79F
102
{ACAD_REACTORS
330
5E8
102
}
330
5E8
100
AcDbVisualStyle
  2
OverhangOff
 70
    21
177
     3
291
     1
 70
    58
 90
        2
176
     0
 90
        2
176
     0
 90
        0
176
     0
 90
        0
176
     0
 40
0.6
176
     0
 40
30.0
176
     0
 62
     7
420
 16777215
176
     0
 90
        1
176
     0
 90
        4
176
     0
 62
     7
176
     0
 62
   257
176
     0
 90
        1
176
     0
 90
        1
176
     0
 40
1.0
176
     0
 90
        9
176
     2
 62
     7
176
     0
 40
1.0
176
     0
 90
        1
176
     0
 90
        6
176
     0
 90
        2
176
     0
 62
     7
176
     0
 90
        5
176
     0
 90
        0
176
     0
 90
        0
176
     0
290
     0
176
     0
 90
        1
176
     0
 40
0.0
176
     0
 90
        0
176
     0
290
     0
176
     0
290
     1
176
     0
290
     1
176
     0
290
     0
176
     0
290
     0
176
     0
290
     0
176
     0
290
     0
176
     0
290
     0
176
     0
290
     0
176
     0
 90
       50
176
     0
 40
0.0
176
     0
 40
1.0
176
     0
 90
        0
176
     0
 62
    18
420
        0
176
     0
 90
       50
176
     0
 90
        3
176
     0
 62
     5
420
      255
176
     0
290
     0
176
     0
 90
       50
176
     0
 90
       50
176
     0
 90
       50
176
     0
290
     0
176
     0
 90
       50
176
     0
 62
   256
176
     0
 40
1.0
176
     0
 90
        2
176
     0
  1
strokes_ogs.tif
176
     0
290
     0
176
     0
 40
1.0
176
     0
 40
1.0
176
     0
1001
ACAD
1000
AcDbSavedByObjectVersion
1070
     0
  0
VISUALSTYLE
  5
61A
102
{ACAD_REACTORS
330
5E8
102
}
330
5E8
100
AcDbVisualStyle
  2
Realistic
 70
     8
177
     3
291
     0
 70
    58
 90
        2
176
     1
 90
        2
176
     1
 90
        0
176
     1
 90
        0
176
     1
 40
0.6
176
     1
 40
30.0
176
     1
 62
     7
420
 16777215
176
     1
 90
        1
176
     1
 90
        0
176
     1
 62
     7
176
     1
 62
   257
176
     1
 90
        1
176
     1
 90
        1
176
     1
 40
1.0
176
     1
 90
        8
176
     1
 62
     8
420
  7895160
176
     1
 40
1.0
176
     1
 90
        1
176
     1
 90
        6
176
     1
 90
        2
176
     1
 62
     7
176
     1
 90
        5
176
     1
 90
        0
176
     1
 90
        0
176
     1
290
     0
176
     1
 90
       13
176
     1
 40
0.0
176
     1
 90
        0
176
     1
290
     0
176
     1
290
     1
176
     1
290
     1
176
     1
290
     0
176
     1
290
     0
176
     1
290
     0
176
     1
290
     0
176
     1
290
     0
176
     1
290
     0
176
     1
 90
       50
176
     1
 40
0.0
176
     1
 40
1.0
176
     1
 90
        0
176
     1
 62
    18
420
        0
176
     1
 90
       50
176
     1
 90
        3
176
     1
 62
     5
420
      255
176
     1
290
     0
176
     1
 90
       50
176
     1
 90
       50
176
     1
 90
       50
176
     1
290
     0
176
     1
 90
       50
176
     1
 62
   256
176
     0
 40
1.0
176
     0
 90
        2
176
     1
  1
strokes_ogs.tif
176
     1
290
     0
176
     1
 40
1.0
176
     1
 40
1.0
176
     1
1001
ACAD
1000
AcDbSavedByObjectVersion
1070
     0
  0
VISUALSTYLE
  5
79D
102
{ACAD_REACTORS
330
5E8
102
}
330
5E8
100
AcDbVisualStyle
  2
Shaded
 70
    27
177
     3
291
     0
 70
    58
 90
        2
176
     1
 90
        2
176
     1
 90
        1
176
     1
 90
        2
176
     1
 40
0.6
176
     1
 40
30.0
176
     1
 62
     7
420
 16777215
176
     1
 90
        0
176
     1
 90
        4
176
     1
 62
     7
176
     1
 62
   257
176
     1
 90
        1
176
     1
 90
        1
176
     1
 40
1.0
176
     1
 90
        8
176
     1
 62
   257
176
     1
 40
1.0
176
     1
 90
        1
176
     1
 90
        6
176
     1
 90
        2
176
     1
 62
     8
420
  7895160
176
     1
 90
        3
176
     1
 90
        0
176
     1
 90
        0
176
     1
290
     0
176
     1
 90
        5
176
     1
 40
0.0
176
     1
 90
        0
176
     1
290
     0
176
     1
290
     1
176
     1
290
     1
176
     1
290
     0
176
     1
290
     0
176
     1
290
     0
176
     1
290
     0
176
     1
290
     0
176
     1
290
     0
176
     1
 90
       50
176
     1
 40
0.0
176
     1
 40
1.0
176
     1
 90
        0
176
     1
 62
    18
420
        0
176
     1
 90
       50
176
     1
 90
        3
176
     1
 62
     5
420
      255
176
     1
290
     0
176
     1
 90
       50
176
     1
 90
       50
176
     1
 90
       50
176
     1
290
     0
176
     1
 90
       50
176
     1
 62
   256
176
     0
 40
1.0
176
     0
 90
        2
176
     1
  1
strokes_ogs.tif
176
     1
290
     0
176
     1
 40
1.0
176
     1
 40
1.0
176
     1
1001
ACAD
1000
AcDbSavedByObjectVersion
1070
     0
  0
VISUALSTYLE
  5
79C
102
{ACAD_REACTORS
330
5E8
102
}
330
5E8
100
AcDbVisualStyle
  2
Shaded with edges
 70
    26
177
     3
291
     0
 70
    58
 90
        2
176
     1
 90
        2
176
     1
 90
        1
176
     1
 90
        2
176
     1
 40
0.6
176
     1
 40
30.0
176
     1
 62
     7
420
 16777215
176
     1
 90
        1
176
     1
 90
        2
176
     1
 62
     7
176
     1
 62
   257
176
     1
 90
        2
176
     1
 90
        1
176
     1
 40
1.0
176
     1
 90
        8
176
     1
 62
   257
176
     1
 40
1.0
176
     1
 90
        1
176
     1
 90
        6
176
     1
 90
        2
176
     1
 62
     7
176
     1
 90
        3
176
     1
 90
        0
176
     1
 90
        0
176
     1
290
     0
176
     1
 90
        5
176
     1
 40
0.0
176
     1
 90
        0
176
     1
290
     0
176
     1
290
     1
176
     1
290
     1
176
     1
290
     0
176
     1
290
     0
176
     1
290
     0
176
     1
290
     0
176
     1
290
     0
176
     1
290
     0
176
     1
 90
       50
176
     1
 40
0.0
176
     1
 40
1.0
176
     1
 90
        0
176
     1
 62
    18
420
        0
176
     1
 90
       50
176
     1
 90
        3
176
     1
 62
     5
420
      255
176
     1
290
     0
176
     1
 90
       50
176
     1
 90
       50
176
     1
 90
       50
176
     1
290
     0
176
     1
 90
       50
176
     1
 62
   256
176
     0
 40
1.0
176
     0
 90
        2
176
     1
  1
strokes_ogs.tif
176
     1
290
     0
176
     1
 40
1.0
176
     1
 40
1.0
176
     1
1001
ACAD
1000
AcDbSavedByObjectVersion
1070
     0
  0
VISUALSTYLE
  5
799
102
{ACAD_REACTORS
330
5E8
102
}
330
5E8
100
AcDbVisualStyle
  2
Shades of Gray
 70
    23
177
     3
291
     0
 70
    58
 90
        2
176
     1
 90
        2
176
     1
 90
        3
176
     1
 90
        0
176
     1
 40
0.6
176
     1
 40
30.0
176
     1
 62
     7
420
 16777215
176
     1
 90
        2
176
     1
 90
        2
176
     1
 62
     7
176
     1
 62
     7
176
     1
 90
        1
176
     1
 90
        1
176
     1
 40
40.0
176
     1
 90
        8
176
     1
 62
     7
176
     1
 40
1.0
176
     1
 90
        1
176
     1
 90
        6
176
     1
 90
        2
176
     1
 62
     7
176
     1
 90
        3
176
     1
 90
        0
176
     1
 90
        0
176
     1
290
     0
176
     1
 90
        1
176
     1
 40
0.0
176
     1
 90
        0
176
     1
290
     0
176
     1
290
     1
176
     1
290
     1
176
     1
290
     0
176
     1
290
     0
176
     1
290
     0
176
     1
290
     0
176
     1
290
     0
176
     1
290
     0
176
     1
 90
       50
176
     1
 40
0.0
176
     1
 40
1.0
176
     1
 90
        0
176
     1
 62
    18
420
        0
176
     1
 90
       50
176
     1
 90
        3
176
     1
 62
     5
420
      255
176
     1
290
     0
176
     1
 90
       50
176
     1
 90
       50
176
     1
 90
       50
176
     1
290
     0
176
     1
 90
       50
176
     1
 62
   256
176
     0
 40
1.0
176
     0
 90
        2
176
     1
  1
strokes_ogs.tif
176
     1
290
     0
176
     1
 40
1.0
176
     1
 40
1.0
176
     1
1001
ACAD
1000
AcDbSavedByObjectVersion
1070
     0
  0
VISUALSTYLE
  5
79A
102
{ACAD_REACTORS
330
5E8
102
}
330
5E8
100
AcDbVisualStyle
  2
Sketchy
 70
    24
177
     3
291
     0
 70
    58
 90
        1
176
     1
 90
        2
176
     1
 90
        2
176
     1
 90
        0
176
     1
 40
0.6
176
     1
 40
30.0
176
     1
 62
     7
420
 16777215
176
     1
 90
        2
176
     1
 90
        2
176
     1
 62
     7
176
     1
 62
     7
176
     1
 90
        1
176
     1
 90
        1
176
     1
 40
40.0
176
     1
 90
       11
176
     1
 62
     7
176
     1
 40
1.0
176
     1
 90
        1
176
     1
 90
        6
176
     1
 90
        2
176
     1
 62
     7
176
     1
 90
        6
176
     1
 90
        0
176
     1
 90
        0
176
     1
290
     0
176
     1
 90
        1
176
     1
 40
0.0
176
     1
 90
        0
176
     1
290
     0
176
     1
290
     1
176
     1
290
     1
176
     1
290
     0
176
     1
290
     0
176
     1
290
     0
176
     1
290
     0
176
     1
290
     0
176
     1
290
     0
176
     1
 90
       50
176
     1
 40
0.0
176
     1
 40
1.0
176
     1
 90
        0
176
     1
 62
    18
420
        0
176
     1
 90
       50
176
     1
 90
        3
176
     1
 62
     5
420
      255
176
     1
290
     0
176
     1
 90
       50
176
     1
 90
       50
176
     1
 90
       50
176
     1
290
     0
176
     1
 90
       50
176
     1
 62
   256
176
     0
 40
1.0
176
     0
 90
        2
176
     1
  1
strokes_ogs.tif
176
     1
290
     0
176
     1
 40
1.0
176
     1
 40
1.0
176
     1
1001
ACAD
1000
AcDbSavedByObjectVersion
1070
     0
  0
VISUALSTYLE
  5
795
102
{ACAD_REACTORS
330
5E8
102
}
330
5E8
100
AcDbVisualStyle
  2
Thicken
 70
    13
177
     3
291
     1
 70
    58
 90
        2
176
     1
 90
        2
176
     1
 90
        0
176
     1
 90
        0
176
     1
 40
0.6
176
     1
 40
30.0
176
     1
 62
     7
420
 16777215
176
     1
 90
        1
176
     1
 90
        4
176
     1
 62
     7
176
     1
 62
   257
176
     1
 90
        1
176
     1
 90
        1
176
     1
 40
1.0
176
     1
 90
       12
176
     1
 62
     7
176
     1
 40
1.0
176
     1
 90
        1
176
     1
 90
        6
176
     1
 90
        2
176
     1
 62
     7
176
     1
 90
        5
176
     1
 90
        0
176
     1
 90
        0
176
     1
290
     0
176
     1
 90
        1
176
     1
 40
0.0
176
     1
 90
        0
176
     1
290
     0
176
     1
290
     1
176
     1
290
     1
176
     1
290
     0
176
     1
290
     0
176
     1
290
     0
176
     1
290
     0
176
     1
290
     0
176
     1
290
     0
176
     1
 90
       50
176
     1
 40
0.0
176
     1
 40
1.0
176
     1
 90
        0
176
     1
 62
    18
420
        0
176
     1
 90
       50
176
     1
 90
        3
176
     1
 62
     5
420
      255
176
     1
290
     0
176
     1
 90
       50
176
     1
 90
       50
176
     1
 90
       50
176
     1
290
     0
176
     1
 90
       50
176
     1
 62
   256
176
     0
 40
1.0
176
     0
 90
        2
176
     1
  1
strokes_ogs.tif
176
     1
290
     0
176
     1
 40
1.0
176
     1
 40
1.0
176
     1
1001
ACAD
1000
AcDbSavedByObjectVersion
1070
     0
  0
VISUALSTYLE
  5
61B
102
{ACAD_REACTORS
330
5E8
102
}
330
5E8
100
AcDbVisualStyle
  2
Wireframe
 70
     5
177
     3
291
     0
 70
    58
 90
        0
176
     1
 90
        2
176
     1
 90
        0
176
     1
 90
        0
176
     1
 40
0.6
176
     1
 40
30.0
176
     1
 62
     7
420
 16777215
176
     1
 90
        1
176
     1
 90
        4
176
     1
 62
     7
176
     1
 62
   257
176
     1
 90
        1
176
     1
 90
        1
176
     1
 40
1.0
176
     1
 90
        0
176
     1
 62
   257
176
     1
 40
1.0
176
     1
 90
        1
176
     1
 90
        6
176
     1
 90
        2
176
     1
 62
     7
176
     1
 90
        3
176
     1
 90
        0
176
     1
 90
        0
176
     1
290
     0
176
     1
 90
        1
176
     1
 40
0.0
176
     1
 90
        0
176
     1
290
     0
176
     1
290
     1
176
     1
290
     1
176
     1
290
     0
176
     1
290
     0
176
     1
290
     0
176
     1
290
     0
176
     1
290
     0
176
     1
290
     0
176
     1
 90
       50
176
     1
 40
0.0
176
     1
 40
1.0
176
     1
 90
        0
176
     1
 62
    18
420
        0
176
     1
 90
       50
176
     1
 90
        3
176
     1
 62
     5
420
      255
176
     1
290
     0
176
     1
 90
       50
176
     1
 90
       50
176
     1
 90
       50
176
     1
290
     0
176
     1
 90
       50
176
     1
 62
   256
176
     0
 40
1.0
176
     0
 90
        2
176
     1
  1
strokes_ogs.tif
176
     1
290
     0
176
     1
 40
1.0
176
     1
 40
1.0
176
     1
1001
ACAD
1000
AcDbSavedByObjectVersion
1070
     0
  0
VISUALSTYLE
  5
79B
102
{ACAD_REACTORS
330
5E8
102
}
330
5E8
100
AcDbVisualStyle
  2
X-Ray
 70
    25
177
     3
291
     0
 70
    58
 90
        2
176
     1
 90
        2
176
     1
 90
        1
176
     1
 90
        1
176
     1
 40
0.5
176
     1
 40
30.0
176
     1
 62
     7
420
 16777215
176
     1
 90
        1
176
     1
 90
        0
176
     1
 62
     7
176
     1
 62
   257
176
     1
 90
        1
176
     1
 90
        1
176
     1
 40
1.0
176
     1
 90
        8
176
     1
 62
     7
176
     1
 40
1.0
176
     1
 90
        1
176
     1
 90
        6
176
     1
 90
        2
176
     1
 62
     7
176
     1
 90
        3
176
     1
 90
        0
176
     1
 90
        0
176
     1
290
     0
176
     1
 90
       13
176
     1
 40
0.0
176
     1
 90
        0
176
     1
290
     0
176
     1
290
     1
176
     1
290
     1
176
     1
290
     0
176
     1
290
     0
176
     1
290
     0
176
     1
290
     0
176
     1
290
     0
176
     1
290
     0
176
     1
 90
       50
176
     1
 40
0.0
176
     1
 40
1.0
176
     1
 90
        0
176
     1
 62
    18
420
        0
176
     1
 90
       50
176
     1
 90
        3
176
     1
 62
     5
420
      255
176
     1
290
     0
176
     1
 90
       50
176
     1
 90
       50
176
     1
 90
       50
176
     1
290
     0
176
     1
 90
       50
176
     1
 62
   256
176
     0
 40
1.0
176
     0
 90
        2
176
     1
  1
strokes_ogs.tif
176
     1
290
     0
176
     1
 40
1.0
176
     1
 40
1.0
176
     1
1001
ACAD
1000
AcDbSavedByObjectVersion
1070
     0
  0
DICTIONARYVAR
  5
606
102
{ACAD_REACTORS
330
605
102
}
330
605
100
DictionaryVariables
280
     0
  1
1:1
  0
DICTIONARYVAR
  5
607
102
{ACAD_REACTORS
330
605
102
}
330
605
100
DictionaryVariables
280
     0
  1
STANDARD
  0
DICTIONARYVAR
  5
608
102
{ACAD_REACTORS
330
605
102
}
330
605
100
DictionaryVariables
280
     0
  1
STANDARD
  0
DICTIONARYVAR
  5
609
102
{ACAD_REACTORS
330
605
102
}
330
605
100
DictionaryVariables
280
     0
  1
Imperial24
  0
DICTIONARYVAR
  5
60A
102
{ACAD_REACTORS
330
605
102
}
330
605
100
DictionaryVariables
280
     0
  1
Imperial24
  0
DICTIONARYVAR
  5
60B
102
{ACAD_REACTORS
330
605
102
}
330
605
100
DictionaryVariables
280
     0
  1
1
  0
DICTIONARYVAR
  5
60C
102
{ACAD_REACTORS
330
605
102
}
330
605
100
DictionaryVariables
280
     0
  1
15
  0
DICTIONARYVAR
  5
60D
102
{ACAD_REACTORS
330
605
102
}
330
605
100
DictionaryVariables
280
     0
  1
0
  0
DICTIONARYVAR
  5
60E
102
{ACAD_REACTORS
330
605
102
}
330
605
100
DictionaryVariables
280
     0
  1
0
  0
DICTIONARY
  5
C56
102
{ACAD_REACTORS
330
C54
102
}
330
C54
100
AcDbDictionary
281
     1
  0
DICTIONARY
  5
C55
102
{ACAD_REACTORS
330
C54
102
}
330
C54
100
AcDbDictionary
281
     1
  3
2713557663472
350
C4F
  3
2713557663488
350
C50
  3
2713557663504
350
C51
  3
2713557663520
350
C52
  3
2713557663536
350
C53
  0
XRECORD
  5
5C
102
{ACAD_REACTORS
330
77D
102
}
330
77D
100
AcDbXrecord
280
     1
310
0000AC02000400000013000000000000000000000000000000000000000000000000000000000000000000000000000000000000000000000000000000000000000000000000000000000000000000000000000000000000000000000000000000000000000000000000000000000000000000000000000000000000000000
310
00000000000000000000000000000000000000000000000000000000000000000000000000000000000000000000000000000000000000000000000000000000000000000000000000000000000000000000000000000000000000000000000000000000000000000000000000000000000000000000000000000000000000
310
00000000000000000000000000000000000000000000000000000000000000000000000000000000000000000000000000000000000000000000000000000000000000000000000000000000000000000000000000000000000000000000000000000000000000000000000000000000000000000000000000000000000000
310
00000000000000000000000000000000000000000000000000000000000000000000000000000000000000000000000000000000000000000000000000000000000000000000000000000000000000000000000000000000000000000000000000000000000000000000000000000000000000000000000000000000000000
310
00000000000000000000000000000000000000000000000000000000000000000000000000000000000000000000000000000000000000000000000000000000000000000000000000000000000000000000000000000000000000000000000000000000000000000000000000000000000000000000000000000000000000
310
00000000000000000000000000000000000000000000000000000000000000000000000000000000000000000000000000000000000000000000000000000000000000000000000000000000000000000000000000000000000000000000000000000000000000000000000000000000000000000000000000000000000000
310
00000000000000000000000000000000000000000000000000000000000000000000000000000000000000000000000000000000000000000000000000000000000000000000000000000000000000000000000000000000000000000000000000000000000000000000000000000000000000000000000000000000000000
310
00000000000000000000000000000000000000000000000000000000000000000000000000000000000000000000000000000000000000000000000000000000000000000000000000000000000000000000000000000000000000000000000000000000000000000000000000000000000000000000000000000000000000
310
00000000000000000000000000000000000000000000000000000000000000000000000000000000000000000000000000000000000000000000000000000000000000000000000000000000000000000000000000000000000000000000000000000000000000000000000000000000000000000000000000000000000000
310
00000000000000000000000000000000000000000000000000000000000000000000000000000000000000000000000000000000000000000000000000000000000000000000000000000000000000000000000000000000000000000000000000000000000000000000000000000000000000000000000000000000000000
310
000000000000000000000000000000000000000000000000000000000000000000000000000000000000000000000000000000000000000000000000000000000000000000000000000000000000000000000000000000000000000000000000000000000000
  0
DICTIONARY
  5
C59
330
7A4
100
AcDbDictionary
280
     1
281
     1
  3
ACAD_XREC_ROUNDTRIP
360
C5A
  0
DICTIONARY
  5
5D5
330
5D4
100
AcDbDictionary
280
     1
281
     1
  0
DICTIONARY
  5
5D0
330
5CE
100
AcDbDictionary
280
     1
281
     1
  0
DICTIONARY
  5
5FA
330
5F9
100
AcDbDictionary
280
     1
281
     1
  3
BUMPTILE
360
5FB
  3
DIFFUSETILE
360
5FC
  3
OPACITYTILE
360
5FD
  3
REFLECTIONTILE
360
5FE
  3
REFRACTIONTILE
360
5FF
  3
SPECULARTILE
360
600
  0
DICTIONARY
  5
5F2
330
5F1
100
AcDbDictionary
280
     1
281
     1
  3
BUMPTILE
360
5F3
  3
DIFFUSETILE
360
5F4
  3
OPACITYTILE
360
5F5
  3
REFLECTIONTILE
360
5F6
  3
REFRACTIONTILE
360
5F7
  3
SPECULARTILE
360
5F8
  0
DICTIONARY
  5
5AF
330
5AD
100
AcDbDictionary
280
     1
281
     1
  3
BUMPTILE
360
5B0
  3
DIFFUSETILE
360
5B1
  3
OPACITYTILE
360
5B2
  3
REFLECTIONTILE
360
5B3
  3
REFRACTIONTILE
360
5B4
  3
SPECULARTILE
360
5B5
  0
DICTIONARY
  5
C57
330
7A2
100
AcDbDictionary
280
     1
281
     1
  3
ACAD_XREC_ROUNDTRIP
360
C58
  0
DICTIONARY
  5
619
330
618
100
AcDbDictionary
280
     1
281
     1
  3
ACAD_ROUNDTRIP_2008_TABLESTYLE_CELLSTYLEMAP
360
C4D
  0
XRECORD
  5
C4F
102
{ACAD_REACTORS
330
C55
102
}
330
C55
100
AcDbXrecord
280
     1
  1
AcDb_Thumbnail_Schema
102
{ATTRRECORD
341
C50
  2
AcDbDs::TreatedAsObjectData
280
     1
291
     1
102
ATTRRECORD}
102
{ATTRRECORD
341
C51
  2
AcDbDs::Legacy
280
     1
291
     1
102
ATTRRECORD}
  2
AcDbDs::ID
280
    10
 91
        8
102
{ATTRRECORD
341
C52
  2
AcDs:Indexable
280
     1
291
     1
102
ATTRRECORD}
102
{ATTRRECORD
341
C53
  2
AcDbDs::HandleAttribute
280
     7
282
     1
102
ATTRRECORD}
  2
Thumbnail_Data
280
    15
 91
        0
  0
XRECORD
  5
C50
102
{ACAD_REACTORS
330
C55
102
}
330
C55
100
AcDbXrecord
280
     1
  1
AcDbDs::TreatedAsObjectDataSchema
  2
AcDbDs::TreatedAsObjectData
280
     1
 91
        0
  0
XRECORD
  5
C51
102
{ACAD_REACTORS
330
C55
102
}
330
C55
100
AcDbXrecord
280
     1
  1
AcDbDs::LegacySchema
  2
AcDbDs::Legacy
280
     1
 91
        0
  0
XRECORD
  5
C52
102
{ACAD_REACTORS
330
C55
102
}
330
C55
100
AcDbXrecord
280
     1
  1
AcDbDs::IndexedPropertySchema
  2
AcDs:Indexable
280
     1
 91
        0
  0
XRECORD
  5
C53
102
{ACAD_REACTORS
330
C55
102
}
330
C55
100
AcDbXrecord
280
     1
  1
AcDbDs::HandleAttributeSchema
  2
AcDbDs::HandleAttribute
280
     7
 91
        1
284
     1
  0
XRECORD
  5
C5A
102
{ACAD_REACTORS
330
C59
102
}
330
C59
100
AcDbXrecord
280
     1
102
DISPLAYNAME
  1
Imperial24
102
FLAGS
 90
        0
  0
XRECORD
  5
5FB
102
{ACAD_REACTORS
330
5FA
102
}
330
5FA
100
AcDbXrecord
280
     1
270
     1
271
     1
  0
XRECORD
  5
5FC
102
{ACAD_REACTORS
330
5FA
102
}
330
5FA
100
AcDbXrecord
280
     1
270
     1
271
     1
  0
XRECORD
  5
5FD
102
{ACAD_REACTORS
330
5FA
102
}
330
5FA
100
AcDbXrecord
280
     1
270
     1
271
     1
  0
XRECORD
  5
5FE
102
{ACAD_REACTORS
330
5FA
102
}
330
5FA
100
AcDbXrecord
280
     1
270
     1
271
     1
  0
XRECORD
  5
5FF
102
{ACAD_REACTORS
330
5FA
102
}
330
5FA
100
AcDbXrecord
280
     1
270
     1
271
     1
  0
XRECORD
  5
600
102
{ACAD_REACTORS
330
5FA
102
}
330
5FA
100
AcDbXrecord
280
     1
270
     1
271
     1
  0
XRECORD
  5
5F3
102
{ACAD_REACTORS
330
5F2
102
}
330
5F2
100
AcDbXrecord
280
     1
270
     1
271
     1
  0
XRECORD
  5
5F4
102
{ACAD_REACTORS
330
5F2
102
}
330
5F2
100
AcDbXrecord
280
     1
270
     1
271
     1
  0
XRECORD
  5
5F5
102
{ACAD_REACTORS
330
5F2
102
}
330
5F2
100
AcDbXrecord
280
     1
270
     1
271
     1
  0
XRECORD
  5
5F6
102
{ACAD_REACTORS
330
5F2
102
}
330
5F2
100
AcDbXrecord
280
     1
270
     1
271
     1
  0
XRECORD
  5
5F7
102
{ACAD_REACTORS
330
5F2
102
}
330
5F2
100
AcDbXrecord
280
     1
270
     1
271
     1
  0
XRECORD
  5
5F8
102
{ACAD_REACTORS
330
5F2
102
}
330
5F2
100
AcDbXrecord
280
     1
270
     1
271
     1
  0
XRECORD
  5
5B0
102
{ACAD_REACTORS
330
5AF
102
}
330
5AF
100
AcDbXrecord
280
     1
270
     1
271
     1
  0
XRECORD
  5
5B1
102
{ACAD_REACTORS
330
5AF
102
}
330
5AF
100
AcDbXrecord
280
     1
270
     1
271
     1
  0
XRECORD
  5
5B2
102
{ACAD_REACTORS
330
5AF
102
}
330
5AF
100
AcDbXrecord
280
     1
270
     1
271
     1
  0
XRECORD
  5
5B3
102
{ACAD_REACTORS
330
5AF
102
}
330
5AF
100
AcDbXrecord
280
     1
270
     1
271
     1
  0
XRECORD
  5
5B4
102
{ACAD_REACTORS
330
5AF
102
}
330
5AF
100
AcDbXrecord
280
     1
270
     1
271
     1
  0
XRECORD
  5
5B5
102
{ACAD_REACTORS
330
5AF
102
}
330
5AF
100
AcDbXrecord
280
     1
270
     1
271
     1
  0
XRECORD
  5
C58
102
{ACAD_REACTORS
330
C57
102
}
330
C57
100
AcDbXrecord
280
     1
102
DISPLAYNAME
  1
Imperial24
102
FLAGS
 90
        0
  0
CELLSTYLEMAP
  5
C4D
102
{ACAD_REACTORS
330
619
102
}
330
619
100
AcDbCellStyleMap
 90
        3
300
CELLSTYLE
  1
TABLEFORMAT_BEGIN
 90
        5
170
     1
 91
        0
 92
    32768
 62
   257
 93
        1
300
CONTENTFORMAT
  1
CONTENTFORMAT_BEGIN
 90
        0
 91
        0
 92
        4
 93
        0
300

 40
0.0
140
1.0
 94
        5
 62
     0
340
5DD
144
0.25
309
CONTENTFORMAT_END
171
     0
 94
        6
 95
        1
302
GRIDFORMAT
  1
GRIDFORMAT_BEGIN
 90
        0
 91
        1
 62
     0
 92
       -2
340
0
 93
        0
 40
0.045
309
GRIDFORMAT_END
 95
        2
302
GRIDFORMAT
  1
GRIDFORMAT_BEGIN
 90
        0
 91
        1
 62
     0
 92
       -2
340
0
 93
        0
 40
0.045
309
GRIDFORMAT_END
 95
        4
302
GRIDFORMAT
  1
GRIDFORMAT_BEGIN
 90
        0
 91
        1
 62
     0
 92
       -2
340
0
 93
        0
 40
0.045
309
GRIDFORMAT_END
 95
        8
302
GRIDFORMAT
  1
GRIDFORMAT_BEGIN
 90
        0
 91
        1
 62
     0
 92
       -2
340
0
 93
        0
 40
0.045
309
GRIDFORMAT_END
 95
       16
302
GRIDFORMAT
  1
GRIDFORMAT_BEGIN
 90
        0
 91
        1
 62
     0
 92
       -2
340
0
 93
        0
 40
0.045
309
GRIDFORMAT_END
 95
       32
302
GRIDFORMAT
  1
GRIDFORMAT_BEGIN
 90
        0
 91
        1
 62
     0
 92
       -2
340
0
 93
        0
 40
0.045
309
GRIDFORMAT_END
309
TABLEFORMAT_END
  1
CELLSTYLE_BEGIN
 90
        1
 91
        1
300
_TITLE
309
CELLSTYLE_END
300
CELLSTYLE
  1
TABLEFORMAT_BEGIN
 90
        5
170
     1
 91
        0
 92
        0
 62
   257
 93
        1
300
CONTENTFORMAT
  1
CONTENTFORMAT_BEGIN
 90
        0
 91
        0
 92
        4
 93
        0
300

 40
0.0
140
1.0
 94
        5
 62
     0
340
5DD
144
0.18
309
CONTENTFORMAT_END
171
     0
 94
        6
 95
        1
302
GRIDFORMAT
  1
GRIDFORMAT_BEGIN
 90
        0
 91
        1
 62
     0
 92
       -2
340
0
 93
        0
 40
0.045
309
GRIDFORMAT_END
 95
        2
302
GRIDFORMAT
  1
GRIDFORMAT_BEGIN
 90
        0
 91
        1
 62
     0
 92
       -2
340
0
 93
        0
 40
0.045
309
GRIDFORMAT_END
 95
        4
302
GRIDFORMAT
  1
GRIDFORMAT_BEGIN
 90
        0
 91
        1
 62
     0
 92
       -2
340
0
 93
        0
 40
0.045
309
GRIDFORMAT_END
 95
        8
302
GRIDFORMAT
  1
GRIDFORMAT_BEGIN
 90
        0
 91
        1
 62
     0
 92
       -2
340
0
 93
        0
 40
0.045
309
GRIDFORMAT_END
 95
       16
302
GRIDFORMAT
  1
GRIDFORMAT_BEGIN
 90
        0
 91
        1
 62
     0
 92
       -2
340
0
 93
        0
 40
0.045
309
GRIDFORMAT_END
 95
       32
302
GRIDFORMAT
  1
GRIDFORMAT_BEGIN
 90
        0
 91
        1
 62
     0
 92
       -2
340
0
 93
        0
 40
0.045
309
GRIDFORMAT_END
309
TABLEFORMAT_END
  1
CELLSTYLE_BEGIN
 90
        2
 91
        1
300
_HEADER
309
CELLSTYLE_END
300
CELLSTYLE
  1
TABLEFORMAT_BEGIN
 90
        5
170
     1
 91
        0
 92
        0
 62
   257
 93
        1
300
CONTENTFORMAT
  1
CONTENTFORMAT_BEGIN
 90
        0
 91
        0
 92
        4
 93
        0
300

 40
0.0
140
1.0
 94
        2
 62
     0
340
5DD
144
0.18
309
CONTENTFORMAT_END
171
     0
 94
        6
 95
        1
302
GRIDFORMAT
  1
GRIDFORMAT_BEGIN
 90
        0
 91
        1
 62
     0
 92
       -2
340
0
 93
        0
 40
0.045
309
GRIDFORMAT_END
 95
        2
302
GRIDFORMAT
  1
GRIDFORMAT_BEGIN
 90
        0
 91
        1
 62
     0
 92
       -2
340
0
 93
        0
 40
0.045
309
GRIDFORMAT_END
 95
        4
302
GRIDFORMAT
  1
GRIDFORMAT_BEGIN
 90
        0
 91
        1
 62
     0
 92
       -2
340
0
 93
        0
 40
0.045
309
GRIDFORMAT_END
 95
        8
302
GRIDFORMAT
  1
GRIDFORMAT_BEGIN
 90
        0
 91
        1
 62
     0
 92
       -2
340
0
 93
        0
 40
0.045
309
GRIDFORMAT_END
 95
       16
302
GRIDFORMAT
  1
GRIDFORMAT_BEGIN
 90
        0
 91
        1
 62
     0
 92
       -2
340
0
 93
        0
 40
0.045
309
GRIDFORMAT_END
 95
       32
302
GRIDFORMAT
  1
GRIDFORMAT_BEGIN
 90
        0
 91
        1
 62
     0
 92
       -2
340
0
 93
        0
 40
0.045
309
GRIDFORMAT_END
309
TABLEFORMAT_END
  1
CELLSTYLE_BEGIN
 90
        3
 91
        2
300
_DATA
309
CELLSTYLE_END
  0
ENDSEC
  0
SECTION
  2
ACDSDATA
 70
     2
 71
     8
  0
ACDSSCHEMA
 90
        0
  1
AcDb_Thumbnail_Schema
  2
AcDbDs::ID
280
    10
 91
        8
  2
Thumbnail_Data
280
    15
 91
        0
101
ACDSRECORD
 95
        0
 90
        1
  2
AcDbDs::TreatedAsObjectData
280
     1
291
     1
101
ACDSRECORD
 95
        0
 90
        2
  2
AcDbDs::Legacy
280
     1
291
     1
101
ACDSRECORD
  1
AcDbDs::ID
 90
        3
  2
AcDs:Indexable
280
     1
291
     1
101
ACDSRECORD
  1
AcDbDs::ID
 90
        4
  2
AcDbDs::HandleAttribute
280
     7
282
     1
  0
ACDSSCHEMA
 90
        1
  1
AcDbDs::TreatedAsObjectDataSchema
  2
AcDbDs::TreatedAsObjectData
280
     1
 91
        0
  0
ACDSSCHEMA
 90
        2
  1
AcDbDs::LegacySchema
  2
AcDbDs::Legacy
280
     1
 91
        0
  0
ACDSSCHEMA
 90
        3
  1
AcDbDs::IndexedPropertySchema
  2
AcDs:Indexable
280
     1
 91
        0
  0
ACDSSCHEMA
 90
        4
  1
AcDbDs::HandleAttributeSchema
  2
AcDbDs::HandleAttribute
280
     7
 91
        1
284
     1
  0
ACDSRECORD
 90
        0
  2
AcDbDs::ID
280
    10
320
5D4
  2
Thumbnail_Data
280
    15
 94
     1183
310
89504E470D0A1A0A0000000D4948445200000100000000C508030000008CFEDCE700000300504C5445FFFFFF000000FFFFFF0000000000000000000000000000000000000000000000000000330000660000990000CC0000FF0033000033330033660033990033CC0033FF0066000066330066660066990066CC0066FF0099
310
000099330099660099990099CC0099FF00CC0000CC3300CC6600CC9900CCCC00CCFF00FF0000FF3300FF6600FF9900FFCC00FFFF3300003300333300663300993300CC3300FF3333003333333333663333993333CC3333FF3366003366333366663366993366CC3366FF3399003399333399663399993399CC3399FF33CC00
310
33CC3333CC6633CC9933CCCC33CCFF33FF0033FF3333FF6633FF9933FFCC33FFFF6600006600336600666600996600CC6600FF6633006633336633666633996633CC6633FF6666006666336666666666996666CC6666FF6699006699336699666699996699CC6699FF66CC0066CC3366CC6666CC9966CCCC66CCFF66FF0066
310
FF3366FF6666FF9966FFCC66FFFF9900009900339900669900999900CC9900FF9933009933339933669933999933CC9933FF9966009966339966669966999966CC9966FF9999009999339999669999999999CC9999FF99CC0099CC3399CC6699CC9999CCCC99CCFF99FF0099FF3399FF6699FF9999FFCC99FFFFCC0000CC00
310
33CC0066CC0099CC00CCCC00FFCC3300CC3333CC3366CC3399CC33CCCC33FFCC6600CC6633CC6666CC6699CC66CCCC66FFCC9900CC9933CC9966CC9999CC99CCCC99FFCCCC00CCCC33CCCC66CCCC99CCCCCCCCCCFFCCFF00CCFF33CCFF66CCFF99CCFFCCCCFFFFFF0000FF0033FF0066FF0099FF00CCFF00FFFF3300FF3333
310
FF3366FF3399FF33CCFF33FFFF6600FF6633FF6666FF6699FF66CCFF66FFFF9900FF9933FF9966FF9999FF99CCFF99FFFFCC00FFCC33FFCC66FFCC99FFCCCCFFCCFFFFFF00FFFF33FFFF66FFFF99FFFFCCFFFFFF0000000D0D0D1A1A1A2828283535354343435050505D5D5D6B6B6B787878868686939393A1A1A1AEAEAEBB
310
BBBBC9C9C9D6D6D6E4E4E4F1F1F1FFFFFF000000000000000000000000000000000000000000000000000000000000790CAC0F0000015A4944415478DAEDD8410A8340100440FFFFCCF9C09EE61E104224896014844D579F64F420A587DE592A3A632CD5C101100F500500C0F36ACDF6D636BFCEEBAEF9E9177D0788FBF600
310
000000000000004D1000000000000000100F50FB4F4C9E8B5578FAFF0300000000000000000000000000000000B00BD069000D0000000000000000A009020000000000000000000000000000000052013A0DA001000000000000000000A8C2000000000000000000000000000000402A40FC420400000000000000002016C0
310
5900000000000000000000000000000000C803885F88000000000000000000C402380B0000000000000000000000000000000000E2003A0DA0010000000000000000344100000000000000000000000000000000C0E7C660F21C04080D0000000000000000C01F54DE73151900000000000000D0AFCDCFB6227CDDAB1C9CD7
310
5DF3D32FAA0902000000C00A109E658C110DF0000E6CC6FBCCF8EC2E0000000049454E44AE426082
  0
ACDSRECORD
 90
        0
  2
AcDbDs::ID
280
    10
320
5CE
  2
Thumbnail_Data
280
    15
 94
     1017
310
89504E470D0A1A0A0000000D4948445200000100000000890803000000F46416F000000300504C5445FEFCF0000000FFFFFF0000000000000000000000000000000000000000000000000000330000660000990000CC0000FF0033000033330033660033990033CC0033FF0066000066330066660066990066CC0066FF0099
310
000099330099660099990099CC0099FF00CC0000CC3300CC6600CC9900CCCC00CCFF00FF0000FF3300FF6600FF9900FFCC00FFFF3300003300333300663300993300CC3300FF3333003333333333663333993333CC3333FF3366003366333366663366993366CC3366FF3399003399333399663399993399CC3399FF33CC00
310
33CC3333CC6633CC9933CCCC33CCFF33FF0033FF3333FF6633FF9933FFCC33FFFF6600006600336600666600996600CC6600FF6633006633336633666633996633CC6633FF6666006666336666666666996666CC6666FF6699006699336699666699996699CC6699FF66CC0066CC3366CC6666CC9966CCCC66CCFF66FF0066
310
FF3366FF6666FF9966FFCC66FFFF9900009900339900669900999900CC9900FF9933009933339933669933999933CC9933FF9966009966339966669966999966CC9966FF9999009999339999669999999999CC9999FF99CC0099CC3399CC6699CC9999CCCC99CCFF99FF0099FF3399FF6699FF9999FFCC99FFFFCC0000CC00
310
33CC0066CC0099CC00CCCC00FFCC3300CC3333CC3366CC3399CC33CCCC33FFCC6600CC6633CC6666CC6699CC66CCCC66FFCC9900CC9933CC9966CC9999CC99CCCC99FFCCCC00CCCC33CCCC66CCCC99CCCCCCCCCCFFCCFF00CCFF33CCFF66CCFF99CCFFCCCCFFFFFF0000FF0033FF0066FF0099FF00CCFF00FFFF3300FF3333
310
FF3366FF3399FF33CCFF33FFFF6600FF6633FF6666FF6699FF66CCFF66FFFF9900FF9933FF9966FF9999FF99CCFF99FFFFCC00FFCC33FFCC66FFCC99FFCCCCFFCCFFFFFF00FFFF33FFFF66FFFF99FFFFCCFFFFFF0000000D0D0D1A1A1A2828283535354343435050505D5D5D6B6B6B787878868686939393A1A1A1AEAEAEBB
310
BBBBC9C9C9D6D6D6E4E4E4F1F1F1FFFFFF0000000000000000000000000000000000000000000000000000000000007C77BAA7000000B44944415478DAEDD0310100000C0220FBB7B48931760C22903E1701020408102040800001020408102040800001020408102040800001020408102040800001020408102040800001
310
020408102040800001020408102040800001020408102040800001020408102040800001020408102040800001020408102040800001020408102040800001020408102040800001020408102040800001020408102040800001020408102040800001020408102040C099016B33700943E05F3C0000000049454E44AE4260
310
82
  0
ENDSEC
  0
SECTION
  2
THUMBNAILIMAGE
 90
    14496
310
28000000B80000004900000001000800000000007834000001000000010000000001000000000000FFFFFF008888880040404000F8F8F800FFFFFF00FFFFFF00FFFFFF00FFFFFF00FFFFFF00FFFFFF00FFFFFF00FFFFFF00FFFFFFFEFFFFFF80FFFFFF00FFFFFF00FFFFFFFEFFFFFF80FFFFFF00FFFFFF00FFFFFF00FFFFFF
310
00FFFFFF00FFFFFF00FFFFFF00FFFFFF00FFFFFF00FFFFFF00FFFFFF00FFFFFF00FFFFFF00FFFFFF00FFFFFFFEFFFFFF80FFFFFF00FFFFFF00FFFFFF00FFFFFF00FFFFFF00FFFFFF00FFFFFFFEFFFFFF80FFFFFF5DFFFFFF00FFFFFF5DFFFFFF00FFFFFF5DFFFFFF00FFFFFF5DFFFFFF00FFFFFF5DFFFFFF00FFFFFFFEFFFF
310
FF80FFFFFF00FFFFFF00FFFFFF00FFFFFF00FFFFFFC0FFFFFF00FFFFFF00FFFFFF00FFFFFF00FFFFFF00FFFFFFFEFFFFFF80FFFFFF63FFFFFF00FFFFFF00FFFFFF00FFFFFF00FFFFFF00FFFFFFFEFFFFFF80FFFFFF00FFFFFF00FFFFFF00FFFFFF3FFFFFFF00FFFFFF00FFFFFF00FFFFFF00FFFFFF00FFFFFF00FFFFFFCCFF
310
FFFF00FFFFFF00FFFFFF00FFFFFFFEFFFFFF80FFFFFF00FFFFFF00FFFFFFFEFFFFFF80FFFFFF00FFFFFF00FFFFFF00FFFFFF00FFFFFF00FFFFFF00FFFFFF00FFFFFF00FFFFFF00FFFFFF00FFFFFF00FFFFFF00FFFFFF00FFFFFF00FFFFFF00FFFFFF00FFFFFF00FFFFFF00FFFFFFFEFFFFFF80FFFFFF00FFFFFF00FFFFFF00
310
FFFFFF00FFFFFF00FFFFFF00FFFFFF00FFFFFF00FFFFFF00FFFFFF00FFFFFF00FFFFFF00FFFFFF00FFFFFF00FFFFFF00FFFFFF00FFFFFF00FFFFFF00FFFFFFFEFFFFFF80FFFFFF1DFFFFFF00FFFFFFFEFFFFFF80FFFFFF00FFFFFF00FFFFFF00FFFFFF00FFFFFF00FFFFFF00FFFFFF00FFFFFF00FFFFFF00FFFFFF00FFFFFF
310
00FFFFFF00FFFFFF00FFFFFF00FFFFFFFEFFFFFF80FFFFFF00FFFFFF00FFFFFF00FFFFFF00FFFFFF00FFFFFF00FFFFFFFEFFFFFF80FFFFFF63FFFFFF00FFFFFF00FFFFFF00FFFFFF00FFFFFF00FFFFFF00FFFFFF00FFFFFF00FFFFFF00FFFFFFFEFFFFFF80FFFFFF00FFFFFF00FFFFFF00FFFFFF00FFFFFF00FFFFFF00FFFF
310
FFCCFFFFFF00FFFFFF73FFFFFF00FFFFFFFEFFFFFF80FFFFFF5DFFFFFF00FFFFFF5DFFFFFF00FFFFFF5DFFFFFF00FFFFFFFEFFFFFF80FFFFFF5DFFFFFF00FFFFFF00FFFFFF00FFFFFF00FFFFFF00FFFFFF00FFFFFF00FFFFFFB7FFFFFF00FFFFFF00FFFFFF00FFFFFF00FFFFFF00FFFFFFFEFFFFFF80FFFFFF00FFFFFF00FF
310
FFFFFEFFFFFF80FFFFFF00FFFFFF00FFFFFF00FFFFFF00FFFFFF00FFFFFF00FFFFFF00FFFFFF00FFFFFF00FFFFFF00FFFFFF00FFFFFF00FFFFFF00FFFFFF00FFFFFF00FFFFFF00FFFFFF00FFFFFF00FFFFFFFEFFFFFF80FFFFFF5DFFFFFF00FFFFFF5DFFFFFF00FFFFFF5DFFFFFF00FFFFFF5DFFFFFF00FFFFFF5DFFFFFF00
310
FFFFFF00FFFFFF00FFFFFF00FFFFFF00FFFFFF00FFFFFF00FFFFFFC0FFFFFF00FFFFFFFEFFFFFF80FFFFFF00FFFFFF0000000000000000000000000000000000000000000000000000000000000000000000000000000000000000000000000000000000000000000000000000000000000000000000000000000000000000
310
00000000000000000000000000000000000000000000000000000000000000000000000000000000000000000000000000000000000000000000000000000000000000000000000000000000000000000000000000000000000000000000000000000000000000000000000000000000000000000000000000000000000000
310
00000000000000000000000000000000000000000000000000000000000000000000000000000000000000000000000000000000000000000000000000000000000000000000000000000000000000000000000000000000000000000000000000000000000000000000000000000000000000000000000000000000000000
310
00000000000000000000000000000000000000000000000000000000000000000000000000000000000000000000000000000000000000000000000000000000000000000000000000000000000000000000000000000000000000000000000000000000000000000000000000000000000000000303030303030303030303
310
03030300000000000000000000000000000000000000000000000000000000000000000000000000000000000000000000000000000000000000000000000000000000000000000000000000000000000000000000000000000000000000000000000000000000000000000000000000000000000000000000000000000000
310
00000000000000000000000000000000000000000000000000000000000000000000000000000002030300030303000000000000000000000000000003030303030302000000000000000000000000000000000000000000000000000000000000000000000000000000000000000000000000000000000000000000000000
310
00000000000000000000000000000000000000000000000000000000000000000000000000000000000000000000000000000000000000000000000000000000000000000000000000000000000000000000000000000000000000000000030303000000000000000000000000000000000000000000000000000003030300
310
00000000000000000000000000000000000000000000000000000000000000000000000000000000000000000000000000000000000000000000000000000000000000000000000000000000000000000000000000000000000000000000000000000000000000000000000000000000000000000000000000000000000000
310
00000000000000000000000000000000000000000001030300000200000000000000000000000000000000000000000000000000000200000303010000000000000000000000000000000000000000000000000000000000000000000000000000000000000000000000000000000000000000000000000000000000000000
310
00000000000000000000000000000000000000000000000000000000000000000000000000000000000000000000000000000000000000000000000000000000000000000000000000000000010303010000000000000000000000000000000000000000000000000000000000000000000001030301000000000000000000
310
00000000000000000000000000000000000000000000000000000000000000000000000000000000000000000000000000000000000000000000000000000000000000000000000000000000000000000000000000000000000000000000000000000000000000000000000000000000000000000000000000000000000000
310
00000000000103010000000000000000000000000000000000000000000000000000000000000000000000000000010301000000000000000000000000000000000000000000000000000000000000000000000000000000000000000000000000000000000000000000000000000000000000000000000000000000000000
310
00000000000000000000000000000000000000000000000000000000000000000000000000000000000000000000000000000000000000000000000000030301000000000000000000000000000000000000000000000000000000000000000000000000000000000103030000000000000000000000000000000000000000
310
00000000000000000000000000000000000000000000000000000000000000000000000000000000000000000000000000000000000000000000000000000000000000000000000000000000000000000000000000000000000000000000000000000000000000000000000000000000000000000000030000000000000000
310
00000000000000000000000000000000000000000000000000000000000000000000000003000000000000000000000000000000000000000000000000000000000000000000000000000000000000000000000000000000000000000000000000000000000000000000000000000000000000000000000000000000000000
310
00000000000000000000000000000000000000000000000000000000000000000000000000000000000000000000000300000000000000000000000000000000000000000000000000000000000000000000000000000000000000000000030300000000000000000000000000000000000000000000000000000000000000
310
00000000000000000000000000000000000000000000000000000000000000000000000000000000000000000000000000000000000000000000000000000000000000000000000000000000000000000000000000000000000000000000000000000000000001030000000000000000000000000000000000000000000000
310
00000000000000000000000000000000000000000000000000030100000000000000000000000000000000000000000000000000000000000000000000000000000000000000000000000000000000000000000000000000000000000000000000000000000000000000000000000000000000000000000000000000000000
310
00000000000000000000000000000000000000000000000000000000000000010301000000000000000000000000000000000000000000000000000000000000000000000000000000000000000000000000010301000000000000000000000000000000000000000000000000000000000000000000000000000000000000
310
00000000000000000000000000000000000000000000000000000000000000000000000000000000000000000000000000000000000000000000000000000000000000000000000000000000000000000000000000000000030100000000000000000000000000000000000000000000000000000000000000000000000000
310
00000000000000000000000000010300000000000000000000000000000000000000000000000000000000000000000000000000000000000000000000000000000000000000000000000000000000000000000000000000000000000000000000000000000000000000000000000000000000000000000000000000000000
310
00000000000000000000000000000000000103000000000000000000000000000000000000000000000000000000000000000000000000000000000000000000000000000000000301000000000000000000000000000000000000000000000000000000000000000000000000000000000000000000000000000000000000
310
00000000000000000000000000000000000000000000000000000000000000000000000000000000000000000000000000000000000000000000000000000000000000000000000000010301000000000000000000000000000000000000000000000000000000000000000000000000000000000000000000000000000000
310
00010301000000000000000000000000000000000000000000000000000000000000000000000000000000000000000000000000000000000000000000000000000000000000000000000000000000000000000000000000000000000000000000000000000000000000000000000000000000000000000000000000000000
310
00000003010000000000000000000000000000000000000000000000000000000000000000000000000000000000000000000000000000000000000103000000000000000000000000000000000000000000000000000000000000000000000000000000000000000000000000000000000000000000000000000000000000
310
00000000000000000000000000000000000000000000000000000000000000000000000000000000000000000000000000000000000000000000000103000000000000000000000000000000000000000000000000000000000000000000000000000000000000000000000000000000000000000003010000000000000000
310
00000000000000000000000000000000000000000000000000000000000000000000000000000000000000000000000000000000000000000000000000000000000000000000000000000000000000000000000000000000000000000000000000000000000000000000000000000000000000000301000000000000000000
310
00000000000000000000000000000000000000000000000000000000000000000000000000000000000000000000000103000000000000000000000000000000000000000000000000000000000000000000000000000000000000000000000000000000000000000000000000000000000000000000000000000000000000
310
00000000000000000000000000000000000000000000000000000000000000000000000000000000000000000000030000000000000000000000000000000000000000000000000000000000000000000000000000000000000000000000000000000000000000000003000000000000000000000000000000000000000000
310
00000000000000000000000000000000000000000000000000000000000000000000000000000000000000000000000000000000000000000000000000000000000000000000000000000000000000000000000000000000000000000000000000000000000203020000000000000000000000000000000000000000000000
310
00000000000000000000000000000000000000000000000000000000000000000000000203020000000000000000000000000000000000000000000000000000000000000000000000000000000000000000000000000000000000000000000000000000000000000000000000000000000000000000000000000000000000
310
00000000000000000000000000000000000000000000000000000000000000000000000000000000000000000000000000000000000000000000000000000000000000000000000000000000000000000000000000000000000000000003000000000000000000000000000000000000000000000000000000000000000000
310
00000000000000000000000000000000000000000000000000000000000000000000000000000000000000000000000000000000000000000000000000000000000000000000000000000000000000000000000000000000000300000000000000000000000000000000000000000000000000000000000000000000000000
310
00000000000000000000000000000000000000000000000300000000000000000000000000000000000000000000000000000000000000000000000000000000000000000000000000000000000000000000000000000000000000000000000000000000000000000000000000000000000000000000000000000000000000
310
00000000000000000000000000000000000000030000000000000000000000000000000000000000000000000000000000000000000000000000000000000000000000000000000000000000000000000300000000000000000000000000000000000000000000000000000000000000000000000000000000000000000000
310
00000000000000000000000000000000000000000000000000000000000000000000000000000000000000000000000000000000000000000000000000000000000000000000000000000003000000000000000000000000000000000000000000000000000000000000000000000000000000000000000000000000000000
310
00000000000000000000000300000000000000000000000000000000000000000000000000000000000000000000000000000000000000000000000000000000000000000000000000000000000000000000000000000000000000000000000000000000000000000000000000000000000000000000000000000000000000
310
00000000000300000000000000000000000000000000000000000000000000000000000000000000000000000000000000000000000000000000000000000000000000000300000000000000000000000000000000000000000000000000000000000000000000000000000000000000000000000000000000000000000000
310
00000000000000000000000000000000000000000000000000000000000000000000000000000000000000000000000000000000000000000000000000000300000000000000000000000000000000000000000000000000000000000000000000000000000000000000000000000000000000000000000000000000000300
310
00000000000000000000000000000000000000000000000000000000000000000000000000000000000000000000000000000000000000000000000000000000000000000000000000000000000000000000000000000000000000000000000000000000000000000000000000000000000000000000000300000000000000
310
00000000000000000000000000000000000000000000000000000000000000000000000000000000000000000000000000000000000000030000000000000000000000000000000000000000000000000000000000000000000000000000000000000000000000000000000000000000000000000000000000000000000000
310
00000000000000000000000000000000000000000000000000000000000000000000000000000000000000000000000000030000000000000000000000000000000000000000000000000003030000000000000000030300000000000000000000000000000000000000000000000000030000000000000000000000000000
310
00000000000000000000000000000000000000000000000000000000000000000000000000000000000000000000000000000000000000000000000000000000000000000000000000000000000000000000000000000000000000000000000000000000000000000000000000000000000000000000000000000000000000
310
00000000000303000000000000000003030000000000000000000000000000000000000000000000000003000000000000000000000000000000000000000000000000000000000000000000000000000000000000000000000000000000000000000000000000000000000000000000000000000000000000000000000000
310
00000000000000000000000000000000000000000000000000000000000000000000000003000000000000000000000000000000000000000000000000000303000000000000000003030000000000000000000000000000000000000000000000000003000000000000000000000000000000000000000000000000000000
310
00000000000000000000000000000000000000000000000000000000000000000000000000000000000000000000000000000000000000000000000000000000000000000000000000000000000000000000000000000000000000000003000000000000000000000000000000000000000000000000000303000000000000
310
00000303000000000000000000000000000000000000000000000000000300000000000000000000000000000000000000000000000000000000000000000000000000000000000000000000000000000000000000000000000000000000000000000000000000000000000000000000000000000000000000000000000000
310
00000000000000000000000000000000000000000000000300000000000000000000000000000000000000000000000000030300000000000000000303000000000000000000000000000000000000000000000000000300000000000000000000000000000000000000000000000000000000000000000000000000000000
310
00000000000000000000000000000000000000000000000000000000000000000000000000000000000000000000000000000000000000000000000000000000000000000000000000000000000000000300000000000000000000000000000000000000000000000000030300000000000000000303000000000000000000
310
00000000000000000000000000000000030000000000000000000000000000000000000000000000000000000000000000000000000000000000000000000000000000000000000000000000000000000000000000000000000000000000000000000000000000000000000000000000000000000000000000000000000000
310
00000000000000000000030000000000000000000000000000000000000000000000000003030300000000000003030300000000000000000000000000000000000000000000000000030000000000000000000000000000000000000000000000000000000000000000000000000000000000000000000000000000000000
310
00000000000000000000000000000000000000000000000000000000000000000000000000000000000000000000000000000000000000000000000000000000000000030000000000000000000000000000000000000000000000000003030303030303030303030300000000000000000000000000000000000000000000
310
00000003000000000000000000000000000000000000000000000000000000000000000000000000000000000000000000000000000000000000000000000000000000000000000000000000000000000000000000000000000000000000000000000000000000000000000000000000000000000000000000000000030000
310
00000000000000000000000000000000000000000000000303000000000000000003030000000000000000000000000000000000000000000000000003000000000000000000000000000000000000000000000000000000000000000000000000000000000000000000000000000000000000000000000000000000000000
310
00000000000000000000000000000000000000000000000000000000000000000000000000000000000000000000000000000000000003000000000000000000000000000000000000000000000000000303000000000000000003030000000000000000000000000000000000000000000000000003000000000000000000
310
00000000000000000000000000000000000000000000000000000000000000000000000000000000000000000000000000000000000000000000000000000000000000000000000000000000000000000000000000000000000000000000000000000000000000000000000000000003000000000000000000000000000000
310
00000000000000000000030300000000000000000303000000000000000000000000000000000000000000000000000300000000000000000000000000000000000000000000000000000000000000000000000000000000000000000000000000000000000000000000000000000000000000000000000000000000000000
310
00000000000000000000000000000000000000000000000000000000000000000000000000000000000300000000000000000000000000000000000000000000000000030300000000000000000303000000000000000000000000000000000000000000000000000300000000000000000000000000000000000000000000
310
00000000000000000000000000000000000000000000000000000000000000000000000000000000000000000000000000000000000000000000000000000000000000000000000000000000000000000000000000000000000000000000000000000300000000000000000000000000000000000000000000000000030300
310
00000000000000030300000000000000000000000000000000000000000000000000030000000000000000000000000000000000000000000000000000000000000000000000000000000000000000000000000000000000000000000000000000000000000000000000000000000000000000000000000000000000000000
310
00000000000000000000000000000000000000000000000000000000030000000000000000000000000000000000000000000000000003030000000000000000030300000000000000000000000000000000000000000000000000030000000000000000000000000000000000000000000000000000000000000000000000
310
00000000000000000000000000000000000000000000000000000000000000000000000000000000000000000000000000000000000000000000000000000000000000000000000000000000000000000000000000030000000000000000000000000000000000000000000000000003030000000000000000030300000000
310
00000000000000000000000000000000000000000003000000000000000000000000000000000000000000000000000000000000000000000000000000000000000000000000000000000000000000000000000000000000000000000000000000000000000000000000000000000000000000000000000000000000000000
310
00000000000000000000000000000003000000000000000000000000000000000000000000000000000303000000000000000003030000000000000000000000000000000000000000000000000003000000000000000000000000000000000000000000000000000000000000000000000000000000000000000000000000
310
00000000000000000000000000000000000000000000000000000000000000000000000000000000000000000000000000000000000000000000000000000000000000000000000003000000000000000000000000000000000000000000000000000303030303030303030303030000000000000000000000000000000000
310
00000000000000000300000000000000000000000000000000000000000000000000000000000000000000000000000000000000000000000000000000000000000000000000000000000000000000000000000000000000000000000000000000000000000000000000000000000000000000000000000000000000000000
310
00000300000000000000000000000000000000000000000000000000030303030303030303030303000000000000000000000000000000000000000000000000000300000000000000000000000000000000000000000000000000000000000000000000000000000000000000000000000000000000000000000000000000
310
00000000000000000000000000000000000000000000000000000000000000000000000000000000000000000000000000000000000000000000000300000000000000000000000000000000000000000000000000000000000000000000000000000000000000000000000000000000000000000000000000000300000000
310
00000000000000000000000000000000000000000000000000000000000000000000000000000000000000000000000000000000000000000000000000000000000000000000000000000000000000000000000000000000000000000000000000000000000000000000000000000000000000000300000000000000000000
310
00000000000000000000000000000000000000000000000000000000000000000000000000000000000000000000000000000000030000000000000000000000000000000000000000000000000000000000000000000000000000000000000000000000000000000000000000000000000000000000000000000000000000
310
00000000000000000000000000000000000000000000000000000000000000000000000000000000000000000000030000000000000000000000000000000000000000000000000000000000000000000000000000000000000000000000000000000000000000000000000000030000000000000000000000000000000000
310
00000000000000000000000000000000000000000000000000000000000000000000000000000000000000000000000000000000000000000000000000000000000000000000000000000000000000000000000000000000000000000000000000000000000000030000000000000000000000000000000000000000000000
310
00000000000000000000000000000000000000000000000000000000000000000000000000000003000000000000000000000000000000000000000000000000000000000000000000000000000000000000000000000000000000000000000000000000000000000000000000000000000000000000000000000000000000
310
00000000000000000000000000000000000000000000000000000000000000000000000000000000000000000000000000000000000000000000000000000000000000000000000000000000000000000000000000000000000000000000000300000000000000000000000000000000000000000000000000000000000000
310
00000000000000000000000000000000000000000000000000000000000000000000000000000000000000000000000000000000000000000000000000000000000000000000000000000000000000000000000000000000000000030000000000000000000000000000000000000000000000000000000000000000000000
310
00000000000000000000000000000000000000000000000000030000000000000000000000000000000000000000000000000000000000000000000000000000000000000000000000000000000000000000000000000000000000000000000000000000000000000000000000000000000000000000000000000000000000
310
00000000000000000000000000000000000000000003000000000000000000000000000000000000000000000000000000000000000000000000000000000000000000000000000000000000000000000000030000000000000000000000000000000000000000000000000000000000000000000000000000000000000000
310
00000000000000000000000000000000000000000000000000000000000000000000000000000000000000000000000000000000000000000000000000000000000000000000000000000000000203020000000000000000000000000000000000000000000000000000000000000000000000000000000000000000000000
310
00000000000000000000000203020000000000000000000000000000000000000000000000000000000000000000000000000000000000000000000000000000000000000000000000000000000000000000000000000000000000000000000000000000000000000000000000000000000000000000000000000000000000
310
00000000000000000003000000000000000000000000000000000000000000000000000000000000000000000000000000000000000000000000000000000000000000000300000000000000000000000000000000000000000000000000000000000000000000000000000000000000000000000000000000000000000000
310
00000000000000000000000000000000000000000000000000000000000000000000000000000000000000000000000000000000000000000000000000000000000003000000000000000000000000000000000000000000000000000000000000000000000000000000000000000000000000000000000000000000000300
310
00000000000000000000000000000000000000000000000000000000000000000000000000000000000000000000000000000000000000000000000000000000000000000000000000000000000000000000000000000000000000000000000000000000000000000000000000000000000000000000000000000003010000
310
00000000000000000000000000000000000000000000000000000000000000000000000000000000000000000000000000000000000001030000000000000000000000000000000000000000000000000000000000000000000000000000000000000000000000000000000000000000000000000000000000000000000000
310
00000000000000000000000000000000000000000000000000000000000000000000000000000000000000000000000000000000000103010000000000000000000000000000000000000000000000000000000000000000000000000000000000000000000000000000000000000103010000000000000000000000000000
310
00000000000000000000000000000000000000000000000000000000000000000000000000000000000000000000000000000000000000000000000000000000000000000000000000000000000000000000000000000000000000000000000000000000000000000000000000000001030000000000000000000000000000
310
00000000000000000000000000000000000000000000000000000000000000000000000000000000030100000000000000000000000000000000000000000000000000000000000000000000000000000000000000000000000000000000000000000000000000000000000000000000000000000000000000000000000000
310
00000000000000000000000000000000000000000000000000000000000000000000000000000000000003010000000000000000000000000000000000000000000000000000000000000000000000000000000000000000000000000000000001030000000000000000000000000000000000000000000000000000000000
310
00000000000000000000000000000000000000000000000000000000000000000000000000000000000000000000000000000000000000000000000000000000000000000000000000000000000000000000000000000000000000000000000000000001030100000000000000000000000000000000000000000000000000
310
00000000000000000000000000000000000000000000000000010301000000000000000000000000000000000000000000000000000000000000000000000000000000000000000000000000000000000000000000000000000000000000000000000000000000000000000000000000000000000000000000000000000000
310
00000000000000000000000000000000000000000000000000000000000001030000000000000000000000000000000000000000000000000000000000000000000000000000000000000000000000000000030100000000000000000000000000000000000000000000000000000000000000000000000000000000000000
310
00000000000000000000000000000000000000000000000000000000000000000000000000000000000000000000000000000000000000000000000000000000000000000000000000000000000000000000000000000000030100000000000000000000000000000000000000000000000000000000000000000000000000
310
00000000000000000000000103000000000000000000000000000000000000000000000000000000000000000000000000000000000000000000000000000000000000000000000000000000000000000000000000000000000000000000000000000000000000000000000000000000000000000000000000000000000000
310
00000000000000000000000000000000000001030000000000000000000000000000000000000000000000000000000000000000000000000000000000000000000000000301000000000000000000000000000000000000000000000000000000000000000000000000000000000000000000000000000000000000000000
310
00000000000000000000000000000000000000000000000000000000000000000000000000000000000000000000000000000000000000000000000000000000000000000000000000000000000303000000000000000000000000000000000000000000000000000000000000000000000000000000000000000003030000
310
00000000000000000000000000000000000000000000000000000000000000000000000000000000000000000000000000000000000000000000000000000000000000000000000000000000000000000000000000000000000000000000000000000000000000000000000000000000000000000000000000000000000000
310
00000000000000000303010000000000000000000000000000000000000000000000000000000000000000000000000000000001030300000000000000000000000000000000000000000000000000000000000000000000000000000000000000000000000000000000000000000000000000000000000000000000000000
310
00000000000000000000000000000000000000000000000000000000000000000000000000000000000000000000000000000000000000000000000000000000000001030000000000000000000000000000000000000000000000000000000000000000000000000000000003010000000000000000000000000000000000
310
00000000000000000000000000000000000000000000000000000000000000000000000000000000000000000000000000000000000000000000000000000000000000000000000000000000000000000000000000000000000000000000000000000000000000000000000000000000000000000000000000000000030303
310
01000000000000000000000000000000000000000000000000000000000000000000000103030300000000000000000000000000000000000000000000000000000000000000000000000000000000000000000000000000000000000000000000000000000000000000000000000000000000000000000000000000000000
310
00000000000000000000000000000000000000000000000000000000000000000000000000000000000000000000000000000000000000000103010000000000000000000000000000000000000000000000000000000000000000010301000000000000000000000000000000000000000000000000000000000000000000
310
00000000000000000000000000000000000000000000000000000000000000000000000000000000000000000000000000000000000000000000000000000000000000000000000000000000000000000000000000000000000000000000000000000000000000000000000000000000000001030303020000000000000000
310
00000000000000000000000000000000000002030303010000000000000000000000000000000000000000000000000000000000000000000000000000000000000000000000000000000000000000000000000000000000000000000000000000000000000000000000000000000000000000000000000000000000000000
310
00000000000000000000000000000000000000000000000000000000000000000000000000000000000000000000000003030300000000000000000000000000000000000000000000030303000000000000000000000000000000000000000000000000000000000000000000000000000000000000000000000000000000
310
00000000000000000000000000000000000000000000000000000000000000000000000000000000000000000000000000000000000000000000000000000000000000000000000000000000000000000000000000000000000000000000000000000000000000000002000003030303030303030303030303030303030303
310
03030000000200000000000000000000000000000000000000000000000000000000000000000000000000000000000000000000000000000000000000000000000000000000000000000000000000000000000000000000000000000000000000000000000000000000000000000000000000000000000000000000000000
310
00000000000000000000000000000000000000000000000000000000000000000000000000000000000000000000000000000000000000000000000000000000000000000000000000000000000000000000000000000000000000000000000000000000000000000000000000000000000000000000000000000000000000
310
000000000000000000000000000000000000
  0
ENDSEC
  0
EOF
