  0
SECTION
  2
HEADER
  9
$ACADVER
  1
AC1027
  9
$ACADMAINTVER
 70
   125
  9
$DWGCODEPAGE
  3
ANSI_1252
  9
$AUTHOR
  1
WAEngineering2
  9
$LASTSAVEDBY
  1
WAEngineering2
  9
$CUSTOMPROPERTYTAG
  1
BentleyWorkSetProperties
  9
$CUSTOMPROPERTY
  1
02050000000B000000540200000000000000000200000057006F0072006B005300650074004E0061006D00650000000000000001000109040000000200000000000000000000000100000057006F0072006B005300650074004400650073006300720069007000740069006F006E0000000000000001000109080000000000000000000000000000000200000057006F0072006B00530070006100630065004E0061006D006500000000000000010001090C0000000200000000000000000000000400000043006F006E006E00650063007400500072006F006A006500630074004700550049004400000000000000010001091000000000000000000000000000000008000000500072006F006A00650063007400410073007300650074005400790070006500000000000000010001091400000000000000000000000000000010000000500072006F006A0065006300740049006E00640075007300740072007900000000000000010001091800000000000000000000000000000020000000500072006F006A006500630074004C006F0063006100740069006F006E00000000000000010001091C00000000000000000000000000000040000000500072006F006A006500630074004E0075006D00620065007200000000000000010001092000000000000000000000000000000080000000500072006F006A00650063007400530074006100740075007300000000000000010001092400000000000000000000000000000000010000500072006F006A006500630074004E0061006D00650000000000000001000109280000000000000000000000000000000002000031010000000000050002FCFFFF300000004A0000004A0000005A000000A4000000D2000000F4000000F600000004010000120100002C0100004D006500740072006F00530074006100740069006F006E0000004500780061006D0070006C0065000000350039003800370063003200620065002D0066003000660064002D0034003300660038002D0039006100610031002D00620039003100360035006200350030003400650032003300000050006C006100740066006F0072006D007300200061006E0064002000530074006100740069006F006E00730000005200610069006C00200061006E00640020005400720061006E0073006900740000000000310030003000310030003000000041006300740069007600650000004D006500740072006F00530074006100740069006F006E000000
  9
$REQUIREDVERSIONS
160
                 0
  9
$INSBASE
 10
0.0
 20
0.0
 30
0.0
  9
$EXTMIN
 10
0.9903
 20
0.6746
 30
0.0
  9
$EXTMAX
 10
5.4604
 20
6.0138
 30
0.0
  9
$LIMMIN
 10
-10.701437
 20
-10.582587
  9
$LIMMAX
 10
17.152137
 20
17.270987
  9
$ORTHOMODE
 70
     0
  9
$REGENMODE
 70
     1
  9
$FILLMODE
 70
     1
  9
$QTEXTMODE
 70
     0
  9
$MIRRTEXT
 70
     0
  9
$LTSCALE
 40
1.0
  9
$ATTMODE
 70
     1
  9
$TEXTSIZE
 40
0.25
  9
$TRACEWID
 40
0.05
  9
$TEXTSTYLE
  7
Standard
  9
$CLAYER
  8
0
  9
$CELTYPE
  6
ByLayer
  9
$CECOLOR
 62
   256
  9
$CELTSCALE
 40
1.0
  9
$DISPSILH
 70
     0
  9
$DIMSCALE
 40
1.0
  9
$DIMASZ
 40
0.25
  9
$DIMEXO
 40
0.125
  9
$DIMDLI
 40
0.0
  9
$DIMRND
 40
0.0
  9
$DIMDLE
 40
0.0
  9
$DIMEXE
 40
0.125
  9
$DIMTP
 40
0.0
  9
$DIMTM
 40
0.0
  9
$DIMTXT
 40
0.25
  9
$DIMCEN
 40
0.0
  9
$DIMTSZ
 40
0.0
  9
$DIMTOL
 70
     0
  9
$DIMLIM
 70
     0
  9
$DIMTIH
 70
     0
  9
$DIMTOH
 70
     0
  9
$DIMSE1
 70
     0
  9
$DIMSE2
 70
     0
  9
$DIMTAD
 70
     1
  9
$DIMZIN
 70
     8
  9
$DIMBLK
  1
TerminatorOpen_0.5
  9
$DIMASO
 70
     1
  9
$DIMSHO
 70
     1
  9
$DIMPOST
  1

  9
$DIMAPOST
  1

  9
$DIMALT
 70
     0
  9
$DIMALTD
 70
     4
  9
$DIMALTF
 40
1.0
  9
$DIMLFAC
 40
1.0
  9
$DIMTOFL
 70
     0
  9
$DIMTVP
 40
0.0
  9
$DIMTIX
 70
     0
  9
$DIMSOXD
 70
     0
  9
$DIMSAH
 70
     0
  9
$DIMBLK1
  1

  9
$DIMBLK2
  1

  9
$DIMSTYLE
  2
Standard
  9
$DIMCLRD
 70
     0
  9
$DIMCLRE
 70
     0
  9
$DIMCLRT
 70
     0
  9
$DIMTFAC
 40
1.0
  9
$DIMGAP
 40
0.125
  9
$DIMJUST
 70
     0
  9
$DIMSD1
 70
     0
  9
$DIMSD2
 70
     0
  9
$DIMTOLJ
 70
     1
  9
$DIMTZIN
 70
     8
  9
$DIMALTZ
 70
    12
  9
$DIMALTTZ
 70
    12
  9
$DIMUPT
 70
     0
  9
$DIMDEC
 70
     4
  9
$DIMTDEC
 70
     0
  9
$DIMALTU
 70
     2
  9
$DIMALTTD
 70
     0
  9
$DIMTXSTY
  7
Style-Arial
  9
$DIMAUNIT
 70
     0
  9
$DIMADEC
 70
     4
  9
$DIMALTRND
 40
0.0
  9
$DIMAZIN
 70
     3
  9
$DIMDSEP
 70
     0
  9
$DIMATFIT
 70
     1
  9
$DIMFRAC
 70
     2
  9
$DIMLDRBLK
  1
TerminatorOpen_0.5
  9
$DIMLUNIT
 70
     2
  9
$DIMLWD
 70
    -2
  9
$DIMLWE
 70
    -2
  9
$DIMTMOVE
 70
     0
  9
$DIMFXL
 40
1.0
  9
$DIMFXLON
 70
     0
  9
$DIMJOGANG
 40
0.785398
  9
$DIMTFILL
 70
     0
  9
$DIMTFILLCLR
 70
     0
  9
$DIMARCSYM
 70
     0
  9
$DIMLTYPE
  6
ByBlock
  9
$DIMLTEX1
  6
ByBlock
  9
$DIMLTEX2
  6
ByBlock
  9
$DIMTXTDIRECTION
 70
     0
  9
$LUNITS
 70
     2
  9
$LUPREC
 70
     3
  9
$SKETCHINC
 40
0.1
  9
$FILLETRAD
 40
0.0
  9
$AUNITS
 70
     0
  9
$AUPREC
 70
     3
  9
$MENU
  1
.
  9
$ELEVATION
 40
0.0
  9
$PELEVATION
 40
0.0
  9
$THICKNESS
 40
0.0
  9
$LIMCHECK
 70
     0
  9
$CHAMFERA
 40
0.0
  9
$CHAMFERB
 40
0.0
  9
$CHAMFERC
 40
0.0
  9
$CHAMFERD
 40
0.0
  9
$SKPOLY
 70
     0
  9
$TDCREATE
 40
2454145.111354167
  9
$TDUCREATE
 40
2454144.778024017
  9
$TDUPDATE
 40
2459864.581597222
  9
$TDUUPDATE
 40
2459864.248263889
  9
$TDINDWG
 40
0.0058506366
  9
$TDUSRTIMER
 40
0.0058504514
  9
$USRTIMER
 70
     1
  9
$ANGBASE
 50
0.0
  9
$ANGDIR
 70
     0
  9
$PDMODE
 70
     0
  9
$PDSIZE
 40
0.0
  9
$PLINEWID
 40
0.0
  9
$SPLFRAME
 70
     0
  9
$SPLINETYPE
 70
     6
  9
$SPLINESEGS
 70
     8
  9
$HANDSEED
  5
101E
  9
$SURFTAB1
 70
     6
  9
$SURFTAB2
 70
     6
  9
$SURFTYPE
 70
     6
  9
$SURFU
 70
     6
  9
$SURFV
 70
     6
  9
$UCSBASE
  2

  9
$UCSNAME
  2

  9
$UCSORG
 10
0.0
 20
0.0
 30
0.0
  9
$UCSXDIR
 10
1.0
 20
0.0
 30
0.0
  9
$UCSYDIR
 10
0.0
 20
1.0
 30
0.0
  9
$UCSORTHOREF
  2

  9
$UCSORTHOVIEW
 70
     0
  9
$UCSORGTOP
 10
0.0
 20
0.0
 30
0.0
  9
$UCSORGBOTTOM
 10
0.0
 20
0.0
 30
0.0
  9
$UCSORGLEFT
 10
0.0
 20
0.0
 30
0.0
  9
$UCSORGRIGHT
 10
0.0
 20
0.0
 30
0.0
  9
$UCSORGFRONT
 10
0.0
 20
0.0
 30
0.0
  9
$UCSORGBACK
 10
0.0
 20
0.0
 30
0.0
  9
$PUCSBASE
  2

  9
$PUCSNAME
  2

  9
$PUCSORG
 10
0.0
 20
0.0
 30
0.0
  9
$PUCSXDIR
 10
1.0
 20
0.0
 30
0.0
  9
$PUCSYDIR
 10
0.0
 20
1.0
 30
0.0
  9
$PUCSORTHOREF
  2

  9
$PUCSORTHOVIEW
 70
     0
  9
$PUCSORGTOP
 10
0.0
 20
0.0
 30
0.0
  9
$PUCSORGBOTTOM
 10
0.0
 20
0.0
 30
0.0
  9
$PUCSORGLEFT
 10
0.0
 20
0.0
 30
0.0
  9
$PUCSORGRIGHT
 10
0.0
 20
0.0
 30
0.0
  9
$PUCSORGFRONT
 10
0.0
 20
0.0
 30
0.0
  9
$PUCSORGBACK
 10
0.0
 20
0.0
 30
0.0
  9
$USERI1
 70
     0
  9
$USERI2
 70
     0
  9
$USERI3
 70
     0
  9
$USERI4
 70
     0
  9
$USERI5
 70
     0
  9
$USERR1
 40
0.0
  9
$USERR2
 40
0.0
  9
$USERR3
 40
0.0
  9
$USERR4
 40
0.0
  9
$USERR5
 40
0.0
  9
$WORLDVIEW
 70
     1
  9
$SHADEDGE
 70
     3
  9
$SHADEDIF
 70
    70
  9
$TILEMODE
 70
     1
  9
$MAXACTVP
 70
    64
  9
$PINSBASE
 10
0.0
 20
0.0
 30
0.0
  9
$PLIMCHECK
 70
     0
  9
$PEXTMIN
 10
1.05
 20
0.8
 30
0.0
  9
$PEXTMAX
 10
9.45
 20
7.2
 30
0.0
  9
$PLIMMIN
 10
-0.25
 20
-0.25
  9
$PLIMMAX
 10
10.75
 20
8.25
  9
$UNITMODE
 70
     0
  9
$VISRETAIN
 70
     1
  9
$PLINEGEN
 70
     0
  9
$PSLTSCALE
 70
     0
  9
$TREEDEPTH
 70
  3020
  9
$CMLSTYLE
  2
Standard
  9
$CMLJUST
 70
     0
  9
$CMLSCALE
 40
1.0
  9
$PROXYGRAPHICS
 70
     1
  9
$MEASUREMENT
 70
     0
  9
$CELWEIGHT
370
    -1
  9
$ENDCAPS
280
     0
  9
$JOINSTYLE
280
     0
  9
$LWDISPLAY
290
     1
  9
$INSUNITS
 70
     6
  9
$HYPERLINKBASE
  1

  9
$STYLESHEET
  1

  9
$XEDIT
290
     1
  9
$CEPSNTYPE
380
     0
  9
$PSTYLEMODE
290
     1
  9
$FINGERPRINTGUID
  2
{3C494EF1-3E99-F544-8EE9-11EEF8B809CE}
  9
$VERSIONGUID
  2
{38E7CD85-556C-4D6E-9C4C-B935CE7E055D}
  9
$EXTNAMES
290
     1
  9
$PSVPSCALE
 40
0.0
  9
$OLESTARTUP
290
     0
  9
$SORTENTS
280
   127
  9
$INDEXCTL
280
     0
  9
$HIDETEXT
280
     1
  9
$XCLIPFRAME
280
     0
  9
$HALOGAP
280
     0
  9
$OBSCOLOR
 70
   257
  9
$OBSLTYPE
280
     0
  9
$INTERSECTIONDISPLAY
280
     0
  9
$INTERSECTIONCOLOR
 70
   257
  9
$DIMASSOC
280
     2
  9
$PROJECTNAME
  1

  9
$CAMERADISPLAY
290
     0
  9
$LENSLENGTH
 40
50.0
  9
$CAMERAHEIGHT
 40
0.0
  9
$STEPSPERSEC
 40
2.0
  9
$STEPSIZE
 40
6.0
  9
$3DDWFPREC
 40
2.0
  9
$PSOLWIDTH
 40
0.25
  9
$PSOLHEIGHT
 40
4.0
  9
$LOFTANG1
 40
1.570796
  9
$LOFTANG2
 40
1.570796
  9
$LOFTMAG1
 40
0.0
  9
$LOFTMAG2
 40
0.0
  9
$LOFTPARAM
 70
     7
  9
$LOFTNORMALS
280
     1
  9
$LATITUDE
 40
37.795
  9
$LONGITUDE
 40
-122.394
  9
$NORTHDIRECTION
 40
0.0
  9
$TIMEZONE
 70
 -8000
  9
$LIGHTGLYPHDISPLAY
280
     1
  9
$TILEMODELIGHTSYNCH
280
     1
  9
$CMATERIAL
347
961
  9
$SOLIDHIST
280
     1
  9
$SHOWHIST
280
     1
  9
$DWFFRAME
280
     2
  9
$DGNFRAME
280
     0
  9
$REALWORLDSCALE
290
     1
  9
$INTERFERECOLOR
 62
     1
  9
$INTERFEREOBJVS
345
98A
  9
$INTERFEREVPVS
346
98B
  9
$CSHADOW
280
     0
  9
$SHADOWPLANELOCATION
 40
0.0
  0
ENDSEC
  0
SECTION
  2
CLASSES
  0
CLASS
  1
ACDBDICTIONARYWDFLT
  2
AcDbDictionaryWithDefault
  3
ObjectDBX Classes
 90
        0
 91
        1
280
     0
281
     0
  0
CLASS
  1
DICTIONARYVAR
  2
AcDbDictionaryVar
  3
ObjectDBX Classes
 90
        0
 91
        9
280
     0
281
     0
  0
CLASS
  1
TABLESTYLE
  2
AcDbTableStyle
  3
ObjectDBX Classes
 90
     4095
 91
        1
280
     0
281
     0
  0
CLASS
  1
MATERIAL
  2
AcDbMaterial
  3
ObjectDBX Classes
 90
     1153
 91
        3
280
     0
281
     0
  0
CLASS
  1
VISUALSTYLE
  2
AcDbVisualStyle
  3
ObjectDBX Classes
 90
     4095
 91
       24
280
     0
281
     0
  0
CLASS
  1
SCALE
  2
AcDbScale
  3
ObjectDBX Classes
 90
     1153
 91
       33
280
     0
281
     0
  0
CLASS
  1
MLEADERSTYLE
  2
AcDbMLeaderStyle
  3
ACDB_MLEADERSTYLE_CLASS
 90
     4095
 91
        1
280
     0
281
     0
  0
CLASS
  1
EXACXREFPANELOBJECT
  2
ExAcXREFPanelObject
  3
EXAC_ESW
 90
     1025
 91
        0
280
     1
281
     0
  0
CLASS
  1
NPOCOLLECTION
  2
AcDbImpNonPersistentObjectsCollection
  3
ObjectDBX Classes
 90
     1153
 91
        0
280
     0
281
     0
  0
CLASS
  1
CELLSTYLEMAP
  2
AcDbCellStyleMap
  3
ObjectDBX Classes
 90
     1152
 91
        1
280
     0
281
     0
  0
CLASS
  1
ACDBSECTIONVIEWSTYLE
  2
AcDbSectionViewStyle
  3
ObjectDBX Classes
 90
     1025
 91
        1
280
     0
281
     0
  0
CLASS
  1
ACDBDETAILVIEWSTYLE
  2
AcDbDetailViewStyle
  3
ObjectDBX Classes
 90
     1025
 91
        1
280
     0
281
     0
  0
CLASS
  1
SORTENTSTABLE
  2
AcDbSortentsTable
  3
ObjectDBX Classes
 90
        0
 91
        1
280
     0
281
     0
  0
ENDSEC
  0
SECTION
  2
TABLES
  0
TABLE
  2
VPORT
  5
955
330
0
100
AcDbSymbolTable
 70
     1
1001
ACAD
1000
DbSaveVer
1071
      253
  0
VPORT
  5
4B
330
955
100
AcDbSymbolTableRecord
100
AcDbViewportTableRecord
  2
*ACTIVE
 70
     0
 10
0.0
 20
0.0
 11
1.0
 21
1.0
 12
3.367325
 22
3.285864
 13
0.0
 23
0.0
 14
0.1
 24
0.1
 15
1.0
 25
1.0
 16
0.0
 26
0.0
 36
1.0
 17
0.0
 27
0.0
 37
0.0
 40
5.669271
 41
2.437741
 42
50.0
 43
0.0
 44
0.0
 50
0.0
 51
0.0
 71
     0
 72
 20000
 73
     1
 74
     1
 75
     0
 76
     0
 77
     0
 78
     1
281
     0
 65
     1
110
0.0
120
0.0
130
0.0
111
1.0
121
0.0
131
0.0
112
0.0
122
1.0
132
0.0
 79
     0
146
0.0
348
957
 60
     3
 61
    10
292
     0
282
     1
141
0.0
142
0.0
 63
     7
421
 16777215
  0
ENDTAB
  0
TABLE
  2
LTYPE
  5
950
330
0
100
AcDbSymbolTable
 70
     2
  0
LTYPE
  5
951
330
950
100
AcDbSymbolTableRecord
100
AcDbLinetypeTableRecord
  2
ByBlock
 70
     0
  3

 72
    65
 73
     0
 40
0.0
  0
LTYPE
  5
952
330
950
100
AcDbSymbolTableRecord
100
AcDbLinetypeTableRecord
  2
ByLayer
 70
     0
  3

 72
    65
 73
     0
 40
0.0
  0
LTYPE
  5
926
330
950
100
AcDbSymbolTableRecord
100
AcDbLinetypeTableRecord
  2
Continuous
 70
     0
  3
Solid line
 72
    65
 73
     0
 40
0.0
  0
LTYPE
  5
AF1
330
950
100
AcDbSymbolTableRecord
100
AcDbLinetypeTableRecord
  2
DGN Style 2
 70
     0
  3
Dgn Style 2
 72
    65
 73
     2
 40
0.138202
 49
0.082921
 74
     0
 49
-0.055281
 74
     0
  0
ENDTAB
  0
TABLE
  2
LAYER
  5
947
102
{ACAD_XDICTIONARY
360
948
102
}
330
0
100
AcDbSymbolTable
 70
   323
  0
LAYER
  5
917
102
{ACAD_XDICTIONARY
360
918
102
}
330
947
100
AcDbSymbolTableRecord
100
AcDbLayerTableRecord
  2
0
 70
     0
 62
     7
  6
Continuous
370
    -3
390
91A
347
91D
348
0
1001
AcCmTransparency
1071
 33554687
  0
LAYER
  5
97F
330
947
100
AcDbSymbolTableRecord
100
AcDbLayerTableRecord
  2
Level 1
 70
     0
 62
     7
  6
Continuous
370
     0
390
91A
347
91D
348
0
1001
AcCmTransparency
1071
 33554687
  0
LAYER
  5
598
330
947
100
AcDbSymbolTableRecord
100
AcDbLayerTableRecord
  2
Level 14
 70
     0
 62
     7
  6
Continuous
370
     0
390
91A
347
91D
348
0
1001
AcAecLayerStandard
1000

1000
Fall Zone Individual
1001
AcCmTransparency
1071
 33554687
  0
LAYER
  5
599
330
947
100
AcDbSymbolTableRecord
100
AcDbLayerTableRecord
  2
ninja1 - Level 26
 70
     0
 62
     7
  6
Continuous
370
     0
390
91A
347
91D
348
0
1001
AcAecLayerStandard
1000

1000
Assemblies - Colour Locked
1001
AcCmTransparency
1071
 33554687
  0
LAYER
  5
911
330
947
100
AcDbSymbolTableRecord
100
AcDbLayerTableRecord
  2
ninja1 - Level 25
 70
     0
 62
     7
  6
Continuous
370
     0
390
91A
347
91D
348
0
1001
AcAecLayerStandard
1000

1000
Assemblies - Base
1001
AcCmTransparency
1071
 33554687
  0
ENDTAB
  0
TABLE
  2
STYLE
  5
94C
330
0
100
AcDbSymbolTable
 70
     3
  0
STYLE
  5
94D
330
94C
100
AcDbSymbolTableRecord
100
AcDbTextStyleTableRecord
  2
Standard
 70
     0
 40
0.0
 41
1.0
 50
0.0
 71
     0
 42
0.25
  3
txt.shx
  4

1001
AcadAnnotative
1000
AnnotativeData
1002
{
1070
     1
1070
     1
1002
}
  0
STYLE
  5
980
330
94C
100
AcDbSymbolTableRecord
100
AcDbTextStyleTableRecord
  2
Style-STANDARD
 70
     0
 40
0.0
 41
1.0
 50
0.0
 71
     0
 42
3.5
  3
STANDARD.shx
  4

1001
AcadAnnotative
1000
AnnotativeData
1002
{
1070
     1
1070
     1
1002
}
  0
STYLE
  5
AEE
330
94C
100
AcDbSymbolTableRecord
100
AcDbTextStyleTableRecord
  2
Style-Arial
 70
     0
 40
0.0
 41
1.0
 50
0.0
 71
     0
 42
0.25
  3
arial.ttf
  4

1001
ACAD
1000
Arial
1071
       39
  0
ENDTAB
  0
TABLE
  2
VIEW
  5
953
330
0
100
AcDbSymbolTable
 70
     0
  0
ENDTAB
  0
TABLE
  2
UCS
  5
954
330
0
100
AcDbSymbolTable
 70
     0
  0
ENDTAB
  0
TABLE
  2
APPID
  5
959
330
0
100
AcDbSymbolTable
 70
     6
  0
APPID
  5
95A
330
959
100
AcDbSymbolTableRecord
100
AcDbRegAppTableRecord
  2
ACAD
 70
     0
  0
APPID
  5
946
330
959
100
AcDbSymbolTableRecord
100
AcDbRegAppTableRecord
  2
ACAD_PSEXT
 70
     0
  0
APPID
  5
927
330
959
100
AcDbSymbolTableRecord
100
AcDbRegAppTableRecord
  2
AcCmTransparency
 70
     0
  0
APPID
  5
94E
330
959
100
AcDbSymbolTableRecord
100
AcDbRegAppTableRecord
  2
AcadAnnotative
 70
     0
  0
APPID
  5
92C
330
959
100
AcDbSymbolTableRecord
100
AcDbRegAppTableRecord
  2
MStation
 70
     0
  0
APPID
  5
AEC
330
959
100
AcDbSymbolTableRecord
100
AcDbRegAppTableRecord
  2
AcAecLayerStandard
 70
     0
  0
ENDTAB
  0
TABLE
  2
DIMSTYLE
  5
95B
330
0
100
AcDbSymbolTable
 70
     1
100
AcDbDimStyleTable
 71
     1
340
95C
  0
DIMSTYLE
105
95C
330
95B
100
AcDbSymbolTableRecord
100
AcDbDimStyleTableRecord
  2
Standard
 70
     0
 42
0.0625
 44
0.18
 78
     3
272
     0
274
     0
278
     0
284
     3
285
     3
286
     3
289
     1
340
94D
345
926
346
926
347
926
  0
ENDTAB
  0
TABLE
  2
BLOCK_RECORD
  5
912
330
0
100
AcDbSymbolTable
 70
     6
  0
BLOCK_RECORD
  5
913
102
{ACAD_XDICTIONARY
360
914
102
}
330
912
100
AcDbSymbolTableRecord
100
AcDbBlockTableRecord
  2
*Model_Space
340
93E
 70
     0
280
     1
281
     0
  0
BLOCK_RECORD
  5
941
330
912
100
AcDbSymbolTableRecord
100
AcDbBlockTableRecord
  2
*Paper_Space
340
944
 70
     0
280
     1
281
     0
  0
BLOCK_RECORD
  5
981
330
912
100
AcDbSymbolTableRecord
100
AcDbBlockTableRecord
  2
TerminatorOpen_0.5
340
0
 70
     0
280
     1
281
     0
  0
ENDTAB
  0
ENDSEC
  0
SECTION
  2
BLOCKS
  0
BLOCK
  5
916
330
913
100
AcDbEntity
  8
0
100
AcDbBlockBegin
  2
*Model_Space
 70
     0
 10
0.0
 20
0.0
 30
0.0
  3
*Model_Space
  1

  0
ENDBLK
  5
93D
330
913
100
AcDbEntity
  8
0
100
AcDbBlockEnd
  0
BLOCK
  5
942
330
941
100
AcDbEntity
 67
     1
  8
0
100
AcDbBlockBegin
  2
*Paper_Space
 70
     0
 10
0.0
 20
0.0
 30
0.0
  3
*Paper_Space
  1

  0
ENDBLK
  5
943
330
941
100
AcDbEntity
 67
     1
  8
0
100
AcDbBlockEnd
  0
BLOCK
  5
982
330
981
100
AcDbEntity
  8
0
 62
     7
370
    30
100
AcDbBlockBegin
  2
TerminatorOpen_0.5
 70
     0
 10
0.0
 20
0.0
 30
0.0
  3
TerminatorOpen_0.5
  1

  0
LINE
  5
983
330
981
100
AcDbEntity
  8
0
  6
ByBlock
 62
     0
370
    -2
100
AcDbLine
 10
0.0
 20
0.0
 30
0.0
 11
-1.0
 21
0.0
 31
0.0
  0
LINE
  5
984
330
981
100
AcDbEntity
  8
0
  6
ByBlock
 62
     0
370
    -2
100
AcDbLine
 10
0.0
 20
0.0
 30
0.0
 11
-1.0
 21
0.25
 31
0.0
  0
LINE
  5
985
330
981
100
AcDbEntity
  8
0
  6
ByBlock
 62
     0
370
    -2
100
AcDbLine
 10
0.0
 20
0.0
 30
0.0
 11
-1.0
 21
-0.25
 31
0.0
  0
ENDBLK
  5
986
330
981
100
AcDbEntity
  8
0
 62
     7
370
    30
100
AcDbBlockEnd
  0
ENDSEC
  0
SECTION
  2
ENTITIES
  0
LWPOLYLINE
  5
5A3
330
913
100
AcDbEntity
  8
Level 14
  6
DGN Style 2
 62
     7
370
    13
100
AcDbPolyline
 90
       13
 70
   128
 43
0.0
 10
5.460369
 20
4.313717
 42
0.414214
 10
3.760369
 20
6.013717
 10
2.690369
 20
6.013717
 42
0.414214
 10
0.990369
 20
4.313717
 10
0.990369
 20
3.243717
 42
0.028647
 10
1.001512
 20
3.049398
 10
1.101512
 20
2.180283
 42
0.381045
 10
2.790369
 20
0.674602
 10
3.660369
 20
0.674602
 42
0.381045
 10
5.349227
 20
2.180283
 10
5.449227
 20
3.049398
 42
0.028647
 10
5.460369
 20
3.243717
 10
5.460369
 20
4.313717
  0
LINE
  5
5B0
330
913
100
AcDbEntity
  8
ninja1 - Level 25
  6
Continuous
 62
     7
370
    13
100
AcDbLine
 10
2.752869
 20
3.428727
 30
0.0
 11
2.752869
 21
3.411227
 31
0.0
  0
LINE
  5
5B1
330
913
100
AcDbEntity
  8
ninja1 - Level 25
  6
Continuous
 62
     7
370
    13
100
AcDbLine
 10
2.752869
 20
3.466227
 30
0.0
 11
2.752869
 21
3.448727
 31
0.0
  0
ARC
  5
5B2
330
913
100
AcDbEntity
  8
ninja1 - Level 25
  6
Continuous
 62
     7
370
    13
100
AcDbCircle
 10
-2.740369
 20
3.466227
 30
0.0
 40
0.0125
210
0.0
220
0.0
230
-1.0
100
AcDbArc
 50
2.291984
 51
180.0
  0
ARC
  5
5B3
330
913
100
AcDbEntity
  8
ninja1 - Level 25
  6
Continuous
 62
     7
370
    13
100
AcDbCircle
 10
-2.727869
 20
3.466227
 30
0.0
 40
0.0005
210
0.0
220
0.0
230
-1.0
100
AcDbArc
 50
270.0
 51
91.145992
  0
LINE
  5
5B4
330
913
100
AcDbEntity
  8
ninja1 - Level 25
  6
Continuous
 62
     7
370
    13
100
AcDbLine
 10
2.727869
 20
3.45756
 30
0.0
 11
2.727869
 21
3.465727
 31
0.0
  0
ARC
  5
5B5
330
913
100
AcDbEntity
  8
ninja1 - Level 25
  6
Continuous
 62
     7
370
    13
100
AcDbCircle
 10
-2.727869
 20
3.45706
 30
0.0
 40
0.0004999999999985
210
0.0
220
0.0
230
-1.0
100
AcDbArc
 50
270.0
 51
90.0
  0
LINE
  5
5B6
330
913
100
AcDbEntity
  8
ninja1 - Level 25
  6
Continuous
 62
     7
370
    13
100
AcDbLine
 10
2.727869
 20
3.448394
 30
0.0
 11
2.727869
 21
3.45656
 31
0.0
  0
ARC
  5
5B7
330
913
100
AcDbEntity
  8
ninja1 - Level 25
  6
Continuous
 62
     7
370
    13
100
AcDbCircle
 10
-2.727869
 20
3.447894
 30
0.0
 40
0.0004999999999985
210
0.0
220
0.0
230
-1.0
100
AcDbArc
 50
270.0
 51
90.0
  0
LINE
  5
5B8
330
913
100
AcDbEntity
  8
ninja1 - Level 25
  6
Continuous
 62
     7
370
    13
100
AcDbLine
 10
2.727869
 20
3.439227
 30
0.0
 11
2.727869
 21
3.447394
 31
0.0
  0
ARC
  5
5B9
330
913
100
AcDbEntity
  8
ninja1 - Level 25
  6
Continuous
 62
     7
370
    13
100
AcDbCircle
 10
-2.727869
 20
3.438727
 30
0.0
 40
0.0004999999999985
210
0.0
220
0.0
230
-1.0
100
AcDbArc
 50
270.0
 51
90.0
  0
LINE
  5
5BA
330
913
100
AcDbEntity
  8
ninja1 - Level 25
  6
Continuous
 62
     7
370
    13
100
AcDbLine
 10
2.727869
 20
3.43006
 30
0.0
 11
2.727869
 21
3.438227
 31
0.0
  0
ARC
  5
5BB
330
913
100
AcDbEntity
  8
ninja1 - Level 25
  6
Continuous
 62
     7
370
    13
100
AcDbCircle
 10
-2.727869
 20
3.42956
 30
0.0
 40
0.0004999999999985
210
0.0
220
0.0
230
-1.0
100
AcDbArc
 50
270.0
 51
90.0
  0
LINE
  5
5BC
330
913
100
AcDbEntity
  8
ninja1 - Level 25
  6
Continuous
 62
     7
370
    13
100
AcDbLine
 10
2.727869
 20
3.420894
 30
0.0
 11
2.727869
 21
3.42906
 31
0.0
  0
ARC
  5
5BD
330
913
100
AcDbEntity
  8
ninja1 - Level 25
  6
Continuous
 62
     7
370
    13
100
AcDbCircle
 10
-2.727869
 20
3.420394
 30
0.0
 40
0.0004999999999985
210
0.0
220
0.0
230
-1.0
100
AcDbArc
 50
270.0
 51
90.0
  0
LINE
  5
5BE
330
913
100
AcDbEntity
  8
ninja1 - Level 25
  6
Continuous
 62
     7
370
    13
100
AcDbLine
 10
2.727869
 20
3.411727
 30
0.0
 11
2.727869
 21
3.419894
 31
0.0
  0
ARC
  5
5BF
330
913
100
AcDbEntity
  8
ninja1 - Level 25
  6
Continuous
 62
     7
370
    13
100
AcDbCircle
 10
-2.727869
 20
3.411227
 30
0.0
 40
0.0005
210
0.0
220
0.0
230
-1.0
100
AcDbArc
 50
268.865461
 51
90.0
  0
LINE
  5
5C0
330
913
100
AcDbEntity
  8
ninja1 - Level 25
  6
Continuous
 62
     7
370
    13
100
AcDbLine
 10
3.697869
 20
3.428727
 30
0.0
 11
3.697869
 21
3.411227
 31
0.0
  0
LINE
  5
5C1
330
913
100
AcDbEntity
  8
ninja1 - Level 25
  6
Continuous
 62
     7
370
    13
100
AcDbLine
 10
3.697869
 20
3.466227
 30
0.0
 11
3.697869
 21
3.448727
 31
0.0
  0
ARC
  5
5C2
330
913
100
AcDbEntity
  8
ninja1 - Level 25
  6
Continuous
 62
     7
370
    13
100
AcDbCircle
 10
3.710369
 20
3.466227
 30
0.0
 40
0.0125
100
AcDbArc
 50
2.291984
 51
180.0
  0
ARC
  5
5C3
330
913
100
AcDbEntity
  8
ninja1 - Level 25
  6
Continuous
 62
     7
370
    13
100
AcDbCircle
 10
3.722869
 20
3.466227
 30
0.0
 40
0.0005
100
AcDbArc
 50
270.0
 51
91.145992
  0
LINE
  5
5C4
330
913
100
AcDbEntity
  8
ninja1 - Level 25
  6
Continuous
 62
     7
370
    13
100
AcDbLine
 10
3.722869
 20
3.45756
 30
0.0
 11
3.722869
 21
3.465727
 31
0.0
  0
ARC
  5
5C5
330
913
100
AcDbEntity
  8
ninja1 - Level 25
  6
Continuous
 62
     7
370
    13
100
AcDbCircle
 10
3.722869
 20
3.45706
 30
0.0
 40
0.0004999999999985
100
AcDbArc
 50
270.0
 51
90.0
  0
LINE
  5
5C6
330
913
100
AcDbEntity
  8
ninja1 - Level 25
  6
Continuous
 62
     7
370
    13
100
AcDbLine
 10
3.722869
 20
3.448394
 30
0.0
 11
3.722869
 21
3.45656
 31
0.0
  0
ARC
  5
5C7
330
913
100
AcDbEntity
  8
ninja1 - Level 25
  6
Continuous
 62
     7
370
    13
100
AcDbCircle
 10
3.722869
 20
3.447894
 30
0.0
 40
0.0004999999999985
100
AcDbArc
 50
270.0
 51
90.0
  0
LINE
  5
5C8
330
913
100
AcDbEntity
  8
ninja1 - Level 25
  6
Continuous
 62
     7
370
    13
100
AcDbLine
 10
3.722869
 20
3.439227
 30
0.0
 11
3.722869
 21
3.447394
 31
0.0
  0
ARC
  5
5C9
330
913
100
AcDbEntity
  8
ninja1 - Level 25
  6
Continuous
 62
     7
370
    13
100
AcDbCircle
 10
3.722869
 20
3.438727
 30
0.0
 40
0.0004999999999985
100
AcDbArc
 50
270.0
 51
90.0
  0
LINE
  5
5CA
330
913
100
AcDbEntity
  8
ninja1 - Level 25
  6
Continuous
 62
     7
370
    13
100
AcDbLine
 10
3.722869
 20
3.43006
 30
0.0
 11
3.722869
 21
3.438227
 31
0.0
  0
ARC
  5
5CB
330
913
100
AcDbEntity
  8
ninja1 - Level 25
  6
Continuous
 62
     7
370
    13
100
AcDbCircle
 10
3.722869
 20
3.42956
 30
0.0
 40
0.0004999999999985
100
AcDbArc
 50
270.0
 51
90.0
  0
LINE
  5
5CC
330
913
100
AcDbEntity
  8
ninja1 - Level 25
  6
Continuous
 62
     7
370
    13
100
AcDbLine
 10
3.722869
 20
3.420894
 30
0.0
 11
3.722869
 21
3.42906
 31
0.0
  0
ARC
  5
5CD
330
913
100
AcDbEntity
  8
ninja1 - Level 25
  6
Continuous
 62
     7
370
    13
100
AcDbCircle
 10
3.722869
 20
3.420394
 30
0.0
 40
0.0004999999999985
100
AcDbArc
 50
270.0
 51
90.0
  0
LINE
  5
5CE
330
913
100
AcDbEntity
  8
ninja1 - Level 25
  6
Continuous
 62
     7
370
    13
100
AcDbLine
 10
3.722869
 20
3.411727
 30
0.0
 11
3.722869
 21
3.419894
 31
0.0
  0
ARC
  5
5CF
330
913
100
AcDbEntity
  8
ninja1 - Level 25
  6
Continuous
 62
     7
370
    13
100
AcDbCircle
 10
3.722869
 20
3.411227
 30
0.0
 40
0.0005
100
AcDbArc
 50
268.865461
 51
90.0
  0
LINE
  5
5D0
330
913
100
AcDbEntity
  8
ninja1 - Level 26
  6
Continuous
 62
     7
370
    13
100
AcDbLine
 10
2.755369
 20
4.213717
 30
0.0
 11
2.755369
 21
4.211422
 31
0.0
  0
LINE
  5
5D1
330
913
100
AcDbEntity
  8
ninja1 - Level 26
  6
Continuous
 62
     7
370
    13
100
AcDbLine
 10
2.755369
 20
3.346011
 30
0.0
 11
2.755369
 21
3.343717
 31
0.0
  0
LINE
  5
5D2
330
913
100
AcDbEntity
  8
ninja1 - Level 26
  6
Continuous
 62
     7
370
    13
100
AcDbLine
 10
3.695369
 20
3.343717
 30
0.0
 11
3.695369
 21
3.346011
 31
0.0
  0
LINE
  5
5D3
330
913
100
AcDbEntity
  8
ninja1 - Level 26
  6
Continuous
 62
     7
370
    13
100
AcDbLine
 10
3.695369
 20
4.211422
 30
0.0
 11
3.695369
 21
4.213717
 31
0.0
  0
LINE
  5
5D4
330
913
100
AcDbEntity
  8
ninja1 - Level 26
  6
Continuous
 62
     7
370
    13
100
AcDbLine
 10
2.760369
 20
3.343717
 30
0.0
 11
2.760369
 21
3.345342
 31
0.0
  0
LINE
  5
5D5
330
913
100
AcDbEntity
  8
ninja1 - Level 26
  6
Continuous
 62
     7
370
    13
100
AcDbLine
 10
2.760369
 20
3.350342
 30
0.0
 11
2.760369
 21
3.428269
 31
0.0
  0
LINE
  5
5D6
330
913
100
AcDbEntity
  8
ninja1 - Level 26
  6
Continuous
 62
     7
370
    13
100
AcDbLine
 10
2.760369
 20
3.44918
 30
0.0
 11
2.760369
 21
3.564266
 31
0.0
  0
LINE
  5
5D7
330
913
100
AcDbEntity
  8
ninja1 - Level 26
  6
Continuous
 62
     7
370
    13
100
AcDbLine
 10
2.760369
 20
3.585178
 30
0.0
 11
2.760369
 21
3.700261
 31
0.0
  0
LINE
  5
5D8
330
913
100
AcDbEntity
  8
ninja1 - Level 26
  6
Continuous
 62
     7
370
    13
100
AcDbLine
 10
2.760369
 20
3.721173
 30
0.0
 11
2.760369
 21
3.836261
 31
0.0
  0
LINE
  5
5D9
330
913
100
AcDbEntity
  8
ninja1 - Level 26
  6
Continuous
 62
     7
370
    13
100
AcDbLine
 10
2.760369
 20
3.857173
 30
0.0
 11
2.760369
 21
3.972256
 31
0.0
  0
LINE
  5
5DA
330
913
100
AcDbEntity
  8
ninja1 - Level 26
  6
Continuous
 62
     7
370
    13
100
AcDbLine
 10
2.760369
 20
3.993168
 30
0.0
 11
2.760369
 21
4.108254
 31
0.0
  0
LINE
  5
5DB
330
913
100
AcDbEntity
  8
ninja1 - Level 26
  6
Continuous
 62
     7
370
    13
100
AcDbLine
 10
2.760369
 20
4.129165
 30
0.0
 11
2.760369
 21
4.207092
 31
0.0
  0
LINE
  5
5DC
330
913
100
AcDbEntity
  8
ninja1 - Level 26
  6
Continuous
 62
     7
370
    13
100
AcDbLine
 10
2.760369
 20
4.212092
 30
0.0
 11
2.760369
 21
4.213717
 31
0.0
  0
LINE
  5
5DD
330
913
100
AcDbEntity
  8
ninja1 - Level 26
  6
Continuous
 62
     7
370
    13
100
AcDbLine
 10
2.760369
 20
3.343717
 30
0.0
 11
2.755369
 21
3.343717
 31
0.0
  0
LINE
  5
5DE
330
913
100
AcDbEntity
  8
ninja1 - Level 26
  6
Continuous
 62
     7
370
    13
100
AcDbLine
 10
3.690369
 20
4.213717
 30
0.0
 11
3.690369
 21
4.212092
 31
0.0
  0
LINE
  5
5DF
330
913
100
AcDbEntity
  8
ninja1 - Level 26
  6
Continuous
 62
     7
370
    13
100
AcDbLine
 10
3.690369
 20
4.207092
 30
0.0
 11
3.690369
 21
4.129165
 31
0.0
  0
LINE
  5
5E0
330
913
100
AcDbEntity
  8
ninja1 - Level 26
  6
Continuous
 62
     7
370
    13
100
AcDbLine
 10
3.690369
 20
4.108254
 30
0.0
 11
3.690369
 21
3.993168
 31
0.0
  0
LINE
  5
5E1
330
913
100
AcDbEntity
  8
ninja1 - Level 26
  6
Continuous
 62
     7
370
    13
100
AcDbLine
 10
3.690369
 20
3.972256
 30
0.0
 11
3.690369
 21
3.857173
 31
0.0
  0
LINE
  5
5E2
330
913
100
AcDbEntity
  8
ninja1 - Level 26
  6
Continuous
 62
     7
370
    13
100
AcDbLine
 10
3.690369
 20
3.836261
 30
0.0
 11
3.690369
 21
3.721173
 31
0.0
  0
LINE
  5
5E3
330
913
100
AcDbEntity
  8
ninja1 - Level 26
  6
Continuous
 62
     7
370
    13
100
AcDbLine
 10
3.690369
 20
3.700261
 30
0.0
 11
3.690369
 21
3.585178
 31
0.0
  0
LINE
  5
5E4
330
913
100
AcDbEntity
  8
ninja1 - Level 26
  6
Continuous
 62
     7
370
    13
100
AcDbLine
 10
3.690369
 20
3.564266
 30
0.0
 11
3.690369
 21
3.44918
 31
0.0
  0
LINE
  5
5E5
330
913
100
AcDbEntity
  8
ninja1 - Level 26
  6
Continuous
 62
     7
370
    13
100
AcDbLine
 10
3.690369
 20
3.428269
 30
0.0
 11
3.690369
 21
3.350342
 31
0.0
  0
LINE
  5
5E6
330
913
100
AcDbEntity
  8
ninja1 - Level 26
  6
Continuous
 62
     7
370
    13
100
AcDbLine
 10
3.690369
 20
3.345342
 30
0.0
 11
3.690369
 21
3.343717
 31
0.0
  0
LINE
  5
5E7
330
913
100
AcDbEntity
  8
ninja1 - Level 26
  6
Continuous
 62
     7
370
    13
100
AcDbLine
 10
3.690369
 20
3.343717
 30
0.0
 11
3.695369
 21
3.343717
 31
0.0
  0
LINE
  5
5E8
330
913
100
AcDbEntity
  8
ninja1 - Level 26
  6
Continuous
 62
     7
370
    13
100
AcDbLine
 10
3.660369
 20
3.343717
 30
0.0
 11
3.660369
 21
3.333717
 31
0.0
  0
LINE
  5
5E9
330
913
100
AcDbEntity
  8
ninja1 - Level 26
  6
Continuous
 62
     7
370
    13
100
AcDbLine
 10
2.790369
 20
3.333717
 30
0.0
 11
2.790369
 21
3.343717
 31
0.0
  0
LINE
  5
5EA
330
913
100
AcDbEntity
  8
ninja1 - Level 26
  6
Continuous
 62
     7
370
    13
100
AcDbLine
 10
2.790369
 20
3.343717
 30
0.0
 11
3.660369
 21
3.343717
 31
0.0
  0
SPLINE
  5
5EB
330
913
100
AcDbEntity
  8
ninja1 - Level 26
  6
Continuous
 62
     7
370
    13
100
AcDbSpline
210
0.0
220
0.0
230
1.0
 70
     8
 71
     3
 72
    10
 73
     6
 74
     0
 42
0.000000001
 43
0.0000000001
 40
0.0
 40
0.0
 40
0.0
 40
0.0
 40
0.2070674904968881
 40
0.9869894094149092
 40
1.0
 40
1.0
 40
1.0
 40
1.0
 10
2.987325000779106
 20
2.691878363727266
 30
0.0
 10
2.987805821453049
 20
2.691399427673483
 30
0.0
 10
2.990886835098118
 20
2.689201140575979
 30
0.0
 10
2.996439590108502
 20
2.689834308504914
 30
0.0
 10
2.998280056803373
 20
2.691862093876101
 30
0.0
 10
2.998314615123908
 20
2.691879017278688
 30
0.0
  0
SPLINE
  5
5EE
330
913
100
AcDbEntity
  8
ninja1 - Level 26
  6
Continuous
 62
     7
370
    13
100
AcDbSpline
210
0.0
220
0.0
230
1.0
 70
     8
 71
     3
 72
     9
 73
     5
 74
     0
 42
0.000000001
 43
0.0000000001
 40
0.0
 40
0.0
 40
0.0
 40
0.0
 40
0.8831717463230241
 40
1.0
 40
1.0
 40
1.0
 40
1.0
 10
2.988303350250804
 20
2.905701282215518
 30
0.0
 10
2.990391658386934
 20
2.90454691321577
 30
0.0
 10
2.994482240100301
 20
2.904369006176225
 30
0.0
 10
2.997053856522913
 20
2.905567306085724
 30
0.0
 10
2.997341994319056
 20
2.905704618180418
 30
0.0
  0
SPLINE
  5
5F1
330
913
100
AcDbEntity
  8
ninja1 - Level 26
  6
Continuous
 62
     7
370
    13
100
AcDbSpline
210
0.0
220
0.0
230
1.0
 70
     8
 71
     3
 72
    10
 73
     6
 74
     0
 42
0.000000001
 43
0.0000000001
 40
0.0
 40
0.0
 40
0.0
 40
0.0
 40
0.4021077649098969
 40
0.9873688854403386
 40
1.0
 40
1.0
 40
1.0
 40
1.0
 10
3.463413321831994
 20
2.691880118655645
 30
0.0
 10
3.462491547170942
 20
2.690910718692892
 30
0.0
 10
3.458603354126084
 20
2.689152658631515
 30
0.0
 10
3.453845500096932
 20
2.690374861206697
 30
0.0
 10
3.452458332250188
 20
2.691856155963731
 30
0.0
 10
3.452425090816573
 20
2.691880719362235
 30
0.0
  0
SPLINE
  5
5F4
330
913
100
AcDbEntity
  8
ninja1 - Level 26
  6
Continuous
 62
     7
370
    13
100
AcDbSpline
210
0.0
220
0.0
230
1.0
 70
     8
 71
     3
 72
    10
 73
     6
 74
     0
 42
0.000000001
 43
0.0000000001
 40
0.0
 40
0.0
 40
0.0
 40
0.0
 40
0.8774781600889303
 40
0.9418355456167027
 40
1.0
 40
1.0
 40
1.0
 40
1.0
 10
3.462434870015832
 20
2.90570272392643
 30
0.0
 10
3.460347274952716
 20
2.904551765720386
 30
0.0
 10
3.456529926806219
 20
2.904379954085701
 30
0.0
 10
3.453841537912047
 20
2.905490195024353
 30
0.0
 10
3.453539729437764
 20
2.905633425782007
 30
0.0
 10
3.453397140898529
 20
2.905704566866155
 30
0.0
  0
LINE
  5
5F7
330
913
100
AcDbEntity
  8
ninja1 - Level 26
  6
Continuous
 62
     7
370
    13
100
AcDbLine
 10
3.660369
 20
3.304339
 30
0.0
 11
3.660369
 21
3.304339
 31
0.0
  0
SPLINE
  5
5F8
330
913
100
AcDbEntity
  8
ninja1 - Level 26
  6
Continuous
 62
     7
370
    13
100
AcDbSpline
210
0.0
220
0.0
230
1.0
 70
     8
 71
     3
 72
     9
 73
     5
 74
     0
 42
0.000000001
 43
0.0000000001
 40
0.0
 40
0.0
 40
0.0
 40
0.0
 40
0.8682765703452361
 40
1.0
 40
1.0
 40
1.0
 40
1.0
 10
2.875370580130172
 20
2.41762627608892
 30
0.0
 10
2.873173733404689
 20
2.417605980475311
 30
0.0
 10
2.870674929668646
 20
2.4186704889195
 30
0.0
 10
2.869538434386477
 20
2.420405499603961
 30
0.0
 10
2.869396892954685
 20
2.420634234993794
 30
0.0
  0
SPLINE
  5
5FB
330
913
100
AcDbEntity
  8
ninja1 - Level 26
  6
Continuous
 62
     7
370
    13
100
AcDbSpline
210
0.0
220
0.0
230
1.0
 70
     8
 71
     3
 72
     9
 73
     5
 74
     0
 42
0.000000001
 43
0.0000000001
 40
0.0
 40
0.0
 40
0.0
 40
0.0
 40
0.8682765703452586
 40
1.0
 40
1.0
 40
1.0
 40
1.0
 10
3.225370580130172
 20
2.41762627608892
 30
0.0
 10
3.223173733404689
 20
2.417605980475311
 30
0.0
 10
3.220674929668646
 20
2.418670488919494
 30
0.0
 10
3.219538434386477
 20
2.420405499603961
 30
0.0
 10
3.219396892954685
 20
2.420634234993793
 30
0.0
  0
SPLINE
  5
5FE
330
913
100
AcDbEntity
  8
ninja1 - Level 26
  6
Continuous
 62
     7
370
    13
100
AcDbSpline
210
0.0
220
0.0
230
1.0
 70
     8
 71
     3
 72
     9
 73
     5
 74
     0
 42
0.000000001
 43
0.0000000001
 40
0.0
 40
0.0
 40
0.0
 40
0.0
 40
0.8682765703452407
 40
1.0
 40
1.0
 40
1.0
 40
1.0
 10
3.575370580130172
 20
2.41762627608892
 30
0.0
 10
3.573173733404689
 20
2.417605980475312
 30
0.0
 10
3.570674929668646
 20
2.418670488919494
 30
0.0
 10
3.569538434386477
 20
2.420405499603961
 30
0.0
 10
3.569396892954685
 20
2.420634234993794
 30
0.0
  0
LINE
  5
601
330
913
100
AcDbEntity
  8
ninja1 - Level 26
  6
Continuous
 62
     7
370
    13
100
AcDbLine
 10
2.790369
 20
3.253717
 30
0.0
 11
2.790369
 21
2.409451
 31
0.0
  0
LINE
  5
602
330
913
100
AcDbEntity
  8
ninja1 - Level 26
  6
Continuous
 62
     7
370
    13
100
AcDbLine
 10
3.660369
 20
3.298342
 30
0.0
 11
3.660369
 21
2.409451
 31
0.0
  0
SPLINE
  5
603
330
913
100
AcDbEntity
  8
ninja1 - Level 26
  6
Continuous
 62
     7
370
    13
100
AcDbSpline
210
0.0
220
0.0
230
1.0
 70
     8
 71
     3
 72
     8
 73
     4
 74
     0
 42
0.000000001
 43
0.0000000001
 40
0.0
 40
0.0
 40
0.0
 40
0.0
 40
1.0
 40
1.0
 40
1.0
 40
1.0
 10
2.992819495836485
 20
2.685359299423728
 30
0.0
 10
2.996298540542411
 20
2.685290139021091
 30
0.0
 10
2.999412907460626
 20
2.68735072674142
 30
0.0
 10
2.999319495805658
 20
2.689624677252878
 30
0.0
  0
SPLINE
  5
606
330
913
100
AcDbEntity
  8
ninja1 - Level 26
  6
Continuous
 62
     7
370
    13
100
AcDbSpline
210
0.0
220
0.0
230
1.0
 70
     8
 71
     3
 72
    10
 73
     6
 74
     0
 42
0.000000001
 43
0.0000000001
 40
0.0
 40
0.0
 40
0.0
 40
0.0
 40
0.1073904557005679
 40
0.9665153848303498
 40
1.0
 40
1.0
 40
1.0
 40
1.0
 10
2.992819495836485
 20
2.899664379693559
 30
0.0
 10
2.993177542446847
 20
2.899674602759679
 30
0.0
 10
2.996526045497719
 20
2.899774383440936
 30
0.0
 10
2.999308683409871
 20
2.90146007562411
 30
0.0
 10
2.999310213863998
 20
2.903129248109971
 30
0.0
 10
2.999319495805658
 20
2.903187819446244
 30
0.0
  0
SPLINE
  5
609
330
913
100
AcDbEntity
  8
ninja1 - Level 26
  6
Continuous
 62
     7
370
    13
100
AcDbSpline
210
0.0
220
0.0
230
1.0
 70
     8
 71
     3
 72
    10
 73
     6
 74
     0
 42
0.000000001
 43
0.0000000001
 40
0.0
 40
0.0
 40
0.0
 40
0.0
 40
0.1073904557005878
 40
0.9665153848305202
 40
1.0
 40
1.0
 40
1.0
 40
1.0
 10
2.992819495836485
 20
3.071274753076845
 30
0.0
 10
2.993177542446847
 20
3.071282618641992
 30
0.0
 10
2.996526045497719
 20
3.071359432219107
 30
0.0
 10
2.999308683409871
 20
3.072656817682269
 30
0.0
 10
2.999310213863998
 20
3.073939399205306
 30
0.0
 10
2.999319495805658
 20
3.073984413298716
 30
0.0
  0
SPLINE
  5
60C
330
913
100
AcDbEntity
  8
ninja1 - Level 26
  6
Continuous
 62
     7
370
    13
100
AcDbSpline
210
0.0
220
0.0
230
1.0
 70
     8
 71
     3
 72
    10
 73
     6
 74
     0
 42
0.000000001
 43
0.0000000001
 40
0.0
 40
0.0
 40
0.0
 40
0.0
 40
0.1073904557005743
 40
0.9665153848302574
 40
1.0
 40
1.0
 40
1.0
 40
1.0
 10
2.992819495836485
 20
3.196691356251746
 30
0.0
 10
2.993177542446847
 20
3.196696703940354
 30
0.0
 10
2.996526045497719
 20
3.1967489842168
 30
0.0
 10
2.999308683409871
 20
3.197631609816121
 30
0.0
 10
2.999310213863998
 20
3.198501449078637
 30
0.0
 10
2.999319495805658
 20
3.198531988110754
 30
0.0
  0
SPLINE
  5
60F
330
913
100
AcDbEntity
  8
ninja1 - Level 26
  6
Continuous
 62
     7
370
    13
100
AcDbSpline
210
0.0
220
0.0
230
1.0
 70
     8
 71
     3
 72
    10
 73
     6
 74
     0
 42
0.000000001
 43
0.0000000001
 40
0.0
 40
0.0
 40
0.0
 40
0.0
 40
0.1073904557005689
 40
0.9665153848303543
 40
1.0
 40
1.0
 40
1.0
 40
1.0
 10
2.992819495836485
 20
3.273356997438609
 30
0.0
 10
2.993177542446847
 20
3.273359718213558
 30
0.0
 10
2.996526045497719
 20
3.27338639921649
 30
0.0
 10
2.999308683409871
 20
3.273836268587284
 30
0.0
 10
2.999310213863998
 20
3.274275629932642
 30
0.0
 10
2.999319495805658
 20
3.274291071225448
 30
0.0
  0
SPLINE
  5
612
330
913
100
AcDbEntity
  8
ninja1 - Level 26
  6
Continuous
 62
     7
370
    13
100
AcDbSpline
210
0.0
220
0.0
230
1.0
 70
     8
 71
     3
 72
     8
 73
     4
 74
     0
 42
0.000000001
 43
0.0000000001
 40
0.0
 40
0.0
 40
0.0
 40
0.0
 40
1.0
 40
1.0
 40
1.0
 40
1.0
 10
3.457919495836456
 20
2.685359299423728
 30
0.0
 10
3.454440451130524
 20
2.68529013902109
 30
0.0
 10
3.451326084212309
 20
2.687350726741421
 30
0.0
 10
3.451419495867277
 20
2.689624677252878
 30
0.0
  0
SPLINE
  5
615
330
913
100
AcDbEntity
  8
ninja1 - Level 26
  6
Continuous
 62
     7
370
    13
100
AcDbSpline
210
0.0
220
0.0
230
1.0
 70
     8
 71
     3
 72
    10
 73
     6
 74
     0
 42
0.000000001
 43
0.0000000001
 40
0.0
 40
0.0
 40
0.0
 40
0.0
 40
0.1073904557005681
 40
0.9665153848303498
 40
1.0
 40
1.0
 40
1.0
 40
1.0
 10
3.457919495836456
 20
2.899664379693559
 30
0.0
 10
3.457561449226087
 20
2.899674602759679
 30
0.0
 10
3.454212946175216
 20
2.899774383440939
 30
0.0
 10
3.451430308263065
 20
2.90146007562411
 30
0.0
 10
3.451428777808937
 20
2.903129248109971
 30
0.0
 10
3.451419495867277
 20
2.903187819446244
 30
0.0
  0
SPLINE
  5
618
330
913
100
AcDbEntity
  8
ninja1 - Level 26
  6
Continuous
 62
     7
370
    13
100
AcDbSpline
210
0.0
220
0.0
230
1.0
 70
     8
 71
     3
 72
    10
 73
     6
 74
     0
 42
0.000000001
 43
0.0000000001
 40
0.0
 40
0.0
 40
0.0
 40
0.0
 40
0.1073904557005829
 40
0.9665153848305196
 40
1.0
 40
1.0
 40
1.0
 40
1.0
 10
3.457919495836456
 20
3.071274753076845
 30
0.0
 10
3.457561449226087
 20
3.071282618641991
 30
0.0
 10
3.454212946175216
 20
3.071359432219107
 30
0.0
 10
3.451430308263065
 20
3.072656817682269
 30
0.0
 10
3.451428777808937
 20
3.073939399205306
 30
0.0
 10
3.451419495867277
 20
3.073984413298716
 30
0.0
  0
SPLINE
  5
61B
330
913
100
AcDbEntity
  8
ninja1 - Level 26
  6
Continuous
 62
     7
370
    13
100
AcDbSpline
210
0.0
220
0.0
230
1.0
 70
     8
 71
     3
 72
    10
 73
     6
 74
     0
 42
0.000000001
 43
0.0000000001
 40
0.0
 40
0.0
 40
0.0
 40
0.0
 40
0.1073904557005745
 40
0.9665153848302574
 40
1.0
 40
1.0
 40
1.0
 40
1.0
 10
3.457919495836456
 20
3.196691356251746
 30
0.0
 10
3.457561449226087
 20
3.196696703940354
 30
0.0
 10
3.454212946175216
 20
3.1967489842168
 30
0.0
 10
3.451430308263065
 20
3.197631609816121
 30
0.0
 10
3.451428777808937
 20
3.198501449078637
 30
0.0
 10
3.451419495867277
 20
3.198531988110754
 30
0.0
  0
SPLINE
  5
61E
330
913
100
AcDbEntity
  8
ninja1 - Level 26
  6
Continuous
 62
     7
370
    13
100
AcDbSpline
210
0.0
220
0.0
230
1.0
 70
     8
 71
     3
 72
    10
 73
     6
 74
     0
 42
0.000000001
 43
0.0000000001
 40
0.0
 40
0.0
 40
0.0
 40
0.0
 40
0.1073904557005693
 40
0.9665153848303539
 40
1.0
 40
1.0
 40
1.0
 40
1.0
 10
3.457919495836456
 20
3.273356997438609
 30
0.0
 10
3.457561449226087
 20
3.273359718213558
 30
0.0
 10
3.454212946175216
 20
3.273386399216492
 30
0.0
 10
3.451430308263065
 20
3.273836268587284
 30
0.0
 10
3.451428777808937
 20
3.274275629932642
 30
0.0
 10
3.451419495867277
 20
3.274291071225448
 30
0.0
  0
SPLINE
  5
621
330
913
100
AcDbEntity
  8
ninja1 - Level 26
  6
Continuous
 62
     7
370
    13
100
AcDbSpline
210
0.0
220
0.0
230
1.0
 70
     8
 71
     3
 72
     8
 73
     4
 74
     0
 42
0.000000001
 43
0.0000000001
 40
0.0
 40
0.0
 40
0.0
 40
0.0
 40
0.3572667495906355
 40
0.3572667495906355
 40
0.3572667495906355
 40
0.3572667495906355
 10
2.790369495836467
 20
2.409450960825215
 30
0.0
 10
2.790096771361798
 20
2.40213406144271
 30
0.0
 10
2.792987242667123
 20
2.395041792667027
 30
0.0
 10
2.79803509500673
 20
2.388974317380506
 30
0.0
  0
SPLINE
  5
624
330
913
100
AcDbEntity
  8
ninja1 - Level 26
  6
Continuous
 62
     7
370
    13
100
AcDbSpline
210
0.0
220
0.0
230
1.0
 70
     8
 71
     3
 72
     8
 73
     4
 74
     0
 42
0.000000001
 43
0.0000000001
 40
0.0
 40
0.0
 40
0.0
 40
0.0
 40
0.3573074795694592
 40
0.3573074795694592
 40
0.3573074795694592
 40
0.3573074795694592
 10
3.652699964761143
 20
2.38897422067975
 30
0.0
 10
3.657747203449477
 20
2.395043398631228
 30
0.0
 10
3.660637983989852
 20
2.402136645641669
 30
0.0
 10
3.660369495836468
 20
2.409450960825214
 30
0.0
  0
SPLINE
  5
627
330
913
100
AcDbEntity
  8
ninja1 - Level 26
  6
Continuous
 62
     7
370
    13
100
AcDbSpline
210
0.0
220
0.0
230
1.0
 70
     8
 71
     3
 72
     8
 73
     4
 74
     0
 42
0.000000001
 43
0.0000000001
 40
0.0
 40
0.0
 40
0.0
 40
0.0
 40
1.0
 40
1.0
 40
1.0
 40
1.0
 10
2.875370580130283
 20
2.413745767142719
 30
0.0
 10
2.871891535423134
 20
2.41366534197242
 30
0.0
 10
2.86877716850673
 20
2.416061579800155
 30
0.0
 10
2.868870580161103
 20
2.418708331803787
 30
0.0
  0
SPLINE
  5
62A
330
913
100
AcDbEntity
  8
ninja1 - Level 26
  6
Continuous
 62
     7
370
    13
100
AcDbSpline
210
0.0
220
0.0
230
1.0
 70
     8
 71
     3
 72
     8
 73
     4
 74
     0
 42
0.000000001
 43
0.0000000001
 40
0.0
 40
0.0
 40
0.0
 40
0.0
 40
1.0
 40
1.0
 40
1.0
 40
1.0
 10
3.225370580130283
 20
2.413745767142719
 30
0.0
 10
3.221891535423134
 20
2.413665341972421
 30
0.0
 10
3.21877716850673
 20
2.416061579800154
 30
0.0
 10
3.218870580161103
 20
2.418708331803786
 30
0.0
  0
SPLINE
  5
62D
330
913
100
AcDbEntity
  8
ninja1 - Level 26
  6
Continuous
 62
     7
370
    13
100
AcDbSpline
210
0.0
220
0.0
230
1.0
 70
     8
 71
     3
 72
     8
 73
     4
 74
     0
 42
0.000000001
 43
0.0000000001
 40
0.0
 40
0.0
 40
0.0
 40
0.0
 40
1.0
 40
1.0
 40
1.0
 40
1.0
 10
3.575370580130282
 20
2.413745767142719
 30
0.0
 10
3.571891535423134
 20
2.413665341972421
 30
0.0
 10
3.56877716850673
 20
2.416061579800154
 30
0.0
 10
3.568870580161104
 20
2.418708331803786
 30
0.0
  0
SPLINE
  5
630
330
913
100
AcDbEntity
  8
ninja1 - Level 26
  6
Continuous
 62
     7
370
    13
100
AcDbSpline
210
0.0
220
0.0
230
1.0
 70
     8
 71
     3
 72
     9
 73
     5
 74
     0
 42
0.000000001
 43
0.0000000001
 40
0.0
 40
0.0
 40
0.0
 40
0.0
 40
0.8660265557560387
 40
1.0
 40
1.0
 40
1.0
 40
1.0
 10
3.464419495823353
 20
3.274291102610808
 30
0.0
 10
3.464486731834165
 20
3.273866686014541
 30
0.0
 10
3.461834659524224
 20
3.273397268392634
 30
0.0
 10
3.458368069533157
 20
3.273360634668482
 30
0.0
 10
3.457919495836456
 20
3.273356997438609
 30
0.0
  0
SPLINE
  5
633
330
913
100
AcDbEntity
  8
ninja1 - Level 26
  6
Continuous
 62
     7
370
    13
100
AcDbSpline
210
0.0
220
0.0
230
1.0
 70
     8
 71
     3
 72
    13
 73
     9
 74
     0
 42
0.000000001
 43
0.0000000001
 40
0.0
 40
0.0
 40
0.0
 40
0.0
 40
0.0906810746496319
 40
0.5738857461086431
 40
0.6812642943989708
 40
0.8960221552405702
 40
0.9497116145673501
 40
1.0
 40
1.0
 40
1.0
 40
1.0
 10
3.451419495867277
 20
3.274291071225448
 30
0.0
 10
3.451439871141102
 20
3.274373971695984
 30
0.0
 10
3.451867821869414
 20
3.27495720971895
 30
0.0
 10
3.45699859421669
 20
3.275358429111663
 30
0.0
 10
3.462199159190149
 20
3.275033389372401
 30
0.0
 10
3.463833343210255
 20
3.274744159492477
 30
0.0
 10
3.464370421084799
 20
3.274439627981113
 30
0.0
 10
3.464403447363371
 20
3.274339799263704
 30
0.0
 10
3.464419495823353
 20
3.274291102610808
 30
0.0
  0
SPLINE
  5
636
330
913
100
AcDbEntity
  8
ninja1 - Level 26
  6
Continuous
 62
     7
370
    13
100
AcDbSpline
210
0.0
220
0.0
230
1.0
 70
     8
 71
     3
 72
     9
 73
     5
 74
     0
 42
0.000000001
 43
0.0000000001
 40
0.0
 40
0.0
 40
0.0
 40
0.0
 40
0.866026555756038
 40
1.0
 40
1.0
 40
1.0
 40
1.0
 10
2.986319495849582
 20
3.274291102610808
 30
0.0
 10
2.98625225983877
 20
3.273866686014541
 30
0.0
 10
2.988904332148711
 20
3.273397268392634
 30
0.0
 10
2.992370922139778
 20
3.273360634668482
 30
0.0
 10
2.992819495836485
 20
3.273356997438609
 30
0.0
  0
SPLINE
  5
639
330
913
100
AcDbEntity
  8
ninja1 - Level 26
  6
Continuous
 62
     7
370
    13
100
AcDbSpline
210
0.0
220
0.0
230
1.0
 70
     8
 71
     3
 72
    13
 73
     9
 74
     0
 42
0.000000001
 43
0.0000000001
 40
0.0
 40
0.0
 40
0.0
 40
0.0
 40
0.0906810746496314
 40
0.5738857461086403
 40
0.6812642943989676
 40
0.8960221552405709
 40
0.9497116145673503
 40
1.0
 40
1.0
 40
1.0
 40
1.0
 10
2.999319495805658
 20
3.274291071225448
 30
0.0
 10
2.999299120531833
 20
3.274373971695984
 30
0.0
 10
2.998871169803521
 20
3.27495720971895
 30
0.0
 10
2.993740397456244
 20
3.275358429111663
 30
0.0
 10
2.988539832482792
 20
3.275033389372401
 30
0.0
 10
2.986905648462686
 20
3.274744159492477
 30
0.0
 10
2.986368570588142
 20
3.274439627981113
 30
0.0
 10
2.986335544309564
 20
3.274339799263704
 30
0.0
 10
2.986319495849582
 20
3.274291102610808
 30
0.0
  0
SPLINE
  5
63C
330
913
100
AcDbEntity
  8
ninja1 - Level 26
  6
Continuous
 62
     7
370
    13
100
AcDbSpline
210
0.0
220
0.0
230
1.0
 70
     8
 71
     3
 72
     9
 73
     5
 74
     0
 42
0.000000001
 43
0.0000000001
 40
0.0
 40
0.0
 40
0.0
 40
0.0
 40
0.8660265557560148
 40
1.0
 40
1.0
 40
1.0
 40
1.0
 10
3.464419495823353
 20
3.198532050241493
 30
0.0
 10
3.464486731834165
 20
3.197691575074163
 30
0.0
 10
3.461834659524218
 20
3.196770247760504
 30
0.0
 10
3.458368069533157
 20
3.196698509914244
 30
0.0
 10
3.457919495836456
 20
3.196691356251746
 30
0.0
  0
SPLINE
  5
63F
330
913
100
AcDbEntity
  8
ninja1 - Level 26
  6
Continuous
 62
     7
370
    13
100
AcDbSpline
210
0.0
220
0.0
230
1.0
 70
     8
 71
     3
 72
    13
 73
     9
 74
     0
 42
0.000000001
 43
0.0000000001
 40
0.0
 40
0.0
 40
0.0
 40
0.0
 40
0.0906810746497347
 40
0.5738857461086371
 40
0.6812642943989592
 40
0.8960221552405428
 40
0.9497116145673208
 40
1.0
 40
1.0
 40
1.0
 40
1.0
 10
3.451419495867277
 20
3.198531988110754
 30
0.0
 10
3.451439871141102
 20
3.198695934385357
 30
0.0
 10
3.451867821869414
 20
3.199852822920666
 30
0.0
 10
3.45699859421669
 20
3.200656628855945
 30
0.0
 10
3.462199159190149
 20
3.200006589558802
 30
0.0
 10
3.463833343210255
 20
3.199430549122747
 30
0.0
 10
3.464370421084799
 20
3.198826175122294
 30
0.0
 10
3.464403447363371
 20
3.198628493527921
 30
0.0
 10
3.464419495823353
 20
3.198532050241493
 30
0.0
  0
SPLINE
  5
642
330
913
100
AcDbEntity
  8
ninja1 - Level 26
  6
Continuous
 62
     7
370
    13
100
AcDbSpline
210
0.0
220
0.0
230
1.0
 70
     8
 71
     3
 72
     9
 73
     5
 74
     0
 42
0.000000001
 43
0.0000000001
 40
0.0
 40
0.0
 40
0.0
 40
0.0
 40
0.8660265557560261
 40
1.0
 40
1.0
 40
1.0
 40
1.0
 10
2.986319495849582
 20
3.198532050241493
 30
0.0
 10
2.98625225983877
 20
3.197691575074164
 30
0.0
 10
2.988904332148717
 20
3.196770247760504
 30
0.0
 10
2.992370922139778
 20
3.196698509914244
 30
0.0
 10
2.992819495836485
 20
3.196691356251746
 30
0.0
  0
SPLINE
  5
645
330
913
100
AcDbEntity
  8
ninja1 - Level 26
  6
Continuous
 62
     7
370
    13
100
AcDbSpline
210
0.0
220
0.0
230
1.0
 70
     8
 71
     3
 72
    13
 73
     9
 74
     0
 42
0.000000001
 43
0.0000000001
 40
0.0
 40
0.0
 40
0.0
 40
0.0
 40
0.0906810746497387
 40
0.5738857461086595
 40
0.6812642943989866
 40
0.896022155240584
 40
0.9497116145673645
 40
1.0
 40
1.0
 40
1.0
 40
1.0
 10
2.999319495805658
 20
3.198531988110754
 30
0.0
 10
2.999299120531833
 20
3.198695934385356
 30
0.0
 10
2.998871169803521
 20
3.199852822920666
 30
0.0
 10
2.993740397456244
 20
3.200656628855945
 30
0.0
 10
2.988539832482792
 20
3.200006589558802
 30
0.0
 10
2.986905648462686
 20
3.199430549122747
 30
0.0
 10
2.986368570588142
 20
3.198826175122294
 30
0.0
 10
2.986335544309564
 20
3.198628493527921
 30
0.0
 10
2.986319495849582
 20
3.198532050241493
 30
0.0
  0
SPLINE
  5
648
330
913
100
AcDbEntity
  8
ninja1 - Level 26
  6
Continuous
 62
     7
370
    13
100
AcDbSpline
210
0.0
220
0.0
230
1.0
 70
     8
 71
     3
 72
     9
 73
     5
 74
     0
 42
0.000000001
 43
0.0000000001
 40
0.0
 40
0.0
 40
0.0
 40
0.0
 40
0.866026555756043
 40
1.0
 40
1.0
 40
1.0
 40
1.0
 10
3.464419495823353
 20
3.073984504908016
 30
0.0
 10
3.464486731834165
 20
3.07274510810472
 30
0.0
 10
3.461834659524224
 20
3.071390656575669
 30
0.0
 10
3.458368069533157
 20
3.071285277311798
 30
0.0
 10
3.457919495836456
 20
3.071274753076845
 30
0.0
  0
SPLINE
  5
64B
330
913
100
AcDbEntity
  8
ninja1 - Level 26
  6
Continuous
 62
     7
370
    13
100
AcDbSpline
210
0.0
220
0.0
230
1.0
 70
     8
 71
     3
 72
    13
 73
     9
 74
     0
 42
0.000000001
 43
0.0000000001
 40
0.0
 40
0.0
 40
0.0
 40
0.0
 40
0.090681074649719
 40
0.5738857461086583
 40
0.6812642943989954
 40
0.8960221552405759
 40
0.949711614567407
 40
1.0
 40
1.0
 40
1.0
 40
1.0
 10
3.451419495867277
 20
3.073984413298716
 30
0.0
 10
3.451439871141102
 20
3.074226062581816
 30
0.0
 10
3.451867821869414
 20
3.075933013158901
 30
0.0
 10
3.45699859421669
 20
3.077123016371859
 30
0.0
 10
3.462199159190149
 20
3.076161231544656
 30
0.0
 10
3.463833343210255
 20
3.075310125774642
 30
0.0
 10
3.464370421084799
 20
3.074418232216722
 30
0.0
 10
3.464403447363371
 20
3.074126728389937
 30
0.0
 10
3.464419495823353
 20
3.073984504908016
 30
0.0
  0
SPLINE
  5
64E
330
913
100
AcDbEntity
  8
ninja1 - Level 26
  6
Continuous
 62
     7
370
    13
100
AcDbSpline
210
0.0
220
0.0
230
1.0
 70
     8
 71
     3
 72
     9
 73
     5
 74
     0
 42
0.000000001
 43
0.0000000001
 40
0.0
 40
0.0
 40
0.0
 40
0.0
 40
0.8660265557560531
 40
1.0
 40
1.0
 40
1.0
 40
1.0
 10
2.986319495849582
 20
3.073984504908016
 30
0.0
 10
2.98625225983877
 20
3.072745108104722
 30
0.0
 10
2.988904332148711
 20
3.071390656575663
 30
0.0
 10
2.992370922139778
 20
3.071285277311799
 30
0.0
 10
2.992819495836485
 20
3.071274753076845
 30
0.0
  0
SPLINE
  5
651
330
913
100
AcDbEntity
  8
ninja1 - Level 26
  6
Continuous
 62
     7
370
    13
100
AcDbSpline
210
0.0
220
0.0
230
1.0
 70
     8
 71
     3
 72
    13
 73
     9
 74
     0
 42
0.000000001
 43
0.0000000001
 40
0.0
 40
0.0
 40
0.0
 40
0.0
 40
0.0906810746497192
 40
0.57388574610866
 40
0.6812642943989955
 40
0.8960221552405734
 40
0.9497116145674054
 40
1.0
 40
1.0
 40
1.0
 40
1.0
 10
2.999319495805658
 20
3.073984413298716
 30
0.0
 10
2.999299120531833
 20
3.074226062581816
 30
0.0
 10
2.998871169803521
 20
3.075933013158901
 30
0.0
 10
2.993740397456244
 20
3.077123016371859
 30
0.0
 10
2.988539832482792
 20
3.076161231544656
 30
0.0
 10
2.986905648462686
 20
3.075310125774642
 30
0.0
 10
2.986368570588142
 20
3.074418232216723
 30
0.0
 10
2.986335544309564
 20
3.074126728389936
 30
0.0
 10
2.986319495849582
 20
3.073984504908016
 30
0.0
  0
SPLINE
  5
654
330
913
100
AcDbEntity
  8
ninja1 - Level 26
  6
Continuous
 62
     7
370
    13
100
AcDbSpline
210
0.0
220
0.0
230
1.0
 70
     8
 71
     3
 72
     9
 73
     5
 74
     0
 42
0.000000001
 43
0.0000000001
 40
0.0
 40
0.0
 40
0.0
 40
0.0
 40
0.8660265557560274
 40
1.0
 40
1.0
 40
1.0
 40
1.0
 10
3.464419495823353
 20
2.903187938666229
 30
0.0
 10
3.464486731834165
 20
2.901574891006412
 30
0.0
 10
3.461834659524218
 20
2.899814931958855
 30
0.0
 10
3.458368069533157
 20
2.899678059916246
 30
0.0
 10
3.457919495836456
 20
2.899664379693559
 30
0.0
  0
SPLINE
  5
657
330
913
100
AcDbEntity
  8
ninja1 - Level 26
  6
Continuous
 62
     7
370
    13
100
AcDbSpline
210
0.0
220
0.0
230
1.0
 70
     8
 71
     3
 72
    12
 73
     8
 74
     0
 42
0.000000001
 43
0.0000000001
 40
0.0
 40
0.0
 40
0.0
 40
0.0
 40
0.4665070521389866
 40
0.5738857461086424
 40
0.8960221552405728
 40
0.94971161456731
 40
1.0
 40
1.0
 40
1.0
 40
1.0
 10
3.451419495867277
 20
2.903187819446244
 30
0.0
 10
3.451311622383955
 20
2.90496155101299
 30
0.0
 10
3.454692727108937
 20
2.906854277135314
 30
0.0
 10
3.460959287457986
 20
2.906613006332714
 30
0.0
 10
3.463676858478997
 20
2.905306905707905
 30
0.0
 10
3.464366247001305
 20
2.903750843121648
 30
0.0
 10
3.464403447363371
 20
2.903373042466674
 30
0.0
 10
3.464419495823353
 20
2.903187938666229
 30
0.0
  0
SPLINE
  5
65A
330
913
100
AcDbEntity
  8
ninja1 - Level 26
  6
Continuous
 62
     7
370
    13
100
AcDbSpline
210
0.0
220
0.0
230
1.0
 70
     8
 71
     3
 72
     9
 73
     5
 74
     0
 42
0.000000001
 43
0.0000000001
 40
0.0
 40
0.0
 40
0.0
 40
0.0
 40
0.866026555756038
 40
1.0
 40
1.0
 40
1.0
 40
1.0
 10
2.986319495849582
 20
2.903187938666229
 30
0.0
 10
2.98625225983877
 20
2.901574891006413
 30
0.0
 10
2.988904332148711
 20
2.899814931958855
 30
0.0
 10
2.992370922139778
 20
2.899678059916246
 30
0.0
 10
2.992819495836485
 20
2.899664379693559
 30
0.0
  0
SPLINE
  5
65D
330
913
100
AcDbEntity
  8
ninja1 - Level 26
  6
Continuous
 62
     7
370
    13
100
AcDbSpline
210
0.0
220
0.0
230
1.0
 70
     8
 71
     3
 72
    12
 73
     8
 74
     0
 42
0.000000001
 43
0.0000000001
 40
0.0
 40
0.0
 40
0.0
 40
0.0
 40
0.4665070521389875
 40
0.5738857461086374
 40
0.8960221552405716
 40
0.9497116145673086
 40
1.0
 40
1.0
 40
1.0
 40
1.0
 10
2.999319495805658
 20
2.903187819446244
 30
0.0
 10
2.99942736928898
 20
2.904961551012991
 30
0.0
 10
2.996046264564004
 20
2.906854277135309
 30
0.0
 10
2.989779704214955
 20
2.906613006332715
 30
0.0
 10
2.987062133193944
 20
2.905306905707899
 30
0.0
 10
2.98637274467163
 20
2.903750843121648
 30
0.0
 10
2.986335544309564
 20
2.903373042466674
 30
0.0
 10
2.986319495849582
 20
2.903187938666229
 30
0.0
  0
SPLINE
  5
660
330
913
100
AcDbEntity
  8
ninja1 - Level 26
  6
Continuous
 62
     7
370
    13
100
AcDbSpline
210
0.0
220
0.0
230
1.0
 70
     8
 71
     3
 72
     9
 73
     5
 74
     0
 42
0.000000001
 43
0.0000000001
 40
0.0
 40
0.0
 40
0.0
 40
0.0
 40
0.8660265557559982
 40
1.0
 40
1.0
 40
1.0
 40
1.0
 10
2.986319495849582
 20
2.689624821652703
 30
0.0
 10
2.98625225983877
 20
2.687671012499584
 30
0.0
 10
2.988904332148717
 20
2.685541430758142
 30
0.0
 10
2.992370922139778
 20
2.685375856700162
 30
0.0
 10
2.992819495836485
 20
2.685359299423728
 30
0.0
  0
SPLINE
  5
663
330
913
100
AcDbEntity
  8
ninja1 - Level 26
  6
Continuous
 62
     7
370
    13
100
AcDbSpline
210
0.0
220
0.0
230
1.0
 70
     8
 71
     3
 72
    12
 73
     8
 74
     0
 42
0.000000001
 43
0.0000000001
 40
0.0
 40
0.0
 40
0.0
 40
0.0
 40
0.4665070521389878
 40
0.5738857461086449
 40
0.8960221552405517
 40
0.9497116145673462
 40
1.0
 40
1.0
 40
1.0
 40
1.0
 10
2.999319495805658
 20
2.689624677252878
 30
0.0
 10
2.99942736928898
 20
2.691772977714057
 30
0.0
 10
2.996046264564004
 20
2.694067948076071
 30
0.0
 10
2.989779704214955
 20
2.693775395742529
 30
0.0
 10
2.987062133193938
 20
2.692191849528633
 30
0.0
 10
2.98637274467163
 20
2.690306646106015
 30
0.0
 10
2.986335544309564
 20
2.68984903158305
 30
0.0
 10
2.986319495849582
 20
2.689624821652703
 30
0.0
  0
SPLINE
  5
666
330
913
100
AcDbEntity
  8
ninja1 - Level 26
  6
Continuous
 62
     7
370
    13
100
AcDbSpline
210
0.0
220
0.0
230
1.0
 70
     8
 71
     3
 72
     9
 73
     5
 74
     0
 42
0.000000001
 43
0.0000000001
 40
0.0
 40
0.0
 40
0.0
 40
0.0
 40
0.8660265557559975
 40
1.0
 40
1.0
 40
1.0
 40
1.0
 10
3.464419495823353
 20
2.689624821652703
 30
0.0
 10
3.464486731834165
 20
2.687671012499583
 30
0.0
 10
3.461834659524218
 20
2.685541430758149
 30
0.0
 10
3.458368069533157
 20
2.685375856700162
 30
0.0
 10
3.457919495836456
 20
2.685359299423728
 30
0.0
  0
SPLINE
  5
669
330
913
100
AcDbEntity
  8
ninja1 - Level 26
  6
Continuous
 62
     7
370
    13
100
AcDbSpline
210
0.0
220
0.0
230
1.0
 70
     8
 71
     3
 72
    12
 73
     8
 74
     0
 42
0.000000001
 43
0.0000000001
 40
0.0
 40
0.0
 40
0.0
 40
0.0
 40
0.4665070521389875
 40
0.5738857461086444
 40
0.8960221552405519
 40
0.949711614567346
 40
1.0
 40
1.0
 40
1.0
 40
1.0
 10
3.451419495867277
 20
2.689624677252878
 30
0.0
 10
3.451311622383955
 20
2.691772977714056
 30
0.0
 10
3.454692727108937
 20
2.69406794807607
 30
0.0
 10
3.460959287457986
 20
2.693775395742529
 30
0.0
 10
3.463676858478997
 20
2.692191849528633
 30
0.0
 10
3.464366247001305
 20
2.690306646106015
 30
0.0
 10
3.464403447363371
 20
2.68984903158305
 30
0.0
 10
3.464419495823353
 20
2.689624821652703
 30
0.0
  0
SPLINE
  5
66C
330
913
100
AcDbEntity
  8
ninja1 - Level 26
  6
Continuous
 62
     7
370
    13
100
AcDbSpline
210
0.0
220
0.0
230
1.0
 70
     8
 71
     3
 72
     9
 73
     5
 74
     0
 42
0.000000001
 43
0.0000000001
 40
0.0
 40
0.0
 40
0.0
 40
0.0
 40
0.8660265559313174
 40
1.0
 40
1.0
 40
1.0
 40
1.0
 10
3.23187058011718
 20
2.418708499872996
 30
0.0
 10
3.231937816127619
 20
2.416434365063123
 30
0.0
 10
3.229285743818632
 20
2.413957559613692
 30
0.0
 10
3.225819153826512
 20
2.413765027550504
 30
0.0
 10
3.225370580130283
 20
2.413745767142719
 30
0.0
  0
SPLINE
  5
66F
330
913
100
AcDbEntity
  8
ninja1 - Level 26
  6
Continuous
 62
     7
370
    13
100
AcDbSpline
210
0.0
220
0.0
230
1.0
 70
     8
 71
     3
 72
    12
 73
     8
 74
     0
 42
0.000000001
 43
0.0000000001
 40
0.0
 40
0.0
 40
0.0
 40
0.0
 40
0.4665070519438098
 40
0.5738857460262527
 40
0.8960221553464386
 40
0.949711614622659
 40
1.0
 40
1.0
 40
1.0
 40
1.0
 10
3.218870580161103
 20
2.418708331803786
 30
0.0
 10
3.218762706677426
 20
2.421208723153841
 30
0.0
 10
3.222143811401844
 20
2.423882071131414
 30
0.0
 10
3.228410371749583
 20
2.423541279311032
 30
0.0
 10
3.231127942773726
 20
2.421696763002203
 30
0.0
 10
3.231817331295219
 20
2.419502113055736
 30
0.0
 10
3.231854531657233
 20
2.418969470947723
 30
0.0
 10
3.23187058011718
 20
2.418708499872996
 30
0.0
  0
SPLINE
  5
672
330
913
100
AcDbEntity
  8
ninja1 - Level 26
  6
Continuous
 62
     7
370
    13
100
AcDbSpline
210
0.0
220
0.0
230
1.0
 70
     8
 71
     3
 72
     9
 73
     5
 74
     0
 42
0.000000001
 43
0.0000000001
 40
0.0
 40
0.0
 40
0.0
 40
0.0
 40
0.8196483681866304
 40
1.0
 40
1.0
 40
1.0
 40
1.0
 10
3.231347264266732
 20
2.420639577423562
 30
0.0
 10
3.230551720996425
 20
2.419183408821943
 30
0.0
 10
3.228363734022076
 20
2.417797599508368
 30
0.0
 10
3.225825919355699
 20
2.417643464428675
 30
0.0
 10
3.225370580130172
 20
2.41762627608892
 30
0.0
  0
SPLINE
  5
675
330
913
100
AcDbEntity
  8
ninja1 - Level 26
  6
Continuous
 62
     7
370
    13
100
AcDbSpline
210
0.0
220
0.0
230
1.0
 70
     8
 71
     3
 72
     9
 73
     5
 74
     0
 42
0.000000001
 43
0.0000000001
 40
0.0
 40
0.0
 40
0.0
 40
0.0
 40
0.8660265559313105
 40
1.0
 40
1.0
 40
1.0
 40
1.0
 10
2.88187058011718
 20
2.418708499872996
 30
0.0
 10
2.881937816127614
 20
2.416434365063123
 30
0.0
 10
2.879285743818633
 20
2.413957559613698
 30
0.0
 10
2.875819153826512
 20
2.413765027550503
 30
0.0
 10
2.875370580130283
 20
2.413745767142719
 30
0.0
  0
SPLINE
  5
678
330
913
100
AcDbEntity
  8
ninja1 - Level 26
  6
Continuous
 62
     7
370
    13
100
AcDbSpline
210
0.0
220
0.0
230
1.0
 70
     8
 71
     3
 72
    12
 73
     8
 74
     0
 42
0.000000001
 43
0.0000000001
 40
0.0
 40
0.0
 40
0.0
 40
0.0
 40
0.4665070519437672
 40
0.5738857460262143
 40
0.8960221553463874
 40
0.9497116146226096
 40
1.0
 40
1.0
 40
1.0
 40
1.0
 10
2.868870580161103
 20
2.418708331803787
 30
0.0
 10
2.868762706677426
 20
2.421208723153841
 30
0.0
 10
2.872143811401844
 20
2.423882071131416
 30
0.0
 10
2.878410371749583
 20
2.423541279311035
 30
0.0
 10
2.881127942773725
 20
2.421696763002203
 30
0.0
 10
2.881817331295219
 20
2.419502113055737
 30
0.0
 10
2.881854531657232
 20
2.418969470947723
 30
0.0
 10
2.88187058011718
 20
2.418708499872996
 30
0.0
  0
SPLINE
  5
67B
330
913
100
AcDbEntity
  8
ninja1 - Level 26
  6
Continuous
 62
     7
370
    13
100
AcDbSpline
210
0.0
220
0.0
230
1.0
 70
     8
 71
     3
 72
     9
 73
     5
 74
     0
 42
0.000000001
 43
0.0000000001
 40
0.0
 40
0.0
 40
0.0
 40
0.0
 40
0.8196483681865956
 40
1.0
 40
1.0
 40
1.0
 40
1.0
 10
2.881347264266733
 20
2.420639577423561
 30
0.0
 10
2.880551720996425
 20
2.419183408821943
 30
0.0
 10
2.878363734022077
 20
2.417797599508368
 30
0.0
 10
2.875825919355699
 20
2.417643464428675
 30
0.0
 10
2.875370580130172
 20
2.41762627608892
 30
0.0
  0
SPLINE
  5
67E
330
913
100
AcDbEntity
  8
ninja1 - Level 26
  6
Continuous
 62
     7
370
    13
100
AcDbSpline
210
0.0
220
0.0
230
1.0
 70
     8
 71
     3
 72
     9
 73
     5
 74
     0
 42
0.000000001
 43
0.0000000001
 40
0.0
 40
0.0
 40
0.0
 40
0.0
 40
0.8660265559313078
 40
1.0
 40
1.0
 40
1.0
 40
1.0
 10
3.58187058011718
 20
2.418708499872996
 30
0.0
 10
3.581937816127613
 20
2.416434365063123
 30
0.0
 10
3.579285743818632
 20
2.413957559613692
 30
0.0
 10
3.575819153826512
 20
2.413765027550504
 30
0.0
 10
3.575370580130282
 20
2.413745767142719
 30
0.0
  0
SPLINE
  5
681
330
913
100
AcDbEntity
  8
ninja1 - Level 26
  6
Continuous
 62
     7
370
    13
100
AcDbSpline
210
0.0
220
0.0
230
1.0
 70
     8
 71
     3
 72
    12
 73
     8
 74
     0
 42
0.000000001
 43
0.0000000001
 40
0.0
 40
0.0
 40
0.0
 40
0.0
 40
0.4665070519438013
 40
0.5738857460262415
 40
0.8960221553464041
 40
0.9497116146226249
 40
1.0
 40
1.0
 40
1.0
 40
1.0
 10
3.568870580161104
 20
2.418708331803786
 30
0.0
 10
3.568762706677426
 20
2.421208723153839
 30
0.0
 10
3.572143811401844
 20
2.42388207113142
 30
0.0
 10
3.578410371749583
 20
2.423541279311032
 30
0.0
 10
3.581127942773726
 20
2.421696763002209
 30
0.0
 10
3.581817331295219
 20
2.419502113055736
 30
0.0
 10
3.581854531657233
 20
2.418969470947721
 30
0.0
 10
3.58187058011718
 20
2.418708499872996
 30
0.0
  0
SPLINE
  5
684
330
913
100
AcDbEntity
  8
ninja1 - Level 26
  6
Continuous
 62
     7
370
    13
100
AcDbSpline
210
0.0
220
0.0
230
1.0
 70
     8
 71
     3
 72
     9
 73
     5
 74
     0
 42
0.000000001
 43
0.0000000001
 40
0.0
 40
0.0
 40
0.0
 40
0.0
 40
0.8196483681866121
 40
1.0
 40
1.0
 40
1.0
 40
1.0
 10
3.581347264266732
 20
2.420639577423561
 30
0.0
 10
3.580551720996425
 20
2.419183408821946
 30
0.0
 10
3.578363734022076
 20
2.417797599508368
 30
0.0
 10
3.575825919355699
 20
2.417643464428675
 30
0.0
 10
3.575370580130172
 20
2.41762627608892
 30
0.0
  0
LINE
  5
687
330
913
100
AcDbEntity
  8
ninja1 - Level 26
  6
Continuous
 62
     7
370
    13
100
AcDbLine
 10
2.790369
 20
4.213717
 30
0.0
 11
2.790369
 21
3.343717
 31
0.0
  0
LINE
  5
688
330
913
100
AcDbEntity
  8
ninja1 - Level 26
  6
Continuous
 62
     7
370
    13
100
AcDbLine
 10
2.790369
 20
3.343717
 30
0.0
 11
2.780369
 21
3.343717
 31
0.0
  0
LINE
  5
689
330
913
100
AcDbEntity
  8
ninja1 - Level 26
  6
Continuous
 62
     7
370
    13
100
AcDbLine
 10
2.780369
 20
4.213717
 30
0.0
 11
2.790369
 21
4.213717
 31
0.0
  0
LINE
  5
68A
330
913
100
AcDbEntity
  8
ninja1 - Level 26
  6
Continuous
 62
     7
370
    13
100
AcDbLine
 10
3.660369
 20
4.213717
 30
0.0
 11
3.660369
 21
3.343717
 31
0.0
  0
LINE
  5
68B
330
913
100
AcDbEntity
  8
ninja1 - Level 26
  6
Continuous
 62
     7
370
    13
100
AcDbLine
 10
2.790369
 20
4.213717
 30
0.0
 11
3.660369
 21
4.213717
 31
0.0
  0
LINE
  5
68C
330
913
100
AcDbEntity
  8
ninja1 - Level 26
  6
Continuous
 62
     7
370
    13
100
AcDbLine
 10
3.660369
 20
4.213717
 30
0.0
 11
3.670369
 21
4.213717
 31
0.0
  0
LINE
  5
68D
330
913
100
AcDbEntity
  8
ninja1 - Level 26
  6
Continuous
 62
     7
370
    13
100
AcDbLine
 10
3.670369
 20
3.343717
 30
0.0
 11
3.660369
 21
3.343717
 31
0.0
  0
LINE
  5
68E
330
913
100
AcDbEntity
  8
ninja1 - Level 25
  6
Continuous
 62
     7
370
    13
100
AcDbLine
 10
2.752869
 20
4.128707
 30
0.0
 11
2.752869
 21
4.146207
 31
0.0
  0
LINE
  5
68F
330
913
100
AcDbEntity
  8
ninja1 - Level 25
  6
Continuous
 62
     7
370
    13
100
AcDbLine
 10
2.752869
 20
4.091207
 30
0.0
 11
2.752869
 21
4.108707
 31
0.0
  0
ARC
  5
690
330
913
100
AcDbEntity
  8
ninja1 - Level 25
  6
Continuous
 62
     7
370
    13
100
AcDbCircle
 10
2.740369
 20
4.091207
 30
0.0
 40
0.0125
100
AcDbArc
 50
182.291984
 51
0.0
  0
ARC
  5
691
330
913
100
AcDbEntity
  8
ninja1 - Level 25
  6
Continuous
 62
     7
370
    13
100
AcDbCircle
 10
2.727869
 20
4.091207
 30
0.0
 40
0.0005
100
AcDbArc
 50
90.0
 51
271.145992
  0
LINE
  5
692
330
913
100
AcDbEntity
  8
ninja1 - Level 25
  6
Continuous
 62
     7
370
    13
100
AcDbLine
 10
2.727869
 20
4.099874
 30
0.0
 11
2.727869
 21
4.091707
 31
0.0
  0
ARC
  5
693
330
913
100
AcDbEntity
  8
ninja1 - Level 25
  6
Continuous
 62
     7
370
    13
100
AcDbCircle
 10
2.727869
 20
4.100374
 30
0.0
 40
0.0004999999999985
100
AcDbArc
 50
90.0
 51
270.0
  0
LINE
  5
694
330
913
100
AcDbEntity
  8
ninja1 - Level 25
  6
Continuous
 62
     7
370
    13
100
AcDbLine
 10
2.727869
 20
4.10904
 30
0.0
 11
2.727869
 21
4.100874
 31
0.0
  0
ARC
  5
695
330
913
100
AcDbEntity
  8
ninja1 - Level 25
  6
Continuous
 62
     7
370
    13
100
AcDbCircle
 10
2.727869
 20
4.10954
 30
0.0
 40
0.0004999999999985
100
AcDbArc
 50
90.0
 51
270.0
  0
LINE
  5
696
330
913
100
AcDbEntity
  8
ninja1 - Level 25
  6
Continuous
 62
     7
370
    13
100
AcDbLine
 10
2.727869
 20
4.118207
 30
0.0
 11
2.727869
 21
4.11004
 31
0.0
  0
ARC
  5
697
330
913
100
AcDbEntity
  8
ninja1 - Level 25
  6
Continuous
 62
     7
370
    13
100
AcDbCircle
 10
2.727869
 20
4.118707
 30
0.0
 40
0.0004999999999985
100
AcDbArc
 50
90.0
 51
270.0
  0
LINE
  5
698
330
913
100
AcDbEntity
  8
ninja1 - Level 25
  6
Continuous
 62
     7
370
    13
100
AcDbLine
 10
2.727869
 20
4.127374
 30
0.0
 11
2.727869
 21
4.119207
 31
0.0
  0
ARC
  5
699
330
913
100
AcDbEntity
  8
ninja1 - Level 25
  6
Continuous
 62
     7
370
    13
100
AcDbCircle
 10
2.727869
 20
4.127874
 30
0.0
 40
0.0004999999999985
100
AcDbArc
 50
90.0
 51
270.0
  0
LINE
  5
69A
330
913
100
AcDbEntity
  8
ninja1 - Level 25
  6
Continuous
 62
     7
370
    13
100
AcDbLine
 10
2.727869
 20
4.13654
 30
0.0
 11
2.727869
 21
4.128374
 31
0.0
  0
ARC
  5
69B
330
913
100
AcDbEntity
  8
ninja1 - Level 25
  6
Continuous
 62
     7
370
    13
100
AcDbCircle
 10
2.727869
 20
4.13704
 30
0.0
 40
0.0004999999999985
100
AcDbArc
 50
90.0
 51
270.0
  0
LINE
  5
69C
330
913
100
AcDbEntity
  8
ninja1 - Level 25
  6
Continuous
 62
     7
370
    13
100
AcDbLine
 10
2.727869
 20
4.145707
 30
0.0
 11
2.727869
 21
4.13754
 31
0.0
  0
ARC
  5
69D
330
913
100
AcDbEntity
  8
ninja1 - Level 25
  6
Continuous
 62
     7
370
    13
100
AcDbCircle
 10
2.727869
 20
4.146207
 30
0.0
 40
0.0005
100
AcDbArc
 50
88.865461
 51
270.0
  0
LINE
  5
69E
330
913
100
AcDbEntity
  8
ninja1 - Level 25
  6
Continuous
 62
     7
370
    13
100
AcDbLine
 10
3.697869
 20
4.128707
 30
0.0
 11
3.697869
 21
4.146207
 31
0.0
  0
LINE
  5
69F
330
913
100
AcDbEntity
  8
ninja1 - Level 25
  6
Continuous
 62
     7
370
    13
100
AcDbLine
 10
3.697869
 20
4.091207
 30
0.0
 11
3.697869
 21
4.108707
 31
0.0
  0
ARC
  5
6A0
330
913
100
AcDbEntity
  8
ninja1 - Level 25
  6
Continuous
 62
     7
370
    13
100
AcDbCircle
 10
-3.710369
 20
4.091207
 30
0.0
 40
0.0125
210
0.0
220
0.0
230
-1.0
100
AcDbArc
 50
182.291984
 51
0.0
  0
ARC
  5
6A1
330
913
100
AcDbEntity
  8
ninja1 - Level 25
  6
Continuous
 62
     7
370
    13
100
AcDbCircle
 10
-3.722869
 20
4.091207
 30
0.0
 40
0.0005
210
0.0
220
0.0
230
-1.0
100
AcDbArc
 50
90.0
 51
271.145992
  0
LINE
  5
6A2
330
913
100
AcDbEntity
  8
ninja1 - Level 25
  6
Continuous
 62
     7
370
    13
100
AcDbLine
 10
3.722869
 20
4.099874
 30
0.0
 11
3.722869
 21
4.091707
 31
0.0
  0
ARC
  5
6A3
330
913
100
AcDbEntity
  8
ninja1 - Level 25
  6
Continuous
 62
     7
370
    13
100
AcDbCircle
 10
-3.722869
 20
4.100374
 30
0.0
 40
0.0004999999999985
210
0.0
220
0.0
230
-1.0
100
AcDbArc
 50
90.0
 51
270.0
  0
LINE
  5
6A4
330
913
100
AcDbEntity
  8
ninja1 - Level 25
  6
Continuous
 62
     7
370
    13
100
AcDbLine
 10
3.722869
 20
4.10904
 30
0.0
 11
3.722869
 21
4.100874
 31
0.0
  0
ARC
  5
6A5
330
913
100
AcDbEntity
  8
ninja1 - Level 25
  6
Continuous
 62
     7
370
    13
100
AcDbCircle
 10
-3.722869
 20
4.10954
 30
0.0
 40
0.0004999999999985
210
0.0
220
0.0
230
-1.0
100
AcDbArc
 50
90.0
 51
270.0
  0
LINE
  5
6A6
330
913
100
AcDbEntity
  8
ninja1 - Level 25
  6
Continuous
 62
     7
370
    13
100
AcDbLine
 10
3.722869
 20
4.118207
 30
0.0
 11
3.722869
 21
4.11004
 31
0.0
  0
ARC
  5
6A7
330
913
100
AcDbEntity
  8
ninja1 - Level 25
  6
Continuous
 62
     7
370
    13
100
AcDbCircle
 10
-3.722869
 20
4.118707
 30
0.0
 40
0.0004999999999985
210
0.0
220
0.0
230
-1.0
100
AcDbArc
 50
90.0
 51
270.0
  0
LINE
  5
6A8
330
913
100
AcDbEntity
  8
ninja1 - Level 25
  6
Continuous
 62
     7
370
    13
100
AcDbLine
 10
3.722869
 20
4.127374
 30
0.0
 11
3.722869
 21
4.119207
 31
0.0
  0
ARC
  5
6A9
330
913
100
AcDbEntity
  8
ninja1 - Level 25
  6
Continuous
 62
     7
370
    13
100
AcDbCircle
 10
-3.722869
 20
4.127874
 30
0.0
 40
0.0004999999999985
210
0.0
220
0.0
230
-1.0
100
AcDbArc
 50
90.0
 51
270.0
  0
LINE
  5
6AA
330
913
100
AcDbEntity
  8
ninja1 - Level 25
  6
Continuous
 62
     7
370
    13
100
AcDbLine
 10
3.722869
 20
4.13654
 30
0.0
 11
3.722869
 21
4.128374
 31
0.0
  0
ARC
  5
6AB
330
913
100
AcDbEntity
  8
ninja1 - Level 25
  6
Continuous
 62
     7
370
    13
100
AcDbCircle
 10
-3.722869
 20
4.13704
 30
0.0
 40
0.0004999999999985
210
0.0
220
0.0
230
-1.0
100
AcDbArc
 50
90.0
 51
270.0
  0
LINE
  5
6AC
330
913
100
AcDbEntity
  8
ninja1 - Level 25
  6
Continuous
 62
     7
370
    13
100
AcDbLine
 10
3.722869
 20
4.145707
 30
0.0
 11
3.722869
 21
4.13754
 31
0.0
  0
ARC
  5
6AD
330
913
100
AcDbEntity
  8
ninja1 - Level 25
  6
Continuous
 62
     7
370
    13
100
AcDbCircle
 10
-3.722869
 20
4.146207
 30
0.0
 40
0.0005
210
0.0
220
0.0
230
-1.0
100
AcDbArc
 50
88.865461
 51
270.0
  0
LINE
  5
6AE
330
913
100
AcDbEntity
  8
ninja1 - Level 26
  6
Continuous
 62
     7
370
    13
100
AcDbLine
 10
3.660369
 20
3.329194
 30
0.0
 11
2.790369
 21
3.329194
 31
0.0
  0
LINE
  5
6AF
330
913
100
AcDbEntity
  8
ninja1 - Level 26
  6
Continuous
 62
     7
370
    13
100
AcDbLine
 10
2.790369
 20
4.213717
 30
0.0
 11
2.790369
 21
4.223717
 31
0.0
  0
LINE
  5
6B0
330
913
100
AcDbEntity
  8
ninja1 - Level 26
  6
Continuous
 62
     7
370
    13
100
AcDbLine
 10
3.660369
 20
4.218717
 30
0.0
 11
3.660369
 21
4.213717
 31
0.0
  0
ARC
  5
6B1
330
913
100
AcDbEntity
  8
ninja1 - Level 25
  6
Continuous
 62
     7
370
    13
100
AcDbCircle
 10
-2.740369
 20
3.547222
 30
0.0
 40
0.0125
210
0.0
220
0.0
230
-1.0
100
AcDbArc
 50
180.0
 51
357.708037
  0
LINE
  5
6B2
330
913
100
AcDbEntity
  8
ninja1 - Level 25
  6
Continuous
 62
     7
370
    13
100
AcDbLine
 10
2.752869
 20
3.564722
 30
0.0
 11
2.752869
 21
3.547222
 31
0.0
  0
LINE
  5
6B3
330
913
100
AcDbEntity
  8
ninja1 - Level 25
  6
Continuous
 62
     7
370
    13
100
AcDbLine
 10
2.752869
 20
3.602222
 30
0.0
 11
2.752869
 21
3.584722
 31
0.0
  0
ARC
  5
6B4
330
913
100
AcDbEntity
  8
ninja1 - Level 25
  6
Continuous
 62
     7
370
    13
100
AcDbCircle
 10
-2.740369
 20
3.602222
 30
0.0
 40
0.0125
210
0.0
220
0.0
230
-1.0
100
AcDbArc
 50
2.291984
 51
180.0
  0
ARC
  5
6B5
330
913
100
AcDbEntity
  8
ninja1 - Level 25
  6
Continuous
 62
     7
370
    13
100
AcDbCircle
 10
-2.727869
 20
3.602222
 30
0.0
 40
0.0005
210
0.0
220
0.0
230
-1.0
100
AcDbArc
 50
270.0
 51
91.145992
  0
LINE
  5
6B6
330
913
100
AcDbEntity
  8
ninja1 - Level 25
  6
Continuous
 62
     7
370
    13
100
AcDbLine
 10
2.727869
 20
3.593555
 30
0.0
 11
2.727869
 21
3.601722
 31
0.0
  0
ARC
  5
6B7
330
913
100
AcDbEntity
  8
ninja1 - Level 25
  6
Continuous
 62
     7
370
    13
100
AcDbCircle
 10
-2.727869
 20
3.593055
 30
0.0
 40
0.0004999999999985
210
0.0
220
0.0
230
-1.0
100
AcDbArc
 50
270.0
 51
90.0
  0
LINE
  5
6B8
330
913
100
AcDbEntity
  8
ninja1 - Level 25
  6
Continuous
 62
     7
370
    13
100
AcDbLine
 10
2.727869
 20
3.584389
 30
0.0
 11
2.727869
 21
3.592555
 31
0.0
  0
ARC
  5
6B9
330
913
100
AcDbEntity
  8
ninja1 - Level 25
  6
Continuous
 62
     7
370
    13
100
AcDbCircle
 10
-2.727869
 20
3.583889
 30
0.0
 40
0.0004999999999985
210
0.0
220
0.0
230
-1.0
100
AcDbArc
 50
270.0
 51
90.0
  0
LINE
  5
6BA
330
913
100
AcDbEntity
  8
ninja1 - Level 25
  6
Continuous
 62
     7
370
    13
100
AcDbLine
 10
2.727869
 20
3.575222
 30
0.0
 11
2.727869
 21
3.583389
 31
0.0
  0
ARC
  5
6BB
330
913
100
AcDbEntity
  8
ninja1 - Level 25
  6
Continuous
 62
     7
370
    13
100
AcDbCircle
 10
-2.727869
 20
3.574722
 30
0.0
 40
0.0004999999999985
210
0.0
220
0.0
230
-1.0
100
AcDbArc
 50
270.0
 51
90.0
  0
LINE
  5
6BC
330
913
100
AcDbEntity
  8
ninja1 - Level 25
  6
Continuous
 62
     7
370
    13
100
AcDbLine
 10
2.727869
 20
3.566055
 30
0.0
 11
2.727869
 21
3.574222
 31
0.0
  0
ARC
  5
6BD
330
913
100
AcDbEntity
  8
ninja1 - Level 25
  6
Continuous
 62
     7
370
    13
100
AcDbCircle
 10
-2.727869
 20
3.565555
 30
0.0
 40
0.0004999999999985
210
0.0
220
0.0
230
-1.0
100
AcDbArc
 50
270.0
 51
90.0
  0
LINE
  5
6BE
330
913
100
AcDbEntity
  8
ninja1 - Level 25
  6
Continuous
 62
     7
370
    13
100
AcDbLine
 10
2.727869
 20
3.556889
 30
0.0
 11
2.727869
 21
3.565055
 31
0.0
  0
ARC
  5
6BF
330
913
100
AcDbEntity
  8
ninja1 - Level 25
  6
Continuous
 62
     7
370
    13
100
AcDbCircle
 10
-2.727869
 20
3.556389
 30
0.0
 40
0.0004999999999985
210
0.0
220
0.0
230
-1.0
100
AcDbArc
 50
270.0
 51
90.0
  0
LINE
  5
6C0
330
913
100
AcDbEntity
  8
ninja1 - Level 25
  6
Continuous
 62
     7
370
    13
100
AcDbLine
 10
2.727869
 20
3.547722
 30
0.0
 11
2.727869
 21
3.555889
 31
0.0
  0
ARC
  5
6C1
330
913
100
AcDbEntity
  8
ninja1 - Level 25
  6
Continuous
 62
     7
370
    13
100
AcDbCircle
 10
-2.727869
 20
3.547222
 30
0.0
 40
0.0005
210
0.0
220
0.0
230
-1.0
100
AcDbArc
 50
268.854029
 51
90.0
  0
ARC
  5
6C2
330
913
100
AcDbEntity
  8
ninja1 - Level 25
  6
Continuous
 62
     7
370
    13
100
AcDbCircle
 10
3.710369
 20
3.547222
 30
0.0
 40
0.0125
100
AcDbArc
 50
180.0
 51
357.708037
  0
LINE
  5
6C3
330
913
100
AcDbEntity
  8
ninja1 - Level 25
  6
Continuous
 62
     7
370
    13
100
AcDbLine
 10
3.697869
 20
3.564722
 30
0.0
 11
3.697869
 21
3.547222
 31
0.0
  0
LINE
  5
6C4
330
913
100
AcDbEntity
  8
ninja1 - Level 25
  6
Continuous
 62
     7
370
    13
100
AcDbLine
 10
3.697869
 20
3.602222
 30
0.0
 11
3.697869
 21
3.584722
 31
0.0
  0
ARC
  5
6C5
330
913
100
AcDbEntity
  8
ninja1 - Level 25
  6
Continuous
 62
     7
370
    13
100
AcDbCircle
 10
3.710369
 20
3.602222
 30
0.0
 40
0.0125
100
AcDbArc
 50
2.291984
 51
180.0
  0
ARC
  5
6C6
330
913
100
AcDbEntity
  8
ninja1 - Level 25
  6
Continuous
 62
     7
370
    13
100
AcDbCircle
 10
3.722869
 20
3.602222
 30
0.0
 40
0.0005
100
AcDbArc
 50
270.0
 51
91.145992
  0
LINE
  5
6C7
330
913
100
AcDbEntity
  8
ninja1 - Level 25
  6
Continuous
 62
     7
370
    13
100
AcDbLine
 10
3.722869
 20
3.593555
 30
0.0
 11
3.722869
 21
3.601722
 31
0.0
  0
ARC
  5
6C8
330
913
100
AcDbEntity
  8
ninja1 - Level 25
  6
Continuous
 62
     7
370
    13
100
AcDbCircle
 10
3.722869
 20
3.593055
 30
0.0
 40
0.0004999999999985
100
AcDbArc
 50
270.0
 51
90.0
  0
LINE
  5
6C9
330
913
100
AcDbEntity
  8
ninja1 - Level 25
  6
Continuous
 62
     7
370
    13
100
AcDbLine
 10
3.722869
 20
3.584389
 30
0.0
 11
3.722869
 21
3.592555
 31
0.0
  0
ARC
  5
6CA
330
913
100
AcDbEntity
  8
ninja1 - Level 25
  6
Continuous
 62
     7
370
    13
100
AcDbCircle
 10
3.722869
 20
3.583889
 30
0.0
 40
0.0004999999999985
100
AcDbArc
 50
270.0
 51
90.0
  0
LINE
  5
6CB
330
913
100
AcDbEntity
  8
ninja1 - Level 25
  6
Continuous
 62
     7
370
    13
100
AcDbLine
 10
3.722869
 20
3.575222
 30
0.0
 11
3.722869
 21
3.583389
 31
0.0
  0
ARC
  5
6CC
330
913
100
AcDbEntity
  8
ninja1 - Level 25
  6
Continuous
 62
     7
370
    13
100
AcDbCircle
 10
3.722869
 20
3.574722
 30
0.0
 40
0.0004999999999985
100
AcDbArc
 50
270.0
 51
90.0
  0
LINE
  5
6CD
330
913
100
AcDbEntity
  8
ninja1 - Level 25
  6
Continuous
 62
     7
370
    13
100
AcDbLine
 10
3.722869
 20
3.566055
 30
0.0
 11
3.722869
 21
3.574222
 31
0.0
  0
ARC
  5
6CE
330
913
100
AcDbEntity
  8
ninja1 - Level 25
  6
Continuous
 62
     7
370
    13
100
AcDbCircle
 10
3.722869
 20
3.565555
 30
0.0
 40
0.0004999999999985
100
AcDbArc
 50
270.0
 51
90.0
  0
LINE
  5
6CF
330
913
100
AcDbEntity
  8
ninja1 - Level 25
  6
Continuous
 62
     7
370
    13
100
AcDbLine
 10
3.722869
 20
3.556889
 30
0.0
 11
3.722869
 21
3.565055
 31
0.0
  0
ARC
  5
6D0
330
913
100
AcDbEntity
  8
ninja1 - Level 25
  6
Continuous
 62
     7
370
    13
100
AcDbCircle
 10
3.722869
 20
3.556389
 30
0.0
 40
0.0004999999999985
100
AcDbArc
 50
270.0
 51
90.0
  0
LINE
  5
6D1
330
913
100
AcDbEntity
  8
ninja1 - Level 25
  6
Continuous
 62
     7
370
    13
100
AcDbLine
 10
3.722869
 20
3.547722
 30
0.0
 11
3.722869
 21
3.555889
 31
0.0
  0
ARC
  5
6D2
330
913
100
AcDbEntity
  8
ninja1 - Level 25
  6
Continuous
 62
     7
370
    13
100
AcDbCircle
 10
3.722869
 20
3.547222
 30
0.0
 40
0.0005
100
AcDbArc
 50
268.854029
 51
90.0
  0
LINE
  5
6D3
330
913
100
AcDbEntity
  8
ninja1 - Level 26
  6
Continuous
 62
     7
370
    13
100
AcDbLine
 10
3.660369
 20
3.261217
 30
0.0
 11
3.648369
 21
3.261217
 31
0.0
  0
LINE
  5
6D4
330
913
100
AcDbEntity
  8
ninja1 - Level 26
  6
Continuous
 62
     7
370
    13
100
AcDbLine
 10
3.660369
 20
3.326217
 30
0.0
 11
3.648369
 21
3.326217
 31
0.0
  0
LINE
  5
6D5
330
913
100
AcDbEntity
  8
ninja1 - Level 26
  6
Continuous
 62
     7
370
    13
100
AcDbLine
 10
3.660369
 20
3.261217
 30
0.0
 11
3.660369
 21
3.326217
 31
0.0
  0
LINE
  5
6D6
330
913
100
AcDbEntity
  8
ninja1 - Level 26
  6
Continuous
 62
     7
370
    13
100
AcDbLine
 10
3.648369
 20
3.261217
 30
0.0
 11
3.648369
 21
3.326217
 31
0.0
  0
LINE
  5
6D7
330
913
100
AcDbEntity
  8
ninja1 - Level 26
  6
Continuous
 62
     7
370
    13
100
AcDbLine
 10
3.625628
 20
3.316217
 30
0.0
 11
3.648369
 21
3.316217
 31
0.0
  0
SPLINE
  5
6D8
330
913
100
AcDbEntity
  8
ninja1 - Level 26
  6
Continuous
 62
     7
370
    13
100
AcDbSpline
210
0.0
220
0.0
230
1.0
 70
     8
 71
     3
 72
     8
 73
     4
 74
     0
 42
0.000000001
 43
0.0000000001
 40
0.0
 40
0.0
 40
0.0
 40
0.0
 40
1.0
 40
1.0
 40
1.0
 40
1.0
 10
3.618369495836467
 20
3.326216966807741
 30
0.0
 10
3.618297212696095
 20
3.326254954155531
 30
0.0
 10
3.621689716835643
 20
3.322154949186544
 30
0.0
 10
3.625628330621498
 20
3.316216966807723
 30
0.0
  0
LINE
  5
6DB
330
913
100
AcDbEntity
  8
ninja1 - Level 26
  6
Continuous
 62
     7
370
    13
100
AcDbLine
 10
3.618369
 20
3.326217
 30
0.0
 11
3.648369
 21
3.326217
 31
0.0
  0
LINE
  5
6DC
330
913
100
AcDbEntity
  8
ninja1 - Level 26
  6
Continuous
 62
     7
370
    13
100
AcDbLine
 10
3.625628
 20
3.271217
 30
0.0
 11
3.648369
 21
3.271217
 31
0.0
  0
SPLINE
  5
6DD
330
913
100
AcDbEntity
  8
ninja1 - Level 26
  6
Continuous
 62
     7
370
    13
100
AcDbSpline
210
0.0
220
0.0
230
1.0
 70
     8
 71
     3
 72
     8
 73
     4
 74
     0
 42
0.000000001
 43
0.0000000001
 40
0.0
 40
0.0
 40
0.0
 40
0.0
 40
1.0
 40
1.0
 40
1.0
 40
1.0
 10
3.625628330621487
 20
3.271216966807727
 30
0.0
 10
3.621692466443925
 20
3.265283202891204
 30
0.0
 10
3.618295096372175
 20
3.261175803518796
 30
0.0
 10
3.618369495836467
 20
3.261216966807727
 30
0.0
  0
LINE
  5
6E0
330
913
100
AcDbEntity
  8
ninja1 - Level 26
  6
Continuous
 62
     7
370
    13
100
AcDbLine
 10
3.618369
 20
3.261217
 30
0.0
 11
3.648369
 21
3.261217
 31
0.0
  0
LINE
  5
6E1
330
913
100
AcDbEntity
  8
ninja1 - Level 26
  6
Continuous
 62
     7
370
    13
100
AcDbLine
 10
3.618369
 20
3.326217
 30
0.0
 11
3.618369
 21
3.261217
 31
0.0
  0
LINE
  5
6E2
330
913
100
AcDbEntity
  8
ninja1 - Level 26
  6
Continuous
 62
     7
370
    13
100
AcDbLine
 10
2.790369
 20
3.326217
 30
0.0
 11
2.802369
 21
3.326217
 31
0.0
  0
LINE
  5
6E3
330
913
100
AcDbEntity
  8
ninja1 - Level 26
  6
Continuous
 62
     7
370
    13
100
AcDbLine
 10
2.790369
 20
3.261217
 30
0.0
 11
2.802369
 21
3.261217
 31
0.0
  0
LINE
  5
6E4
330
913
100
AcDbEntity
  8
ninja1 - Level 26
  6
Continuous
 62
     7
370
    13
100
AcDbLine
 10
2.802369
 20
3.261217
 30
0.0
 11
2.802369
 21
3.326217
 31
0.0
  0
LINE
  5
6E5
330
913
100
AcDbEntity
  8
ninja1 - Level 26
  6
Continuous
 62
     7
370
    13
100
AcDbLine
 10
2.825111
 20
3.316217
 30
0.0
 11
2.802369
 21
3.316217
 31
0.0
  0
SPLINE
  5
6E6
330
913
100
AcDbEntity
  8
ninja1 - Level 26
  6
Continuous
 62
     7
370
    13
100
AcDbSpline
210
0.0
220
0.0
230
1.0
 70
     8
 71
     3
 72
     8
 73
     4
 74
     0
 42
0.000000001
 43
0.0000000001
 40
0.0
 40
0.0
 40
0.0
 40
0.0
 40
1.0
 40
1.0
 40
1.0
 40
1.0
 10
2.832369495836467
 20
3.326216966807741
 30
0.0
 10
2.83244177897684
 20
3.326254954155533
 30
0.0
 10
2.829049274837292
 20
3.322154949186545
 30
0.0
 10
2.825110661051437
 20
3.316216966807724
 30
0.0
  0
LINE
  5
6E9
330
913
100
AcDbEntity
  8
ninja1 - Level 26
  6
Continuous
 62
     7
370
    13
100
AcDbLine
 10
2.832369
 20
3.326217
 30
0.0
 11
2.802369
 21
3.326217
 31
0.0
  0
LINE
  5
6EA
330
913
100
AcDbEntity
  8
ninja1 - Level 26
  6
Continuous
 62
     7
370
    13
100
AcDbLine
 10
2.825111
 20
3.271217
 30
0.0
 11
2.802369
 21
3.271217
 31
0.0
  0
SPLINE
  5
6EB
330
913
100
AcDbEntity
  8
ninja1 - Level 26
  6
Continuous
 62
     7
370
    13
100
AcDbSpline
210
0.0
220
0.0
230
1.0
 70
     8
 71
     3
 72
     8
 73
     4
 74
     0
 42
0.000000001
 43
0.0000000001
 40
0.0
 40
0.0
 40
0.0
 40
0.0
 40
1.0
 40
1.0
 40
1.0
 40
1.0
 10
2.825110661051448
 20
3.271216966807727
 30
0.0
 10
2.82904652522901
 20
3.265283202891204
 30
0.0
 10
2.83244389530076
 20
3.261175803518796
 30
0.0
 10
2.832369495836467
 20
3.261216966807727
 30
0.0
  0
LINE
  5
6EE
330
913
100
AcDbEntity
  8
ninja1 - Level 26
  6
Continuous
 62
     7
370
    13
100
AcDbLine
 10
2.832369
 20
3.261217
 30
0.0
 11
2.802369
 21
3.261217
 31
0.0
  0
LINE
  5
6EF
330
913
100
AcDbEntity
  8
ninja1 - Level 26
  6
Continuous
 62
     7
370
    13
100
AcDbLine
 10
2.832369
 20
3.326217
 30
0.0
 11
2.832369
 21
3.261217
 31
0.0
  0
LINE
  5
6F0
330
913
100
AcDbEntity
  8
ninja1 - Level 26
  6
Continuous
 62
     7
370
    13
100
AcDbLine
 10
3.660369
 20
4.218717
 30
0.0
 11
3.648369
 21
4.218717
 31
0.0
  0
LINE
  5
6F1
330
913
100
AcDbEntity
  8
ninja1 - Level 26
  6
Continuous
 62
     7
370
    13
100
AcDbLine
 10
3.660369
 20
4.283717
 30
0.0
 11
3.648369
 21
4.283717
 31
0.0
  0
LINE
  5
6F2
330
913
100
AcDbEntity
  8
ninja1 - Level 26
  6
Continuous
 62
     7
370
    13
100
AcDbLine
 10
3.660369
 20
4.218717
 30
0.0
 11
3.660369
 21
4.223717
 31
0.0
  0
LINE
  5
6F3
330
913
100
AcDbEntity
  8
ninja1 - Level 26
  6
Continuous
 62
     7
370
    13
100
AcDbLine
 10
3.648369
 20
4.218717
 30
0.0
 11
3.648369
 21
4.283717
 31
0.0
  0
LINE
  5
6F4
330
913
100
AcDbEntity
  8
ninja1 - Level 26
  6
Continuous
 62
     7
370
    13
100
AcDbLine
 10
3.625628
 20
4.273717
 30
0.0
 11
3.648369
 21
4.273717
 31
0.0
  0
SPLINE
  5
6F5
330
913
100
AcDbEntity
  8
ninja1 - Level 26
  6
Continuous
 62
     7
370
    13
100
AcDbSpline
210
0.0
220
0.0
230
1.0
 70
     8
 71
     3
 72
     8
 73
     4
 74
     0
 42
0.000000001
 43
0.0000000001
 40
0.0
 40
0.0
 40
0.0
 40
0.0
 40
1.0
 40
1.0
 40
1.0
 40
1.0
 10
3.618369495836467
 20
4.283716966807755
 30
0.0
 10
3.618297212696095
 20
4.283754954155547
 30
0.0
 10
3.621689716835648
 20
4.27965494918656
 30
0.0
 10
3.625628330621498
 20
4.273716966807739
 30
0.0
  0
LINE
  5
6F8
330
913
100
AcDbEntity
  8
ninja1 - Level 26
  6
Continuous
 62
     7
370
    13
100
AcDbLine
 10
3.618369
 20
4.283717
 30
0.0
 11
3.648369
 21
4.283717
 31
0.0
  0
LINE
  5
6F9
330
913
100
AcDbEntity
  8
ninja1 - Level 26
  6
Continuous
 62
     7
370
    13
100
AcDbLine
 10
3.625628
 20
4.228717
 30
0.0
 11
3.648369
 21
4.228717
 31
0.0
  0
SPLINE
  5
6FA
330
913
100
AcDbEntity
  8
ninja1 - Level 26
  6
Continuous
 62
     7
370
    13
100
AcDbSpline
210
0.0
220
0.0
230
1.0
 70
     8
 71
     3
 72
     8
 73
     4
 74
     0
 42
0.000000001
 43
0.0000000001
 40
0.0
 40
0.0
 40
0.0
 40
0.0
 40
1.0
 40
1.0
 40
1.0
 40
1.0
 10
3.625628330621493
 20
4.228716966807742
 30
0.0
 10
3.621692466443925
 20
4.222783202891221
 30
0.0
 10
3.618295096372181
 20
4.218675803518811
 30
0.0
 10
3.618369495836473
 20
4.218716966807742
 30
0.0
  0
LINE
  5
6FD
330
913
100
AcDbEntity
  8
ninja1 - Level 26
  6
Continuous
 62
     7
370
    13
100
AcDbLine
 10
3.618369
 20
4.218717
 30
0.0
 11
3.648369
 21
4.218717
 31
0.0
  0
LINE
  5
6FE
330
913
100
AcDbEntity
  8
ninja1 - Level 26
  6
Continuous
 62
     7
370
    13
100
AcDbLine
 10
3.618369
 20
4.283717
 30
0.0
 11
3.618369
 21
4.218717
 31
0.0
  0
LINE
  5
6FF
330
913
100
AcDbEntity
  8
ninja1 - Level 25
  6
Continuous
 62
     7
370
    13
100
AcDbLine
 10
3.618369
 20
3.310717
 30
0.0
 11
2.832369
 21
3.310717
 31
0.0
  0
LINE
  5
700
330
913
100
AcDbEntity
  8
ninja1 - Level 25
  6
Continuous
 62
     7
370
    13
100
AcDbLine
 10
2.832369
 20
3.276717
 30
0.0
 11
3.618369
 21
3.276717
 31
0.0
  0
LINE
  5
701
330
913
100
AcDbEntity
  8
ninja1 - Level 25
  6
Continuous
 62
     7
370
    13
100
AcDbLine
 10
3.618369
 20
4.268217
 30
0.0
 11
2.832369
 21
4.268217
 31
0.0
  0
LINE
  5
702
330
913
100
AcDbEntity
  8
ninja1 - Level 25
  6
Continuous
 62
     7
370
    13
100
AcDbLine
 10
2.832369
 20
4.234217
 30
0.0
 11
3.618369
 21
4.234217
 31
0.0
  0
ARC
  5
703
330
913
100
AcDbEntity
  8
ninja1 - Level 26
  6
Continuous
 62
     7
370
    13
100
AcDbCircle
 10
2.740619
 20
3.547219
 30
0.0
 40
0.0125000000000009
100
AcDbArc
 50
268.854008
 51
348.521659
  0
ARC
  5
704
330
913
100
AcDbEntity
  8
ninja1 - Level 26
  6
Continuous
 62
     7
370
    13
100
AcDbCircle
 10
-2.740619
 20
3.602219
 30
0.0
 40
0.0125000000000009
210
0.0
220
0.0
230
-1.0
100
AcDbArc
 50
90.0
 51
168.521659
  0
LINE
  5
705
330
913
100
AcDbEntity
  8
ninja1 - Level 26
  6
Continuous
 62
     7
370
    13
100
AcDbLine
 10
2.728119
 20
3.547222
 30
0.0
 11
2.728119
 21
3.547219
 31
0.0
  0
ARC
  5
706
330
913
100
AcDbEntity
  8
ninja1 - Level 25
  6
Continuous
 62
     7
370
    13
100
AcDbCircle
 10
-2.740369
 20
3.683217
 30
0.0
 40
0.0125
210
0.0
220
0.0
230
-1.0
100
AcDbArc
 50
180.0
 51
357.708037
  0
LINE
  5
707
330
913
100
AcDbEntity
  8
ninja1 - Level 25
  6
Continuous
 62
     7
370
    13
100
AcDbLine
 10
2.752869
 20
3.700717
 30
0.0
 11
2.752869
 21
3.683217
 31
0.0
  0
LINE
  5
708
330
913
100
AcDbEntity
  8
ninja1 - Level 25
  6
Continuous
 62
     7
370
    13
100
AcDbLine
 10
2.752869
 20
3.738217
 30
0.0
 11
2.752869
 21
3.720717
 31
0.0
  0
ARC
  5
709
330
913
100
AcDbEntity
  8
ninja1 - Level 25
  6
Continuous
 62
     7
370
    13
100
AcDbCircle
 10
-2.740369
 20
3.738217
 30
0.0
 40
0.0125
210
0.0
220
0.0
230
-1.0
100
AcDbArc
 50
2.291984
 51
180.0
  0
ARC
  5
70A
330
913
100
AcDbEntity
  8
ninja1 - Level 25
  6
Continuous
 62
     7
370
    13
100
AcDbCircle
 10
-2.727869
 20
3.738217
 30
0.0
 40
0.0005
210
0.0
220
0.0
230
-1.0
100
AcDbArc
 50
270.0
 51
91.145992
  0
LINE
  5
70B
330
913
100
AcDbEntity
  8
ninja1 - Level 25
  6
Continuous
 62
     7
370
    13
100
AcDbLine
 10
2.727869
 20
3.72955
 30
0.0
 11
2.727869
 21
3.737717
 31
0.0
  0
ARC
  5
70C
330
913
100
AcDbEntity
  8
ninja1 - Level 25
  6
Continuous
 62
     7
370
    13
100
AcDbCircle
 10
-2.727869
 20
3.72905
 30
0.0
 40
0.0004999999999985
210
0.0
220
0.0
230
-1.0
100
AcDbArc
 50
270.0
 51
90.0
  0
LINE
  5
70D
330
913
100
AcDbEntity
  8
ninja1 - Level 25
  6
Continuous
 62
     7
370
    13
100
AcDbLine
 10
2.727869
 20
3.720384
 30
0.0
 11
2.727869
 21
3.72855
 31
0.0
  0
ARC
  5
70E
330
913
100
AcDbEntity
  8
ninja1 - Level 25
  6
Continuous
 62
     7
370
    13
100
AcDbCircle
 10
-2.727869
 20
3.719884
 30
0.0
 40
0.0004999999999985
210
0.0
220
0.0
230
-1.0
100
AcDbArc
 50
270.0
 51
90.0
  0
LINE
  5
70F
330
913
100
AcDbEntity
  8
ninja1 - Level 25
  6
Continuous
 62
     7
370
    13
100
AcDbLine
 10
2.727869
 20
3.711217
 30
0.0
 11
2.727869
 21
3.719384
 31
0.0
  0
ARC
  5
710
330
913
100
AcDbEntity
  8
ninja1 - Level 25
  6
Continuous
 62
     7
370
    13
100
AcDbCircle
 10
-2.727869
 20
3.710717
 30
0.0
 40
0.0004999999999985
210
0.0
220
0.0
230
-1.0
100
AcDbArc
 50
270.0
 51
90.0
  0
LINE
  5
711
330
913
100
AcDbEntity
  8
ninja1 - Level 25
  6
Continuous
 62
     7
370
    13
100
AcDbLine
 10
2.727869
 20
3.70205
 30
0.0
 11
2.727869
 21
3.710217
 31
0.0
  0
ARC
  5
712
330
913
100
AcDbEntity
  8
ninja1 - Level 25
  6
Continuous
 62
     7
370
    13
100
AcDbCircle
 10
-2.727869
 20
3.70155
 30
0.0
 40
0.0004999999999985
210
0.0
220
0.0
230
-1.0
100
AcDbArc
 50
270.0
 51
90.0
  0
LINE
  5
713
330
913
100
AcDbEntity
  8
ninja1 - Level 25
  6
Continuous
 62
     7
370
    13
100
AcDbLine
 10
2.727869
 20
3.692884
 30
0.0
 11
2.727869
 21
3.70105
 31
0.0
  0
ARC
  5
714
330
913
100
AcDbEntity
  8
ninja1 - Level 25
  6
Continuous
 62
     7
370
    13
100
AcDbCircle
 10
-2.727869
 20
3.692384
 30
0.0
 40
0.0004999999999985
210
0.0
220
0.0
230
-1.0
100
AcDbArc
 50
270.0
 51
90.0
  0
LINE
  5
715
330
913
100
AcDbEntity
  8
ninja1 - Level 25
  6
Continuous
 62
     7
370
    13
100
AcDbLine
 10
2.727869
 20
3.683717
 30
0.0
 11
2.727869
 21
3.691884
 31
0.0
  0
ARC
  5
716
330
913
100
AcDbEntity
  8
ninja1 - Level 25
  6
Continuous
 62
     7
370
    13
100
AcDbCircle
 10
-2.727869
 20
3.683217
 30
0.0
 40
0.0005
210
0.0
220
0.0
230
-1.0
100
AcDbArc
 50
268.854029
 51
90.0
  0
LINE
  5
717
330
913
100
AcDbEntity
  8
ninja1 - Level 26
  6
Continuous
 62
     7
370
    13
100
AcDbLine
 10
2.757869
 20
3.350342
 30
0.0
 11
2.782869
 21
3.350342
 31
0.0
  0
LINE
  5
718
330
913
100
AcDbEntity
  8
ninja1 - Level 26
  6
Continuous
 62
     7
370
    13
100
AcDbLine
 10
2.782869
 20
3.350342
 30
0.0
 11
2.782869
 21
3.345342
 31
0.0
  0
LINE
  5
719
330
913
100
AcDbEntity
  8
ninja1 - Level 26
  6
Continuous
 62
     7
370
    13
100
AcDbLine
 10
2.782869
 20
3.345342
 30
0.0
 11
2.757869
 21
3.345342
 31
0.0
  0
ARC
  5
71A
330
913
100
AcDbEntity
  8
ninja1 - Level 26
  6
Continuous
 62
     7
370
    13
100
AcDbCircle
 10
2.757869
 20
3.350342
 30
0.0
 40
0.005
100
AcDbArc
 50
180.0
 51
270.0
  0
LINE
  5
71B
330
913
100
AcDbEntity
  8
ninja1 - Level 26
  6
Continuous
 62
     7
370
    13
100
AcDbLine
 10
2.752869
 20
3.350342
 30
0.0
 11
2.752869
 21
3.411224
 31
0.0
  0
LINE
  5
71C
330
913
100
AcDbEntity
  8
ninja1 - Level 26
  6
Continuous
 62
     7
370
    13
100
AcDbLine
 10
2.752869
 20
3.466227
 30
0.0
 11
2.752869
 21
3.547222
 31
0.0
  0
LINE
  5
71D
330
913
100
AcDbEntity
  8
ninja1 - Level 26
  6
Continuous
 62
     7
370
    13
100
AcDbLine
 10
2.752869
 20
3.602222
 30
0.0
 11
2.752869
 21
3.683217
 31
0.0
  0
LINE
  5
71E
330
913
100
AcDbEntity
  8
ninja1 - Level 26
  6
Continuous
 62
     7
370
    13
100
AcDbLine
 10
2.752869
 20
3.738217
 30
0.0
 11
2.752869
 21
3.819217
 31
0.0
  0
LINE
  5
71F
330
913
100
AcDbEntity
  8
ninja1 - Level 26
  6
Continuous
 62
     7
370
    13
100
AcDbLine
 10
2.752869
 20
3.874217
 30
0.0
 11
2.752869
 21
3.955212
 31
0.0
  0
LINE
  5
720
330
913
100
AcDbEntity
  8
ninja1 - Level 26
  6
Continuous
 62
     7
370
    13
100
AcDbLine
 10
2.752869
 20
4.010212
 30
0.0
 11
2.752869
 21
4.091207
 31
0.0
  0
LINE
  5
721
330
913
100
AcDbEntity
  8
ninja1 - Level 26
  6
Continuous
 62
     7
370
    13
100
AcDbLine
 10
2.752869
 20
4.146209
 30
0.0
 11
2.752869
 21
4.207092
 31
0.0
  0
ARC
  5
722
330
913
100
AcDbEntity
  8
ninja1 - Level 26
  6
Continuous
 62
     7
370
    13
100
AcDbCircle
 10
-2.757869
 20
4.207092
 30
0.0
 40
0.005
210
0.0
220
0.0
230
-1.0
100
AcDbArc
 50
0.0
 51
90.0
  0
LINE
  5
723
330
913
100
AcDbEntity
  8
ninja1 - Level 26
  6
Continuous
 62
     7
370
    13
100
AcDbLine
 10
2.782869
 20
4.212092
 30
0.0
 11
2.757869
 21
4.212092
 31
0.0
  0
LINE
  5
724
330
913
100
AcDbEntity
  8
ninja1 - Level 26
  6
Continuous
 62
     7
370
    13
100
AcDbLine
 10
2.782869
 20
4.207092
 30
0.0
 11
2.782869
 21
4.212092
 31
0.0
  0
LINE
  5
725
330
913
100
AcDbEntity
  8
ninja1 - Level 26
  6
Continuous
 62
     7
370
    13
100
AcDbLine
 10
2.757869
 20
4.207092
 30
0.0
 11
2.782869
 21
4.207092
 31
0.0
  0
LINE
  5
726
330
913
100
AcDbEntity
  8
ninja1 - Level 26
  6
Continuous
 62
     7
370
    13
100
AcDbLine
 10
2.757869
 20
4.207092
 30
0.0
 11
2.757869
 21
3.350342
 31
0.0
  0
LINE
  5
727
330
913
100
AcDbEntity
  8
ninja1 - Level 26
  6
Continuous
 62
     7
370
    13
100
AcDbLine
 10
2.787869
 20
4.212092
 30
0.0
 11
2.787869
 21
4.207092
 31
0.0
  0
LINE
  5
728
330
913
100
AcDbEntity
  8
ninja1 - Level 26
  6
Continuous
 62
     7
370
    13
100
AcDbLine
 10
2.782869
 20
4.207092
 30
0.0
 11
2.787869
 21
4.207092
 31
0.0
  0
LINE
  5
729
330
913
100
AcDbEntity
  8
ninja1 - Level 26
  6
Continuous
 62
     7
370
    13
100
AcDbLine
 10
2.787869
 20
4.212092
 30
0.0
 11
2.782869
 21
4.212092
 31
0.0
  0
LINE
  5
72A
330
913
100
AcDbEntity
  8
ninja1 - Level 26
  6
Continuous
 62
     7
370
    13
100
AcDbLine
 10
2.787869
 20
3.345342
 30
0.0
 11
2.787869
 21
3.350342
 31
0.0
  0
LINE
  5
72B
330
913
100
AcDbEntity
  8
ninja1 - Level 26
  6
Continuous
 62
     7
370
    13
100
AcDbLine
 10
2.782869
 20
3.350342
 30
0.0
 11
2.787869
 21
3.350342
 31
0.0
  0
LINE
  5
72C
330
913
100
AcDbEntity
  8
ninja1 - Level 26
  6
Continuous
 62
     7
370
    13
100
AcDbLine
 10
2.787869
 20
3.345342
 30
0.0
 11
2.782869
 21
3.345342
 31
0.0
  0
ARC
  5
72D
330
913
100
AcDbEntity
  8
ninja1 - Level 26
  6
Continuous
 62
     7
370
    13
100
AcDbCircle
 10
2.751869
 20
3.438724
 30
0.0
 40
0.0134749260041462
100
AcDbArc
 50
296.440708
 51
0.0
  0
ARC
  5
72E
330
913
100
AcDbEntity
  8
ninja1 - Level 26
  6
Continuous
 62
     7
370
    13
100
AcDbCircle
 10
2.751869
 20
3.438724
 30
0.0
 40
0.0134749260041462
100
AcDbArc
 50
0.0
 51
63.559292
  0
LINE
  5
72F
330
913
100
AcDbEntity
  8
ninja1 - Level 26
  6
Continuous
 62
     7
370
    13
100
AcDbLine
 10
2.732869
 20
3.466224
 30
0.0
 11
2.732869
 21
3.411224
 31
0.0
  0
ARC
  5
730
330
913
100
AcDbEntity
  8
ninja1 - Level 26
  6
Continuous
 62
     7
370
    13
100
AcDbCircle
 10
2.740369
 20
3.466224
 30
0.0
 40
0.0075000000000009
100
AcDbArc
 50
0.0
 51
180.0
  0
LINE
  5
731
330
913
100
AcDbEntity
  8
ninja1 - Level 26
  6
Continuous
 62
     7
370
    13
100
AcDbLine
 10
2.747869
 20
3.466224
 30
0.0
 11
2.747869
 21
3.411224
 31
0.0
  0
ARC
  5
732
330
913
100
AcDbEntity
  8
ninja1 - Level 26
  6
Continuous
 62
     7
370
    13
100
AcDbCircle
 10
-2.740369
 20
3.411224
 30
0.0
 40
0.0075000000000009
210
0.0
220
0.0
230
-1.0
100
AcDbArc
 50
180.0
 51
360.0
  0
LINE
  5
733
330
913
100
AcDbEntity
  8
ninja1 - Level 26
  6
Continuous
 62
     7
370
    13
100
AcDbLine
 10
2.732869
 20
3.411224
 30
0.0
 11
2.727869
 21
3.411224
 31
0.0
  0
LINE
  5
734
330
913
100
AcDbEntity
  8
ninja1 - Level 26
  6
Continuous
 62
     7
370
    13
100
AcDbLine
 10
2.752869
 20
3.411224
 30
0.0
 11
2.747869
 21
3.411224
 31
0.0
  0
ARC
  5
735
330
913
100
AcDbEntity
  8
ninja1 - Level 26
  6
Continuous
 62
     7
370
    13
100
AcDbCircle
 10
2.740369
 20
3.411224
 30
0.0
 40
0.0125000000000009
100
AcDbArc
 50
180.0
 51
0.0
  0
LINE
  5
736
330
913
100
AcDbEntity
  8
ninja1 - Level 26
  6
Continuous
 62
     7
370
    13
100
AcDbLine
 10
2.747869
 20
3.466224
 30
0.0
 11
2.752869
 21
3.466224
 31
0.0
  0
LINE
  5
737
330
913
100
AcDbEntity
  8
ninja1 - Level 26
  6
Continuous
 62
     7
370
    13
100
AcDbLine
 10
2.752869
 20
3.448727
 30
0.0
 11
2.752869
 21
3.428727
 31
0.0
  0
LINE
  5
738
330
913
100
AcDbEntity
  8
ninja1 - Level 26
  6
Continuous
 62
     7
370
    13
100
AcDbLine
 10
2.752869
 20
3.411227
 30
0.0
 11
2.752869
 21
3.411224
 31
0.0
  0
LINE
  5
739
330
913
100
AcDbEntity
  8
ninja1 - Level 26
  6
Continuous
 62
     7
370
    13
100
AcDbLine
 10
2.727869
 20
3.466224
 30
0.0
 11
2.732869
 21
3.466224
 31
0.0
  0
ARC
  5
73A
330
913
100
AcDbEntity
  8
ninja1 - Level 26
  6
Continuous
 62
     7
370
    13
100
AcDbCircle
 10
-2.740369
 20
3.466224
 30
0.0
 40
0.0125000000000009
210
0.0
220
0.0
230
-1.0
100
AcDbArc
 50
360.0
 51
180.0
  0
LINE
  5
73B
330
913
100
AcDbEntity
  8
ninja1 - Level 26
  6
Continuous
 62
     7
370
    13
100
AcDbLine
 10
2.727869
 20
3.466224
 30
0.0
 11
2.727869
 21
3.465727
 31
0.0
  0
LINE
  5
73C
330
913
100
AcDbEntity
  8
ninja1 - Level 26
  6
Continuous
 62
     7
370
    13
100
AcDbLine
 10
2.727869
 20
3.45756
 30
0.0
 11
2.727869
 21
3.45656
 31
0.0
  0
LINE
  5
73D
330
913
100
AcDbEntity
  8
ninja1 - Level 26
  6
Continuous
 62
     7
370
    13
100
AcDbLine
 10
2.727869
 20
3.448394
 30
0.0
 11
2.727869
 21
3.447394
 31
0.0
  0
LINE
  5
73E
330
913
100
AcDbEntity
  8
ninja1 - Level 26
  6
Continuous
 62
     7
370
    13
100
AcDbLine
 10
2.727869
 20
3.439227
 30
0.0
 11
2.727869
 21
3.438227
 31
0.0
  0
LINE
  5
73F
330
913
100
AcDbEntity
  8
ninja1 - Level 26
  6
Continuous
 62
     7
370
    13
100
AcDbLine
 10
2.727869
 20
3.43006
 30
0.0
 11
2.727869
 21
3.42906
 31
0.0
  0
LINE
  5
740
330
913
100
AcDbEntity
  8
ninja1 - Level 26
  6
Continuous
 62
     7
370
    13
100
AcDbLine
 10
2.727869
 20
3.420894
 30
0.0
 11
2.727869
 21
3.419894
 31
0.0
  0
LINE
  5
741
330
913
100
AcDbEntity
  8
ninja1 - Level 26
  6
Continuous
 62
     7
370
    13
100
AcDbLine
 10
2.727869
 20
3.411727
 30
0.0
 11
2.727869
 21
3.411224
 31
0.0
  0
LINE
  5
742
330
913
100
AcDbEntity
  8
ninja1 - Level 26
  6
Continuous
 62
     7
370
    13
100
AcDbLine
 10
2.697369
 20
3.333717
 30
0.0
 11
2.697369
 21
3.253717
 31
0.0
  0
ARC
  5
743
330
913
100
AcDbEntity
  8
ninja1 - Level 26
  6
Continuous
 62
     7
370
    13
100
AcDbCircle
 10
2.700369
 20
3.333717
 30
0.0
 40
0.003
100
AcDbArc
 50
90.0
 51
180.0
  0
LINE
  5
744
330
913
100
AcDbEntity
  8
ninja1 - Level 26
  6
Continuous
 62
     7
370
    13
100
AcDbLine
 10
2.780369
 20
3.336717
 30
0.0
 11
2.700369
 21
3.336717
 31
0.0
  0
ARC
  5
745
330
913
100
AcDbEntity
  8
ninja1 - Level 26
  6
Continuous
 62
     7
370
    13
100
AcDbCircle
 10
2.780369
 20
3.333717
 30
0.0
 40
0.003
100
AcDbArc
 50
0.0
 51
90.0
  0
LINE
  5
746
330
913
100
AcDbEntity
  8
ninja1 - Level 26
  6
Continuous
 62
     7
370
    13
100
AcDbLine
 10
2.783369
 20
3.253717
 30
0.0
 11
2.783369
 21
3.333717
 31
0.0
  0
ARC
  5
747
330
913
100
AcDbEntity
  8
ninja1 - Level 26
  6
Continuous
 62
     7
370
    13
100
AcDbCircle
 10
2.780369
 20
3.253717
 30
0.0
 40
0.003
100
AcDbArc
 50
270.0
 51
0.0
  0
LINE
  5
748
330
913
100
AcDbEntity
  8
ninja1 - Level 26
  6
Continuous
 62
     7
370
    13
100
AcDbLine
 10
2.700369
 20
3.250717
 30
0.0
 11
2.780369
 21
3.250717
 31
0.0
  0
ARC
  5
749
330
913
100
AcDbEntity
  8
ninja1 - Level 26
  6
Continuous
 62
     7
370
    13
100
AcDbCircle
 10
2.700369
 20
3.253717
 30
0.0
 40
0.003
100
AcDbArc
 50
180.0
 51
270.0
  0
LINE
  5
74A
330
913
100
AcDbEntity
  8
ninja1 - Level 26
  6
Continuous
 62
     7
370
    13
100
AcDbLine
 10
2.700369
 20
3.343717
 30
0.0
 11
2.780369
 21
3.343717
 31
0.0
  0
LINE
  5
74B
330
913
100
AcDbEntity
  8
ninja1 - Level 26
  6
Continuous
 62
     7
370
    13
100
AcDbLine
 10
2.780369
 20
3.336717
 30
0.0
 11
2.780369
 21
3.343717
 31
0.0
  0
LINE
  5
74C
330
913
100
AcDbEntity
  8
ninja1 - Level 26
  6
Continuous
 62
     7
370
    13
100
AcDbLine
 10
2.700369
 20
3.343717
 30
0.0
 11
2.700369
 21
3.336717
 31
0.0
  0
ARC
  5
74D
330
913
100
AcDbEntity
  8
ninja1 - Level 26
  6
Continuous
 62
     7
370
    13
100
AcDbCircle
 10
-2.780369
 20
3.333717
 30
0.0
 40
0.01
210
0.0
220
0.0
230
-1.0
100
AcDbArc
 50
90.0
 51
180.0
  0
LINE
  5
74E
330
913
100
AcDbEntity
  8
ninja1 - Level 26
  6
Continuous
 62
     7
370
    13
100
AcDbLine
 10
2.783369
 20
3.333717
 30
0.0
 11
2.790369
 21
3.333717
 31
0.0
  0
LINE
  5
74F
330
913
100
AcDbEntity
  8
ninja1 - Level 26
  6
Continuous
 62
     7
370
    13
100
AcDbLine
 10
2.690369
 20
3.333717
 30
0.0
 11
2.697369
 21
3.333717
 31
0.0
  0
ARC
  5
750
330
913
100
AcDbEntity
  8
ninja1 - Level 26
  6
Continuous
 62
     7
370
    13
100
AcDbCircle
 10
-2.700369
 20
3.333717
 30
0.0
 40
0.01
210
0.0
220
0.0
230
-1.0
100
AcDbArc
 50
0.0
 51
90.0
  0
LINE
  5
751
330
913
100
AcDbEntity
  8
ninja1 - Level 26
  6
Continuous
 62
     7
370
    13
100
AcDbLine
 10
2.780369
 20
3.243717
 30
0.0
 11
2.700369
 21
3.243717
 31
0.0
  0
LINE
  5
752
330
913
100
AcDbEntity
  8
ninja1 - Level 26
  6
Continuous
 62
     7
370
    13
100
AcDbLine
 10
2.700369
 20
3.243717
 30
0.0
 11
2.700369
 21
3.250717
 31
0.0
  0
LINE
  5
753
330
913
100
AcDbEntity
  8
ninja1 - Level 26
  6
Continuous
 62
     7
370
    13
100
AcDbLine
 10
2.780369
 20
3.250717
 30
0.0
 11
2.780369
 21
3.243717
 31
0.0
  0
LINE
  5
754
330
913
100
AcDbEntity
  8
ninja1 - Level 26
  6
Continuous
 62
     7
370
    13
100
AcDbLine
 10
2.690369
 20
3.253717
 30
0.0
 11
2.697369
 21
3.253717
 31
0.0
  0
LINE
  5
755
330
913
100
AcDbEntity
  8
ninja1 - Level 26
  6
Continuous
 62
     7
370
    13
100
AcDbLine
 10
2.690369
 20
3.253717
 30
0.0
 11
2.690369
 21
3.333717
 31
0.0
  0
ARC
  5
756
330
913
100
AcDbEntity
  8
ninja1 - Level 26
  6
Continuous
 62
     7
370
    13
100
AcDbCircle
 10
-2.780369
 20
3.253717
 30
0.0
 40
0.01
210
0.0
220
0.0
230
-1.0
100
AcDbArc
 50
180.0
 51
270.0
  0
LINE
  5
757
330
913
100
AcDbEntity
  8
ninja1 - Level 26
  6
Continuous
 62
     7
370
    13
100
AcDbLine
 10
2.783369
 20
3.253717
 30
0.0
 11
2.790369
 21
3.253717
 31
0.0
  0
ARC
  5
758
330
913
100
AcDbEntity
  8
ninja1 - Level 26
  6
Continuous
 62
     7
370
    13
100
AcDbCircle
 10
-2.700369
 20
3.253717
 30
0.0
 40
0.01
210
0.0
220
0.0
230
-1.0
100
AcDbArc
 50
270.0
 51
0.0
  0
LINE
  5
759
330
913
100
AcDbEntity
  8
ninja1 - Level 26
  6
Continuous
 62
     7
370
    13
100
AcDbLine
 10
2.790369
 20
3.333717
 30
0.0
 11
2.790369
 21
3.253717
 31
0.0
  0
ARC
  5
75A
330
913
100
AcDbEntity
  8
ninja1 - Level 25
  6
Continuous
 62
     7
370
    13
100
AcDbCircle
 10
3.710369
 20
3.683217
 30
0.0
 40
0.0125
100
AcDbArc
 50
180.0
 51
357.708037
  0
LINE
  5
75B
330
913
100
AcDbEntity
  8
ninja1 - Level 25
  6
Continuous
 62
     7
370
    13
100
AcDbLine
 10
3.697869
 20
3.700717
 30
0.0
 11
3.697869
 21
3.683217
 31
0.0
  0
LINE
  5
75C
330
913
100
AcDbEntity
  8
ninja1 - Level 25
  6
Continuous
 62
     7
370
    13
100
AcDbLine
 10
3.697869
 20
3.738217
 30
0.0
 11
3.697869
 21
3.720717
 31
0.0
  0
ARC
  5
75D
330
913
100
AcDbEntity
  8
ninja1 - Level 25
  6
Continuous
 62
     7
370
    13
100
AcDbCircle
 10
3.710369
 20
3.738217
 30
0.0
 40
0.0125
100
AcDbArc
 50
2.291984
 51
180.0
  0
ARC
  5
75E
330
913
100
AcDbEntity
  8
ninja1 - Level 25
  6
Continuous
 62
     7
370
    13
100
AcDbCircle
 10
3.722869
 20
3.738217
 30
0.0
 40
0.0005
100
AcDbArc
 50
270.0
 51
91.145992
  0
LINE
  5
75F
330
913
100
AcDbEntity
  8
ninja1 - Level 25
  6
Continuous
 62
     7
370
    13
100
AcDbLine
 10
3.722869
 20
3.72955
 30
0.0
 11
3.722869
 21
3.737717
 31
0.0
  0
ARC
  5
760
330
913
100
AcDbEntity
  8
ninja1 - Level 25
  6
Continuous
 62
     7
370
    13
100
AcDbCircle
 10
3.722869
 20
3.72905
 30
0.0
 40
0.0004999999999985
100
AcDbArc
 50
270.0
 51
90.0
  0
LINE
  5
761
330
913
100
AcDbEntity
  8
ninja1 - Level 25
  6
Continuous
 62
     7
370
    13
100
AcDbLine
 10
3.722869
 20
3.720384
 30
0.0
 11
3.722869
 21
3.72855
 31
0.0
  0
ARC
  5
762
330
913
100
AcDbEntity
  8
ninja1 - Level 25
  6
Continuous
 62
     7
370
    13
100
AcDbCircle
 10
3.722869
 20
3.719884
 30
0.0
 40
0.0004999999999985
100
AcDbArc
 50
270.0
 51
90.0
  0
LINE
  5
763
330
913
100
AcDbEntity
  8
ninja1 - Level 25
  6
Continuous
 62
     7
370
    13
100
AcDbLine
 10
3.722869
 20
3.711217
 30
0.0
 11
3.722869
 21
3.719384
 31
0.0
  0
ARC
  5
764
330
913
100
AcDbEntity
  8
ninja1 - Level 25
  6
Continuous
 62
     7
370
    13
100
AcDbCircle
 10
3.722869
 20
3.710717
 30
0.0
 40
0.0004999999999985
100
AcDbArc
 50
270.0
 51
90.0
  0
LINE
  5
765
330
913
100
AcDbEntity
  8
ninja1 - Level 25
  6
Continuous
 62
     7
370
    13
100
AcDbLine
 10
3.722869
 20
3.70205
 30
0.0
 11
3.722869
 21
3.710217
 31
0.0
  0
ARC
  5
766
330
913
100
AcDbEntity
  8
ninja1 - Level 25
  6
Continuous
 62
     7
370
    13
100
AcDbCircle
 10
3.722869
 20
3.70155
 30
0.0
 40
0.0004999999999985
100
AcDbArc
 50
270.0
 51
90.0
  0
LINE
  5
767
330
913
100
AcDbEntity
  8
ninja1 - Level 25
  6
Continuous
 62
     7
370
    13
100
AcDbLine
 10
3.722869
 20
3.692884
 30
0.0
 11
3.722869
 21
3.70105
 31
0.0
  0
ARC
  5
768
330
913
100
AcDbEntity
  8
ninja1 - Level 25
  6
Continuous
 62
     7
370
    13
100
AcDbCircle
 10
3.722869
 20
3.692384
 30
0.0
 40
0.0004999999999985
100
AcDbArc
 50
270.0
 51
90.0
  0
LINE
  5
769
330
913
100
AcDbEntity
  8
ninja1 - Level 25
  6
Continuous
 62
     7
370
    13
100
AcDbLine
 10
3.722869
 20
3.683717
 30
0.0
 11
3.722869
 21
3.691884
 31
0.0
  0
ARC
  5
76A
330
913
100
AcDbEntity
  8
ninja1 - Level 25
  6
Continuous
 62
     7
370
    13
100
AcDbCircle
 10
3.722869
 20
3.683217
 30
0.0
 40
0.0005
100
AcDbArc
 50
268.854029
 51
90.0
  0
LINE
  5
76B
330
913
100
AcDbEntity
  8
ninja1 - Level 26
  6
Continuous
 62
     7
370
    13
100
AcDbLine
 10
3.692869
 20
4.207092
 30
0.0
 11
3.66787
 21
4.207092
 31
0.0
  0
LINE
  5
76C
330
913
100
AcDbEntity
  8
ninja1 - Level 26
  6
Continuous
 62
     7
370
    13
100
AcDbLine
 10
3.66787
 20
4.207092
 30
0.0
 11
3.66787
 21
4.212092
 31
0.0
  0
LINE
  5
76D
330
913
100
AcDbEntity
  8
ninja1 - Level 26
  6
Continuous
 62
     7
370
    13
100
AcDbLine
 10
3.66787
 20
4.212092
 30
0.0
 11
3.692869
 21
4.212092
 31
0.0
  0
ARC
  5
76E
330
913
100
AcDbEntity
  8
ninja1 - Level 26
  6
Continuous
 62
     7
370
    13
100
AcDbCircle
 10
3.692869
 20
4.207092
 30
0.0
 40
0.005
100
AcDbArc
 50
0.0
 51
90.0
  0
LINE
  5
76F
330
913
100
AcDbEntity
  8
ninja1 - Level 26
  6
Continuous
 62
     7
370
    13
100
AcDbLine
 10
3.697869
 20
3.350342
 30
0.0
 11
3.697869
 21
3.411224
 31
0.0
  0
LINE
  5
770
330
913
100
AcDbEntity
  8
ninja1 - Level 26
  6
Continuous
 62
     7
370
    13
100
AcDbLine
 10
3.697869
 20
3.466227
 30
0.0
 11
3.697869
 21
3.547222
 31
0.0
  0
LINE
  5
771
330
913
100
AcDbEntity
  8
ninja1 - Level 26
  6
Continuous
 62
     7
370
    13
100
AcDbLine
 10
3.697869
 20
3.602222
 30
0.0
 11
3.697869
 21
3.683217
 31
0.0
  0
LINE
  5
772
330
913
100
AcDbEntity
  8
ninja1 - Level 26
  6
Continuous
 62
     7
370
    13
100
AcDbLine
 10
3.697869
 20
3.738217
 30
0.0
 11
3.697869
 21
3.819217
 31
0.0
  0
LINE
  5
773
330
913
100
AcDbEntity
  8
ninja1 - Level 26
  6
Continuous
 62
     7
370
    13
100
AcDbLine
 10
3.697869
 20
3.874217
 30
0.0
 11
3.697869
 21
3.955212
 31
0.0
  0
LINE
  5
774
330
913
100
AcDbEntity
  8
ninja1 - Level 26
  6
Continuous
 62
     7
370
    13
100
AcDbLine
 10
3.697869
 20
4.010212
 30
0.0
 11
3.697869
 21
4.091207
 31
0.0
  0
LINE
  5
775
330
913
100
AcDbEntity
  8
ninja1 - Level 26
  6
Continuous
 62
     7
370
    13
100
AcDbLine
 10
3.697869
 20
4.146209
 30
0.0
 11
3.697869
 21
4.207092
 31
0.0
  0
ARC
  5
776
330
913
100
AcDbEntity
  8
ninja1 - Level 26
  6
Continuous
 62
     7
370
    13
100
AcDbCircle
 10
-3.692869
 20
3.350342
 30
0.0
 40
0.005
210
0.0
220
0.0
230
-1.0
100
AcDbArc
 50
180.0
 51
270.0
  0
LINE
  5
777
330
913
100
AcDbEntity
  8
ninja1 - Level 26
  6
Continuous
 62
     7
370
    13
100
AcDbLine
 10
3.66787
 20
3.345342
 30
0.0
 11
3.692869
 21
3.345342
 31
0.0
  0
LINE
  5
778
330
913
100
AcDbEntity
  8
ninja1 - Level 26
  6
Continuous
 62
     7
370
    13
100
AcDbLine
 10
3.66787
 20
3.350342
 30
0.0
 11
3.66787
 21
3.345342
 31
0.0
  0
LINE
  5
779
330
913
100
AcDbEntity
  8
ninja1 - Level 26
  6
Continuous
 62
     7
370
    13
100
AcDbLine
 10
3.692869
 20
3.350342
 30
0.0
 11
3.66787
 21
3.350342
 31
0.0
  0
LINE
  5
77A
330
913
100
AcDbEntity
  8
ninja1 - Level 26
  6
Continuous
 62
     7
370
    13
100
AcDbLine
 10
3.692869
 20
4.207092
 30
0.0
 11
3.692869
 21
3.350342
 31
0.0
  0
LINE
  5
77B
330
913
100
AcDbEntity
  8
ninja1 - Level 26
  6
Continuous
 62
     7
370
    13
100
AcDbLine
 10
3.66287
 20
4.212092
 30
0.0
 11
3.66287
 21
4.207092
 31
0.0
  0
LINE
  5
77C
330
913
100
AcDbEntity
  8
ninja1 - Level 26
  6
Continuous
 62
     7
370
    13
100
AcDbLine
 10
3.66787
 20
4.207092
 30
0.0
 11
3.66287
 21
4.207092
 31
0.0
  0
LINE
  5
77D
330
913
100
AcDbEntity
  8
ninja1 - Level 26
  6
Continuous
 62
     7
370
    13
100
AcDbLine
 10
3.66287
 20
4.212092
 30
0.0
 11
3.66787
 21
4.212092
 31
0.0
  0
LINE
  5
77E
330
913
100
AcDbEntity
  8
ninja1 - Level 26
  6
Continuous
 62
     7
370
    13
100
AcDbLine
 10
3.66287
 20
3.345342
 30
0.0
 11
3.66287
 21
3.350342
 31
0.0
  0
LINE
  5
77F
330
913
100
AcDbEntity
  8
ninja1 - Level 26
  6
Continuous
 62
     7
370
    13
100
AcDbLine
 10
3.66787
 20
3.350342
 30
0.0
 11
3.66287
 21
3.350342
 31
0.0
  0
LINE
  5
780
330
913
100
AcDbEntity
  8
ninja1 - Level 26
  6
Continuous
 62
     7
370
    13
100
AcDbLine
 10
3.66287
 20
3.345342
 30
0.0
 11
3.66787
 21
3.345342
 31
0.0
  0
ARC
  5
781
330
913
100
AcDbEntity
  8
ninja1 - Level 26
  6
Continuous
 62
     7
370
    13
100
AcDbCircle
 10
3.698869
 20
3.438724
 30
0.0
 40
0.0134749260041462
100
AcDbArc
 50
116.440708
 51
243.559292
  0
ARC
  5
782
330
913
100
AcDbEntity
  8
ninja1 - Level 26
  6
Continuous
 62
     7
370
    13
100
AcDbCircle
 10
3.698869
 20
3.574722
 30
0.0
 40
0.0134749260041462
100
AcDbArc
 50
116.440708
 51
243.559292
  0
ARC
  5
783
330
913
100
AcDbEntity
  8
ninja1 - Level 26
  6
Continuous
 62
     7
370
    13
100
AcDbCircle
 10
3.698869
 20
3.710717
 30
0.0
 40
0.0134749260041462
100
AcDbArc
 50
116.440708
 51
243.559292
  0
LINE
  5
784
330
913
100
AcDbEntity
  8
ninja1 - Level 26
  6
Continuous
 62
     7
370
    13
100
AcDbLine
 10
3.702869
 20
3.466224
 30
0.0
 11
3.702869
 21
3.411224
 31
0.0
  0
ARC
  5
785
330
913
100
AcDbEntity
  8
ninja1 - Level 26
  6
Continuous
 62
     7
370
    13
100
AcDbCircle
 10
-3.710369
 20
3.466224
 30
0.0
 40
0.0075000000000009
210
0.0
220
0.0
230
-1.0
100
AcDbArc
 50
0.0
 51
180.0
  0
LINE
  5
786
330
913
100
AcDbEntity
  8
ninja1 - Level 26
  6
Continuous
 62
     7
370
    13
100
AcDbLine
 10
3.717869
 20
3.466224
 30
0.0
 11
3.717869
 21
3.411224
 31
0.0
  0
ARC
  5
787
330
913
100
AcDbEntity
  8
ninja1 - Level 26
  6
Continuous
 62
     7
370
    13
100
AcDbCircle
 10
3.710369
 20
3.411224
 30
0.0
 40
0.0075000000000009
100
AcDbArc
 50
180.0
 51
360.0
  0
LINE
  5
788
330
913
100
AcDbEntity
  8
ninja1 - Level 26
  6
Continuous
 62
     7
370
    13
100
AcDbLine
 10
3.697869
 20
3.411224
 30
0.0
 11
3.702869
 21
3.411224
 31
0.0
  0
LINE
  5
789
330
913
100
AcDbEntity
  8
ninja1 - Level 26
  6
Continuous
 62
     7
370
    13
100
AcDbLine
 10
3.717869
 20
3.411224
 30
0.0
 11
3.722869
 21
3.411224
 31
0.0
  0
ARC
  5
78A
330
913
100
AcDbEntity
  8
ninja1 - Level 26
  6
Continuous
 62
     7
370
    13
100
AcDbCircle
 10
-3.710369
 20
3.411224
 30
0.0
 40
0.0125000000000009
210
0.0
220
0.0
230
-1.0
100
AcDbArc
 50
180.0
 51
0.0
  0
LINE
  5
78B
330
913
100
AcDbEntity
  8
ninja1 - Level 26
  6
Continuous
 62
     7
370
    13
100
AcDbLine
 10
3.697869
 20
3.448727
 30
0.0
 11
3.697869
 21
3.428727
 31
0.0
  0
LINE
  5
78C
330
913
100
AcDbEntity
  8
ninja1 - Level 26
  6
Continuous
 62
     7
370
    13
100
AcDbLine
 10
3.697869
 20
3.411227
 30
0.0
 11
3.697869
 21
3.411224
 31
0.0
  0
LINE
  5
78D
330
913
100
AcDbEntity
  8
ninja1 - Level 26
  6
Continuous
 62
     7
370
    13
100
AcDbLine
 10
3.702869
 20
3.466224
 30
0.0
 11
3.697869
 21
3.466224
 31
0.0
  0
LINE
  5
78E
330
913
100
AcDbEntity
  8
ninja1 - Level 26
  6
Continuous
 62
     7
370
    13
100
AcDbLine
 10
3.722869
 20
3.466224
 30
0.0
 11
3.717869
 21
3.466224
 31
0.0
  0
ARC
  5
78F
330
913
100
AcDbEntity
  8
ninja1 - Level 26
  6
Continuous
 62
     7
370
    13
100
AcDbCircle
 10
3.710369
 20
3.466224
 30
0.0
 40
0.0125000000000009
100
AcDbArc
 50
360.0
 51
180.0
  0
LINE
  5
790
330
913
100
AcDbEntity
  8
ninja1 - Level 26
  6
Continuous
 62
     7
370
    13
100
AcDbLine
 10
3.722869
 20
3.466224
 30
0.0
 11
3.722869
 21
3.465727
 31
0.0
  0
LINE
  5
791
330
913
100
AcDbEntity
  8
ninja1 - Level 26
  6
Continuous
 62
     7
370
    13
100
AcDbLine
 10
3.722869
 20
3.45756
 30
0.0
 11
3.722869
 21
3.45656
 31
0.0
  0
LINE
  5
792
330
913
100
AcDbEntity
  8
ninja1 - Level 26
  6
Continuous
 62
     7
370
    13
100
AcDbLine
 10
3.722869
 20
3.448394
 30
0.0
 11
3.722869
 21
3.447394
 31
0.0
  0
LINE
  5
793
330
913
100
AcDbEntity
  8
ninja1 - Level 26
  6
Continuous
 62
     7
370
    13
100
AcDbLine
 10
3.722869
 20
3.439227
 30
0.0
 11
3.722869
 21
3.438227
 31
0.0
  0
LINE
  5
794
330
913
100
AcDbEntity
  8
ninja1 - Level 26
  6
Continuous
 62
     7
370
    13
100
AcDbLine
 10
3.722869
 20
3.43006
 30
0.0
 11
3.722869
 21
3.42906
 31
0.0
  0
LINE
  5
795
330
913
100
AcDbEntity
  8
ninja1 - Level 26
  6
Continuous
 62
     7
370
    13
100
AcDbLine
 10
3.722869
 20
3.420894
 30
0.0
 11
3.722869
 21
3.419894
 31
0.0
  0
LINE
  5
796
330
913
100
AcDbEntity
  8
ninja1 - Level 26
  6
Continuous
 62
     7
370
    13
100
AcDbLine
 10
3.722869
 20
3.411727
 30
0.0
 11
3.722869
 21
3.411224
 31
0.0
  0
LINE
  5
797
330
913
100
AcDbEntity
  8
ninja1 - Level 26
  6
Continuous
 62
     7
370
    13
100
AcDbLine
 10
3.702869
 20
3.602222
 30
0.0
 11
3.702869
 21
3.547222
 31
0.0
  0
ARC
  5
798
330
913
100
AcDbEntity
  8
ninja1 - Level 26
  6
Continuous
 62
     7
370
    13
100
AcDbCircle
 10
-3.710369
 20
3.602222
 30
0.0
 40
0.0075000000000009
210
0.0
220
0.0
230
-1.0
100
AcDbArc
 50
0.0
 51
180.0
  0
LINE
  5
799
330
913
100
AcDbEntity
  8
ninja1 - Level 26
  6
Continuous
 62
     7
370
    13
100
AcDbLine
 10
3.717869
 20
3.602222
 30
0.0
 11
3.717869
 21
3.547222
 31
0.0
  0
ARC
  5
79A
330
913
100
AcDbEntity
  8
ninja1 - Level 26
  6
Continuous
 62
     7
370
    13
100
AcDbCircle
 10
3.710369
 20
3.547222
 30
0.0
 40
0.0075000000000009
100
AcDbArc
 50
180.0
 51
360.0
  0
LINE
  5
79B
330
913
100
AcDbEntity
  8
ninja1 - Level 26
  6
Continuous
 62
     7
370
    13
100
AcDbLine
 10
3.697869
 20
3.547222
 30
0.0
 11
3.702869
 21
3.547222
 31
0.0
  0
LINE
  5
79C
330
913
100
AcDbEntity
  8
ninja1 - Level 26
  6
Continuous
 62
     7
370
    13
100
AcDbLine
 10
3.717869
 20
3.547222
 30
0.0
 11
3.722869
 21
3.547222
 31
0.0
  0
ARC
  5
79D
330
913
100
AcDbEntity
  8
ninja1 - Level 26
  6
Continuous
 62
     7
370
    13
100
AcDbCircle
 10
-3.710369
 20
3.547222
 30
0.0
 40
0.0125000000000009
210
0.0
220
0.0
230
-1.0
100
AcDbArc
 50
357.708037
 51
0.0
  0
LINE
  5
79E
330
913
100
AcDbEntity
  8
ninja1 - Level 26
  6
Continuous
 62
     7
370
    13
100
AcDbLine
 10
3.697869
 20
3.584722
 30
0.0
 11
3.697869
 21
3.564722
 31
0.0
  0
LINE
  5
79F
330
913
100
AcDbEntity
  8
ninja1 - Level 26
  6
Continuous
 62
     7
370
    13
100
AcDbLine
 10
3.702869
 20
3.602222
 30
0.0
 11
3.697869
 21
3.602222
 31
0.0
  0
LINE
  5
7A0
330
913
100
AcDbEntity
  8
ninja1 - Level 26
  6
Continuous
 62
     7
370
    13
100
AcDbLine
 10
3.722869
 20
3.602222
 30
0.0
 11
3.717869
 21
3.602222
 31
0.0
  0
ARC
  5
7A1
330
913
100
AcDbEntity
  8
ninja1 - Level 26
  6
Continuous
 62
     7
370
    13
100
AcDbCircle
 10
3.710369
 20
3.602222
 30
0.0
 40
0.0125000000000009
100
AcDbArc
 50
360.0
 51
2.291984
  0
LINE
  5
7A2
330
913
100
AcDbEntity
  8
ninja1 - Level 26
  6
Continuous
 62
     7
370
    13
100
AcDbLine
 10
3.722869
 20
3.602222
 30
0.0
 11
3.722869
 21
3.601722
 31
0.0
  0
LINE
  5
7A3
330
913
100
AcDbEntity
  8
ninja1 - Level 26
  6
Continuous
 62
     7
370
    13
100
AcDbLine
 10
3.722869
 20
3.593555
 30
0.0
 11
3.722869
 21
3.592555
 31
0.0
  0
LINE
  5
7A4
330
913
100
AcDbEntity
  8
ninja1 - Level 26
  6
Continuous
 62
     7
370
    13
100
AcDbLine
 10
3.722869
 20
3.584389
 30
0.0
 11
3.722869
 21
3.583389
 31
0.0
  0
LINE
  5
7A5
330
913
100
AcDbEntity
  8
ninja1 - Level 26
  6
Continuous
 62
     7
370
    13
100
AcDbLine
 10
3.722869
 20
3.575222
 30
0.0
 11
3.722869
 21
3.574222
 31
0.0
  0
LINE
  5
7A6
330
913
100
AcDbEntity
  8
ninja1 - Level 26
  6
Continuous
 62
     7
370
    13
100
AcDbLine
 10
3.722869
 20
3.566055
 30
0.0
 11
3.722869
 21
3.565055
 31
0.0
  0
LINE
  5
7A7
330
913
100
AcDbEntity
  8
ninja1 - Level 26
  6
Continuous
 62
     7
370
    13
100
AcDbLine
 10
3.722869
 20
3.556889
 30
0.0
 11
3.722869
 21
3.555889
 31
0.0
  0
LINE
  5
7A8
330
913
100
AcDbEntity
  8
ninja1 - Level 26
  6
Continuous
 62
     7
370
    13
100
AcDbLine
 10
3.722869
 20
3.547722
 30
0.0
 11
3.722869
 21
3.547222
 31
0.0
  0
LINE
  5
7A9
330
913
100
AcDbEntity
  8
ninja1 - Level 26
  6
Continuous
 62
     7
370
    13
100
AcDbLine
 10
3.702869
 20
3.738217
 30
0.0
 11
3.702869
 21
3.683217
 31
0.0
  0
ARC
  5
7AA
330
913
100
AcDbEntity
  8
ninja1 - Level 26
  6
Continuous
 62
     7
370
    13
100
AcDbCircle
 10
-3.710369
 20
3.738217
 30
0.0
 40
0.0075000000000009
210
0.0
220
0.0
230
-1.0
100
AcDbArc
 50
0.0
 51
180.0
  0
LINE
  5
7AB
330
913
100
AcDbEntity
  8
ninja1 - Level 26
  6
Continuous
 62
     7
370
    13
100
AcDbLine
 10
3.717869
 20
3.738217
 30
0.0
 11
3.717869
 21
3.683217
 31
0.0
  0
ARC
  5
7AC
330
913
100
AcDbEntity
  8
ninja1 - Level 26
  6
Continuous
 62
     7
370
    13
100
AcDbCircle
 10
3.710369
 20
3.683217
 30
0.0
 40
0.0075000000000009
100
AcDbArc
 50
180.0
 51
0.0
  0
LINE
  5
7AD
330
913
100
AcDbEntity
  8
ninja1 - Level 26
  6
Continuous
 62
     7
370
    13
100
AcDbLine
 10
3.697869
 20
3.683217
 30
0.0
 11
3.702869
 21
3.683217
 31
0.0
  0
LINE
  5
7AE
330
913
100
AcDbEntity
  8
ninja1 - Level 26
  6
Continuous
 62
     7
370
    13
100
AcDbLine
 10
3.717869
 20
3.683217
 30
0.0
 11
3.722869
 21
3.683217
 31
0.0
  0
ARC
  5
7AF
330
913
100
AcDbEntity
  8
ninja1 - Level 26
  6
Continuous
 62
     7
370
    13
100
AcDbCircle
 10
-3.710369
 20
3.683217
 30
0.0
 40
0.0125000000000009
210
0.0
220
0.0
230
-1.0
100
AcDbArc
 50
357.708037
 51
0.0
  0
LINE
  5
7B0
330
913
100
AcDbEntity
  8
ninja1 - Level 26
  6
Continuous
 62
     7
370
    13
100
AcDbLine
 10
3.697869
 20
3.720717
 30
0.0
 11
3.697869
 21
3.700717
 31
0.0
  0
LINE
  5
7B1
330
913
100
AcDbEntity
  8
ninja1 - Level 26
  6
Continuous
 62
     7
370
    13
100
AcDbLine
 10
3.702869
 20
3.738217
 30
0.0
 11
3.697869
 21
3.738217
 31
0.0
  0
LINE
  5
7B2
330
913
100
AcDbEntity
  8
ninja1 - Level 26
  6
Continuous
 62
     7
370
    13
100
AcDbLine
 10
3.722869
 20
3.738217
 30
0.0
 11
3.717869
 21
3.738217
 31
0.0
  0
ARC
  5
7B3
330
913
100
AcDbEntity
  8
ninja1 - Level 26
  6
Continuous
 62
     7
370
    13
100
AcDbCircle
 10
3.710369
 20
3.738217
 30
0.0
 40
0.0125000000000009
100
AcDbArc
 50
360.0
 51
2.291984
  0
LINE
  5
7B4
330
913
100
AcDbEntity
  8
ninja1 - Level 26
  6
Continuous
 62
     7
370
    13
100
AcDbLine
 10
3.722869
 20
3.738217
 30
0.0
 11
3.722869
 21
3.737717
 31
0.0
  0
LINE
  5
7B5
330
913
100
AcDbEntity
  8
ninja1 - Level 26
  6
Continuous
 62
     7
370
    13
100
AcDbLine
 10
3.722869
 20
3.72955
 30
0.0
 11
3.722869
 21
3.72855
 31
0.0
  0
LINE
  5
7B6
330
913
100
AcDbEntity
  8
ninja1 - Level 26
  6
Continuous
 62
     7
370
    13
100
AcDbLine
 10
3.722869
 20
3.720384
 30
0.0
 11
3.722869
 21
3.719384
 31
0.0
  0
LINE
  5
7B7
330
913
100
AcDbEntity
  8
ninja1 - Level 26
  6
Continuous
 62
     7
370
    13
100
AcDbLine
 10
3.722869
 20
3.711217
 30
0.0
 11
3.722869
 21
3.710217
 31
0.0
  0
LINE
  5
7B8
330
913
100
AcDbEntity
  8
ninja1 - Level 26
  6
Continuous
 62
     7
370
    13
100
AcDbLine
 10
3.722869
 20
3.70205
 30
0.0
 11
3.722869
 21
3.70105
 31
0.0
  0
LINE
  5
7B9
330
913
100
AcDbEntity
  8
ninja1 - Level 26
  6
Continuous
 62
     7
370
    13
100
AcDbLine
 10
3.722869
 20
3.692884
 30
0.0
 11
3.722869
 21
3.691884
 31
0.0
  0
LINE
  5
7BA
330
913
100
AcDbEntity
  8
ninja1 - Level 26
  6
Continuous
 62
     7
370
    13
100
AcDbLine
 10
3.722869
 20
3.683717
 30
0.0
 11
3.722869
 21
3.683217
 31
0.0
  0
LINE
  5
7BB
330
913
100
AcDbEntity
  8
ninja1 - Level 26
  6
Continuous
 62
     7
370
    13
100
AcDbLine
 10
3.750369
 20
3.250717
 30
0.0
 11
3.670369
 21
3.250717
 31
0.0
  0
ARC
  5
7BC
330
913
100
AcDbEntity
  8
ninja1 - Level 26
  6
Continuous
 62
     7
370
    13
100
AcDbCircle
 10
-3.670369
 20
3.253717
 30
0.0
 40
0.003
210
0.0
220
0.0
230
-1.0
100
AcDbArc
 50
270.0
 51
0.0
  0
LINE
  5
7BD
330
913
100
AcDbEntity
  8
ninja1 - Level 26
  6
Continuous
 62
     7
370
    13
100
AcDbLine
 10
3.667369
 20
3.253717
 30
0.0
 11
3.667369
 21
3.333717
 31
0.0
  0
ARC
  5
7BE
330
913
100
AcDbEntity
  8
ninja1 - Level 26
  6
Continuous
 62
     7
370
    13
100
AcDbCircle
 10
-3.670369
 20
3.333717
 30
0.0
 40
0.003
210
0.0
220
0.0
230
-1.0
100
AcDbArc
 50
0.0
 51
90.0
  0
LINE
  5
7BF
330
913
100
AcDbEntity
  8
ninja1 - Level 26
  6
Continuous
 62
     7
370
    13
100
AcDbLine
 10
3.670369
 20
3.336717
 30
0.0
 11
3.750369
 21
3.336717
 31
0.0
  0
ARC
  5
7C0
330
913
100
AcDbEntity
  8
ninja1 - Level 26
  6
Continuous
 62
     7
370
    13
100
AcDbCircle
 10
-3.750369
 20
3.333717
 30
0.0
 40
0.003
210
0.0
220
0.0
230
-1.0
100
AcDbArc
 50
90.0
 51
180.0
  0
LINE
  5
7C1
330
913
100
AcDbEntity
  8
ninja1 - Level 26
  6
Continuous
 62
     7
370
    13
100
AcDbLine
 10
3.753369
 20
3.333717
 30
0.0
 11
3.753369
 21
3.253717
 31
0.0
  0
ARC
  5
7C2
330
913
100
AcDbEntity
  8
ninja1 - Level 26
  6
Continuous
 62
     7
370
    13
100
AcDbCircle
 10
-3.750369
 20
3.253717
 30
0.0
 40
0.003
210
0.0
220
0.0
230
-1.0
100
AcDbArc
 50
180.0
 51
270.0
  0
LINE
  5
7C3
330
913
100
AcDbEntity
  8
ninja1 - Level 26
  6
Continuous
 62
     7
370
    13
100
AcDbLine
 10
3.670369
 20
3.336717
 30
0.0
 11
3.670369
 21
3.343717
 31
0.0
  0
LINE
  5
7C4
330
913
100
AcDbEntity
  8
ninja1 - Level 26
  6
Continuous
 62
     7
370
    13
100
AcDbLine
 10
3.750369
 20
3.343717
 30
0.0
 11
3.670369
 21
3.343717
 31
0.0
  0
LINE
  5
7C5
330
913
100
AcDbEntity
  8
ninja1 - Level 26
  6
Continuous
 62
     7
370
    13
100
AcDbLine
 10
3.750369
 20
3.343717
 30
0.0
 11
3.750369
 21
3.336717
 31
0.0
  0
LINE
  5
7C6
330
913
100
AcDbEntity
  8
ninja1 - Level 26
  6
Continuous
 62
     7
370
    13
100
AcDbLine
 10
3.667369
 20
3.333717
 30
0.0
 11
3.660369
 21
3.333717
 31
0.0
  0
ARC
  5
7C7
330
913
100
AcDbEntity
  8
ninja1 - Level 26
  6
Continuous
 62
     7
370
    13
100
AcDbCircle
 10
3.670369
 20
3.333717
 30
0.0
 40
0.01
100
AcDbArc
 50
90.0
 51
180.0
  0
ARC
  5
7C8
330
913
100
AcDbEntity
  8
ninja1 - Level 26
  6
Continuous
 62
     7
370
    13
100
AcDbCircle
 10
3.750369
 20
3.333717
 30
0.0
 40
0.01
100
AcDbArc
 50
0.0
 51
90.0
  0
LINE
  5
7C9
330
913
100
AcDbEntity
  8
ninja1 - Level 26
  6
Continuous
 62
     7
370
    13
100
AcDbLine
 10
3.760369
 20
3.333717
 30
0.0
 11
3.753369
 21
3.333717
 31
0.0
  0
LINE
  5
7CA
330
913
100
AcDbEntity
  8
ninja1 - Level 26
  6
Continuous
 62
     7
370
    13
100
AcDbLine
 10
3.750369
 20
3.243717
 30
0.0
 11
3.750369
 21
3.250717
 31
0.0
  0
LINE
  5
7CB
330
913
100
AcDbEntity
  8
ninja1 - Level 26
  6
Continuous
 62
     7
370
    13
100
AcDbLine
 10
3.670369
 20
3.243717
 30
0.0
 11
3.750369
 21
3.243717
 31
0.0
  0
LINE
  5
7CC
330
913
100
AcDbEntity
  8
ninja1 - Level 26
  6
Continuous
 62
     7
370
    13
100
AcDbLine
 10
3.670369
 20
3.250717
 30
0.0
 11
3.670369
 21
3.243717
 31
0.0
  0
LINE
  5
7CD
330
913
100
AcDbEntity
  8
ninja1 - Level 26
  6
Continuous
 62
     7
370
    13
100
AcDbLine
 10
3.760369
 20
3.253717
 30
0.0
 11
3.760369
 21
3.333717
 31
0.0
  0
LINE
  5
7CE
330
913
100
AcDbEntity
  8
ninja1 - Level 26
  6
Continuous
 62
     7
370
    13
100
AcDbLine
 10
3.760369
 20
3.253717
 30
0.0
 11
3.753369
 21
3.253717
 31
0.0
  0
ARC
  5
7CF
330
913
100
AcDbEntity
  8
ninja1 - Level 26
  6
Continuous
 62
     7
370
    13
100
AcDbCircle
 10
3.670369
 20
3.253717
 30
0.0
 40
0.01
100
AcDbArc
 50
180.0
 51
270.0
  0
LINE
  5
7D0
330
913
100
AcDbEntity
  8
ninja1 - Level 26
  6
Continuous
 62
     7
370
    13
100
AcDbLine
 10
3.667369
 20
3.253717
 30
0.0
 11
3.660369
 21
3.253717
 31
0.0
  0
ARC
  5
7D1
330
913
100
AcDbEntity
  8
ninja1 - Level 26
  6
Continuous
 62
     7
370
    13
100
AcDbCircle
 10
3.750369
 20
3.253717
 30
0.0
 40
0.01
100
AcDbArc
 50
270.0
 51
0.0
  0
LINE
  5
7D2
330
913
100
AcDbEntity
  8
ninja1 - Level 26
  6
Continuous
 62
     7
370
    13
100
AcDbLine
 10
3.660369
 20
3.333717
 30
0.0
 11
3.660369
 21
3.253717
 31
0.0
  0
ARC
  5
7D3
330
913
100
AcDbEntity
  8
ninja1 - Level 25
  6
Continuous
 62
     7
370
    13
100
AcDbCircle
 10
2.740369
 20
3.874217
 30
0.0
 40
0.0125
100
AcDbArc
 50
360.0
 51
177.708037
  0
LINE
  5
7D4
330
913
100
AcDbEntity
  8
ninja1 - Level 25
  6
Continuous
 62
     7
370
    13
100
AcDbLine
 10
2.752869
 20
3.856717
 30
0.0
 11
2.752869
 21
3.874217
 31
0.0
  0
LINE
  5
7D5
330
913
100
AcDbEntity
  8
ninja1 - Level 25
  6
Continuous
 62
     7
370
    13
100
AcDbLine
 10
2.752869
 20
3.819217
 30
0.0
 11
2.752869
 21
3.836717
 31
0.0
  0
ARC
  5
7D6
330
913
100
AcDbEntity
  8
ninja1 - Level 25
  6
Continuous
 62
     7
370
    13
100
AcDbCircle
 10
2.740369
 20
3.819217
 30
0.0
 40
0.0125
100
AcDbArc
 50
182.291984
 51
360.0
  0
ARC
  5
7D7
330
913
100
AcDbEntity
  8
ninja1 - Level 25
  6
Continuous
 62
     7
370
    13
100
AcDbCircle
 10
2.727869
 20
3.819217
 30
0.0
 40
0.0005
100
AcDbArc
 50
90.0
 51
271.145992
  0
LINE
  5
7D8
330
913
100
AcDbEntity
  8
ninja1 - Level 25
  6
Continuous
 62
     7
370
    13
100
AcDbLine
 10
2.727869
 20
3.827884
 30
0.0
 11
2.727869
 21
3.819717
 31
0.0
  0
ARC
  5
7D9
330
913
100
AcDbEntity
  8
ninja1 - Level 25
  6
Continuous
 62
     7
370
    13
100
AcDbCircle
 10
2.727869
 20
3.828384
 30
0.0
 40
0.0004999999999985
100
AcDbArc
 50
90.0
 51
270.0
  0
LINE
  5
7DA
330
913
100
AcDbEntity
  8
ninja1 - Level 25
  6
Continuous
 62
     7
370
    13
100
AcDbLine
 10
2.727869
 20
3.83705
 30
0.0
 11
2.727869
 21
3.828884
 31
0.0
  0
ARC
  5
7DB
330
913
100
AcDbEntity
  8
ninja1 - Level 25
  6
Continuous
 62
     7
370
    13
100
AcDbCircle
 10
2.727869
 20
3.83755
 30
0.0
 40
0.0004999999999985
100
AcDbArc
 50
90.0
 51
270.0
  0
LINE
  5
7DC
330
913
100
AcDbEntity
  8
ninja1 - Level 25
  6
Continuous
 62
     7
370
    13
100
AcDbLine
 10
2.727869
 20
3.846217
 30
0.0
 11
2.727869
 21
3.83805
 31
0.0
  0
ARC
  5
7DD
330
913
100
AcDbEntity
  8
ninja1 - Level 25
  6
Continuous
 62
     7
370
    13
100
AcDbCircle
 10
2.727869
 20
3.846717
 30
0.0
 40
0.0004999999999985
100
AcDbArc
 50
90.0
 51
270.0
  0
LINE
  5
7DE
330
913
100
AcDbEntity
  8
ninja1 - Level 25
  6
Continuous
 62
     7
370
    13
100
AcDbLine
 10
2.727869
 20
3.855384
 30
0.0
 11
2.727869
 21
3.847217
 31
0.0
  0
ARC
  5
7DF
330
913
100
AcDbEntity
  8
ninja1 - Level 25
  6
Continuous
 62
     7
370
    13
100
AcDbCircle
 10
2.727869
 20
3.855884
 30
0.0
 40
0.0004999999999985
100
AcDbArc
 50
90.0
 51
270.0
  0
LINE
  5
7E0
330
913
100
AcDbEntity
  8
ninja1 - Level 25
  6
Continuous
 62
     7
370
    13
100
AcDbLine
 10
2.727869
 20
3.86455
 30
0.0
 11
2.727869
 21
3.856384
 31
0.0
  0
ARC
  5
7E1
330
913
100
AcDbEntity
  8
ninja1 - Level 25
  6
Continuous
 62
     7
370
    13
100
AcDbCircle
 10
2.727869
 20
3.86505
 30
0.0
 40
0.0004999999999985
100
AcDbArc
 50
90.0
 51
270.0
  0
LINE
  5
7E2
330
913
100
AcDbEntity
  8
ninja1 - Level 25
  6
Continuous
 62
     7
370
    13
100
AcDbLine
 10
2.727869
 20
3.873717
 30
0.0
 11
2.727869
 21
3.86555
 31
0.0
  0
ARC
  5
7E3
330
913
100
AcDbEntity
  8
ninja1 - Level 25
  6
Continuous
 62
     7
370
    13
100
AcDbCircle
 10
2.727869
 20
3.874217
 30
0.0
 40
0.0005
100
AcDbArc
 50
88.854029
 51
270.0
  0
ARC
  5
7E4
330
913
100
AcDbEntity
  8
ninja1 - Level 25
  6
Continuous
 62
     7
370
    13
100
AcDbCircle
 10
2.740369
 20
4.010212
 30
0.0
 40
0.0125
100
AcDbArc
 50
360.0
 51
177.708037
  0
LINE
  5
7E5
330
913
100
AcDbEntity
  8
ninja1 - Level 25
  6
Continuous
 62
     7
370
    13
100
AcDbLine
 10
2.752869
 20
3.992712
 30
0.0
 11
2.752869
 21
4.010212
 31
0.0
  0
LINE
  5
7E6
330
913
100
AcDbEntity
  8
ninja1 - Level 25
  6
Continuous
 62
     7
370
    13
100
AcDbLine
 10
2.752869
 20
3.955212
 30
0.0
 11
2.752869
 21
3.972712
 31
0.0
  0
ARC
  5
7E7
330
913
100
AcDbEntity
  8
ninja1 - Level 25
  6
Continuous
 62
     7
370
    13
100
AcDbCircle
 10
2.740369
 20
3.955212
 30
0.0
 40
0.0125
100
AcDbArc
 50
182.291984
 51
360.0
  0
ARC
  5
7E8
330
913
100
AcDbEntity
  8
ninja1 - Level 25
  6
Continuous
 62
     7
370
    13
100
AcDbCircle
 10
2.727869
 20
3.955212
 30
0.0
 40
0.0005
100
AcDbArc
 50
90.0
 51
271.145992
  0
LINE
  5
7E9
330
913
100
AcDbEntity
  8
ninja1 - Level 25
  6
Continuous
 62
     7
370
    13
100
AcDbLine
 10
2.727869
 20
3.963879
 30
0.0
 11
2.727869
 21
3.955712
 31
0.0
  0
ARC
  5
7EA
330
913
100
AcDbEntity
  8
ninja1 - Level 25
  6
Continuous
 62
     7
370
    13
100
AcDbCircle
 10
2.727869
 20
3.964379
 30
0.0
 40
0.0004999999999985
100
AcDbArc
 50
90.0
 51
270.0
  0
LINE
  5
7EB
330
913
100
AcDbEntity
  8
ninja1 - Level 25
  6
Continuous
 62
     7
370
    13
100
AcDbLine
 10
2.727869
 20
3.973045
 30
0.0
 11
2.727869
 21
3.964879
 31
0.0
  0
ARC
  5
7EC
330
913
100
AcDbEntity
  8
ninja1 - Level 25
  6
Continuous
 62
     7
370
    13
100
AcDbCircle
 10
2.727869
 20
3.973545
 30
0.0
 40
0.0004999999999985
100
AcDbArc
 50
90.0
 51
270.0
  0
LINE
  5
7ED
330
913
100
AcDbEntity
  8
ninja1 - Level 25
  6
Continuous
 62
     7
370
    13
100
AcDbLine
 10
2.727869
 20
3.982212
 30
0.0
 11
2.727869
 21
3.974045
 31
0.0
  0
ARC
  5
7EE
330
913
100
AcDbEntity
  8
ninja1 - Level 25
  6
Continuous
 62
     7
370
    13
100
AcDbCircle
 10
2.727869
 20
3.982712
 30
0.0
 40
0.0004999999999985
100
AcDbArc
 50
90.0
 51
270.0
  0
LINE
  5
7EF
330
913
100
AcDbEntity
  8
ninja1 - Level 25
  6
Continuous
 62
     7
370
    13
100
AcDbLine
 10
2.727869
 20
3.991379
 30
0.0
 11
2.727869
 21
3.983212
 31
0.0
  0
ARC
  5
7F0
330
913
100
AcDbEntity
  8
ninja1 - Level 25
  6
Continuous
 62
     7
370
    13
100
AcDbCircle
 10
2.727869
 20
3.991879
 30
0.0
 40
0.0004999999999985
100
AcDbArc
 50
90.0
 51
270.0
  0
LINE
  5
7F1
330
913
100
AcDbEntity
  8
ninja1 - Level 25
  6
Continuous
 62
     7
370
    13
100
AcDbLine
 10
2.727869
 20
4.000545
 30
0.0
 11
2.727869
 21
3.992379
 31
0.0
  0
ARC
  5
7F2
330
913
100
AcDbEntity
  8
ninja1 - Level 25
  6
Continuous
 62
     7
370
    13
100
AcDbCircle
 10
2.727869
 20
4.001045
 30
0.0
 40
0.0004999999999985
100
AcDbArc
 50
90.0
 51
270.0
  0
LINE
  5
7F3
330
913
100
AcDbEntity
  8
ninja1 - Level 25
  6
Continuous
 62
     7
370
    13
100
AcDbLine
 10
2.727869
 20
4.009712
 30
0.0
 11
2.727869
 21
4.001545
 31
0.0
  0
ARC
  5
7F4
330
913
100
AcDbEntity
  8
ninja1 - Level 25
  6
Continuous
 62
     7
370
    13
100
AcDbCircle
 10
2.727869
 20
4.010212
 30
0.0
 40
0.0005
100
AcDbArc
 50
88.854029
 51
270.0
  0
ARC
  5
7F5
330
913
100
AcDbEntity
  8
ninja1 - Level 26
  6
Continuous
 62
     7
370
    13
100
AcDbCircle
 10
2.751869
 20
3.574722
 30
0.0
 40
0.0134749260041462
100
AcDbArc
 50
296.440708
 51
0.0
  0
ARC
  5
7F6
330
913
100
AcDbEntity
  8
ninja1 - Level 26
  6
Continuous
 62
     7
370
    13
100
AcDbCircle
 10
2.751869
 20
3.574722
 30
0.0
 40
0.0134749260041462
100
AcDbArc
 50
0.0
 51
63.559292
  0
ARC
  5
7F7
330
913
100
AcDbEntity
  8
ninja1 - Level 26
  6
Continuous
 62
     7
370
    13
100
AcDbCircle
 10
2.751869
 20
3.982712
 30
0.0
 40
0.0134749260041462
100
AcDbArc
 50
296.440708
 51
0.0
  0
ARC
  5
7F8
330
913
100
AcDbEntity
  8
ninja1 - Level 26
  6
Continuous
 62
     7
370
    13
100
AcDbCircle
 10
2.751869
 20
3.982712
 30
0.0
 40
0.0134749260041462
100
AcDbArc
 50
0.0
 51
63.559292
  0
ARC
  5
7F9
330
913
100
AcDbEntity
  8
ninja1 - Level 26
  6
Continuous
 62
     7
370
    13
100
AcDbCircle
 10
2.751869
 20
4.118709
 30
0.0
 40
0.0134749260041462
100
AcDbArc
 50
296.440708
 51
0.0
  0
ARC
  5
7FA
330
913
100
AcDbEntity
  8
ninja1 - Level 26
  6
Continuous
 62
     7
370
    13
100
AcDbCircle
 10
2.751869
 20
4.118709
 30
0.0
 40
0.0134749260041462
100
AcDbArc
 50
0.0
 51
63.559292
  0
ARC
  5
7FB
330
913
100
AcDbEntity
  8
ninja1 - Level 26
  6
Continuous
 62
     7
370
    13
100
AcDbCircle
 10
2.751869
 20
3.710717
 30
0.0
 40
0.0134749260041462
100
AcDbArc
 50
296.440708
 51
0.0
  0
ARC
  5
7FC
330
913
100
AcDbEntity
  8
ninja1 - Level 26
  6
Continuous
 62
     7
370
    13
100
AcDbCircle
 10
2.751869
 20
3.710717
 30
0.0
 40
0.0134749260041462
100
AcDbArc
 50
0.0
 51
63.559292
  0
ARC
  5
7FD
330
913
100
AcDbEntity
  8
ninja1 - Level 26
  6
Continuous
 62
     7
370
    13
100
AcDbCircle
 10
2.751869
 20
3.846717
 30
0.0
 40
0.0134749260041462
100
AcDbArc
 50
296.440708
 51
0.0
  0
ARC
  5
7FE
330
913
100
AcDbEntity
  8
ninja1 - Level 26
  6
Continuous
 62
     7
370
    13
100
AcDbCircle
 10
2.751869
 20
3.846717
 30
0.0
 40
0.0134749260041462
100
AcDbArc
 50
0.0
 51
63.559292
  0
LINE
  5
7FF
330
913
100
AcDbEntity
  8
ninja1 - Level 26
  6
Continuous
 62
     7
370
    13
100
AcDbLine
 10
2.732869
 20
3.602222
 30
0.0
 11
2.732869
 21
3.547222
 31
0.0
  0
ARC
  5
800
330
913
100
AcDbEntity
  8
ninja1 - Level 26
  6
Continuous
 62
     7
370
    13
100
AcDbCircle
 10
2.740369
 20
3.602222
 30
0.0
 40
0.0075000000000009
100
AcDbArc
 50
0.0
 51
180.0
  0
LINE
  5
801
330
913
100
AcDbEntity
  8
ninja1 - Level 26
  6
Continuous
 62
     7
370
    13
100
AcDbLine
 10
2.747869
 20
3.602222
 30
0.0
 11
2.747869
 21
3.547222
 31
0.0
  0
ARC
  5
802
330
913
100
AcDbEntity
  8
ninja1 - Level 26
  6
Continuous
 62
     7
370
    13
100
AcDbCircle
 10
-2.740369
 20
3.547222
 30
0.0
 40
0.0075000000000009
210
0.0
220
0.0
230
-1.0
100
AcDbArc
 50
180.0
 51
360.0
  0
LINE
  5
803
330
913
100
AcDbEntity
  8
ninja1 - Level 26
  6
Continuous
 62
     7
370
    13
100
AcDbLine
 10
2.732869
 20
3.547222
 30
0.0
 11
2.727869
 21
3.547222
 31
0.0
  0
LINE
  5
804
330
913
100
AcDbEntity
  8
ninja1 - Level 26
  6
Continuous
 62
     7
370
    13
100
AcDbLine
 10
2.752869
 20
3.547222
 30
0.0
 11
2.747869
 21
3.547222
 31
0.0
  0
ARC
  5
805
330
913
100
AcDbEntity
  8
ninja1 - Level 26
  6
Continuous
 62
     7
370
    13
100
AcDbCircle
 10
2.740369
 20
3.547222
 30
0.0
 40
0.0125000000000009
100
AcDbArc
 50
180.0
 51
182.291963
  0
LINE
  5
806
330
913
100
AcDbEntity
  8
ninja1 - Level 26
  6
Continuous
 62
     7
370
    13
100
AcDbLine
 10
2.747869
 20
3.602222
 30
0.0
 11
2.752869
 21
3.602222
 31
0.0
  0
LINE
  5
807
330
913
100
AcDbEntity
  8
ninja1 - Level 26
  6
Continuous
 62
     7
370
    13
100
AcDbLine
 10
2.752869
 20
3.584722
 30
0.0
 11
2.752869
 21
3.564722
 31
0.0
  0
LINE
  5
808
330
913
100
AcDbEntity
  8
ninja1 - Level 26
  6
Continuous
 62
     7
370
    13
100
AcDbLine
 10
2.727869
 20
3.602222
 30
0.0
 11
2.732869
 21
3.602222
 31
0.0
  0
ARC
  5
809
330
913
100
AcDbEntity
  8
ninja1 - Level 26
  6
Continuous
 62
     7
370
    13
100
AcDbCircle
 10
-2.740369
 20
3.602222
 30
0.0
 40
0.0125000000000009
210
0.0
220
0.0
230
-1.0
100
AcDbArc
 50
177.708016
 51
180.0
  0
LINE
  5
80A
330
913
100
AcDbEntity
  8
ninja1 - Level 26
  6
Continuous
 62
     7
370
    13
100
AcDbLine
 10
2.727869
 20
3.602222
 30
0.0
 11
2.727869
 21
3.601722
 31
0.0
  0
LINE
  5
80B
330
913
100
AcDbEntity
  8
ninja1 - Level 26
  6
Continuous
 62
     7
370
    13
100
AcDbLine
 10
2.727869
 20
3.593555
 30
0.0
 11
2.727869
 21
3.592555
 31
0.0
  0
LINE
  5
80C
330
913
100
AcDbEntity
  8
ninja1 - Level 26
  6
Continuous
 62
     7
370
    13
100
AcDbLine
 10
2.727869
 20
3.584389
 30
0.0
 11
2.727869
 21
3.583389
 31
0.0
  0
LINE
  5
80D
330
913
100
AcDbEntity
  8
ninja1 - Level 26
  6
Continuous
 62
     7
370
    13
100
AcDbLine
 10
2.727869
 20
3.575222
 30
0.0
 11
2.727869
 21
3.574222
 31
0.0
  0
LINE
  5
80E
330
913
100
AcDbEntity
  8
ninja1 - Level 26
  6
Continuous
 62
     7
370
    13
100
AcDbLine
 10
2.727869
 20
3.566055
 30
0.0
 11
2.727869
 21
3.565055
 31
0.0
  0
LINE
  5
80F
330
913
100
AcDbEntity
  8
ninja1 - Level 26
  6
Continuous
 62
     7
370
    13
100
AcDbLine
 10
2.727869
 20
3.556889
 30
0.0
 11
2.727869
 21
3.555889
 31
0.0
  0
LINE
  5
810
330
913
100
AcDbEntity
  8
ninja1 - Level 26
  6
Continuous
 62
     7
370
    13
100
AcDbLine
 10
2.727869
 20
3.547722
 30
0.0
 11
2.727869
 21
3.547222
 31
0.0
  0
SPLINE
  5
811
330
913
100
AcDbEntity
  8
ninja1 - Level 26
  6
Continuous
 62
     7
370
    13
100
AcDbSpline
210
0.0
220
0.0
230
1.0
 70
     8
 71
     3
 72
     8
 73
     4
 74
     0
 42
0.000000001
 43
0.0000000001
 40
0.0
 40
0.0
 40
0.0
 40
0.0
 40
0.0209858797521153
 40
0.0209858797521153
 40
0.0209858797521153
 40
0.0209858797521153
 10
2.832369495836467
 20
4.283716966807748
 30
0.0
 10
2.832371012761761
 20
4.28371776400566
 30
0.0
 10
2.832371003769964
 20
4.283716738802175
 30
0.0
 10
2.832369495836467
 20
4.283713912454791
 30
0.0
  0
LINE
  5
814
330
913
100
AcDbEntity
  8
ninja1 - Level 26
  6
Continuous
 62
     7
370
    13
100
AcDbLine
 10
2.790369
 20
4.283717
 30
0.0
 11
2.802369
 21
4.283717
 31
0.0
  0
LINE
  5
815
330
913
100
AcDbEntity
  8
ninja1 - Level 26
  6
Continuous
 62
     7
370
    13
100
AcDbLine
 10
2.790369
 20
4.218717
 30
0.0
 11
2.802369
 21
4.218717
 31
0.0
  0
LINE
  5
816
330
913
100
AcDbEntity
  8
ninja1 - Level 26
  6
Continuous
 62
     7
370
    13
100
AcDbLine
 10
2.790369
 20
4.218717
 30
0.0
 11
2.790369
 21
4.223717
 31
0.0
  0
LINE
  5
817
330
913
100
AcDbEntity
  8
ninja1 - Level 26
  6
Continuous
 62
     7
370
    13
100
AcDbLine
 10
2.802369
 20
4.218717
 30
0.0
 11
2.802369
 21
4.283717
 31
0.0
  0
LINE
  5
818
330
913
100
AcDbEntity
  8
ninja1 - Level 26
  6
Continuous
 62
     7
370
    13
100
AcDbLine
 10
2.825111
 20
4.273717
 30
0.0
 11
2.802369
 21
4.273717
 31
0.0
  0
SPLINE
  5
819
330
913
100
AcDbEntity
  8
ninja1 - Level 26
  6
Continuous
 62
     7
370
    13
100
AcDbSpline
210
0.0
220
0.0
230
1.0
 70
     8
 71
     3
 72
     8
 73
     4
 74
     0
 42
0.000000001
 43
0.0000000001
 40
0.0
 40
0.0
 40
0.0
 40
0.0
 40
1.0
 40
1.0
 40
1.0
 40
1.0
 10
2.832369495836467
 20
4.283716966807748
 30
0.0
 10
2.83244177897684
 20
4.283754954155539
 30
0.0
 10
2.829049274837292
 20
4.279654949186551
 30
0.0
 10
2.825110661051437
 20
4.273716966807731
 30
0.0
  0
LINE
  5
81C
330
913
100
AcDbEntity
  8
ninja1 - Level 26
  6
Continuous
 62
     7
370
    13
100
AcDbLine
 10
2.832369
 20
4.283717
 30
0.0
 11
2.802369
 21
4.283717
 31
0.0
  0
LINE
  5
81D
330
913
100
AcDbEntity
  8
ninja1 - Level 26
  6
Continuous
 62
     7
370
    13
100
AcDbLine
 10
2.825111
 20
4.228717
 30
0.0
 11
2.802369
 21
4.228717
 31
0.0
  0
SPLINE
  5
81E
330
913
100
AcDbEntity
  8
ninja1 - Level 26
  6
Continuous
 62
     7
370
    13
100
AcDbSpline
210
0.0
220
0.0
230
1.0
 70
     8
 71
     3
 72
     8
 73
     4
 74
     0
 42
0.000000001
 43
0.0000000001
 40
0.0
 40
0.0
 40
0.0
 40
0.0
 40
1.0
 40
1.0
 40
1.0
 40
1.0
 10
2.825110661051448
 20
4.228716966807733
 30
0.0
 10
2.82904652522901
 20
4.222783202891212
 30
0.0
 10
2.83244389530076
 20
4.218675803518802
 30
0.0
 10
2.832369495836467
 20
4.218716966807734
 30
0.0
  0
LINE
  5
821
330
913
100
AcDbEntity
  8
ninja1 - Level 26
  6
Continuous
 62
     7
370
    13
100
AcDbLine
 10
2.832369
 20
4.218717
 30
0.0
 11
2.802369
 21
4.218717
 31
0.0
  0
LINE
  5
822
330
913
100
AcDbEntity
  8
ninja1 - Level 26
  6
Continuous
 62
     7
370
    13
100
AcDbLine
 10
2.832369
 20
4.283717
 30
0.0
 11
2.832369
 21
4.218717
 31
0.0
  0
LINE
  5
823
330
913
100
AcDbEntity
  8
ninja1 - Level 26
  6
Continuous
 62
     7
370
    13
100
AcDbLine
 10
2.747869
 20
3.955212
 30
0.0
 11
2.747869
 21
4.010212
 31
0.0
  0
ARC
  5
824
330
913
100
AcDbEntity
  8
ninja1 - Level 26
  6
Continuous
 62
     7
370
    13
100
AcDbCircle
 10
-2.740369
 20
3.955212
 30
0.0
 40
0.0075000000000009
210
0.0
220
0.0
230
-1.0
100
AcDbArc
 50
180.0
 51
0.0
  0
LINE
  5
825
330
913
100
AcDbEntity
  8
ninja1 - Level 26
  6
Continuous
 62
     7
370
    13
100
AcDbLine
 10
2.732869
 20
3.955212
 30
0.0
 11
2.732869
 21
4.010212
 31
0.0
  0
ARC
  5
826
330
913
100
AcDbEntity
  8
ninja1 - Level 26
  6
Continuous
 62
     7
370
    13
100
AcDbCircle
 10
2.740369
 20
4.010212
 30
0.0
 40
0.0075000000000009
100
AcDbArc
 50
360.0
 51
180.0
  0
LINE
  5
827
330
913
100
AcDbEntity
  8
ninja1 - Level 26
  6
Continuous
 62
     7
370
    13
100
AcDbLine
 10
2.752869
 20
4.010212
 30
0.0
 11
2.747869
 21
4.010212
 31
0.0
  0
LINE
  5
828
330
913
100
AcDbEntity
  8
ninja1 - Level 26
  6
Continuous
 62
     7
370
    13
100
AcDbLine
 10
2.732869
 20
4.010212
 30
0.0
 11
2.727869
 21
4.010212
 31
0.0
  0
ARC
  5
829
330
913
100
AcDbEntity
  8
ninja1 - Level 26
  6
Continuous
 62
     7
370
    13
100
AcDbCircle
 10
-2.740369
 20
4.010212
 30
0.0
 40
0.0125000000000009
210
0.0
220
0.0
230
-1.0
100
AcDbArc
 50
177.708037
 51
180.0
  0
LINE
  5
82A
330
913
100
AcDbEntity
  8
ninja1 - Level 26
  6
Continuous
 62
     7
370
    13
100
AcDbLine
 10
2.752869
 20
3.972712
 30
0.0
 11
2.752869
 21
3.992712
 31
0.0
  0
LINE
  5
82B
330
913
100
AcDbEntity
  8
ninja1 - Level 26
  6
Continuous
 62
     7
370
    13
100
AcDbLine
 10
2.747869
 20
3.955212
 30
0.0
 11
2.752869
 21
3.955212
 31
0.0
  0
LINE
  5
82C
330
913
100
AcDbEntity
  8
ninja1 - Level 26
  6
Continuous
 62
     7
370
    13
100
AcDbLine
 10
2.727869
 20
3.955212
 30
0.0
 11
2.732869
 21
3.955212
 31
0.0
  0
ARC
  5
82D
330
913
100
AcDbEntity
  8
ninja1 - Level 26
  6
Continuous
 62
     7
370
    13
100
AcDbCircle
 10
2.740369
 20
3.955212
 30
0.0
 40
0.0125000000000009
100
AcDbArc
 50
180.0
 51
182.291984
  0
LINE
  5
82E
330
913
100
AcDbEntity
  8
ninja1 - Level 26
  6
Continuous
 62
     7
370
    13
100
AcDbLine
 10
2.727869
 20
3.955212
 30
0.0
 11
2.727869
 21
3.955712
 31
0.0
  0
LINE
  5
82F
330
913
100
AcDbEntity
  8
ninja1 - Level 26
  6
Continuous
 62
     7
370
    13
100
AcDbLine
 10
2.727869
 20
3.963879
 30
0.0
 11
2.727869
 21
3.964879
 31
0.0
  0
LINE
  5
830
330
913
100
AcDbEntity
  8
ninja1 - Level 26
  6
Continuous
 62
     7
370
    13
100
AcDbLine
 10
2.727869
 20
3.973045
 30
0.0
 11
2.727869
 21
3.974045
 31
0.0
  0
LINE
  5
831
330
913
100
AcDbEntity
  8
ninja1 - Level 26
  6
Continuous
 62
     7
370
    13
100
AcDbLine
 10
2.727869
 20
3.982212
 30
0.0
 11
2.727869
 21
3.983212
 31
0.0
  0
LINE
  5
832
330
913
100
AcDbEntity
  8
ninja1 - Level 26
  6
Continuous
 62
     7
370
    13
100
AcDbLine
 10
2.727869
 20
3.991379
 30
0.0
 11
2.727869
 21
3.992379
 31
0.0
  0
LINE
  5
833
330
913
100
AcDbEntity
  8
ninja1 - Level 26
  6
Continuous
 62
     7
370
    13
100
AcDbLine
 10
2.727869
 20
4.000545
 30
0.0
 11
2.727869
 21
4.001545
 31
0.0
  0
LINE
  5
834
330
913
100
AcDbEntity
  8
ninja1 - Level 26
  6
Continuous
 62
     7
370
    13
100
AcDbLine
 10
2.727869
 20
4.009712
 30
0.0
 11
2.727869
 21
4.010212
 31
0.0
  0
LINE
  5
835
330
913
100
AcDbEntity
  8
ninja1 - Level 26
  6
Continuous
 62
     7
370
    13
100
AcDbLine
 10
2.747869
 20
4.091209
 30
0.0
 11
2.747869
 21
4.146209
 31
0.0
  0
ARC
  5
836
330
913
100
AcDbEntity
  8
ninja1 - Level 26
  6
Continuous
 62
     7
370
    13
100
AcDbCircle
 10
-2.740369
 20
4.091209
 30
0.0
 40
0.0075000000000009
210
0.0
220
0.0
230
-1.0
100
AcDbArc
 50
180.0
 51
0.0
  0
LINE
  5
837
330
913
100
AcDbEntity
  8
ninja1 - Level 26
  6
Continuous
 62
     7
370
    13
100
AcDbLine
 10
2.732869
 20
4.091209
 30
0.0
 11
2.732869
 21
4.146209
 31
0.0
  0
ARC
  5
838
330
913
100
AcDbEntity
  8
ninja1 - Level 26
  6
Continuous
 62
     7
370
    13
100
AcDbCircle
 10
2.740369
 20
4.146209
 30
0.0
 40
0.0075000000000009
100
AcDbArc
 50
360.0
 51
180.0
  0
LINE
  5
839
330
913
100
AcDbEntity
  8
ninja1 - Level 26
  6
Continuous
 62
     7
370
    13
100
AcDbLine
 10
2.752869
 20
4.146209
 30
0.0
 11
2.747869
 21
4.146209
 31
0.0
  0
LINE
  5
83A
330
913
100
AcDbEntity
  8
ninja1 - Level 26
  6
Continuous
 62
     7
370
    13
100
AcDbLine
 10
2.732869
 20
4.146209
 30
0.0
 11
2.727869
 21
4.146209
 31
0.0
  0
ARC
  5
83B
330
913
100
AcDbEntity
  8
ninja1 - Level 26
  6
Continuous
 62
     7
370
    13
100
AcDbCircle
 10
-2.740369
 20
4.146209
 30
0.0
 40
0.0125000000000009
210
0.0
220
0.0
230
-1.0
100
AcDbArc
 50
360.0
 51
180.0
  0
LINE
  5
83C
330
913
100
AcDbEntity
  8
ninja1 - Level 26
  6
Continuous
 62
     7
370
    13
100
AcDbLine
 10
2.752869
 20
4.108707
 30
0.0
 11
2.752869
 21
4.128707
 31
0.0
  0
LINE
  5
83D
330
913
100
AcDbEntity
  8
ninja1 - Level 26
  6
Continuous
 62
     7
370
    13
100
AcDbLine
 10
2.752869
 20
4.146207
 30
0.0
 11
2.752869
 21
4.146209
 31
0.0
  0
LINE
  5
83E
330
913
100
AcDbEntity
  8
ninja1 - Level 26
  6
Continuous
 62
     7
370
    13
100
AcDbLine
 10
2.747869
 20
4.091209
 30
0.0
 11
2.752869
 21
4.091209
 31
0.0
  0
LINE
  5
83F
330
913
100
AcDbEntity
  8
ninja1 - Level 26
  6
Continuous
 62
     7
370
    13
100
AcDbLine
 10
2.727869
 20
4.091209
 30
0.0
 11
2.732869
 21
4.091209
 31
0.0
  0
ARC
  5
840
330
913
100
AcDbEntity
  8
ninja1 - Level 26
  6
Continuous
 62
     7
370
    13
100
AcDbCircle
 10
2.740369
 20
4.091209
 30
0.0
 40
0.0125000000000009
100
AcDbArc
 50
180.0
 51
0.0
  0
LINE
  5
841
330
913
100
AcDbEntity
  8
ninja1 - Level 26
  6
Continuous
 62
     7
370
    13
100
AcDbLine
 10
2.727869
 20
4.091209
 30
0.0
 11
2.727869
 21
4.091707
 31
0.0
  0
LINE
  5
842
330
913
100
AcDbEntity
  8
ninja1 - Level 26
  6
Continuous
 62
     7
370
    13
100
AcDbLine
 10
2.727869
 20
4.099874
 30
0.0
 11
2.727869
 21
4.100874
 31
0.0
  0
LINE
  5
843
330
913
100
AcDbEntity
  8
ninja1 - Level 26
  6
Continuous
 62
     7
370
    13
100
AcDbLine
 10
2.727869
 20
4.10904
 30
0.0
 11
2.727869
 21
4.11004
 31
0.0
  0
LINE
  5
844
330
913
100
AcDbEntity
  8
ninja1 - Level 26
  6
Continuous
 62
     7
370
    13
100
AcDbLine
 10
2.727869
 20
4.118207
 30
0.0
 11
2.727869
 21
4.119207
 31
0.0
  0
LINE
  5
845
330
913
100
AcDbEntity
  8
ninja1 - Level 26
  6
Continuous
 62
     7
370
    13
100
AcDbLine
 10
2.727869
 20
4.127374
 30
0.0
 11
2.727869
 21
4.128374
 31
0.0
  0
LINE
  5
846
330
913
100
AcDbEntity
  8
ninja1 - Level 26
  6
Continuous
 62
     7
370
    13
100
AcDbLine
 10
2.727869
 20
4.13654
 30
0.0
 11
2.727869
 21
4.13754
 31
0.0
  0
LINE
  5
847
330
913
100
AcDbEntity
  8
ninja1 - Level 26
  6
Continuous
 62
     7
370
    13
100
AcDbLine
 10
2.727869
 20
4.145707
 30
0.0
 11
2.727869
 21
4.146209
 31
0.0
  0
LINE
  5
848
330
913
100
AcDbEntity
  8
ninja1 - Level 26
  6
Continuous
 62
     7
370
    13
100
AcDbLine
 10
2.732869
 20
3.738217
 30
0.0
 11
2.732869
 21
3.683217
 31
0.0
  0
ARC
  5
849
330
913
100
AcDbEntity
  8
ninja1 - Level 26
  6
Continuous
 62
     7
370
    13
100
AcDbCircle
 10
2.740369
 20
3.738217
 30
0.0
 40
0.0075000000000009
100
AcDbArc
 50
0.0
 51
180.0
  0
LINE
  5
84A
330
913
100
AcDbEntity
  8
ninja1 - Level 26
  6
Continuous
 62
     7
370
    13
100
AcDbLine
 10
2.747869
 20
3.738217
 30
0.0
 11
2.747869
 21
3.683217
 31
0.0
  0
ARC
  5
84B
330
913
100
AcDbEntity
  8
ninja1 - Level 26
  6
Continuous
 62
     7
370
    13
100
AcDbCircle
 10
-2.740369
 20
3.683217
 30
0.0
 40
0.0075000000000009
210
0.0
220
0.0
230
-1.0
100
AcDbArc
 50
180.0
 51
0.0
  0
LINE
  5
84C
330
913
100
AcDbEntity
  8
ninja1 - Level 26
  6
Continuous
 62
     7
370
    13
100
AcDbLine
 10
2.732869
 20
3.683217
 30
0.0
 11
2.727869
 21
3.683217
 31
0.0
  0
LINE
  5
84D
330
913
100
AcDbEntity
  8
ninja1 - Level 26
  6
Continuous
 62
     7
370
    13
100
AcDbLine
 10
2.752869
 20
3.683217
 30
0.0
 11
2.747869
 21
3.683217
 31
0.0
  0
ARC
  5
84E
330
913
100
AcDbEntity
  8
ninja1 - Level 26
  6
Continuous
 62
     7
370
    13
100
AcDbCircle
 10
2.740369
 20
3.683217
 30
0.0
 40
0.0125000000000009
100
AcDbArc
 50
180.0
 51
182.291963
  0
LINE
  5
84F
330
913
100
AcDbEntity
  8
ninja1 - Level 26
  6
Continuous
 62
     7
370
    13
100
AcDbLine
 10
2.747869
 20
3.738217
 30
0.0
 11
2.752869
 21
3.738217
 31
0.0
  0
LINE
  5
850
330
913
100
AcDbEntity
  8
ninja1 - Level 26
  6
Continuous
 62
     7
370
    13
100
AcDbLine
 10
2.752869
 20
3.720717
 30
0.0
 11
2.752869
 21
3.700717
 31
0.0
  0
LINE
  5
851
330
913
100
AcDbEntity
  8
ninja1 - Level 26
  6
Continuous
 62
     7
370
    13
100
AcDbLine
 10
2.727869
 20
3.738217
 30
0.0
 11
2.732869
 21
3.738217
 31
0.0
  0
ARC
  5
852
330
913
100
AcDbEntity
  8
ninja1 - Level 26
  6
Continuous
 62
     7
370
    13
100
AcDbCircle
 10
-2.740369
 20
3.738217
 30
0.0
 40
0.0125000000000009
210
0.0
220
0.0
230
-1.0
100
AcDbArc
 50
177.708016
 51
180.0
  0
LINE
  5
853
330
913
100
AcDbEntity
  8
ninja1 - Level 26
  6
Continuous
 62
     7
370
    13
100
AcDbLine
 10
2.727869
 20
3.738217
 30
0.0
 11
2.727869
 21
3.737717
 31
0.0
  0
LINE
  5
854
330
913
100
AcDbEntity
  8
ninja1 - Level 26
  6
Continuous
 62
     7
370
    13
100
AcDbLine
 10
2.727869
 20
3.72955
 30
0.0
 11
2.727869
 21
3.72855
 31
0.0
  0
LINE
  5
855
330
913
100
AcDbEntity
  8
ninja1 - Level 26
  6
Continuous
 62
     7
370
    13
100
AcDbLine
 10
2.727869
 20
3.720384
 30
0.0
 11
2.727869
 21
3.719384
 31
0.0
  0
LINE
  5
856
330
913
100
AcDbEntity
  8
ninja1 - Level 26
  6
Continuous
 62
     7
370
    13
100
AcDbLine
 10
2.727869
 20
3.711217
 30
0.0
 11
2.727869
 21
3.710217
 31
0.0
  0
LINE
  5
857
330
913
100
AcDbEntity
  8
ninja1 - Level 26
  6
Continuous
 62
     7
370
    13
100
AcDbLine
 10
2.727869
 20
3.70205
 30
0.0
 11
2.727869
 21
3.70105
 31
0.0
  0
LINE
  5
858
330
913
100
AcDbEntity
  8
ninja1 - Level 26
  6
Continuous
 62
     7
370
    13
100
AcDbLine
 10
2.727869
 20
3.692884
 30
0.0
 11
2.727869
 21
3.691884
 31
0.0
  0
LINE
  5
859
330
913
100
AcDbEntity
  8
ninja1 - Level 26
  6
Continuous
 62
     7
370
    13
100
AcDbLine
 10
2.727869
 20
3.683717
 30
0.0
 11
2.727869
 21
3.683217
 31
0.0
  0
LINE
  5
85A
330
913
100
AcDbEntity
  8
ninja1 - Level 26
  6
Continuous
 62
     7
370
    13
100
AcDbLine
 10
2.747869
 20
3.819217
 30
0.0
 11
2.747869
 21
3.874217
 31
0.0
  0
ARC
  5
85B
330
913
100
AcDbEntity
  8
ninja1 - Level 26
  6
Continuous
 62
     7
370
    13
100
AcDbCircle
 10
-2.740369
 20
3.819217
 30
0.0
 40
0.0075000000000009
210
0.0
220
0.0
230
-1.0
100
AcDbArc
 50
180.0
 51
0.0
  0
LINE
  5
85C
330
913
100
AcDbEntity
  8
ninja1 - Level 26
  6
Continuous
 62
     7
370
    13
100
AcDbLine
 10
2.732869
 20
3.819217
 30
0.0
 11
2.732869
 21
3.874217
 31
0.0
  0
ARC
  5
85D
330
913
100
AcDbEntity
  8
ninja1 - Level 26
  6
Continuous
 62
     7
370
    13
100
AcDbCircle
 10
2.740369
 20
3.874217
 30
0.0
 40
0.0075000000000009
100
AcDbArc
 50
360.0
 51
180.0
  0
LINE
  5
85E
330
913
100
AcDbEntity
  8
ninja1 - Level 26
  6
Continuous
 62
     7
370
    13
100
AcDbLine
 10
2.752869
 20
3.874217
 30
0.0
 11
2.747869
 21
3.874217
 31
0.0
  0
LINE
  5
85F
330
913
100
AcDbEntity
  8
ninja1 - Level 26
  6
Continuous
 62
     7
370
    13
100
AcDbLine
 10
2.732869
 20
3.874217
 30
0.0
 11
2.727869
 21
3.874217
 31
0.0
  0
ARC
  5
860
330
913
100
AcDbEntity
  8
ninja1 - Level 26
  6
Continuous
 62
     7
370
    13
100
AcDbCircle
 10
-2.740369
 20
3.874217
 30
0.0
 40
0.0125000000000009
210
0.0
220
0.0
230
-1.0
100
AcDbArc
 50
177.708037
 51
180.0
  0
LINE
  5
861
330
913
100
AcDbEntity
  8
ninja1 - Level 26
  6
Continuous
 62
     7
370
    13
100
AcDbLine
 10
2.752869
 20
3.836717
 30
0.0
 11
2.752869
 21
3.856717
 31
0.0
  0
LINE
  5
862
330
913
100
AcDbEntity
  8
ninja1 - Level 26
  6
Continuous
 62
     7
370
    13
100
AcDbLine
 10
2.747869
 20
3.819217
 30
0.0
 11
2.752869
 21
3.819217
 31
0.0
  0
LINE
  5
863
330
913
100
AcDbEntity
  8
ninja1 - Level 26
  6
Continuous
 62
     7
370
    13
100
AcDbLine
 10
2.727869
 20
3.819217
 30
0.0
 11
2.732869
 21
3.819217
 31
0.0
  0
ARC
  5
864
330
913
100
AcDbEntity
  8
ninja1 - Level 26
  6
Continuous
 62
     7
370
    13
100
AcDbCircle
 10
2.740369
 20
3.819217
 30
0.0
 40
0.0125000000000009
100
AcDbArc
 50
180.0
 51
182.291984
  0
LINE
  5
865
330
913
100
AcDbEntity
  8
ninja1 - Level 26
  6
Continuous
 62
     7
370
    13
100
AcDbLine
 10
2.727869
 20
3.819217
 30
0.0
 11
2.727869
 21
3.819717
 31
0.0
  0
LINE
  5
866
330
913
100
AcDbEntity
  8
ninja1 - Level 26
  6
Continuous
 62
     7
370
    13
100
AcDbLine
 10
2.727869
 20
3.827884
 30
0.0
 11
2.727869
 21
3.828884
 31
0.0
  0
LINE
  5
867
330
913
100
AcDbEntity
  8
ninja1 - Level 26
  6
Continuous
 62
     7
370
    13
100
AcDbLine
 10
2.727869
 20
3.83705
 30
0.0
 11
2.727869
 21
3.83805
 31
0.0
  0
LINE
  5
868
330
913
100
AcDbEntity
  8
ninja1 - Level 26
  6
Continuous
 62
     7
370
    13
100
AcDbLine
 10
2.727869
 20
3.846217
 30
0.0
 11
2.727869
 21
3.847217
 31
0.0
  0
LINE
  5
869
330
913
100
AcDbEntity
  8
ninja1 - Level 26
  6
Continuous
 62
     7
370
    13
100
AcDbLine
 10
2.727869
 20
3.855384
 30
0.0
 11
2.727869
 21
3.856384
 31
0.0
  0
LINE
  5
86A
330
913
100
AcDbEntity
  8
ninja1 - Level 26
  6
Continuous
 62
     7
370
    13
100
AcDbLine
 10
2.727869
 20
3.86455
 30
0.0
 11
2.727869
 21
3.86555
 31
0.0
  0
LINE
  5
86B
330
913
100
AcDbEntity
  8
ninja1 - Level 26
  6
Continuous
 62
     7
370
    13
100
AcDbLine
 10
2.727869
 20
3.873717
 30
0.0
 11
2.727869
 21
3.874217
 31
0.0
  0
LINE
  5
86C
330
913
100
AcDbEntity
  8
ninja1 - Level 26
  6
Continuous
 62
     7
370
    13
100
AcDbLine
 10
2.700369
 20
4.306717
 30
0.0
 11
2.780369
 21
4.306717
 31
0.0
  0
ARC
  5
86D
330
913
100
AcDbEntity
  8
ninja1 - Level 26
  6
Continuous
 62
     7
370
    13
100
AcDbCircle
 10
-2.780369
 20
4.303717
 30
0.0
 40
0.003
210
0.0
220
0.0
230
-1.0
100
AcDbArc
 50
90.0
 51
180.0
  0
LINE
  5
86E
330
913
100
AcDbEntity
  8
ninja1 - Level 26
  6
Continuous
 62
     7
370
    13
100
AcDbLine
 10
2.783369
 20
4.303717
 30
0.0
 11
2.783369
 21
4.223717
 31
0.0
  0
ARC
  5
86F
330
913
100
AcDbEntity
  8
ninja1 - Level 26
  6
Continuous
 62
     7
370
    13
100
AcDbCircle
 10
-2.780369
 20
4.223717
 30
0.0
 40
0.003
210
0.0
220
0.0
230
-1.0
100
AcDbArc
 50
180.0
 51
270.0
  0
LINE
  5
870
330
913
100
AcDbEntity
  8
ninja1 - Level 26
  6
Continuous
 62
     7
370
    13
100
AcDbLine
 10
2.780369
 20
4.220717
 30
0.0
 11
2.700369
 21
4.220717
 31
0.0
  0
ARC
  5
871
330
913
100
AcDbEntity
  8
ninja1 - Level 26
  6
Continuous
 62
     7
370
    13
100
AcDbCircle
 10
-2.700369
 20
4.223717
 30
0.0
 40
0.003
210
0.0
220
0.0
230
-1.0
100
AcDbArc
 50
270.0
 51
0.0
  0
LINE
  5
872
330
913
100
AcDbEntity
  8
ninja1 - Level 26
  6
Continuous
 62
     7
370
    13
100
AcDbLine
 10
2.697369
 20
4.223717
 30
0.0
 11
2.697369
 21
4.303717
 31
0.0
  0
ARC
  5
873
330
913
100
AcDbEntity
  8
ninja1 - Level 26
  6
Continuous
 62
     7
370
    13
100
AcDbCircle
 10
-2.700369
 20
4.303717
 30
0.0
 40
0.003
210
0.0
220
0.0
230
-1.0
100
AcDbArc
 50
0.0
 51
90.0
  0
LINE
  5
874
330
913
100
AcDbEntity
  8
ninja1 - Level 26
  6
Continuous
 62
     7
370
    13
100
AcDbLine
 10
2.780369
 20
4.220717
 30
0.0
 11
2.780369
 21
4.213717
 31
0.0
  0
LINE
  5
875
330
913
100
AcDbEntity
  8
ninja1 - Level 26
  6
Continuous
 62
     7
370
    13
100
AcDbLine
 10
2.700369
 20
4.213717
 30
0.0
 11
2.780369
 21
4.213717
 31
0.0
  0
LINE
  5
876
330
913
100
AcDbEntity
  8
ninja1 - Level 26
  6
Continuous
 62
     7
370
    13
100
AcDbLine
 10
2.700369
 20
4.213717
 30
0.0
 11
2.700369
 21
4.220717
 31
0.0
  0
LINE
  5
877
330
913
100
AcDbEntity
  8
ninja1 - Level 26
  6
Continuous
 62
     7
370
    13
100
AcDbLine
 10
2.783369
 20
4.223717
 30
0.0
 11
2.790369
 21
4.223717
 31
0.0
  0
ARC
  5
878
330
913
100
AcDbEntity
  8
ninja1 - Level 26
  6
Continuous
 62
     7
370
    13
100
AcDbCircle
 10
2.780369
 20
4.223717
 30
0.0
 40
0.01
100
AcDbArc
 50
270.0
 51
0.0
  0
ARC
  5
879
330
913
100
AcDbEntity
  8
ninja1 - Level 26
  6
Continuous
 62
     7
370
    13
100
AcDbCircle
 10
2.700369
 20
4.223717
 30
0.0
 40
0.01
100
AcDbArc
 50
180.0
 51
270.0
  0
LINE
  5
87A
330
913
100
AcDbEntity
  8
ninja1 - Level 26
  6
Continuous
 62
     7
370
    13
100
AcDbLine
 10
2.690369
 20
4.223717
 30
0.0
 11
2.697369
 21
4.223717
 31
0.0
  0
LINE
  5
87B
330
913
100
AcDbEntity
  8
ninja1 - Level 26
  6
Continuous
 62
     7
370
    13
100
AcDbLine
 10
2.700369
 20
4.313717
 30
0.0
 11
2.700369
 21
4.306717
 31
0.0
  0
LINE
  5
87C
330
913
100
AcDbEntity
  8
ninja1 - Level 26
  6
Continuous
 62
     7
370
    13
100
AcDbLine
 10
2.780369
 20
4.313717
 30
0.0
 11
2.700369
 21
4.313717
 31
0.0
  0
LINE
  5
87D
330
913
100
AcDbEntity
  8
ninja1 - Level 26
  6
Continuous
 62
     7
370
    13
100
AcDbLine
 10
2.780369
 20
4.306717
 30
0.0
 11
2.780369
 21
4.313717
 31
0.0
  0
LINE
  5
87E
330
913
100
AcDbEntity
  8
ninja1 - Level 26
  6
Continuous
 62
     7
370
    13
100
AcDbLine
 10
2.690369
 20
4.303717
 30
0.0
 11
2.690369
 21
4.223717
 31
0.0
  0
LINE
  5
87F
330
913
100
AcDbEntity
  8
ninja1 - Level 26
  6
Continuous
 62
     7
370
    13
100
AcDbLine
 10
2.690369
 20
4.303717
 30
0.0
 11
2.697369
 21
4.303717
 31
0.0
  0
ARC
  5
880
330
913
100
AcDbEntity
  8
ninja1 - Level 26
  6
Continuous
 62
     7
370
    13
100
AcDbCircle
 10
2.780369
 20
4.303717
 30
0.0
 40
0.01
100
AcDbArc
 50
0.0
 51
90.0
  0
LINE
  5
881
330
913
100
AcDbEntity
  8
ninja1 - Level 26
  6
Continuous
 62
     7
370
    13
100
AcDbLine
 10
2.783369
 20
4.303717
 30
0.0
 11
2.790369
 21
4.303717
 31
0.0
  0
ARC
  5
882
330
913
100
AcDbEntity
  8
ninja1 - Level 26
  6
Continuous
 62
     7
370
    13
100
AcDbCircle
 10
2.700369
 20
4.303717
 30
0.0
 40
0.01
100
AcDbArc
 50
90.0
 51
180.0
  0
LINE
  5
883
330
913
100
AcDbEntity
  8
ninja1 - Level 26
  6
Continuous
 62
     7
370
    13
100
AcDbLine
 10
2.790369
 20
4.223717
 30
0.0
 11
2.790369
 21
4.303717
 31
0.0
  0
SPLINE
  5
884
330
913
100
AcDbEntity
  8
ninja1 - Level 26
  6
Continuous
 62
     7
370
    13
100
AcDbSpline
210
0.0
220
0.0
230
1.0
 70
     8
 71
     3
 72
     8
 73
     4
 74
     0
 42
0.000000001
 43
0.0000000001
 40
0.0
 40
0.0
 40
0.0
 40
0.0
 40
0.0209858797518033
 40
0.0209858797518033
 40
0.0209858797518033
 40
0.0209858797518033
 10
3.618369495836467
 20
4.283716966807755
 30
0.0
 10
3.61836797891118
 20
4.283717764005669
 30
0.0
 10
3.618367987902971
 20
4.283716738802183
 30
0.0
 10
3.618369495836473
 20
4.2837139124548
 30
0.0
  0
ARC
  5
893
330
913
100
AcDbEntity
  8
ninja1 - Level 25
  6
Continuous
 62
     7
370
    13
100
AcDbCircle
 10
-3.710369
 20
3.874217
 30
0.0
 40
0.0125
210
0.0
220
0.0
230
-1.0
100
AcDbArc
 50
360.0
 51
177.708037
  0
LINE
  5
894
330
913
100
AcDbEntity
  8
ninja1 - Level 25
  6
Continuous
 62
     7
370
    13
100
AcDbLine
 10
3.697869
 20
3.856717
 30
0.0
 11
3.697869
 21
3.874217
 31
0.0
  0
LINE
  5
895
330
913
100
AcDbEntity
  8
ninja1 - Level 25
  6
Continuous
 62
     7
370
    13
100
AcDbLine
 10
3.697869
 20
3.819217
 30
0.0
 11
3.697869
 21
3.836717
 31
0.0
  0
ARC
  5
896
330
913
100
AcDbEntity
  8
ninja1 - Level 25
  6
Continuous
 62
     7
370
    13
100
AcDbCircle
 10
-3.710369
 20
3.819217
 30
0.0
 40
0.0125
210
0.0
220
0.0
230
-1.0
100
AcDbArc
 50
182.291984
 51
360.0
  0
ARC
  5
897
330
913
100
AcDbEntity
  8
ninja1 - Level 25
  6
Continuous
 62
     7
370
    13
100
AcDbCircle
 10
-3.722869
 20
3.819217
 30
0.0
 40
0.0005
210
0.0
220
0.0
230
-1.0
100
AcDbArc
 50
90.0
 51
271.145992
  0
LINE
  5
898
330
913
100
AcDbEntity
  8
ninja1 - Level 25
  6
Continuous
 62
     7
370
    13
100
AcDbLine
 10
3.722869
 20
3.827884
 30
0.0
 11
3.722869
 21
3.819717
 31
0.0
  0
ARC
  5
899
330
913
100
AcDbEntity
  8
ninja1 - Level 25
  6
Continuous
 62
     7
370
    13
100
AcDbCircle
 10
-3.722869
 20
3.828384
 30
0.0
 40
0.0004999999999985
210
0.0
220
0.0
230
-1.0
100
AcDbArc
 50
90.0
 51
270.0
  0
LINE
  5
89A
330
913
100
AcDbEntity
  8
ninja1 - Level 25
  6
Continuous
 62
     7
370
    13
100
AcDbLine
 10
3.722869
 20
3.83705
 30
0.0
 11
3.722869
 21
3.828884
 31
0.0
  0
ARC
  5
89B
330
913
100
AcDbEntity
  8
ninja1 - Level 25
  6
Continuous
 62
     7
370
    13
100
AcDbCircle
 10
-3.722869
 20
3.83755
 30
0.0
 40
0.0004999999999985
210
0.0
220
0.0
230
-1.0
100
AcDbArc
 50
90.0
 51
270.0
  0
LINE
  5
89C
330
913
100
AcDbEntity
  8
ninja1 - Level 25
  6
Continuous
 62
     7
370
    13
100
AcDbLine
 10
3.722869
 20
3.846217
 30
0.0
 11
3.722869
 21
3.83805
 31
0.0
  0
ARC
  5
89D
330
913
100
AcDbEntity
  8
ninja1 - Level 25
  6
Continuous
 62
     7
370
    13
100
AcDbCircle
 10
-3.722869
 20
3.846717
 30
0.0
 40
0.0004999999999985
210
0.0
220
0.0
230
-1.0
100
AcDbArc
 50
90.0
 51
270.0
  0
LINE
  5
89E
330
913
100
AcDbEntity
  8
ninja1 - Level 25
  6
Continuous
 62
     7
370
    13
100
AcDbLine
 10
3.722869
 20
3.855384
 30
0.0
 11
3.722869
 21
3.847217
 31
0.0
  0
ARC
  5
89F
330
913
100
AcDbEntity
  8
ninja1 - Level 25
  6
Continuous
 62
     7
370
    13
100
AcDbCircle
 10
-3.722869
 20
3.855884
 30
0.0
 40
0.0004999999999985
210
0.0
220
0.0
230
-1.0
100
AcDbArc
 50
90.0
 51
270.0
  0
LINE
  5
8A0
330
913
100
AcDbEntity
  8
ninja1 - Level 25
  6
Continuous
 62
     7
370
    13
100
AcDbLine
 10
3.722869
 20
3.86455
 30
0.0
 11
3.722869
 21
3.856384
 31
0.0
  0
ARC
  5
8A1
330
913
100
AcDbEntity
  8
ninja1 - Level 25
  6
Continuous
 62
     7
370
    13
100
AcDbCircle
 10
-3.722869
 20
3.86505
 30
0.0
 40
0.0004999999999985
210
0.0
220
0.0
230
-1.0
100
AcDbArc
 50
90.0
 51
270.0
  0
LINE
  5
8A2
330
913
100
AcDbEntity
  8
ninja1 - Level 25
  6
Continuous
 62
     7
370
    13
100
AcDbLine
 10
3.722869
 20
3.873717
 30
0.0
 11
3.722869
 21
3.86555
 31
0.0
  0
ARC
  5
8A3
330
913
100
AcDbEntity
  8
ninja1 - Level 25
  6
Continuous
 62
     7
370
    13
100
AcDbCircle
 10
-3.722869
 20
3.874217
 30
0.0
 40
0.0005
210
0.0
220
0.0
230
-1.0
100
AcDbArc
 50
88.854029
 51
270.0
  0
ARC
  5
8A4
330
913
100
AcDbEntity
  8
ninja1 - Level 25
  6
Continuous
 62
     7
370
    13
100
AcDbCircle
 10
-3.710369
 20
4.010212
 30
0.0
 40
0.0125
210
0.0
220
0.0
230
-1.0
100
AcDbArc
 50
360.0
 51
177.708037
  0
LINE
  5
8A5
330
913
100
AcDbEntity
  8
ninja1 - Level 25
  6
Continuous
 62
     7
370
    13
100
AcDbLine
 10
3.697869
 20
3.992712
 30
0.0
 11
3.697869
 21
4.010212
 31
0.0
  0
LINE
  5
8A6
330
913
100
AcDbEntity
  8
ninja1 - Level 25
  6
Continuous
 62
     7
370
    13
100
AcDbLine
 10
3.697869
 20
3.955212
 30
0.0
 11
3.697869
 21
3.972712
 31
0.0
  0
ARC
  5
8A7
330
913
100
AcDbEntity
  8
ninja1 - Level 25
  6
Continuous
 62
     7
370
    13
100
AcDbCircle
 10
-3.710369
 20
3.955212
 30
0.0
 40
0.0125
210
0.0
220
0.0
230
-1.0
100
AcDbArc
 50
182.291984
 51
360.0
  0
ARC
  5
8A8
330
913
100
AcDbEntity
  8
ninja1 - Level 25
  6
Continuous
 62
     7
370
    13
100
AcDbCircle
 10
-3.722869
 20
3.955212
 30
0.0
 40
0.0005
210
0.0
220
0.0
230
-1.0
100
AcDbArc
 50
90.0
 51
271.145992
  0
LINE
  5
8A9
330
913
100
AcDbEntity
  8
ninja1 - Level 25
  6
Continuous
 62
     7
370
    13
100
AcDbLine
 10
3.722869
 20
3.963879
 30
0.0
 11
3.722869
 21
3.955712
 31
0.0
  0
ARC
  5
8AA
330
913
100
AcDbEntity
  8
ninja1 - Level 25
  6
Continuous
 62
     7
370
    13
100
AcDbCircle
 10
-3.722869
 20
3.964379
 30
0.0
 40
0.0004999999999985
210
0.0
220
0.0
230
-1.0
100
AcDbArc
 50
90.0
 51
270.0
  0
LINE
  5
8AB
330
913
100
AcDbEntity
  8
ninja1 - Level 25
  6
Continuous
 62
     7
370
    13
100
AcDbLine
 10
3.722869
 20
3.973045
 30
0.0
 11
3.722869
 21
3.964879
 31
0.0
  0
ARC
  5
8AC
330
913
100
AcDbEntity
  8
ninja1 - Level 25
  6
Continuous
 62
     7
370
    13
100
AcDbCircle
 10
-3.722869
 20
3.973545
 30
0.0
 40
0.0004999999999985
210
0.0
220
0.0
230
-1.0
100
AcDbArc
 50
90.0
 51
270.0
  0
LINE
  5
8AD
330
913
100
AcDbEntity
  8
ninja1 - Level 25
  6
Continuous
 62
     7
370
    13
100
AcDbLine
 10
3.722869
 20
3.982212
 30
0.0
 11
3.722869
 21
3.974045
 31
0.0
  0
ARC
  5
8AE
330
913
100
AcDbEntity
  8
ninja1 - Level 25
  6
Continuous
 62
     7
370
    13
100
AcDbCircle
 10
-3.722869
 20
3.982712
 30
0.0
 40
0.0004999999999985
210
0.0
220
0.0
230
-1.0
100
AcDbArc
 50
90.0
 51
270.0
  0
LINE
  5
8AF
330
913
100
AcDbEntity
  8
ninja1 - Level 25
  6
Continuous
 62
     7
370
    13
100
AcDbLine
 10
3.722869
 20
3.991379
 30
0.0
 11
3.722869
 21
3.983212
 31
0.0
  0
ARC
  5
8B0
330
913
100
AcDbEntity
  8
ninja1 - Level 25
  6
Continuous
 62
     7
370
    13
100
AcDbCircle
 10
-3.722869
 20
3.991879
 30
0.0
 40
0.0004999999999985
210
0.0
220
0.0
230
-1.0
100
AcDbArc
 50
90.0
 51
270.0
  0
LINE
  5
8B1
330
913
100
AcDbEntity
  8
ninja1 - Level 25
  6
Continuous
 62
     7
370
    13
100
AcDbLine
 10
3.722869
 20
4.000545
 30
0.0
 11
3.722869
 21
3.992379
 31
0.0
  0
ARC
  5
8B2
330
913
100
AcDbEntity
  8
ninja1 - Level 25
  6
Continuous
 62
     7
370
    13
100
AcDbCircle
 10
-3.722869
 20
4.001045
 30
0.0
 40
0.0004999999999985
210
0.0
220
0.0
230
-1.0
100
AcDbArc
 50
90.0
 51
270.0
  0
LINE
  5
8B3
330
913
100
AcDbEntity
  8
ninja1 - Level 25
  6
Continuous
 62
     7
370
    13
100
AcDbLine
 10
3.722869
 20
4.009712
 30
0.0
 11
3.722869
 21
4.001545
 31
0.0
  0
ARC
  5
8B4
330
913
100
AcDbEntity
  8
ninja1 - Level 25
  6
Continuous
 62
     7
370
    13
100
AcDbCircle
 10
-3.722869
 20
4.010212
 30
0.0
 40
0.0005
210
0.0
220
0.0
230
-1.0
100
AcDbArc
 50
88.854029
 51
270.0
  0
ARC
  5
8B5
330
913
100
AcDbEntity
  8
ninja1 - Level 26
  6
Continuous
 62
     7
370
    13
100
AcDbCircle
 10
3.698869
 20
3.982712
 30
0.0
 40
0.0134749260041462
100
AcDbArc
 50
116.440708
 51
243.559292
  0
ARC
  5
8B6
330
913
100
AcDbEntity
  8
ninja1 - Level 26
  6
Continuous
 62
     7
370
    13
100
AcDbCircle
 10
3.698869
 20
4.118709
 30
0.0
 40
0.0134749260041462
100
AcDbArc
 50
116.440708
 51
243.559292
  0
ARC
  5
8B7
330
913
100
AcDbEntity
  8
ninja1 - Level 26
  6
Continuous
 62
     7
370
    13
100
AcDbCircle
 10
3.698869
 20
3.846717
 30
0.0
 40
0.0134749260041462
100
AcDbArc
 50
116.440708
 51
243.559292
  0
LINE
  5
8B8
330
913
100
AcDbEntity
  8
ninja1 - Level 26
  6
Continuous
 62
     7
370
    13
100
AcDbLine
 10
3.717869
 20
3.955212
 30
0.0
 11
3.717869
 21
4.010212
 31
0.0
  0
ARC
  5
8B9
330
913
100
AcDbEntity
  8
ninja1 - Level 26
  6
Continuous
 62
     7
370
    13
100
AcDbCircle
 10
3.710369
 20
3.955212
 30
0.0
 40
0.0075000000000009
100
AcDbArc
 50
180.0
 51
0.0
  0
LINE
  5
8BA
330
913
100
AcDbEntity
  8
ninja1 - Level 26
  6
Continuous
 62
     7
370
    13
100
AcDbLine
 10
3.702869
 20
3.955212
 30
0.0
 11
3.702869
 21
4.010212
 31
0.0
  0
ARC
  5
8BB
330
913
100
AcDbEntity
  8
ninja1 - Level 26
  6
Continuous
 62
     7
370
    13
100
AcDbCircle
 10
-3.710369
 20
4.010212
 30
0.0
 40
0.0075000000000009
210
0.0
220
0.0
230
-1.0
100
AcDbArc
 50
360.0
 51
180.0
  0
LINE
  5
8BC
330
913
100
AcDbEntity
  8
ninja1 - Level 26
  6
Continuous
 62
     7
370
    13
100
AcDbLine
 10
3.717869
 20
4.010212
 30
0.0
 11
3.722869
 21
4.010212
 31
0.0
  0
LINE
  5
8BD
330
913
100
AcDbEntity
  8
ninja1 - Level 26
  6
Continuous
 62
     7
370
    13
100
AcDbLine
 10
3.697869
 20
4.010212
 30
0.0
 11
3.702869
 21
4.010212
 31
0.0
  0
ARC
  5
8BE
330
913
100
AcDbEntity
  8
ninja1 - Level 26
  6
Continuous
 62
     7
370
    13
100
AcDbCircle
 10
3.710369
 20
4.010212
 30
0.0
 40
0.0125000000000009
100
AcDbArc
 50
360.0
 51
2.291963
  0
LINE
  5
8BF
330
913
100
AcDbEntity
  8
ninja1 - Level 26
  6
Continuous
 62
     7
370
    13
100
AcDbLine
 10
3.702869
 20
3.955212
 30
0.0
 11
3.697869
 21
3.955212
 31
0.0
  0
LINE
  5
8C0
330
913
100
AcDbEntity
  8
ninja1 - Level 26
  6
Continuous
 62
     7
370
    13
100
AcDbLine
 10
3.697869
 20
3.972712
 30
0.0
 11
3.697869
 21
3.992712
 31
0.0
  0
LINE
  5
8C1
330
913
100
AcDbEntity
  8
ninja1 - Level 26
  6
Continuous
 62
     7
370
    13
100
AcDbLine
 10
3.722869
 20
3.955212
 30
0.0
 11
3.717869
 21
3.955212
 31
0.0
  0
ARC
  5
8C2
330
913
100
AcDbEntity
  8
ninja1 - Level 26
  6
Continuous
 62
     7
370
    13
100
AcDbCircle
 10
-3.710369
 20
3.955212
 30
0.0
 40
0.0125000000000009
210
0.0
220
0.0
230
-1.0
100
AcDbArc
 50
357.708016
 51
0.0
  0
LINE
  5
8C3
330
913
100
AcDbEntity
  8
ninja1 - Level 26
  6
Continuous
 62
     7
370
    13
100
AcDbLine
 10
3.722869
 20
3.955212
 30
0.0
 11
3.722869
 21
3.955712
 31
0.0
  0
LINE
  5
8C4
330
913
100
AcDbEntity
  8
ninja1 - Level 26
  6
Continuous
 62
     7
370
    13
100
AcDbLine
 10
3.722869
 20
3.963879
 30
0.0
 11
3.722869
 21
3.964879
 31
0.0
  0
LINE
  5
8C5
330
913
100
AcDbEntity
  8
ninja1 - Level 26
  6
Continuous
 62
     7
370
    13
100
AcDbLine
 10
3.722869
 20
3.973045
 30
0.0
 11
3.722869
 21
3.974045
 31
0.0
  0
LINE
  5
8C6
330
913
100
AcDbEntity
  8
ninja1 - Level 26
  6
Continuous
 62
     7
370
    13
100
AcDbLine
 10
3.722869
 20
3.982212
 30
0.0
 11
3.722869
 21
3.983212
 31
0.0
  0
LINE
  5
8C7
330
913
100
AcDbEntity
  8
ninja1 - Level 26
  6
Continuous
 62
     7
370
    13
100
AcDbLine
 10
3.722869
 20
3.991379
 30
0.0
 11
3.722869
 21
3.992379
 31
0.0
  0
LINE
  5
8C8
330
913
100
AcDbEntity
  8
ninja1 - Level 26
  6
Continuous
 62
     7
370
    13
100
AcDbLine
 10
3.722869
 20
4.000545
 30
0.0
 11
3.722869
 21
4.001545
 31
0.0
  0
LINE
  5
8C9
330
913
100
AcDbEntity
  8
ninja1 - Level 26
  6
Continuous
 62
     7
370
    13
100
AcDbLine
 10
3.722869
 20
4.009712
 30
0.0
 11
3.722869
 21
4.010212
 31
0.0
  0
LINE
  5
8CA
330
913
100
AcDbEntity
  8
ninja1 - Level 26
  6
Continuous
 62
     7
370
    13
100
AcDbLine
 10
3.717869
 20
4.091209
 30
0.0
 11
3.717869
 21
4.146209
 31
0.0
  0
ARC
  5
8CB
330
913
100
AcDbEntity
  8
ninja1 - Level 26
  6
Continuous
 62
     7
370
    13
100
AcDbCircle
 10
3.710369
 20
4.091209
 30
0.0
 40
0.0075000000000009
100
AcDbArc
 50
180.0
 51
0.0
  0
LINE
  5
8CC
330
913
100
AcDbEntity
  8
ninja1 - Level 26
  6
Continuous
 62
     7
370
    13
100
AcDbLine
 10
3.702869
 20
4.091209
 30
0.0
 11
3.702869
 21
4.146209
 31
0.0
  0
ARC
  5
8CD
330
913
100
AcDbEntity
  8
ninja1 - Level 26
  6
Continuous
 62
     7
370
    13
100
AcDbCircle
 10
-3.710369
 20
4.146209
 30
0.0
 40
0.0075000000000009
210
0.0
220
0.0
230
-1.0
100
AcDbArc
 50
360.0
 51
180.0
  0
LINE
  5
8CE
330
913
100
AcDbEntity
  8
ninja1 - Level 26
  6
Continuous
 62
     7
370
    13
100
AcDbLine
 10
3.717869
 20
4.146209
 30
0.0
 11
3.722869
 21
4.146209
 31
0.0
  0
LINE
  5
8CF
330
913
100
AcDbEntity
  8
ninja1 - Level 26
  6
Continuous
 62
     7
370
    13
100
AcDbLine
 10
3.697869
 20
4.146209
 30
0.0
 11
3.702869
 21
4.146209
 31
0.0
  0
ARC
  5
8D0
330
913
100
AcDbEntity
  8
ninja1 - Level 26
  6
Continuous
 62
     7
370
    13
100
AcDbCircle
 10
3.710369
 20
4.146209
 30
0.0
 40
0.0125000000000009
100
AcDbArc
 50
360.0
 51
180.0
  0
LINE
  5
8D1
330
913
100
AcDbEntity
  8
ninja1 - Level 26
  6
Continuous
 62
     7
370
    13
100
AcDbLine
 10
3.702869
 20
4.091209
 30
0.0
 11
3.697869
 21
4.091209
 31
0.0
  0
LINE
  5
8D2
330
913
100
AcDbEntity
  8
ninja1 - Level 26
  6
Continuous
 62
     7
370
    13
100
AcDbLine
 10
3.697869
 20
4.108707
 30
0.0
 11
3.697869
 21
4.128707
 31
0.0
  0
LINE
  5
8D3
330
913
100
AcDbEntity
  8
ninja1 - Level 26
  6
Continuous
 62
     7
370
    13
100
AcDbLine
 10
3.697869
 20
4.146207
 30
0.0
 11
3.697869
 21
4.146209
 31
0.0
  0
LINE
  5
8D4
330
913
100
AcDbEntity
  8
ninja1 - Level 26
  6
Continuous
 62
     7
370
    13
100
AcDbLine
 10
3.722869
 20
4.091209
 30
0.0
 11
3.717869
 21
4.091209
 31
0.0
  0
ARC
  5
8D5
330
913
100
AcDbEntity
  8
ninja1 - Level 26
  6
Continuous
 62
     7
370
    13
100
AcDbCircle
 10
-3.710369
 20
4.091209
 30
0.0
 40
0.0125000000000009
210
0.0
220
0.0
230
-1.0
100
AcDbArc
 50
180.0
 51
0.0
  0
LINE
  5
8D6
330
913
100
AcDbEntity
  8
ninja1 - Level 26
  6
Continuous
 62
     7
370
    13
100
AcDbLine
 10
3.722869
 20
4.091209
 30
0.0
 11
3.722869
 21
4.091707
 31
0.0
  0
LINE
  5
8D7
330
913
100
AcDbEntity
  8
ninja1 - Level 26
  6
Continuous
 62
     7
370
    13
100
AcDbLine
 10
3.722869
 20
4.099874
 30
0.0
 11
3.722869
 21
4.100874
 31
0.0
  0
LINE
  5
8D8
330
913
100
AcDbEntity
  8
ninja1 - Level 26
  6
Continuous
 62
     7
370
    13
100
AcDbLine
 10
3.722869
 20
4.10904
 30
0.0
 11
3.722869
 21
4.11004
 31
0.0
  0
LINE
  5
8D9
330
913
100
AcDbEntity
  8
ninja1 - Level 26
  6
Continuous
 62
     7
370
    13
100
AcDbLine
 10
3.722869
 20
4.118207
 30
0.0
 11
3.722869
 21
4.119207
 31
0.0
  0
LINE
  5
8DA
330
913
100
AcDbEntity
  8
ninja1 - Level 26
  6
Continuous
 62
     7
370
    13
100
AcDbLine
 10
3.722869
 20
4.127374
 30
0.0
 11
3.722869
 21
4.128374
 31
0.0
  0
LINE
  5
8DB
330
913
100
AcDbEntity
  8
ninja1 - Level 26
  6
Continuous
 62
     7
370
    13
100
AcDbLine
 10
3.722869
 20
4.13654
 30
0.0
 11
3.722869
 21
4.13754
 31
0.0
  0
LINE
  5
8DC
330
913
100
AcDbEntity
  8
ninja1 - Level 26
  6
Continuous
 62
     7
370
    13
100
AcDbLine
 10
3.722869
 20
4.145707
 30
0.0
 11
3.722869
 21
4.146209
 31
0.0
  0
LINE
  5
8DD
330
913
100
AcDbEntity
  8
ninja1 - Level 26
  6
Continuous
 62
     7
370
    13
100
AcDbLine
 10
3.717869
 20
3.819217
 30
0.0
 11
3.717869
 21
3.874217
 31
0.0
  0
ARC
  5
8DE
330
913
100
AcDbEntity
  8
ninja1 - Level 26
  6
Continuous
 62
     7
370
    13
100
AcDbCircle
 10
3.710369
 20
3.819217
 30
0.0
 40
0.0075000000000009
100
AcDbArc
 50
180.0
 51
0.0
  0
LINE
  5
8DF
330
913
100
AcDbEntity
  8
ninja1 - Level 26
  6
Continuous
 62
     7
370
    13
100
AcDbLine
 10
3.702869
 20
3.819217
 30
0.0
 11
3.702869
 21
3.874217
 31
0.0
  0
ARC
  5
8E0
330
913
100
AcDbEntity
  8
ninja1 - Level 26
  6
Continuous
 62
     7
370
    13
100
AcDbCircle
 10
-3.710369
 20
3.874217
 30
0.0
 40
0.0075000000000009
210
0.0
220
0.0
230
-1.0
100
AcDbArc
 50
360.0
 51
180.0
  0
LINE
  5
8E1
330
913
100
AcDbEntity
  8
ninja1 - Level 26
  6
Continuous
 62
     7
370
    13
100
AcDbLine
 10
3.717869
 20
3.874217
 30
0.0
 11
3.722869
 21
3.874217
 31
0.0
  0
LINE
  5
8E2
330
913
100
AcDbEntity
  8
ninja1 - Level 26
  6
Continuous
 62
     7
370
    13
100
AcDbLine
 10
3.697869
 20
3.874217
 30
0.0
 11
3.702869
 21
3.874217
 31
0.0
  0
ARC
  5
8E3
330
913
100
AcDbEntity
  8
ninja1 - Level 26
  6
Continuous
 62
     7
370
    13
100
AcDbCircle
 10
3.710369
 20
3.874217
 30
0.0
 40
0.0125000000000009
100
AcDbArc
 50
360.0
 51
2.291963
  0
LINE
  5
8E4
330
913
100
AcDbEntity
  8
ninja1 - Level 26
  6
Continuous
 62
     7
370
    13
100
AcDbLine
 10
3.702869
 20
3.819217
 30
0.0
 11
3.697869
 21
3.819217
 31
0.0
  0
LINE
  5
8E5
330
913
100
AcDbEntity
  8
ninja1 - Level 26
  6
Continuous
 62
     7
370
    13
100
AcDbLine
 10
3.697869
 20
3.836717
 30
0.0
 11
3.697869
 21
3.856717
 31
0.0
  0
LINE
  5
8E6
330
913
100
AcDbEntity
  8
ninja1 - Level 26
  6
Continuous
 62
     7
370
    13
100
AcDbLine
 10
3.722869
 20
3.819217
 30
0.0
 11
3.717869
 21
3.819217
 31
0.0
  0
ARC
  5
8E7
330
913
100
AcDbEntity
  8
ninja1 - Level 26
  6
Continuous
 62
     7
370
    13
100
AcDbCircle
 10
-3.710369
 20
3.819217
 30
0.0
 40
0.0125000000000009
210
0.0
220
0.0
230
-1.0
100
AcDbArc
 50
357.708016
 51
0.0
  0
LINE
  5
8E8
330
913
100
AcDbEntity
  8
ninja1 - Level 26
  6
Continuous
 62
     7
370
    13
100
AcDbLine
 10
3.722869
 20
3.819217
 30
0.0
 11
3.722869
 21
3.819717
 31
0.0
  0
LINE
  5
8E9
330
913
100
AcDbEntity
  8
ninja1 - Level 26
  6
Continuous
 62
     7
370
    13
100
AcDbLine
 10
3.722869
 20
3.827884
 30
0.0
 11
3.722869
 21
3.828884
 31
0.0
  0
LINE
  5
8EA
330
913
100
AcDbEntity
  8
ninja1 - Level 26
  6
Continuous
 62
     7
370
    13
100
AcDbLine
 10
3.722869
 20
3.83705
 30
0.0
 11
3.722869
 21
3.83805
 31
0.0
  0
LINE
  5
8EB
330
913
100
AcDbEntity
  8
ninja1 - Level 26
  6
Continuous
 62
     7
370
    13
100
AcDbLine
 10
3.722869
 20
3.846217
 30
0.0
 11
3.722869
 21
3.847217
 31
0.0
  0
LINE
  5
8EC
330
913
100
AcDbEntity
  8
ninja1 - Level 26
  6
Continuous
 62
     7
370
    13
100
AcDbLine
 10
3.722869
 20
3.855384
 30
0.0
 11
3.722869
 21
3.856384
 31
0.0
  0
LINE
  5
8ED
330
913
100
AcDbEntity
  8
ninja1 - Level 26
  6
Continuous
 62
     7
370
    13
100
AcDbLine
 10
3.722869
 20
3.86455
 30
0.0
 11
3.722869
 21
3.86555
 31
0.0
  0
LINE
  5
8EE
330
913
100
AcDbEntity
  8
ninja1 - Level 26
  6
Continuous
 62
     7
370
    13
100
AcDbLine
 10
3.722869
 20
3.873717
 30
0.0
 11
3.722869
 21
3.874217
 31
0.0
  0
LINE
  5
8EF
330
913
100
AcDbEntity
  8
ninja1 - Level 26
  6
Continuous
 62
     7
370
    13
100
AcDbLine
 10
3.753369
 20
4.223717
 30
0.0
 11
3.753369
 21
4.303717
 31
0.0
  0
ARC
  5
8F0
330
913
100
AcDbEntity
  8
ninja1 - Level 26
  6
Continuous
 62
     7
370
    13
100
AcDbCircle
 10
3.750369
 20
4.223717
 30
0.0
 40
0.003
100
AcDbArc
 50
270.0
 51
0.0
  0
LINE
  5
8F1
330
913
100
AcDbEntity
  8
ninja1 - Level 26
  6
Continuous
 62
     7
370
    13
100
AcDbLine
 10
3.670369
 20
4.220717
 30
0.0
 11
3.750369
 21
4.220717
 31
0.0
  0
ARC
  5
8F2
330
913
100
AcDbEntity
  8
ninja1 - Level 26
  6
Continuous
 62
     7
370
    13
100
AcDbCircle
 10
3.670369
 20
4.223717
 30
0.0
 40
0.003
100
AcDbArc
 50
180.0
 51
270.0
  0
LINE
  5
8F3
330
913
100
AcDbEntity
  8
ninja1 - Level 26
  6
Continuous
 62
     7
370
    13
100
AcDbLine
 10
3.667369
 20
4.303717
 30
0.0
 11
3.667369
 21
4.223717
 31
0.0
  0
ARC
  5
8F4
330
913
100
AcDbEntity
  8
ninja1 - Level 26
  6
Continuous
 62
     7
370
    13
100
AcDbCircle
 10
3.670369
 20
4.303717
 30
0.0
 40
0.003
100
AcDbArc
 50
90.0
 51
180.0
  0
LINE
  5
8F5
330
913
100
AcDbEntity
  8
ninja1 - Level 26
  6
Continuous
 62
     7
370
    13
100
AcDbLine
 10
3.750369
 20
4.306717
 30
0.0
 11
3.670369
 21
4.306717
 31
0.0
  0
ARC
  5
8F6
330
913
100
AcDbEntity
  8
ninja1 - Level 26
  6
Continuous
 62
     7
370
    13
100
AcDbCircle
 10
3.750369
 20
4.303717
 30
0.0
 40
0.003
100
AcDbArc
 50
0.0
 51
90.0
  0
LINE
  5
8F7
330
913
100
AcDbEntity
  8
ninja1 - Level 26
  6
Continuous
 62
     7
370
    13
100
AcDbLine
 10
3.750369
 20
4.213717
 30
0.0
 11
3.670369
 21
4.213717
 31
0.0
  0
LINE
  5
8F8
330
913
100
AcDbEntity
  8
ninja1 - Level 26
  6
Continuous
 62
     7
370
    13
100
AcDbLine
 10
3.670369
 20
4.220717
 30
0.0
 11
3.670369
 21
4.213717
 31
0.0
  0
LINE
  5
8F9
330
913
100
AcDbEntity
  8
ninja1 - Level 26
  6
Continuous
 62
     7
370
    13
100
AcDbLine
 10
3.750369
 20
4.213717
 30
0.0
 11
3.750369
 21
4.220717
 31
0.0
  0
ARC
  5
8FA
330
913
100
AcDbEntity
  8
ninja1 - Level 26
  6
Continuous
 62
     7
370
    13
100
AcDbCircle
 10
-3.670369
 20
4.223717
 30
0.0
 40
0.01
210
0.0
220
0.0
230
-1.0
100
AcDbArc
 50
270.0
 51
0.0
  0
LINE
  5
8FB
330
913
100
AcDbEntity
  8
ninja1 - Level 26
  6
Continuous
 62
     7
370
    13
100
AcDbLine
 10
3.667369
 20
4.223717
 30
0.0
 11
3.660369
 21
4.223717
 31
0.0
  0
LINE
  5
8FC
330
913
100
AcDbEntity
  8
ninja1 - Level 26
  6
Continuous
 62
     7
370
    13
100
AcDbLine
 10
3.760369
 20
4.223717
 30
0.0
 11
3.753369
 21
4.223717
 31
0.0
  0
ARC
  5
8FD
330
913
100
AcDbEntity
  8
ninja1 - Level 26
  6
Continuous
 62
     7
370
    13
100
AcDbCircle
 10
-3.750369
 20
4.223717
 30
0.0
 40
0.01
210
0.0
220
0.0
230
-1.0
100
AcDbArc
 50
180.0
 51
270.0
  0
LINE
  5
8FE
330
913
100
AcDbEntity
  8
ninja1 - Level 26
  6
Continuous
 62
     7
370
    13
100
AcDbLine
 10
3.670369
 20
4.313717
 30
0.0
 11
3.750369
 21
4.313717
 31
0.0
  0
LINE
  5
8FF
330
913
100
AcDbEntity
  8
ninja1 - Level 26
  6
Continuous
 62
     7
370
    13
100
AcDbLine
 10
3.750369
 20
4.313717
 30
0.0
 11
3.750369
 21
4.306717
 31
0.0
  0
LINE
  5
900
330
913
100
AcDbEntity
  8
ninja1 - Level 26
  6
Continuous
 62
     7
370
    13
100
AcDbLine
 10
3.670369
 20
4.306717
 30
0.0
 11
3.670369
 21
4.313717
 31
0.0
  0
LINE
  5
901
330
913
100
AcDbEntity
  8
ninja1 - Level 26
  6
Continuous
 62
     7
370
    13
100
AcDbLine
 10
3.760369
 20
4.303717
 30
0.0
 11
3.753369
 21
4.303717
 31
0.0
  0
LINE
  5
902
330
913
100
AcDbEntity
  8
ninja1 - Level 26
  6
Continuous
 62
     7
370
    13
100
AcDbLine
 10
3.760369
 20
4.303717
 30
0.0
 11
3.760369
 21
4.223717
 31
0.0
  0
ARC
  5
903
330
913
100
AcDbEntity
  8
ninja1 - Level 26
  6
Continuous
 62
     7
370
    13
100
AcDbCircle
 10
-3.670369
 20
4.303717
 30
0.0
 40
0.01
210
0.0
220
0.0
230
-1.0
100
AcDbArc
 50
0.0
 51
90.0
  0
LINE
  5
904
330
913
100
AcDbEntity
  8
ninja1 - Level 26
  6
Continuous
 62
     7
370
    13
100
AcDbLine
 10
3.667369
 20
4.303717
 30
0.0
 11
3.660369
 21
4.303717
 31
0.0
  0
ARC
  5
905
330
913
100
AcDbEntity
  8
ninja1 - Level 26
  6
Continuous
 62
     7
370
    13
100
AcDbCircle
 10
-3.750369
 20
4.303717
 30
0.0
 40
0.01
210
0.0
220
0.0
230
-1.0
100
AcDbArc
 50
90.0
 51
180.0
  0
LINE
  5
906
330
913
100
AcDbEntity
  8
ninja1 - Level 26
  6
Continuous
 62
     7
370
    13
100
AcDbLine
 10
3.660369
 20
4.223717
 30
0.0
 11
3.660369
 21
4.303717
 31
0.0
  0
SPLINE
  5
907
330
913
100
AcDbEntity
  8
ninja1 - Level 26
  6
Continuous
 62
     7
370
    13
100
AcDbSpline
210
0.0
220
0.0
230
1.0
 70
     8
 71
     3
 72
     8
 73
     4
 74
     0
 42
0.000000001
 43
0.0000000001
 40
0.0
 40
0.0
 40
0.0
 40
0.0
 40
1.0
 40
1.0
 40
1.0
 40
1.0
 10
3.463423036311925
 20
2.69189185541914
 30
0.0
 10
3.463273432393962
 20
2.691734416813054
 30
0.0
 10
3.463108350529687
 20
2.691583460248682
 30
0.0
 10
3.46292873280278
 20
2.69144039073321
 30
0.0
  0
SPLINE
  5
909
330
913
100
AcDbEntity
  8
ninja1 - Level 26
  6
Continuous
 62
     7
370
    13
100
AcDbSpline
210
0.0
220
0.0
230
1.0
 70
     8
 71
     3
 72
     8
 73
     4
 74
     0
 42
0.000000001
 43
0.0000000001
 40
0.0
 40
0.0
 40
0.0
 40
0.0
 40
1.0
 40
1.0
 40
1.0
 40
1.0
 10
3.453319899190721
 20
2.691144546940807
 30
0.0
 10
3.4529766182652
 20
2.691370356637581
 30
0.0
 10
3.452674131939452
 20
2.691622750020175
 30
0.0
 10
3.452417218135248
 20
2.691894067082908
 30
0.0
  0
SPLINE
  5
90B
330
913
100
AcDbEntity
  8
ninja1 - Level 26
  6
Continuous
 62
     7
370
    13
100
AcDbSpline
210
0.0
220
0.0
230
1.0
 70
     8
 71
     3
 72
     8
 73
     4
 74
     0
 42
0.000000001
 43
0.0000000001
 40
0.0
 40
0.0
 40
0.0
 40
0.0
 40
1.0
 40
1.0
 40
1.0
 40
1.0
 10
2.98731595536101
 20
2.69189185541914
 30
0.0
 10
2.987574080638072
 20
2.691620212240481
 30
0.0
 10
2.987878283368834
 20
2.691367865935636
 30
0.0
 10
2.988223724591618
 20
2.691142033247779
 30
0.0
  0
SPLINE
  5
90D
330
913
100
AcDbEntity
  8
ninja1 - Level 26
  6
Continuous
 62
     7
370
    13
100
AcDbSpline
210
0.0
220
0.0
230
1.0
 70
     8
 71
     3
 72
     8
 73
     4
 74
     0
 42
0.000000001
 43
0.0000000001
 40
0.0
 40
0.0
 40
0.0
 40
0.0
 40
1.0
 40
1.0
 40
1.0
 40
1.0
 10
2.99741909248222
 20
2.691144546940807
 30
0.0
 10
2.99776237340774
 20
2.691370356637581
 30
0.0
 10
2.998064859733489
 20
2.691622750020175
 30
0.0
 10
2.998321773537693
 20
2.691894067082908
 30
0.0
  0
LINE
  5
90F
330
913
100
AcDbEntity
  8
ninja1 - Level 26
  6
Continuous
 62
     7
370
    13
100
AcDbLine
 10
2.798041
 20
2.388975
 30
0.0
 11
3.652698
 21
2.388975
 31
0.0
  0
ENDSEC
  0
SECTION
  2
OBJECTS
  0
DICTIONARY
  5
91C
330
0
100
AcDbDictionary
281
     1
  3
ACAD_COLOR
350
971
  3
ACAD_DETAILVIEWSTYLE
350
B13
  3
ACAD_GROUP
350
95E
  3
ACAD_LAYOUT
350
93F
  3
ACAD_MATERIAL
350
91E
  3
ACAD_MLEADERSTYLE
350
974
  3
ACAD_MLINESTYLE
350
95F
  3
ACAD_PLOTSETTINGS
350
960
  3
ACAD_PLOTSTYLENAME
350
91B
  3
ACAD_SCALELIST
350
972
  3
ACAD_SECTIONVIEWSTYLE
350
B11
  3
ACAD_TABLESTYLE
350
973
  3
ACAD_VISUALSTYLE
350
958
  3
AcadDim
350
AEF
  3
ACDB_RECOMPOSE_DATA
350
1011
  3
AcDbVariableDictionary
350
975
  3
AcDsDecomposeData
350
1017
  3
MicroStation
350
AED
  0
DICTIONARY
  5
948
330
947
100
AcDbDictionary
280
     1
281
     1
  3
ACAD_LAYERFILTERS
360
949
  3
ACAD_LAYERSTATES
360
94A
  3
ACLYDICTIONARY
360
94B
  0
DICTIONARY
  5
918
330
917
100
AcDbDictionary
280
     1
281
     1
  3
ADSK_XREC_LAYER_RECONCILED
360
919
  0
DICTIONARY
  5
914
330
913
100
AcDbDictionary
280
     1
281
     1
  3
ACAD_SORTENTS
360
AEB
  0
DICTIONARY
  5
971
102
{ACAD_REACTORS
330
91C
102
}
330
91C
100
AcDbDictionary
281
     1
  0
DICTIONARY
  5
B13
102
{ACAD_REACTORS
330
91C
102
}
330
91C
100
AcDbDictionary
281
     1
  3
Imperial24
350
B14
  0
DICTIONARY
  5
95E
102
{ACAD_REACTORS
330
91C
102
}
330
91C
100
AcDbDictionary
281
     1
  0
DICTIONARY
  5
93F
102
{ACAD_REACTORS
330
91C
102
}
330
91C
100
AcDbDictionary
281
     1
  3
Layout1
350
944
  3
Model
350
93E
  0
DICTIONARY
  5
91E
102
{ACAD_REACTORS
330
91C
102
}
330
91C
100
AcDbDictionary
281
     1
  3
ByBlock
350
969
  3
ByLayer
350
961
  3
Global
350
91D
  0
DICTIONARY
  5
974
102
{ACAD_REACTORS
330
91C
102
}
330
91C
100
AcDbDictionary
281
     1
  3
Standard
350
AF0
  0
DICTIONARY
  5
95F
102
{ACAD_REACTORS
330
91C
102
}
330
91C
100
AcDbDictionary
281
     1
  3
Standard
350
987
  0
DICTIONARY
  5
960
102
{ACAD_REACTORS
330
91C
102
}
330
91C
100
AcDbDictionary
281
     1
  0
ACDBDICTIONARYWDFLT
  5
91B
102
{ACAD_REACTORS
330
91C
102
}
330
91C
100
AcDbDictionary
281
     1
  3
Normal
350
91A
100
AcDbDictionaryWithDefault
340
91A
  0
DICTIONARY
  5
972
102
{ACAD_REACTORS
330
91C
102
}
330
91C
100
AcDbDictionary
281
     1
  3
A0
350
98C
  3
A1
350
98D
  3
A2
350
98E
  3
A3
350
98F
  3
A4
350
990
  3
A5
350
991
  3
A6
350
992
  3
A7
350
993
  3
A8
350
994
  3
A9
350
995
  3
B0
350
996
  3
B1
350
997
  3
B2
350
998
  3
B3
350
999
  3
B4
350
99A
  3
B5
350
99B
  3
B6
350
99C
  3
B7
350
99D
  3
B8
350
99E
  3
B9
350
99F
  3
C0
350
9A0
  3
C1
350
9A1
  3
C2
350
9A2
  3
C3
350
9A3
  3
C4
350
9A4
  3
C5
350
9A5
  3
C6
350
9A6
  3
C7
350
9A7
  3
C8
350
9A8
  3
C9
350
9A9
  3
D0
350
9AA
  3
D1
350
9AB
  3
D2
350
9AC
  0
DICTIONARY
  5
B11
102
{ACAD_REACTORS
330
91C
102
}
330
91C
100
AcDbDictionary
281
     1
  3
Imperial24
350
B12
  0
DICTIONARY
  5
973
102
{ACAD_REACTORS
330
91C
102
}
330
91C
100
AcDbDictionary
281
     1
  3
Standard
350
988
  0
DICTIONARY
  5
958
102
{ACAD_REACTORS
330
91C
102
}
330
91C
100
AcDbDictionary
281
     1
  3
2dWireframe
350
957
  3
Basic
350
B00
  3
Brighten
350
B04
  3
ColorChange
350
B08
  3
Conceptual
350
B02
  3
Dim
350
B03
  3
EdgeColorOff
350
B10
  3
Facepattern
350
B07
  3
Flat
350
AFC
  3
FlatWithEdges
350
AFD
  3
Gouraud
350
AFE
  3
GouraudWithEdges
350
AFF
  3
Hidden
350
B01
  3
JitterOff
350
B0E
  3
Linepattern
350
B06
  3
OverhangOff
350
B0F
  3
Realistic
350
98A
  3
Shaded
350
B0D
  3
Shaded with edges
350
B0C
  3
Shades of Gray
350
B09
  3
Sketchy
350
B0A
  3
Thicken
350
B05
  3
Wireframe
350
98B
  3
X-Ray
350
B0B
  0
XRECORD
  5
AEF
102
{ACAD_REACTORS
330
91C
102
}
330
91C
100
AcDbXrecord
280
     1
 90
   990106
  3
 
 60
     0
 61
     0
 62
     1
 63
     1
 64
     0
 65
     0
 66
     0
 67
     3
 68
     1
 69
     1
 70
     0
 71
     0
 72
     0
 40
0.0
170
     0
  0
XRECORD
  5
1011
102
{ACAD_REACTORS
330
91C
102
}
330
91C
100
AcDbXrecord
280
     1
 90
        1
330
988
  0
DICTIONARY
  5
975
102
{ACAD_REACTORS
330
91C
102
}
330
91C
100
AcDbDictionary
281
     1
  3
CANNOSCALE
350
976
  3
CMLEADERSTYLE
350
977
  3
CTABLESTYLE
350
978
  3
CVIEWDETAILSTYLE
350
979
  3
CVIEWSECTIONSTYLE
350
97A
  3
LAYEREVAL
350
97B
  3
LAYERNOTIFY
350
97C
  3
MSLTSCALE
350
97D
  3
PDFFRAME
350
97E
  0
DICTIONARY
  5
1017
102
{ACAD_REACTORS
330
91C
102
}
330
91C
100
AcDbDictionary
281
     1
  3
AcDsRecords
350
1019
  3
AcDsSchemas
350
1018
1001
ACAD
1070
     2
  0
DICTIONARY
  5
AED
102
{ACAD_REACTORS
330
91C
102
}
330
91C
100
AcDbDictionary
281
     1
  3
ModelApplicationElement 0 92 702
350
5C
  0
DICTIONARY
  5
949
102
{ACAD_REACTORS
330
948
102
}
330
948
100
AcDbDictionary
281
     1
  0
DICTIONARY
  5
94A
102
{ACAD_REACTORS
330
948
102
}
330
948
100
AcDbDictionary
281
     1
  0
DICTIONARY
  5
94B
102
{ACAD_REACTORS
330
948
102
}
330
948
100
AcDbDictionary
281
     1
  0
XRECORD
  5
919
102
{ACAD_REACTORS
330
918
102
}
330
918
100
AcDbXrecord
280
     1
290
     1
  0
SORTENTSTABLE
  5
AEB
102
{ACAD_REACTORS
330
914
102
}
330
914
100
AcDbSortentsTable
330
913
  0
ACDBDETAILVIEWSTYLE
  5
B14
102
{ACAD_XDICTIONARY
360
101C
102
}
102
{ACAD_REACTORS
330
B13
102
}
330
B13
100
AcDbModelDocViewStyle
 70
     0
  3
Imperial24
290
     0
100
AcDbDetailViewStyle
 70
     0
 71
     0
 90
        3
 71
     1
340
94D
 62
   256
 40
0.24
340
0
 62
   256
 40
0.24
300

 40
0.36
280
     3
 71
     2
340
926
 90
       25
 62
   256
 71
     3
340
94D
 62
   256
 40
0.24
 90
        1
 40
0.75
 90
        1
300
%<\AcVar ViewType \f "%tc1">% %<\AcVar ViewDetailId>%\PSCALE %<\AcVar ViewScale \f "%sn">%
 71
     4
340
926
 90
       25
 62
   256
340
926
 90
       25
 62
   256
280
     0
  0
LAYOUT
  5
944
102
{ACAD_XDICTIONARY
360
945
102
}
102
{ACAD_REACTORS
330
93F
102
}
330
93F
100
AcDbPlotSettings
  1

  2
none_device
  4
Letter_(8.50_x_11.00_Inches)
  6

 40
6.35
 41
6.35
 42
6.350006
 43
6.350006
 44
215.899994
 45
279.399994
 46
0.0
 47
0.0
 48
0.0
 49
0.0
140
0.0
141
0.0
142
1.0
143
1.0
 70
   688
 72
     0
 73
     1
 74
     5
  7

 75
    16
147
1.0
 76
     0
 77
     2
 78
   300
148
0.0
149
0.0
100
AcDbLayout
  1
Layout1
 70
     1
 71
     1
 10
-0.25
 20
-0.25
 11
10.75
 21
8.25
 12
0.0
 22
0.0
 32
0.0
 14
1.05
 24
0.8
 34
0.0
 15
9.45
 25
7.2
 35
0.0
146
0.0
 13
0.0
 23
0.0
 33
0.0
 16
1.0
 26
0.0
 36
0.0
 17
0.0
 27
1.0
 37
0.0
 76
     0
330
941
1001
ACAD_PSEXT
1000
None
1000
None
1000
Not applicable
1000
The layout will not be plotted unless a new plotter configuration name is selected.
1070
     0
  0
LAYOUT
  5
93E
102
{ACAD_XDICTIONARY
360
940
102
}
102
{ACAD_REACTORS
330
93F
102
}
330
93F
100
AcDbPlotSettings
  1

  2
none_device
  4
ANSI_A_(8.50_x_11.00_Inches)
  6

 40
6.35
 41
19.049999
 42
6.350006
 43
19.049988
 44
215.899994
 45
279.399994
 46
0.0
 47
0.0
 48
0.0
 49
0.0
140
0.0
141
0.0
142
1.0
143
2.584895
 70
 11952
 72
     0
 73
     1
 74
     0
  7

 75
     0
147
0.386863
 76
     0
 77
     2
 78
   300
148
0.0
149
0.0
100
AcDbLayout
  1
Model
 70
     1
 71
     0
 10
0.0
 20
0.0
 11
12.0
 21
9.0
 12
0.0
 22
0.0
 32
0.0
 14
0.0
 24
0.0
 34
0.0
 15
0.0
 25
0.0
 35
0.0
146
0.0
 13
0.0
 23
0.0
 33
0.0
 16
1.0
 26
0.0
 36
0.0
 17
0.0
 27
1.0
 37
0.0
 76
     0
330
913
  0
MATERIAL
  5
969
102
{ACAD_XDICTIONARY
360
96A
102
}
102
{ACAD_REACTORS
330
91E
102
}
330
91E
100
AcDbMaterial
  1
ByBlock
 72
     0
 43
0.020833
 43
0.0
 43
0.0
 43
0.0
 43
0.0
 43
0.020833
 43
0.0
 43
0.0
 43
0.0
 43
0.0
 43
1.0
 43
0.0
 43
0.0
 43
0.0
 43
0.0
 43
1.0
 77
     0
 47
0.020833
 47
0.0
 47
0.0
 47
0.0
 47
0.0
 47
0.020833
 47
0.0
 47
0.0
 47
0.0
 47
0.0
 47
1.0
 47
0.0
 47
0.0
 47
0.0
 47
0.0
 47
1.0
171
     0
 49
0.020833
 49
0.0
 49
0.0
 49
0.0
 49
0.0
 49
0.020833
 49
0.0
 49
0.0
 49
0.0
 49
0.0
 49
1.0
 49
0.0
 49
0.0
 49
0.0
 49
0.0
 49
1.0
175
     0
142
0.020833
142
0.0
142
0.0
142
0.0
142
0.0
142
0.020833
142
0.0
142
0.0
142
0.0
142
0.0
142
1.0
142
0.0
142
0.0
142
0.0
142
0.0
142
1.0
179
     0
144
0.020833
144
0.0
144
0.0
144
0.0
144
0.0
144
0.020833
144
0.0
144
0.0
144
0.0
144
0.0
144
1.0
144
0.0
144
0.0
144
0.0
144
0.0
144
1.0
147
0.020833
147
0.0
147
0.0
147
0.0
147
0.0
147
0.020833
147
0.0
147
0.0
147
0.0
147
0.0
147
1.0
147
0.0
147
0.0
147
0.0
147
0.0
147
1.0
  0
MATERIAL
  5
961
102
{ACAD_XDICTIONARY
360
962
102
}
102
{ACAD_REACTORS
330
91E
102
}
330
91E
100
AcDbMaterial
  1
ByLayer
 72
     0
 43
0.020833
 43
0.0
 43
0.0
 43
0.0
 43
0.0
 43
0.020833
 43
0.0
 43
0.0
 43
0.0
 43
0.0
 43
1.0
 43
0.0
 43
0.0
 43
0.0
 43
0.0
 43
1.0
 77
     0
 47
0.020833
 47
0.0
 47
0.0
 47
0.0
 47
0.0
 47
0.020833
 47
0.0
 47
0.0
 47
0.0
 47
0.0
 47
1.0
 47
0.0
 47
0.0
 47
0.0
 47
0.0
 47
1.0
171
     0
 49
0.020833
 49
0.0
 49
0.0
 49
0.0
 49
0.0
 49
0.020833
 49
0.0
 49
0.0
 49
0.0
 49
0.0
 49
1.0
 49
0.0
 49
0.0
 49
0.0
 49
0.0
 49
1.0
175
     0
142
0.020833
142
0.0
142
0.0
142
0.0
142
0.0
142
0.020833
142
0.0
142
0.0
142
0.0
142
0.0
142
1.0
142
0.0
142
0.0
142
0.0
142
0.0
142
1.0
179
     0
144
0.020833
144
0.0
144
0.0
144
0.0
144
0.0
144
0.020833
144
0.0
144
0.0
144
0.0
144
0.0
144
1.0
144
0.0
144
0.0
144
0.0
144
0.0
144
1.0
147
0.020833
147
0.0
147
0.0
147
0.0
147
0.0
147
0.020833
147
0.0
147
0.0
147
0.0
147
0.0
147
1.0
147
0.0
147
0.0
147
0.0
147
0.0
147
1.0
  0
MATERIAL
  5
91D
102
{ACAD_XDICTIONARY
360
91F
102
}
102
{ACAD_REACTORS
330
91E
102
}
330
91E
100
AcDbMaterial
  1
Global
 72
     0
 43
0.020833
 43
0.0
 43
0.0
 43
0.0
 43
0.0
 43
0.020833
 43
0.0
 43
0.0
 43
0.0
 43
0.0
 43
1.0
 43
0.0
 43
0.0
 43
0.0
 43
0.0
 43
1.0
 77
     0
 47
0.020833
 47
0.0
 47
0.0
 47
0.0
 47
0.0
 47
0.020833
 47
0.0
 47
0.0
 47
0.0
 47
0.0
 47
1.0
 47
0.0
 47
0.0
 47
0.0
 47
0.0
 47
1.0
171
     0
 49
0.020833
 49
0.0
 49
0.0
 49
0.0
 49
0.0
 49
0.020833
 49
0.0
 49
0.0
 49
0.0
 49
0.0
 49
1.0
 49
0.0
 49
0.0
 49
0.0
 49
0.0
 49
1.0
175
     0
142
0.020833
142
0.0
142
0.0
142
0.0
142
0.0
142
0.020833
142
0.0
142
0.0
142
0.0
142
0.0
142
1.0
142
0.0
142
0.0
142
0.0
142
0.0
142
1.0
179
     0
144
0.020833
144
0.0
144
0.0
144
0.0
144
0.0
144
0.020833
144
0.0
144
0.0
144
0.0
144
0.0
144
1.0
144
0.0
144
0.0
144
0.0
144
0.0
144
1.0
147
0.020833
147
0.0
147
0.0
147
0.0
147
0.0
147
0.020833
147
0.0
147
0.0
147
0.0
147
0.0
147
1.0
147
0.0
147
0.0
147
0.0
147
0.0
147
1.0
  0
MLEADERSTYLE
  5
AF0
102
{ACAD_REACTORS
330
974
102
}
330
974
100
AcDbMLeaderStyle
179
     2
170
     2
171
     1
172
     0
 90
        2
 40
0.0
 41
0.0
173
     1
 91
-1073741824
 92
       -2
290
     1
 42
0.125
291
     1
 43
0.5
  3

341
981
 44
0.25
300

342
AEE
174
     1
178
     1
175
     1
176
     0
 93
-1073741824
 45
0.25
292
     0
297
     1
 46
5.0
 94
-1073741824
 47
1.0
 49
1.0
140
1.0
293
     1
141
0.0
294
     1
177
     0
142
1.0
295
     0
296
     1
143
0.125
271
     0
272
     9
273
     9
298
     0
  0
MLINESTYLE
  5
987
102
{ACAD_REACTORS
330
95F
102
}
330
95F
100
AcDbMlineStyle
  2
STANDARD
 70
     0
  3

 62
   256
 51
90.0
 52
90.0
 71
     2
 49
0.5
 62
   256
  6
BYLAYER
 49
-0.5
 62
   256
  6
BYLAYER
  0
ACDBPLACEHOLDER
  5
91A
102
{ACAD_REACTORS
330
91B
102
}
330
91B
  0
SCALE
  5
98C
102
{ACAD_REACTORS
330
972
102
}
330
972
100
AcDbScale
 70
     0
300
1:1
140
1.0
141
1.0
290
     1
  0
SCALE
  5
98D
102
{ACAD_REACTORS
330
972
102
}
330
972
100
AcDbScale
 70
     0
300
1:2
140
1.0
141
2.0
290
     0
  0
SCALE
  5
98E
102
{ACAD_REACTORS
330
972
102
}
330
972
100
AcDbScale
 70
     0
300
1:4
140
1.0
141
4.0
290
     0
  0
SCALE
  5
98F
102
{ACAD_REACTORS
330
972
102
}
330
972
100
AcDbScale
 70
     0
300
1:5
140
1.0
141
5.0
290
     0
  0
SCALE
  5
990
102
{ACAD_REACTORS
330
972
102
}
330
972
100
AcDbScale
 70
     0
300
1:8
140
1.0
141
8.0
290
     0
  0
SCALE
  5
991
102
{ACAD_REACTORS
330
972
102
}
330
972
100
AcDbScale
 70
     0
300
1:10
140
1.0
141
10.0
290
     0
  0
SCALE
  5
992
102
{ACAD_REACTORS
330
972
102
}
330
972
100
AcDbScale
 70
     0
300
1:16
140
1.0
141
16.0
290
     0
  0
SCALE
  5
993
102
{ACAD_REACTORS
330
972
102
}
330
972
100
AcDbScale
 70
     0
300
1:20
140
1.0
141
20.0
290
     0
  0
SCALE
  5
994
102
{ACAD_REACTORS
330
972
102
}
330
972
100
AcDbScale
 70
     0
300
1:30
140
1.0
141
30.0
290
     0
  0
SCALE
  5
995
102
{ACAD_REACTORS
330
972
102
}
330
972
100
AcDbScale
 70
     0
300
1:40
140
1.0
141
40.0
290
     0
  0
SCALE
  5
996
102
{ACAD_REACTORS
330
972
102
}
330
972
100
AcDbScale
 70
     0
300
1:50
140
1.0
141
50.0
290
     0
  0
SCALE
  5
997
102
{ACAD_REACTORS
330
972
102
}
330
972
100
AcDbScale
 70
     0
300
1:100
140
1.0
141
100.0
290
     0
  0
SCALE
  5
998
102
{ACAD_REACTORS
330
972
102
}
330
972
100
AcDbScale
 70
     0
300
2:1
140
2.0
141
1.0
290
     0
  0
SCALE
  5
999
102
{ACAD_REACTORS
330
972
102
}
330
972
100
AcDbScale
 70
     0
300
4:1
140
4.0
141
1.0
290
     0
  0
SCALE
  5
99A
102
{ACAD_REACTORS
330
972
102
}
330
972
100
AcDbScale
 70
     0
300
8:1
140
8.0
141
1.0
290
     0
  0
SCALE
  5
99B
102
{ACAD_REACTORS
330
972
102
}
330
972
100
AcDbScale
 70
     0
300
10:1
140
10.0
141
1.0
290
     0
  0
SCALE
  5
99C
102
{ACAD_REACTORS
330
972
102
}
330
972
100
AcDbScale
 70
     0
300
100:1
140
100.0
141
1.0
290
     0
  0
SCALE
  5
99D
102
{ACAD_REACTORS
330
972
102
}
330
972
100
AcDbScale
 70
     0
300
1/128" = 1'-0"
140
0.007813
141
12.0
290
     0
  0
SCALE
  5
99E
102
{ACAD_REACTORS
330
972
102
}
330
972
100
AcDbScale
 70
     0
300
1/64" = 1'-0"
140
0.015625
141
12.0
290
     0
  0
SCALE
  5
99F
102
{ACAD_REACTORS
330
972
102
}
330
972
100
AcDbScale
 70
     0
300
1/32" = 1'-0"
140
0.03125
141
12.0
290
     0
  0
SCALE
  5
9A0
102
{ACAD_REACTORS
330
972
102
}
330
972
100
AcDbScale
 70
     0
300
1/16" = 1'-0"
140
0.0625
141
12.0
290
     0
  0
SCALE
  5
9A1
102
{ACAD_REACTORS
330
972
102
}
330
972
100
AcDbScale
 70
     0
300
3/32" = 1'-0"
140
0.09375
141
12.0
290
     0
  0
SCALE
  5
9A2
102
{ACAD_REACTORS
330
972
102
}
330
972
100
AcDbScale
 70
     0
300
1/8" = 1'-0"
140
0.125
141
12.0
290
     0
  0
SCALE
  5
9A3
102
{ACAD_REACTORS
330
972
102
}
330
972
100
AcDbScale
 70
     0
300
3/16" = 1'-0"
140
0.1875
141
12.0
290
     0
  0
SCALE
  5
9A4
102
{ACAD_REACTORS
330
972
102
}
330
972
100
AcDbScale
 70
     0
300
1/4" = 1'-0"
140
0.25
141
12.0
290
     0
  0
SCALE
  5
9A5
102
{ACAD_REACTORS
330
972
102
}
330
972
100
AcDbScale
 70
     0
300
3/8" = 1'-0"
140
0.375
141
12.0
290
     0
  0
SCALE
  5
9A6
102
{ACAD_REACTORS
330
972
102
}
330
972
100
AcDbScale
 70
     0
300
1/2" = 1'-0"
140
0.5
141
12.0
290
     0
  0
SCALE
  5
9A7
102
{ACAD_REACTORS
330
972
102
}
330
972
100
AcDbScale
 70
     0
300
3/4" = 1'-0"
140
0.75
141
12.0
290
     0
  0
SCALE
  5
9A8
102
{ACAD_REACTORS
330
972
102
}
330
972
100
AcDbScale
 70
     0
300
1" = 1'-0"
140
1.0
141
12.0
290
     0
  0
SCALE
  5
9A9
102
{ACAD_REACTORS
330
972
102
}
330
972
100
AcDbScale
 70
     0
300
1-1/2" = 1'-0"
140
1.5
141
12.0
290
     0
  0
SCALE
  5
9AA
102
{ACAD_REACTORS
330
972
102
}
330
972
100
AcDbScale
 70
     0
300
3" = 1'-0"
140
3.0
141
12.0
290
     0
  0
SCALE
  5
9AB
102
{ACAD_REACTORS
330
972
102
}
330
972
100
AcDbScale
 70
     0
300
6" = 1'-0"
140
6.0
141
12.0
290
     0
  0
SCALE
  5
9AC
102
{ACAD_REACTORS
330
972
102
}
330
972
100
AcDbScale
 70
     0
300
1'-0" = 1'-0"
140
12.0
141
12.0
290
     0
  0
ACDBSECTIONVIEWSTYLE
  5
B12
102
{ACAD_XDICTIONARY
360
101A
102
}
102
{ACAD_REACTORS
330
B11
102
}
330
B11
100
AcDbModelDocViewStyle
 70
     0
  3
Imperial24
290
     0
100
AcDbSectionViewStyle
 70
     0
 71
     0
 90
       78
 71
     1
340
94D
 62
   256
 40
0.24
340
0
340
0
 62
   256
 40
0.24
300
I, O, Q, S, X, Z
 40
0.48
 90
        3
 40
0.18
 90
        1
 71
     2
340
926
 90
       25
 62
   256
340
926
 90
       50
 62
   256
 40
0.24
 40
0.0
 40
0.24
 71
     3
340
94D
 62
   256
 40
0.24
 90
        1
 40
0.75
 90
        1
300
%<\AcVar ViewType \f "%tc1">% %<\AcVar ViewSectionStartId>%-%<\AcVar ViewSectionEndId>%\PSCALE %<\AcVar ViewScale \f "%sn">%
 71
     4
 62
   256
 62
   257
300
ANSI31
 40
1.0
 90
        0
290
     0
290
     0
 90
        6
 40
0.0
 40
1.570796
 40
0.261799
 40
1.308997
 40
-0.261799
 40
1.832596
  0
TABLESTYLE
  5
988
102
{ACAD_XDICTIONARY
360
989
102
}
102
{ACAD_REACTORS
330
973
102
}
330
973
100
AcDbTableStyle
280
     0
  3
Standard
 70
     0
 71
     0
 40
0.06
 41
0.06
280
     0
281
     0
  7
Standard
140
0.18
170
     2
 62
     0
 63
     7
283
     0
 90
        4
 91
        0
  1

274
    -2
284
     1
 64
     0
275
    -2
285
     1
 65
     0
276
    -2
286
     1
 66
     0
277
    -2
287
     1
 67
     0
278
    -2
288
     1
 68
     0
279
    -2
289
     1
 69
     0
  7
Standard
140
0.25
170
     5
 62
     0
 63
     7
283
     0
 90
        4
 91
        0
  1

274
    -2
284
     1
 64
     0
275
    -2
285
     1
 65
     0
276
    -2
286
     1
 66
     0
277
    -2
287
     1
 67
     0
278
    -2
288
     1
 68
     0
279
    -2
289
     1
 69
     0
  7
Standard
140
0.18
170
     5
 62
     0
 63
     7
283
     0
 90
        4
 91
        0
  1

274
    -2
284
     1
 64
     0
275
    -2
285
     1
 65
     0
276
    -2
286
     1
 66
     0
277
    -2
287
     1
 67
     0
278
    -2
288
     1
 68
     0
279
    -2
289
     1
 69
     0
  0
VISUALSTYLE
  5
957
102
{ACAD_REACTORS
330
958
102
}
330
958
100
AcDbVisualStyle
  2
2dWireframe
 70
     4
177
     3
291
     0
 70
    58
 90
        0
176
     1
 90
        2
176
     1
 90
        0
176
     1
 90
        0
176
     1
 40
0.6
176
     1
 40
30.0
176
     1
 62
     7
420
 16777215
176
     1
 90
        1
176
     1
 90
        4
176
     1
 62
     7
176
     1
 62
   257
176
     1
 90
        1
176
     1
 90
        1
176
     1
 40
1.0
176
     1
 90
        0
176
     1
 62
   257
176
     1
 40
1.0
176
     1
 90
        1
176
     1
 90
        6
176
     1
 90
        2
176
     1
 62
     7
176
     1
 90
        5
176
     1
 90
        0
176
     1
 90
        0
176
     1
290
     0
176
     1
 90
        1
176
     1
 40
0.0
176
     1
 90
        0
176
     1
290
     1
176
     1
290
     1
176
     1
290
     0
176
     1
290
     0
176
     1
290
     0
176
     1
290
     0
176
     1
290
     0
176
     1
290
     0
176
     1
290
     0
176
     1
 90
       50
176
     1
 40
0.0
176
     1
 40
1.0
176
     1
 90
        0
176
     1
 62
    18
420
        0
176
     1
 90
       50
176
     1
 90
        3
176
     1
 62
     5
420
      255
176
     1
290
     0
176
     1
 90
       50
176
     1
 90
       50
176
     1
 90
       50
176
     1
290
     0
176
     1
 90
       50
176
     1
 62
   256
176
     0
 40
1.0
176
     0
 90
        2
176
     1
  1
strokes_ogs.tif
176
     1
290
     0
176
     1
 40
1.0
176
     1
 40
1.0
176
     1
1001
ACAD
1000
AcDbSavedByObjectVersion
1070
     0
  0
VISUALSTYLE
  5
B00
102
{ACAD_REACTORS
330
958
102
}
330
958
100
AcDbVisualStyle
  2
Basic
 70
     7
177
     3
291
     1
 70
    58
 90
        1
176
     1
 90
        0
176
     1
 90
        1
176
     1
 90
        0
176
     1
 40
0.6
176
     1
 40
30.0
176
     1
 62
     7
420
 16777215
176
     1
 90
        0
176
     1
 90
        4
176
     1
 62
     7
176
     1
 62
   257
176
     1
 90
        1
176
     1
 90
        1
176
     1
 40
1.0
176
     1
 90
        8
176
     1
 62
     7
176
     1
 40
1.0
176
     1
 90
        1
176
     1
 90
        6
176
     1
 90
        2
176
     1
 62
     7
176
     1
 90
        5
176
     1
 90
        0
176
     1
 90
        0
176
     1
290
     0
176
     1
 90
        1
176
     1
 40
0.0
176
     1
 90
        0
176
     1
290
     0
176
     1
290
     1
176
     1
290
     1
176
     1
290
     0
176
     1
290
     0
176
     1
290
     0
176
     1
290
     0
176
     1
290
     0
176
     1
290
     0
176
     1
 90
       50
176
     1
 40
0.0
176
     1
 40
1.0
176
     1
 90
        0
176
     1
 62
    18
420
        0
176
     1
 90
       50
176
     1
 90
        3
176
     1
 62
     5
420
      255
176
     1
290
     0
176
     1
 90
       50
176
     1
 90
       50
176
     1
 90
       50
176
     1
290
     0
176
     1
 90
       50
176
     1
 62
   256
176
     0
 40
1.0
176
     0
 90
        2
176
     1
  1
strokes_ogs.tif
176
     1
290
     0
176
     1
 40
1.0
176
     1
 40
1.0
176
     1
1001
ACAD
1000
AcDbSavedByObjectVersion
1070
     0
  0
VISUALSTYLE
  5
B04
102
{ACAD_REACTORS
330
958
102
}
330
958
100
AcDbVisualStyle
  2
Brighten
 70
    12
177
     3
291
     1
 70
    58
 90
        2
176
     1
 90
        2
176
     1
 90
        0
176
     1
 90
        0
176
     1
 40
0.6
176
     1
 40
30.0
176
     1
 62
     7
420
 16777215
176
     1
 90
        1
176
     1
 90
        4
176
     1
 62
     7
176
     1
 62
   257
176
     1
 90
        1
176
     1
 90
        1
176
     1
 40
1.0
176
     1
 90
        8
176
     1
 62
     7
176
     1
 40
1.0
176
     1
 90
        1
176
     1
 90
        6
176
     1
 90
        2
176
     1
 62
     7
176
     1
 90
        5
176
     1
 90
        0
176
     1
 90
        0
176
     1
290
     0
176
     1
 90
        1
176
     1
 40
50.0
176
     1
 90
        0
176
     1
290
     0
176
     1
290
     1
176
     1
290
     1
176
     1
290
     0
176
     1
290
     0
176
     1
290
     0
176
     1
290
     0
176
     1
290
     0
176
     1
290
     0
176
     1
 90
       50
176
     1
 40
0.0
176
     1
 40
1.0
176
     1
 90
        0
176
     1
 62
    18
420
        0
176
     1
 90
       50
176
     1
 90
        3
176
     1
 62
     5
420
      255
176
     1
290
     0
176
     1
 90
       50
176
     1
 90
       50
176
     1
 90
       50
176
     1
290
     0
176
     1
 90
       50
176
     1
 62
   256
176
     0
 40
1.0
176
     0
 90
        2
176
     1
  1
strokes_ogs.tif
176
     1
290
     0
176
     1
 40
1.0
176
     1
 40
1.0
176
     1
1001
ACAD
1000
AcDbSavedByObjectVersion
1070
     0
  0
VISUALSTYLE
  5
B08
102
{ACAD_REACTORS
330
958
102
}
330
958
100
AcDbVisualStyle
  2
ColorChange
 70
    16
177
     3
291
     1
 70
    58
 90
        2
176
     1
 90
        2
176
     1
 90
        3
176
     1
 90
        0
176
     1
 40
0.6
176
     1
 40
30.0
176
     1
 62
     8
420
  8421504
176
     1
 90
        1
176
     1
 90
        4
176
     1
 62
     7
176
     1
 62
   257
176
     1
 90
        1
176
     1
 90
        1
176
     1
 40
1.0
176
     1
 90
        8
176
     1
 62
     8
420
  8421504
176
     1
 40
1.0
176
     1
 90
        1
176
     1
 90
        6
176
     1
 90
        2
176
     1
 62
     7
176
     1
 90
        5
176
     1
 90
        0
176
     1
 90
        0
176
     1
290
     0
176
     1
 90
        1
176
     1
 40
0.0
176
     1
 90
        0
176
     1
290
     0
176
     1
290
     1
176
     1
290
     1
176
     1
290
     0
176
     1
290
     0
176
     1
290
     0
176
     1
290
     0
176
     1
290
     0
176
     1
290
     0
176
     1
 90
       50
176
     1
 40
0.0
176
     1
 40
1.0
176
     1
 90
        0
176
     1
 62
    18
420
        0
176
     1
 90
       50
176
     1
 90
        3
176
     1
 62
     5
420
      255
176
     1
290
     0
176
     1
 90
       50
176
     1
 90
       50
176
     1
 90
       50
176
     1
290
     0
176
     1
 90
       50
176
     1
 62
   256
176
     0
 40
1.0
176
     0
 90
        2
176
     1
  1
strokes_ogs.tif
176
     1
290
     0
176
     1
 40
1.0
176
     1
 40
1.0
176
     1
1001
ACAD
1000
AcDbSavedByObjectVersion
1070
     0
  0
VISUALSTYLE
  5
B02
102
{ACAD_REACTORS
330
958
102
}
330
958
100
AcDbVisualStyle
  2
Conceptual
 70
     9
177
     3
291
     0
 70
    58
 90
        3
176
     1
 90
        2
176
     1
 90
        0
176
     1
 90
        0
176
     1
 40
0.6
176
     1
 40
30.0
176
     1
 62
     7
420
 16777215
176
     1
 90
        2
176
     1
 90
        2
176
     1
 62
     7
176
     1
 62
   257
176
     1
 90
        1
176
     1
 90
        1
176
     1
 40
179.0
176
     1
 90
        8
176
     1
 62
     7
176
     1
 40
1.0
176
     1
 90
        1
176
     1
 90
        6
176
     1
 90
        2
176
     1
 62
     7
176
     1
 90
        3
176
     1
 90
        0
176
     1
 90
        0
176
     1
290
     0
176
     1
 90
        1
176
     1
 40
0.0
176
     1
 90
        0
176
     1
290
     0
176
     1
290
     1
176
     1
290
     1
176
     1
290
     0
176
     1
290
     0
176
     1
290
     0
176
     1
290
     0
176
     1
290
     0
176
     1
290
     0
176
     1
 90
       50
176
     1
 40
0.0
176
     1
 40
1.0
176
     1
 90
        0
176
     1
 62
    18
420
        0
176
     1
 90
       50
176
     1
 90
        3
176
     1
 62
     5
420
      255
176
     1
290
     0
176
     1
 90
       50
176
     1
 90
       50
176
     1
 90
       50
176
     1
290
     0
176
     1
 90
       50
176
     1
 62
   256
176
     0
 40
1.0
176
     0
 90
        2
176
     1
  1
strokes_ogs.tif
176
     1
290
     0
176
     1
 40
1.0
176
     1
 40
1.0
176
     1
1001
ACAD
1000
AcDbSavedByObjectVersion
1070
     0
  0
VISUALSTYLE
  5
B03
102
{ACAD_REACTORS
330
958
102
}
330
958
100
AcDbVisualStyle
  2
Dim
 70
    11
177
     3
291
     1
 70
    58
 90
        2
176
     1
 90
        2
176
     1
 90
        0
176
     1
 90
        0
176
     1
 40
0.6
176
     1
 40
30.0
176
     1
 62
     7
420
 16777215
176
     1
 90
        1
176
     1
 90
        4
176
     1
 62
     7
176
     1
 62
   257
176
     1
 90
        1
176
     1
 90
        1
176
     1
 40
1.0
176
     1
 90
        8
176
     1
 62
     7
176
     1
 40
1.0
176
     1
 90
        1
176
     1
 90
        6
176
     1
 90
        2
176
     1
 62
     7
176
     1
 90
        5
176
     1
 90
        0
176
     1
 90
        0
176
     1
290
     0
176
     1
 90
        1
176
     1
 40
-50.0
176
     1
 90
        0
176
     1
290
     0
176
     1
290
     1
176
     1
290
     1
176
     1
290
     0
176
     1
290
     0
176
     1
290
     0
176
     1
290
     0
176
     1
290
     0
176
     1
290
     0
176
     1
 90
       50
176
     1
 40
0.0
176
     1
 40
1.0
176
     1
 90
        0
176
     1
 62
    18
420
        0
176
     1
 90
       50
176
     1
 90
        3
176
     1
 62
     5
420
      255
176
     1
290
     0
176
     1
 90
       50
176
     1
 90
       50
176
     1
 90
       50
176
     1
290
     0
176
     1
 90
       50
176
     1
 62
   256
176
     0
 40
1.0
176
     0
 90
        2
176
     1
  1
strokes_ogs.tif
176
     1
290
     0
176
     1
 40
1.0
176
     1
 40
1.0
176
     1
1001
ACAD
1000
AcDbSavedByObjectVersion
1070
     0
  0
VISUALSTYLE
  5
B10
102
{ACAD_REACTORS
330
958
102
}
330
958
100
AcDbVisualStyle
  2
EdgeColorOff
 70
    22
177
     3
291
     1
 70
    58
 90
        2
176
     0
 90
        2
176
     0
 90
        0
176
     0
 90
        0
176
     0
 40
0.6
176
     0
 40
30.0
176
     0
 62
     7
420
 16777215
176
     0
 90
        1
176
     0
 90
        4
176
     0
 62
     7
176
     0
 62
   257
176
     0
 90
        1
176
     0
 90
        1
176
     0
 40
1.0
176
     0
 90
        8
176
     2
 62
     7
176
     0
 40
1.0
176
     0
 90
        1
176
     0
 90
        6
176
     0
 90
        2
176
     0
 62
     7
176
     0
 90
        5
176
     0
 90
        0
176
     0
 90
        0
176
     0
290
     0
176
     0
 90
        1
176
     0
 40
0.0
176
     0
 90
        0
176
     0
290
     0
176
     0
290
     1
176
     0
290
     1
176
     0
290
     0
176
     0
290
     0
176
     0
290
     0
176
     0
290
     0
176
     0
290
     0
176
     0
290
     0
176
     0
 90
       50
176
     0
 40
0.0
176
     0
 40
1.0
176
     0
 90
        0
176
     0
 62
    18
420
        0
176
     0
 90
       50
176
     0
 90
        3
176
     0
 62
     5
420
      255
176
     0
290
     0
176
     0
 90
       50
176
     0
 90
       50
176
     0
 90
       50
176
     0
290
     0
176
     0
 90
       50
176
     0
 62
   256
176
     0
 40
1.0
176
     0
 90
        2
176
     0
  1
strokes_ogs.tif
176
     0
290
     0
176
     0
 40
1.0
176
     0
 40
1.0
176
     0
1001
ACAD
1000
AcDbSavedByObjectVersion
1070
     0
  0
VISUALSTYLE
  5
B07
102
{ACAD_REACTORS
330
958
102
}
330
958
100
AcDbVisualStyle
  2
Facepattern
 70
    15
177
     3
291
     1
 70
    58
 90
        2
176
     1
 90
        2
176
     1
 90
        0
176
     1
 90
        0
176
     1
 40
0.6
176
     1
 40
30.0
176
     1
 62
     7
420
 16777215
176
     1
 90
        1
176
     1
 90
        4
176
     1
 62
     7
176
     1
 62
   257
176
     1
 90
        1
176
     1
 90
        1
176
     1
 40
1.0
176
     1
 90
        8
176
     1
 62
     7
176
     1
 40
1.0
176
     1
 90
        1
176
     1
 90
        6
176
     1
 90
        2
176
     1
 62
     7
176
     1
 90
        5
176
     1
 90
        0
176
     1
 90
        0
176
     1
290
     0
176
     1
 90
        1
176
     1
 40
0.0
176
     1
 90
        0
176
     1
290
     0
176
     1
290
     1
176
     1
290
     1
176
     1
290
     0
176
     1
290
     0
176
     1
290
     0
176
     1
290
     0
176
     1
290
     0
176
     1
290
     0
176
     1
 90
       50
176
     1
 40
0.0
176
     1
 40
1.0
176
     1
 90
        0
176
     1
 62
    18
420
        0
176
     1
 90
       50
176
     1
 90
        3
176
     1
 62
     5
420
      255
176
     1
290
     0
176
     1
 90
       50
176
     1
 90
       50
176
     1
 90
       50
176
     1
290
     0
176
     1
 90
       50
176
     1
 62
   256
176
     0
 40
1.0
176
     0
 90
        2
176
     1
  1
strokes_ogs.tif
176
     1
290
     0
176
     1
 40
1.0
176
     1
 40
1.0
176
     1
1001
ACAD
1000
AcDbSavedByObjectVersion
1070
     0
  0
VISUALSTYLE
  5
AFC
102
{ACAD_REACTORS
330
958
102
}
330
958
100
AcDbVisualStyle
  2
Flat
 70
     0
177
     3
291
     1
 70
    58
 90
        2
176
     1
 90
        1
176
     1
 90
        1
176
     1
 90
        2
176
     1
 40
0.6
176
     1
 40
30.0
176
     1
 62
     7
420
 16777215
176
     1
 90
        0
176
     1
 90
        0
176
     1
 62
     7
176
     1
 62
   257
176
     1
 90
        1
176
     1
 90
        1
176
     1
 40
1.0
176
     1
 90
        8
176
     1
 62
     7
176
     1
 40
1.0
176
     1
 90
        1
176
     1
 90
        6
176
     1
 90
        2
176
     1
 62
     7
176
     1
 90
        5
176
     1
 90
        0
176
     1
 90
        0
176
     1
290
     0
176
     1
 90
       13
176
     1
 40
0.0
176
     1
 90
        0
176
     1
290
     0
176
     1
290
     1
176
     1
290
     1
176
     1
290
     0
176
     1
290
     0
176
     1
290
     0
176
     1
290
     0
176
     1
290
     0
176
     1
290
     0
176
     1
 90
       50
176
     1
 40
0.0
176
     1
 40
1.0
176
     1
 90
        0
176
     1
 62
    18
420
        0
176
     1
 90
       50
176
     1
 90
        3
176
     1
 62
     5
420
      255
176
     1
290
     0
176
     1
 90
       50
176
     1
 90
       50
176
     1
 90
       50
176
     1
290
     0
176
     1
 90
       50
176
     1
 62
   256
176
     0
 40
1.0
176
     0
 90
        2
176
     1
  1
strokes_ogs.tif
176
     1
290
     0
176
     1
 40
1.0
176
     1
 40
1.0
176
     1
1001
ACAD
1000
AcDbSavedByObjectVersion
1070
     0
  0
VISUALSTYLE
  5
AFD
102
{ACAD_REACTORS
330
958
102
}
330
958
100
AcDbVisualStyle
  2
FlatWithEdges
 70
     1
177
     3
291
     1
 70
    58
 90
        2
176
     1
 90
        1
176
     1
 90
        1
176
     1
 90
        2
176
     1
 40
0.6
176
     1
 40
30.0
176
     1
 62
     7
420
 16777215
176
     1
 90
        1
176
     1
 90
        0
176
     1
 62
     7
176
     1
 62
   257
176
     1
 90
        1
176
     1
 90
        1
176
     1
 40
1.0
176
     1
 90
        0
176
     1
 62
   257
176
     1
 40
1.0
176
     1
 90
        1
176
     1
 90
        6
176
     1
 90
        2
176
     1
 62
     7
176
     1
 90
        5
176
     1
 90
        0
176
     1
 90
        0
176
     1
290
     0
176
     1
 90
       13
176
     1
 40
0.0
176
     1
 90
        0
176
     1
290
     0
176
     1
290
     1
176
     1
290
     1
176
     1
290
     0
176
     1
290
     0
176
     1
290
     0
176
     1
290
     0
176
     1
290
     0
176
     1
290
     0
176
     1
 90
       50
176
     1
 40
0.0
176
     1
 40
1.0
176
     1
 90
        0
176
     1
 62
    18
420
        0
176
     1
 90
       50
176
     1
 90
        3
176
     1
 62
     5
420
      255
176
     1
290
     0
176
     1
 90
       50
176
     1
 90
       50
176
     1
 90
       50
176
     1
290
     0
176
     1
 90
       50
176
     1
 62
   256
176
     0
 40
1.0
176
     0
 90
        2
176
     1
  1
strokes_ogs.tif
176
     1
290
     0
176
     1
 40
1.0
176
     1
 40
1.0
176
     1
1001
ACAD
1000
AcDbSavedByObjectVersion
1070
     0
  0
VISUALSTYLE
  5
AFE
102
{ACAD_REACTORS
330
958
102
}
330
958
100
AcDbVisualStyle
  2
Gouraud
 70
     2
177
     3
291
     1
 70
    58
 90
        2
176
     1
 90
        2
176
     1
 90
        1
176
     1
 90
        2
176
     1
 40
0.6
176
     1
 40
30.0
176
     1
 62
     7
420
 16777215
176
     1
 90
        0
176
     1
 90
        0
176
     1
 62
     7
176
     1
 62
   257
176
     1
 90
        1
176
     1
 90
        1
176
     1
 40
1.0
176
     1
 90
        0
176
     1
 62
     7
176
     1
 40
1.0
176
     1
 90
        1
176
     1
 90
        6
176
     1
 90
        2
176
     1
 62
     7
176
     1
 90
        5
176
     1
 90
        0
176
     1
 90
        0
176
     1
290
     0
176
     1
 90
       13
176
     1
 40
0.0
176
     1
 90
        0
176
     1
290
     0
176
     1
290
     1
176
     1
290
     1
176
     1
290
     0
176
     1
290
     0
176
     1
290
     0
176
     1
290
     0
176
     1
290
     0
176
     1
290
     0
176
     1
 90
       50
176
     1
 40
0.0
176
     1
 40
1.0
176
     1
 90
        0
176
     1
 62
    18
420
        0
176
     1
 90
       50
176
     1
 90
        3
176
     1
 62
     5
420
      255
176
     1
290
     0
176
     1
 90
       50
176
     1
 90
       50
176
     1
 90
       50
176
     1
290
     0
176
     1
 90
       50
176
     1
 62
   256
176
     0
 40
1.0
176
     0
 90
        2
176
     1
  1
strokes_ogs.tif
176
     1
290
     0
176
     1
 40
1.0
176
     1
 40
1.0
176
     1
1001
ACAD
1000
AcDbSavedByObjectVersion
1070
     0
  0
VISUALSTYLE
  5
AFF
102
{ACAD_REACTORS
330
958
102
}
330
958
100
AcDbVisualStyle
  2
GouraudWithEdges
 70
     3
177
     3
291
     1
 70
    58
 90
        2
176
     1
 90
        2
176
     1
 90
        1
176
     1
 90
        2
176
     1
 40
0.6
176
     1
 40
30.0
176
     1
 62
     7
420
 16777215
176
     1
 90
        1
176
     1
 90
        0
176
     1
 62
     7
176
     1
 62
   257
176
     1
 90
        1
176
     1
 90
        1
176
     1
 40
1.0
176
     1
 90
        0
176
     1
 62
   257
176
     1
 40
1.0
176
     1
 90
        1
176
     1
 90
        6
176
     1
 90
        2
176
     1
 62
     7
176
     1
 90
        5
176
     1
 90
        0
176
     1
 90
        0
176
     1
290
     0
176
     1
 90
       13
176
     1
 40
0.0
176
     1
 90
        0
176
     1
290
     0
176
     1
290
     1
176
     1
290
     1
176
     1
290
     0
176
     1
290
     0
176
     1
290
     0
176
     1
290
     0
176
     1
290
     0
176
     1
290
     0
176
     1
 90
       50
176
     1
 40
0.0
176
     1
 40
1.0
176
     1
 90
        0
176
     1
 62
    18
420
        0
176
     1
 90
       50
176
     1
 90
        3
176
     1
 62
     5
420
      255
176
     1
290
     0
176
     1
 90
       50
176
     1
 90
       50
176
     1
 90
       50
176
     1
290
     0
176
     1
 90
       50
176
     1
 62
   256
176
     0
 40
1.0
176
     0
 90
        2
176
     1
  1
strokes_ogs.tif
176
     1
290
     0
176
     1
 40
1.0
176
     1
 40
1.0
176
     1
1001
ACAD
1000
AcDbSavedByObjectVersion
1070
     0
  0
VISUALSTYLE
  5
B01
102
{ACAD_REACTORS
330
958
102
}
330
958
100
AcDbVisualStyle
  2
Hidden
 70
     6
177
     3
291
     0
 70
    58
 90
        1
176
     1
 90
        2
176
     1
 90
        2
176
     1
 90
        0
176
     1
 40
0.6
176
     1
 40
30.0
176
     1
 62
     7
420
 16777215
176
     1
 90
        2
176
     1
 90
        2
176
     1
 62
     7
176
     1
 62
   257
176
     1
 90
        2
176
     1
 90
        1
176
     1
 40
40.0
176
     1
 90
        0
176
     1
 62
   257
176
     1
 40
1.0
176
     1
 90
        1
176
     1
 90
        6
176
     1
 90
        2
176
     1
 62
     7
176
     1
 90
        3
176
     1
 90
        0
176
     1
 90
        0
176
     1
290
     0
176
     1
 90
        1
176
     1
 40
0.0
176
     1
 90
        0
176
     1
290
     0
176
     1
290
     1
176
     1
290
     1
176
     1
290
     0
176
     1
290
     0
176
     1
290
     0
176
     1
290
     0
176
     1
290
     0
176
     1
290
     0
176
     1
 90
       50
176
     1
 40
0.0
176
     1
 40
1.0
176
     1
 90
        0
176
     1
 62
    18
420
        0
176
     1
 90
       50
176
     1
 90
        3
176
     1
 62
     5
420
      255
176
     1
290
     0
176
     1
 90
       50
176
     1
 90
       50
176
     1
 90
       50
176
     1
290
     0
176
     1
 90
       50
176
     1
 62
   256
176
     0
 40
1.0
176
     0
 90
        2
176
     1
  1
strokes_ogs.tif
176
     1
290
     0
176
     1
 40
1.0
176
     1
 40
1.0
176
     1
1001
ACAD
1000
AcDbSavedByObjectVersion
1070
     0
  0
VISUALSTYLE
  5
B0E
102
{ACAD_REACTORS
330
958
102
}
330
958
100
AcDbVisualStyle
  2
JitterOff
 70
    20
177
     3
291
     1
 70
    58
 90
        2
176
     0
 90
        2
176
     0
 90
        0
176
     0
 90
        0
176
     0
 40
0.6
176
     0
 40
30.0
176
     0
 62
     7
420
 16777215
176
     0
 90
        1
176
     0
 90
        4
176
     0
 62
     7
176
     0
 62
   257
176
     0
 90
        1
176
     0
 90
        1
176
     0
 40
1.0
176
     0
 90
       10
176
     2
 62
     7
176
     0
 40
1.0
176
     0
 90
        1
176
     0
 90
        6
176
     0
 90
        2
176
     0
 62
     7
176
     0
 90
        5
176
     0
 90
        0
176
     0
 90
        0
176
     0
290
     0
176
     0
 90
        1
176
     0
 40
0.0
176
     0
 90
        0
176
     0
290
     0
176
     0
290
     1
176
     0
290
     1
176
     0
290
     0
176
     0
290
     0
176
     0
290
     0
176
     0
290
     0
176
     0
290
     0
176
     0
290
     0
176
     0
 90
       50
176
     0
 40
0.0
176
     0
 40
1.0
176
     0
 90
        0
176
     0
 62
    18
420
        0
176
     0
 90
       50
176
     0
 90
        3
176
     0
 62
     5
420
      255
176
     0
290
     0
176
     0
 90
       50
176
     0
 90
       50
176
     0
 90
       50
176
     0
290
     0
176
     0
 90
       50
176
     0
 62
   256
176
     0
 40
1.0
176
     0
 90
        2
176
     0
  1
strokes_ogs.tif
176
     0
290
     0
176
     0
 40
1.0
176
     0
 40
1.0
176
     0
1001
ACAD
1000
AcDbSavedByObjectVersion
1070
     0
  0
VISUALSTYLE
  5
B06
102
{ACAD_REACTORS
330
958
102
}
330
958
100
AcDbVisualStyle
  2
Linepattern
 70
    14
177
     3
291
     1
 70
    58
 90
        2
176
     1
 90
        2
176
     1
 90
        0
176
     1
 90
        0
176
     1
 40
0.6
176
     1
 40
30.0
176
     1
 62
     7
420
 16777215
176
     1
 90
        1
176
     1
 90
        4
176
     1
 62
     7
176
     1
 62
   257
176
     1
 90
        7
176
     1
 90
        7
176
     1
 40
1.0
176
     1
 90
        8
176
     1
 62
     7
176
     1
 40
1.0
176
     1
 90
        1
176
     1
 90
        6
176
     1
 90
        2
176
     1
 62
     7
176
     1
 90
        5
176
     1
 90
        0
176
     1
 90
        0
176
     1
290
     0
176
     1
 90
        1
176
     1
 40
0.0
176
     1
 90
        0
176
     1
290
     0
176
     1
290
     1
176
     1
290
     1
176
     1
290
     0
176
     1
290
     0
176
     1
290
     0
176
     1
290
     0
176
     1
290
     0
176
     1
290
     0
176
     1
 90
       50
176
     1
 40
0.0
176
     1
 40
1.0
176
     1
 90
        0
176
     1
 62
    18
420
        0
176
     1
 90
       50
176
     1
 90
        3
176
     1
 62
     5
420
      255
176
     1
290
     0
176
     1
 90
       50
176
     1
 90
       50
176
     1
 90
       50
176
     1
290
     0
176
     1
 90
       50
176
     1
 62
   256
176
     0
 40
1.0
176
     0
 90
        2
176
     1
  1
strokes_ogs.tif
176
     1
290
     0
176
     1
 40
1.0
176
     1
 40
1.0
176
     1
1001
ACAD
1000
AcDbSavedByObjectVersion
1070
     0
  0
VISUALSTYLE
  5
B0F
102
{ACAD_REACTORS
330
958
102
}
330
958
100
AcDbVisualStyle
  2
OverhangOff
 70
    21
177
     3
291
     1
 70
    58
 90
        2
176
     0
 90
        2
176
     0
 90
        0
176
     0
 90
        0
176
     0
 40
0.6
176
     0
 40
30.0
176
     0
 62
     7
420
 16777215
176
     0
 90
        1
176
     0
 90
        4
176
     0
 62
     7
176
     0
 62
   257
176
     0
 90
        1
176
     0
 90
        1
176
     0
 40
1.0
176
     0
 90
        9
176
     2
 62
     7
176
     0
 40
1.0
176
     0
 90
        1
176
     0
 90
        6
176
     0
 90
        2
176
     0
 62
     7
176
     0
 90
        5
176
     0
 90
        0
176
     0
 90
        0
176
     0
290
     0
176
     0
 90
        1
176
     0
 40
0.0
176
     0
 90
        0
176
     0
290
     0
176
     0
290
     1
176
     0
290
     1
176
     0
290
     0
176
     0
290
     0
176
     0
290
     0
176
     0
290
     0
176
     0
290
     0
176
     0
290
     0
176
     0
 90
       50
176
     0
 40
0.0
176
     0
 40
1.0
176
     0
 90
        0
176
     0
 62
    18
420
        0
176
     0
 90
       50
176
     0
 90
        3
176
     0
 62
     5
420
      255
176
     0
290
     0
176
     0
 90
       50
176
     0
 90
       50
176
     0
 90
       50
176
     0
290
     0
176
     0
 90
       50
176
     0
 62
   256
176
     0
 40
1.0
176
     0
 90
        2
176
     0
  1
strokes_ogs.tif
176
     0
290
     0
176
     0
 40
1.0
176
     0
 40
1.0
176
     0
1001
ACAD
1000
AcDbSavedByObjectVersion
1070
     0
  0
VISUALSTYLE
  5
98A
102
{ACAD_REACTORS
330
958
102
}
330
958
100
AcDbVisualStyle
  2
Realistic
 70
     8
177
     3
291
     0
 70
    58
 90
        2
176
     1
 90
        2
176
     1
 90
        0
176
     1
 90
        0
176
     1
 40
0.6
176
     1
 40
30.0
176
     1
 62
     7
420
 16777215
176
     1
 90
        1
176
     1
 90
        0
176
     1
 62
     7
176
     1
 62
   257
176
     1
 90
        1
176
     1
 90
        1
176
     1
 40
1.0
176
     1
 90
        8
176
     1
 62
     8
420
  7895160
176
     1
 40
1.0
176
     1
 90
        1
176
     1
 90
        6
176
     1
 90
        2
176
     1
 62
     7
176
     1
 90
        5
176
     1
 90
        0
176
     1
 90
        0
176
     1
290
     0
176
     1
 90
       13
176
     1
 40
0.0
176
     1
 90
        0
176
     1
290
     0
176
     1
290
     1
176
     1
290
     1
176
     1
290
     0
176
     1
290
     0
176
     1
290
     0
176
     1
290
     0
176
     1
290
     0
176
     1
290
     0
176
     1
 90
       50
176
     1
 40
0.0
176
     1
 40
1.0
176
     1
 90
        0
176
     1
 62
    18
420
        0
176
     1
 90
       50
176
     1
 90
        3
176
     1
 62
     5
420
      255
176
     1
290
     0
176
     1
 90
       50
176
     1
 90
       50
176
     1
 90
       50
176
     1
290
     0
176
     1
 90
       50
176
     1
 62
   256
176
     0
 40
1.0
176
     0
 90
        2
176
     1
  1
strokes_ogs.tif
176
     1
290
     0
176
     1
 40
1.0
176
     1
 40
1.0
176
     1
1001
ACAD
1000
AcDbSavedByObjectVersion
1070
     0
  0
VISUALSTYLE
  5
B0D
102
{ACAD_REACTORS
330
958
102
}
330
958
100
AcDbVisualStyle
  2
Shaded
 70
    27
177
     3
291
     0
 70
    58
 90
        2
176
     1
 90
        2
176
     1
 90
        1
176
     1
 90
        2
176
     1
 40
0.6
176
     1
 40
30.0
176
     1
 62
     7
420
 16777215
176
     1
 90
        0
176
     1
 90
        4
176
     1
 62
     7
176
     1
 62
   257
176
     1
 90
        1
176
     1
 90
        1
176
     1
 40
1.0
176
     1
 90
        8
176
     1
 62
   257
176
     1
 40
1.0
176
     1
 90
        1
176
     1
 90
        6
176
     1
 90
        2
176
     1
 62
     8
420
  7895160
176
     1
 90
        3
176
     1
 90
        0
176
     1
 90
        0
176
     1
290
     0
176
     1
 90
        5
176
     1
 40
0.0
176
     1
 90
        0
176
     1
290
     0
176
     1
290
     1
176
     1
290
     1
176
     1
290
     0
176
     1
290
     0
176
     1
290
     0
176
     1
290
     0
176
     1
290
     0
176
     1
290
     0
176
     1
 90
       50
176
     1
 40
0.0
176
     1
 40
1.0
176
     1
 90
        0
176
     1
 62
    18
420
        0
176
     1
 90
       50
176
     1
 90
        3
176
     1
 62
     5
420
      255
176
     1
290
     0
176
     1
 90
       50
176
     1
 90
       50
176
     1
 90
       50
176
     1
290
     0
176
     1
 90
       50
176
     1
 62
   256
176
     0
 40
1.0
176
     0
 90
        2
176
     1
  1
strokes_ogs.tif
176
     1
290
     0
176
     1
 40
1.0
176
     1
 40
1.0
176
     1
1001
ACAD
1000
AcDbSavedByObjectVersion
1070
     0
  0
VISUALSTYLE
  5
B0C
102
{ACAD_REACTORS
330
958
102
}
330
958
100
AcDbVisualStyle
  2
Shaded with edges
 70
    26
177
     3
291
     0
 70
    58
 90
        2
176
     1
 90
        2
176
     1
 90
        1
176
     1
 90
        2
176
     1
 40
0.6
176
     1
 40
30.0
176
     1
 62
     7
420
 16777215
176
     1
 90
        1
176
     1
 90
        2
176
     1
 62
     7
176
     1
 62
   257
176
     1
 90
        2
176
     1
 90
        1
176
     1
 40
1.0
176
     1
 90
        8
176
     1
 62
   257
176
     1
 40
1.0
176
     1
 90
        1
176
     1
 90
        6
176
     1
 90
        2
176
     1
 62
     7
176
     1
 90
        3
176
     1
 90
        0
176
     1
 90
        0
176
     1
290
     0
176
     1
 90
        5
176
     1
 40
0.0
176
     1
 90
        0
176
     1
290
     0
176
     1
290
     1
176
     1
290
     1
176
     1
290
     0
176
     1
290
     0
176
     1
290
     0
176
     1
290
     0
176
     1
290
     0
176
     1
290
     0
176
     1
 90
       50
176
     1
 40
0.0
176
     1
 40
1.0
176
     1
 90
        0
176
     1
 62
    18
420
        0
176
     1
 90
       50
176
     1
 90
        3
176
     1
 62
     5
420
      255
176
     1
290
     0
176
     1
 90
       50
176
     1
 90
       50
176
     1
 90
       50
176
     1
290
     0
176
     1
 90
       50
176
     1
 62
   256
176
     0
 40
1.0
176
     0
 90
        2
176
     1
  1
strokes_ogs.tif
176
     1
290
     0
176
     1
 40
1.0
176
     1
 40
1.0
176
     1
1001
ACAD
1000
AcDbSavedByObjectVersion
1070
     0
  0
VISUALSTYLE
  5
B09
102
{ACAD_REACTORS
330
958
102
}
330
958
100
AcDbVisualStyle
  2
Shades of Gray
 70
    23
177
     3
291
     0
 70
    58
 90
        2
176
     1
 90
        2
176
     1
 90
        3
176
     1
 90
        0
176
     1
 40
0.6
176
     1
 40
30.0
176
     1
 62
     7
420
 16777215
176
     1
 90
        2
176
     1
 90
        2
176
     1
 62
     7
176
     1
 62
     7
176
     1
 90
        1
176
     1
 90
        1
176
     1
 40
40.0
176
     1
 90
        8
176
     1
 62
     7
176
     1
 40
1.0
176
     1
 90
        1
176
     1
 90
        6
176
     1
 90
        2
176
     1
 62
     7
176
     1
 90
        3
176
     1
 90
        0
176
     1
 90
        0
176
     1
290
     0
176
     1
 90
        1
176
     1
 40
0.0
176
     1
 90
        0
176
     1
290
     0
176
     1
290
     1
176
     1
290
     1
176
     1
290
     0
176
     1
290
     0
176
     1
290
     0
176
     1
290
     0
176
     1
290
     0
176
     1
290
     0
176
     1
 90
       50
176
     1
 40
0.0
176
     1
 40
1.0
176
     1
 90
        0
176
     1
 62
    18
420
        0
176
     1
 90
       50
176
     1
 90
        3
176
     1
 62
     5
420
      255
176
     1
290
     0
176
     1
 90
       50
176
     1
 90
       50
176
     1
 90
       50
176
     1
290
     0
176
     1
 90
       50
176
     1
 62
   256
176
     0
 40
1.0
176
     0
 90
        2
176
     1
  1
strokes_ogs.tif
176
     1
290
     0
176
     1
 40
1.0
176
     1
 40
1.0
176
     1
1001
ACAD
1000
AcDbSavedByObjectVersion
1070
     0
  0
VISUALSTYLE
  5
B0A
102
{ACAD_REACTORS
330
958
102
}
330
958
100
AcDbVisualStyle
  2
Sketchy
 70
    24
177
     3
291
     0
 70
    58
 90
        1
176
     1
 90
        2
176
     1
 90
        2
176
     1
 90
        0
176
     1
 40
0.6
176
     1
 40
30.0
176
     1
 62
     7
420
 16777215
176
     1
 90
        2
176
     1
 90
        2
176
     1
 62
     7
176
     1
 62
     7
176
     1
 90
        1
176
     1
 90
        1
176
     1
 40
40.0
176
     1
 90
       11
176
     1
 62
     7
176
     1
 40
1.0
176
     1
 90
        1
176
     1
 90
        6
176
     1
 90
        2
176
     1
 62
     7
176
     1
 90
        6
176
     1
 90
        0
176
     1
 90
        0
176
     1
290
     0
176
     1
 90
        1
176
     1
 40
0.0
176
     1
 90
        0
176
     1
290
     0
176
     1
290
     1
176
     1
290
     1
176
     1
290
     0
176
     1
290
     0
176
     1
290
     0
176
     1
290
     0
176
     1
290
     0
176
     1
290
     0
176
     1
 90
       50
176
     1
 40
0.0
176
     1
 40
1.0
176
     1
 90
        0
176
     1
 62
    18
420
        0
176
     1
 90
       50
176
     1
 90
        3
176
     1
 62
     5
420
      255
176
     1
290
     0
176
     1
 90
       50
176
     1
 90
       50
176
     1
 90
       50
176
     1
290
     0
176
     1
 90
       50
176
     1
 62
   256
176
     0
 40
1.0
176
     0
 90
        2
176
     1
  1
strokes_ogs.tif
176
     1
290
     0
176
     1
 40
1.0
176
     1
 40
1.0
176
     1
1001
ACAD
1000
AcDbSavedByObjectVersion
1070
     0
  0
VISUALSTYLE
  5
B05
102
{ACAD_REACTORS
330
958
102
}
330
958
100
AcDbVisualStyle
  2
Thicken
 70
    13
177
     3
291
     1
 70
    58
 90
        2
176
     1
 90
        2
176
     1
 90
        0
176
     1
 90
        0
176
     1
 40
0.6
176
     1
 40
30.0
176
     1
 62
     7
420
 16777215
176
     1
 90
        1
176
     1
 90
        4
176
     1
 62
     7
176
     1
 62
   257
176
     1
 90
        1
176
     1
 90
        1
176
     1
 40
1.0
176
     1
 90
       12
176
     1
 62
     7
176
     1
 40
1.0
176
     1
 90
        1
176
     1
 90
        6
176
     1
 90
        2
176
     1
 62
     7
176
     1
 90
        5
176
     1
 90
        0
176
     1
 90
        0
176
     1
290
     0
176
     1
 90
        1
176
     1
 40
0.0
176
     1
 90
        0
176
     1
290
     0
176
     1
290
     1
176
     1
290
     1
176
     1
290
     0
176
     1
290
     0
176
     1
290
     0
176
     1
290
     0
176
     1
290
     0
176
     1
290
     0
176
     1
 90
       50
176
     1
 40
0.0
176
     1
 40
1.0
176
     1
 90
        0
176
     1
 62
    18
420
        0
176
     1
 90
       50
176
     1
 90
        3
176
     1
 62
     5
420
      255
176
     1
290
     0
176
     1
 90
       50
176
     1
 90
       50
176
     1
 90
       50
176
     1
290
     0
176
     1
 90
       50
176
     1
 62
   256
176
     0
 40
1.0
176
     0
 90
        2
176
     1
  1
strokes_ogs.tif
176
     1
290
     0
176
     1
 40
1.0
176
     1
 40
1.0
176
     1
1001
ACAD
1000
AcDbSavedByObjectVersion
1070
     0
  0
VISUALSTYLE
  5
98B
102
{ACAD_REACTORS
330
958
102
}
330
958
100
AcDbVisualStyle
  2
Wireframe
 70
     5
177
     3
291
     0
 70
    58
 90
        0
176
     1
 90
        2
176
     1
 90
        0
176
     1
 90
        0
176
     1
 40
0.6
176
     1
 40
30.0
176
     1
 62
     7
420
 16777215
176
     1
 90
        1
176
     1
 90
        4
176
     1
 62
     7
176
     1
 62
   257
176
     1
 90
        1
176
     1
 90
        1
176
     1
 40
1.0
176
     1
 90
        0
176
     1
 62
   257
176
     1
 40
1.0
176
     1
 90
        1
176
     1
 90
        6
176
     1
 90
        2
176
     1
 62
     7
176
     1
 90
        3
176
     1
 90
        0
176
     1
 90
        0
176
     1
290
     0
176
     1
 90
        1
176
     1
 40
0.0
176
     1
 90
        0
176
     1
290
     0
176
     1
290
     1
176
     1
290
     1
176
     1
290
     0
176
     1
290
     0
176
     1
290
     0
176
     1
290
     0
176
     1
290
     0
176
     1
290
     0
176
     1
 90
       50
176
     1
 40
0.0
176
     1
 40
1.0
176
     1
 90
        0
176
     1
 62
    18
420
        0
176
     1
 90
       50
176
     1
 90
        3
176
     1
 62
     5
420
      255
176
     1
290
     0
176
     1
 90
       50
176
     1
 90
       50
176
     1
 90
       50
176
     1
290
     0
176
     1
 90
       50
176
     1
 62
   256
176
     0
 40
1.0
176
     0
 90
        2
176
     1
  1
strokes_ogs.tif
176
     1
290
     0
176
     1
 40
1.0
176
     1
 40
1.0
176
     1
1001
ACAD
1000
AcDbSavedByObjectVersion
1070
     0
  0
VISUALSTYLE
  5
B0B
102
{ACAD_REACTORS
330
958
102
}
330
958
100
AcDbVisualStyle
  2
X-Ray
 70
    25
177
     3
291
     0
 70
    58
 90
        2
176
     1
 90
        2
176
     1
 90
        1
176
     1
 90
        1
176
     1
 40
0.5
176
     1
 40
30.0
176
     1
 62
     7
420
 16777215
176
     1
 90
        1
176
     1
 90
        0
176
     1
 62
     7
176
     1
 62
   257
176
     1
 90
        1
176
     1
 90
        1
176
     1
 40
1.0
176
     1
 90
        8
176
     1
 62
     7
176
     1
 40
1.0
176
     1
 90
        1
176
     1
 90
        6
176
     1
 90
        2
176
     1
 62
     7
176
     1
 90
        3
176
     1
 90
        0
176
     1
 90
        0
176
     1
290
     0
176
     1
 90
       13
176
     1
 40
0.0
176
     1
 90
        0
176
     1
290
     0
176
     1
290
     1
176
     1
290
     1
176
     1
290
     0
176
     1
290
     0
176
     1
290
     0
176
     1
290
     0
176
     1
290
     0
176
     1
290
     0
176
     1
 90
       50
176
     1
 40
0.0
176
     1
 40
1.0
176
     1
 90
        0
176
     1
 62
    18
420
        0
176
     1
 90
       50
176
     1
 90
        3
176
     1
 62
     5
420
      255
176
     1
290
     0
176
     1
 90
       50
176
     1
 90
       50
176
     1
 90
       50
176
     1
290
     0
176
     1
 90
       50
176
     1
 62
   256
176
     0
 40
1.0
176
     0
 90
        2
176
     1
  1
strokes_ogs.tif
176
     1
290
     0
176
     1
 40
1.0
176
     1
 40
1.0
176
     1
1001
ACAD
1000
AcDbSavedByObjectVersion
1070
     0
  0
DICTIONARYVAR
  5
976
102
{ACAD_REACTORS
330
975
102
}
330
975
100
DictionaryVariables
280
     0
  1
1:1
  0
DICTIONARYVAR
  5
977
102
{ACAD_REACTORS
330
975
102
}
330
975
100
DictionaryVariables
280
     0
  1
STANDARD
  0
DICTIONARYVAR
  5
978
102
{ACAD_REACTORS
330
975
102
}
330
975
100
DictionaryVariables
280
     0
  1
STANDARD
  0
DICTIONARYVAR
  5
979
102
{ACAD_REACTORS
330
975
102
}
330
975
100
DictionaryVariables
280
     0
  1
Imperial24
  0
DICTIONARYVAR
  5
97A
102
{ACAD_REACTORS
330
975
102
}
330
975
100
DictionaryVariables
280
     0
  1
Imperial24
  0
DICTIONARYVAR
  5
97B
102
{ACAD_REACTORS
330
975
102
}
330
975
100
DictionaryVariables
280
     0
  1
1
  0
DICTIONARYVAR
  5
97C
102
{ACAD_REACTORS
330
975
102
}
330
975
100
DictionaryVariables
280
     0
  1
15
  0
DICTIONARYVAR
  5
97D
102
{ACAD_REACTORS
330
975
102
}
330
975
100
DictionaryVariables
280
     0
  1
0
  0
DICTIONARYVAR
  5
97E
102
{ACAD_REACTORS
330
975
102
}
330
975
100
DictionaryVariables
280
     0
  1
0
  0
DICTIONARY
  5
1019
102
{ACAD_REACTORS
330
1017
102
}
330
1017
100
AcDbDictionary
281
     1
  0
DICTIONARY
  5
1018
102
{ACAD_REACTORS
330
1017
102
}
330
1017
100
AcDbDictionary
281
     1
  3
2713209929120
350
1012
  3
2713209929136
350
1013
  3
2713209929152
350
1014
  3
2713209929168
350
1015
  3
2713209929184
350
1016
  0
XRECORD
  5
5C
102
{ACAD_REACTORS
330
AED
102
}
330
AED
100
AcDbXrecord
280
     1
310
0000AC02000400000013000000000000000000000000000000000000000000000000000000000000000000000000000000000000000000000000000000000000000000000000000000000000000000000000000000000000000000000000000000000000000000000000000000000000000000000000000000000000000000
310
00000000000000000000000000000000000000000000000000000000000000000000000000000000000000000000000000000000000000000000000000000000000000000000000000000000000000000000000000000000000000000000000000000000000000000000000000000000000000000000000000000000000000
310
00000000000000000000000000000000000000000000000000000000000000000000000000000000000000000000000000000000000000000000000000000000000000000000000000000000000000000000000000000000000000000000000000000000000000000000000000000000000000000000000000000000000000
310
00000000000000000000000000000000000000000000000000000000000000000000000000000000000000000000000000000000000000000000000000000000000000000000000000000000000000000000000000000000000000000000000000000000000000000000000000000000000000000000000000000000000000
310
00000000000000000000000000000000000000000000000000000000000000000000000000000000000000000000000000000000000000000000000000000000000000000000000000000000000000000000000000000000000000000000000000000000000000000000000000000000000000000000000000000000000000
310
00000000000000000000000000000000000000000000000000000000000000000000000000000000000000000000000000000000000000000000000000000000000000000000000000000000000000000000000000000000000000000000000000000000000000000000000000000000000000000000000000000000000000
310
00000000000000000000000000000000000000000000000000000000000000000000000000000000000000000000000000000000000000000000000000000000000000000000000000000000000000000000000000000000000000000000000000000000000000000000000000000000000000000000000000000000000000
310
00000000000000000000000000000000000000000000000000000000000000000000000000000000000000000000000000000000000000000000000000000000000000000000000000000000000000000000000000000000000000000000000000000000000000000000000000000000000000000000000000000000000000
310
00000000000000000000000000000000000000000000000000000000000000000000000000000000000000000000000000000000000000000000000000000000000000000000000000000000000000000000000000000000000000000000000000000000000000000000000000000000000000000000000000000000000000
310
00000000000000000000000000000000000000000000000000000000000000000000000000000000000000000000000000000000000000000000000000000000000000000000000000000000000000000000000000000000000000000000000000000000000000000000000000000000000000000000000000000000000000
310
000000000000000000000000000000000000000000000000000000000000000000000000000000000000000000000000000000000000000000000000000000000000000000000000000000000000000000000000000000000000000000000000000000000000
  0
DICTIONARY
  5
101C
330
B14
100
AcDbDictionary
280
     1
281
     1
  3
ACAD_XREC_ROUNDTRIP
360
101D
  0
DICTIONARY
  5
945
330
944
100
AcDbDictionary
280
     1
281
     1
  0
DICTIONARY
  5
940
330
93E
100
AcDbDictionary
280
     1
281
     1
  0
DICTIONARY
  5
96A
330
969
100
AcDbDictionary
280
     1
281
     1
  3
BUMPTILE
360
96B
  3
DIFFUSETILE
360
96C
  3
OPACITYTILE
360
96D
  3
REFLECTIONTILE
360
96E
  3
REFRACTIONTILE
360
96F
  3
SPECULARTILE
360
970
  0
DICTIONARY
  5
962
330
961
100
AcDbDictionary
280
     1
281
     1
  3
BUMPTILE
360
963
  3
DIFFUSETILE
360
964
  3
OPACITYTILE
360
965
  3
REFLECTIONTILE
360
966
  3
REFRACTIONTILE
360
967
  3
SPECULARTILE
360
968
  0
DICTIONARY
  5
91F
330
91D
100
AcDbDictionary
280
     1
281
     1
  3
BUMPTILE
360
920
  3
DIFFUSETILE
360
921
  3
OPACITYTILE
360
922
  3
REFLECTIONTILE
360
923
  3
REFRACTIONTILE
360
924
  3
SPECULARTILE
360
925
  0
DICTIONARY
  5
101A
330
B12
100
AcDbDictionary
280
     1
281
     1
  3
ACAD_XREC_ROUNDTRIP
360
101B
  0
DICTIONARY
  5
989
330
988
100
AcDbDictionary
280
     1
281
     1
  3
ACAD_ROUNDTRIP_2008_TABLESTYLE_CELLSTYLEMAP
360
1010
  0
XRECORD
  5
1012
102
{ACAD_REACTORS
330
1018
102
}
330
1018
100
AcDbXrecord
280
     1
  1
AcDb_Thumbnail_Schema
102
{ATTRRECORD
341
1013
  2
AcDbDs::TreatedAsObjectData
280
     1
291
     1
102
ATTRRECORD}
102
{ATTRRECORD
341
1014
  2
AcDbDs::Legacy
280
     1
291
     1
102
ATTRRECORD}
  2
AcDbDs::ID
280
    10
 91
        8
102
{ATTRRECORD
341
1015
  2
AcDs:Indexable
280
     1
291
     1
102
ATTRRECORD}
102
{ATTRRECORD
341
1016
  2
AcDbDs::HandleAttribute
280
     7
282
     1
102
ATTRRECORD}
  2
Thumbnail_Data
280
    15
 91
        0
  0
XRECORD
  5
1013
102
{ACAD_REACTORS
330
1018
102
}
330
1018
100
AcDbXrecord
280
     1
  1
AcDbDs::TreatedAsObjectDataSchema
  2
AcDbDs::TreatedAsObjectData
280
     1
 91
        0
  0
XRECORD
  5
1014
102
{ACAD_REACTORS
330
1018
102
}
330
1018
100
AcDbXrecord
280
     1
  1
AcDbDs::LegacySchema
  2
AcDbDs::Legacy
280
     1
 91
        0
  0
XRECORD
  5
1015
102
{ACAD_REACTORS
330
1018
102
}
330
1018
100
AcDbXrecord
280
     1
  1
AcDbDs::IndexedPropertySchema
  2
AcDs:Indexable
280
     1
 91
        0
  0
XRECORD
  5
1016
102
{ACAD_REACTORS
330
1018
102
}
330
1018
100
AcDbXrecord
280
     1
  1
AcDbDs::HandleAttributeSchema
  2
AcDbDs::HandleAttribute
280
     7
 91
        1
284
     1
  0
XRECORD
  5
101D
102
{ACAD_REACTORS
330
101C
102
}
330
101C
100
AcDbXrecord
280
     1
102
DISPLAYNAME
  1
Imperial24
102
FLAGS
 90
        0
  0
XRECORD
  5
96B
102
{ACAD_REACTORS
330
96A
102
}
330
96A
100
AcDbXrecord
280
     1
270
     1
271
     1
  0
XRECORD
  5
96C
102
{ACAD_REACTORS
330
96A
102
}
330
96A
100
AcDbXrecord
280
     1
270
     1
271
     1
  0
XRECORD
  5
96D
102
{ACAD_REACTORS
330
96A
102
}
330
96A
100
AcDbXrecord
280
     1
270
     1
271
     1
  0
XRECORD
  5
96E
102
{ACAD_REACTORS
330
96A
102
}
330
96A
100
AcDbXrecord
280
     1
270
     1
271
     1
  0
XRECORD
  5
96F
102
{ACAD_REACTORS
330
96A
102
}
330
96A
100
AcDbXrecord
280
     1
270
     1
271
     1
  0
XRECORD
  5
970
102
{ACAD_REACTORS
330
96A
102
}
330
96A
100
AcDbXrecord
280
     1
270
     1
271
     1
  0
XRECORD
  5
963
102
{ACAD_REACTORS
330
962
102
}
330
962
100
AcDbXrecord
280
     1
270
     1
271
     1
  0
XRECORD
  5
964
102
{ACAD_REACTORS
330
962
102
}
330
962
100
AcDbXrecord
280
     1
270
     1
271
     1
  0
XRECORD
  5
965
102
{ACAD_REACTORS
330
962
102
}
330
962
100
AcDbXrecord
280
     1
270
     1
271
     1
  0
XRECORD
  5
966
102
{ACAD_REACTORS
330
962
102
}
330
962
100
AcDbXrecord
280
     1
270
     1
271
     1
  0
XRECORD
  5
967
102
{ACAD_REACTORS
330
962
102
}
330
962
100
AcDbXrecord
280
     1
270
     1
271
     1
  0
XRECORD
  5
968
102
{ACAD_REACTORS
330
962
102
}
330
962
100
AcDbXrecord
280
     1
270
     1
271
     1
  0
XRECORD
  5
920
102
{ACAD_REACTORS
330
91F
102
}
330
91F
100
AcDbXrecord
280
     1
270
     1
271
     1
  0
XRECORD
  5
921
102
{ACAD_REACTORS
330
91F
102
}
330
91F
100
AcDbXrecord
280
     1
270
     1
271
     1
  0
XRECORD
  5
922
102
{ACAD_REACTORS
330
91F
102
}
330
91F
100
AcDbXrecord
280
     1
270
     1
271
     1
  0
XRECORD
  5
923
102
{ACAD_REACTORS
330
91F
102
}
330
91F
100
AcDbXrecord
280
     1
270
     1
271
     1
  0
XRECORD
  5
924
102
{ACAD_REACTORS
330
91F
102
}
330
91F
100
AcDbXrecord
280
     1
270
     1
271
     1
  0
XRECORD
  5
925
102
{ACAD_REACTORS
330
91F
102
}
330
91F
100
AcDbXrecord
280
     1
270
     1
271
     1
  0
XRECORD
  5
101B
102
{ACAD_REACTORS
330
101A
102
}
330
101A
100
AcDbXrecord
280
     1
102
DISPLAYNAME
  1
Imperial24
102
FLAGS
 90
        0
  0
CELLSTYLEMAP
  5
1010
102
{ACAD_REACTORS
330
989
102
}
330
989
100
AcDbCellStyleMap
 90
        3
300
CELLSTYLE
  1
TABLEFORMAT_BEGIN
 90
        5
170
     1
 91
        0
 92
    32768
 62
   257
 93
        1
300
CONTENTFORMAT
  1
CONTENTFORMAT_BEGIN
 90
        0
 91
        0
 92
        4
 93
        0
300

 40
0.0
140
1.0
 94
        5
 62
     0
340
94D
144
0.25
309
CONTENTFORMAT_END
171
     0
 94
        6
 95
        1
302
GRIDFORMAT
  1
GRIDFORMAT_BEGIN
 90
        0
 91
        1
 62
     0
 92
       -2
340
0
 93
        0
 40
0.045
309
GRIDFORMAT_END
 95
        2
302
GRIDFORMAT
  1
GRIDFORMAT_BEGIN
 90
        0
 91
        1
 62
     0
 92
       -2
340
0
 93
        0
 40
0.045
309
GRIDFORMAT_END
 95
        4
302
GRIDFORMAT
  1
GRIDFORMAT_BEGIN
 90
        0
 91
        1
 62
     0
 92
       -2
340
0
 93
        0
 40
0.045
309
GRIDFORMAT_END
 95
        8
302
GRIDFORMAT
  1
GRIDFORMAT_BEGIN
 90
        0
 91
        1
 62
     0
 92
       -2
340
0
 93
        0
 40
0.045
309
GRIDFORMAT_END
 95
       16
302
GRIDFORMAT
  1
GRIDFORMAT_BEGIN
 90
        0
 91
        1
 62
     0
 92
       -2
340
0
 93
        0
 40
0.045
309
GRIDFORMAT_END
 95
       32
302
GRIDFORMAT
  1
GRIDFORMAT_BEGIN
 90
        0
 91
        1
 62
     0
 92
       -2
340
0
 93
        0
 40
0.045
309
GRIDFORMAT_END
309
TABLEFORMAT_END
  1
CELLSTYLE_BEGIN
 90
        1
 91
        1
300
_TITLE
309
CELLSTYLE_END
300
CELLSTYLE
  1
TABLEFORMAT_BEGIN
 90
        5
170
     1
 91
        0
 92
        0
 62
   257
 93
        1
300
CONTENTFORMAT
  1
CONTENTFORMAT_BEGIN
 90
        0
 91
        0
 92
        4
 93
        0
300

 40
0.0
140
1.0
 94
        5
 62
     0
340
94D
144
0.18
309
CONTENTFORMAT_END
171
     0
 94
        6
 95
        1
302
GRIDFORMAT
  1
GRIDFORMAT_BEGIN
 90
        0
 91
        1
 62
     0
 92
       -2
340
0
 93
        0
 40
0.045
309
GRIDFORMAT_END
 95
        2
302
GRIDFORMAT
  1
GRIDFORMAT_BEGIN
 90
        0
 91
        1
 62
     0
 92
       -2
340
0
 93
        0
 40
0.045
309
GRIDFORMAT_END
 95
        4
302
GRIDFORMAT
  1
GRIDFORMAT_BEGIN
 90
        0
 91
        1
 62
     0
 92
       -2
340
0
 93
        0
 40
0.045
309
GRIDFORMAT_END
 95
        8
302
GRIDFORMAT
  1
GRIDFORMAT_BEGIN
 90
        0
 91
        1
 62
     0
 92
       -2
340
0
 93
        0
 40
0.045
309
GRIDFORMAT_END
 95
       16
302
GRIDFORMAT
  1
GRIDFORMAT_BEGIN
 90
        0
 91
        1
 62
     0
 92
       -2
340
0
 93
        0
 40
0.045
309
GRIDFORMAT_END
 95
       32
302
GRIDFORMAT
  1
GRIDFORMAT_BEGIN
 90
        0
 91
        1
 62
     0
 92
       -2
340
0
 93
        0
 40
0.045
309
GRIDFORMAT_END
309
TABLEFORMAT_END
  1
CELLSTYLE_BEGIN
 90
        2
 91
        1
300
_HEADER
309
CELLSTYLE_END
300
CELLSTYLE
  1
TABLEFORMAT_BEGIN
 90
        5
170
     1
 91
        0
 92
        0
 62
   257
 93
        1
300
CONTENTFORMAT
  1
CONTENTFORMAT_BEGIN
 90
        0
 91
        0
 92
        4
 93
        0
300

 40
0.0
140
1.0
 94
        2
 62
     0
340
94D
144
0.18
309
CONTENTFORMAT_END
171
     0
 94
        6
 95
        1
302
GRIDFORMAT
  1
GRIDFORMAT_BEGIN
 90
        0
 91
        1
 62
     0
 92
       -2
340
0
 93
        0
 40
0.045
309
GRIDFORMAT_END
 95
        2
302
GRIDFORMAT
  1
GRIDFORMAT_BEGIN
 90
        0
 91
        1
 62
     0
 92
       -2
340
0
 93
        0
 40
0.045
309
GRIDFORMAT_END
 95
        4
302
GRIDFORMAT
  1
GRIDFORMAT_BEGIN
 90
        0
 91
        1
 62
     0
 92
       -2
340
0
 93
        0
 40
0.045
309
GRIDFORMAT_END
 95
        8
302
GRIDFORMAT
  1
GRIDFORMAT_BEGIN
 90
        0
 91
        1
 62
     0
 92
       -2
340
0
 93
        0
 40
0.045
309
GRIDFORMAT_END
 95
       16
302
GRIDFORMAT
  1
GRIDFORMAT_BEGIN
 90
        0
 91
        1
 62
     0
 92
       -2
340
0
 93
        0
 40
0.045
309
GRIDFORMAT_END
 95
       32
302
GRIDFORMAT
  1
GRIDFORMAT_BEGIN
 90
        0
 91
        1
 62
     0
 92
       -2
340
0
 93
        0
 40
0.045
309
GRIDFORMAT_END
309
TABLEFORMAT_END
  1
CELLSTYLE_BEGIN
 90
        3
 91
        2
300
_DATA
309
CELLSTYLE_END
  0
ENDSEC
  0
SECTION
  2
ACDSDATA
 70
     2
 71
     8
  0
ACDSSCHEMA
 90
        0
  1
AcDb_Thumbnail_Schema
  2
AcDbDs::ID
280
    10
 91
        8
  2
Thumbnail_Data
280
    15
 91
        0
101
ACDSRECORD
 95
        0
 90
        1
  2
AcDbDs::TreatedAsObjectData
280
     1
291
     1
101
ACDSRECORD
 95
        0
 90
        2
  2
AcDbDs::Legacy
280
     1
291
     1
101
ACDSRECORD
  1
AcDbDs::ID
 90
        3
  2
AcDs:Indexable
280
     1
291
     1
101
ACDSRECORD
  1
AcDbDs::ID
 90
        4
  2
AcDbDs::HandleAttribute
280
     7
282
     1
  0
ACDSSCHEMA
 90
        1
  1
AcDbDs::TreatedAsObjectDataSchema
  2
AcDbDs::TreatedAsObjectData
280
     1
 91
        0
  0
ACDSSCHEMA
 90
        2
  1
AcDbDs::LegacySchema
  2
AcDbDs::Legacy
280
     1
 91
        0
  0
ACDSSCHEMA
 90
        3
  1
AcDbDs::IndexedPropertySchema
  2
AcDs:Indexable
280
     1
 91
        0
  0
ACDSSCHEMA
 90
        4
  1
AcDbDs::HandleAttributeSchema
  2
AcDbDs::HandleAttribute
280
     7
 91
        1
284
     1
  0
ACDSRECORD
 90
        0
  2
AcDbDs::ID
280
    10
320
944
  2
Thumbnail_Data
280
    15
 94
     1183
310
89504E470D0A1A0A0000000D4948445200000100000000C508030000008CFEDCE700000300504C5445FFFFFF000000FFFFFF0000000000000000000000000000000000000000000000000000330000660000990000CC0000FF0033000033330033660033990033CC0033FF0066000066330066660066990066CC0066FF0099
310
000099330099660099990099CC0099FF00CC0000CC3300CC6600CC9900CCCC00CCFF00FF0000FF3300FF6600FF9900FFCC00FFFF3300003300333300663300993300CC3300FF3333003333333333663333993333CC3333FF3366003366333366663366993366CC3366FF3399003399333399663399993399CC3399FF33CC00
310
33CC3333CC6633CC9933CCCC33CCFF33FF0033FF3333FF6633FF9933FFCC33FFFF6600006600336600666600996600CC6600FF6633006633336633666633996633CC6633FF6666006666336666666666996666CC6666FF6699006699336699666699996699CC6699FF66CC0066CC3366CC6666CC9966CCCC66CCFF66FF0066
310
FF3366FF6666FF9966FFCC66FFFF9900009900339900669900999900CC9900FF9933009933339933669933999933CC9933FF9966009966339966669966999966CC9966FF9999009999339999669999999999CC9999FF99CC0099CC3399CC6699CC9999CCCC99CCFF99FF0099FF3399FF6699FF9999FFCC99FFFFCC0000CC00
310
33CC0066CC0099CC00CCCC00FFCC3300CC3333CC3366CC3399CC33CCCC33FFCC6600CC6633CC6666CC6699CC66CCCC66FFCC9900CC9933CC9966CC9999CC99CCCC99FFCCCC00CCCC33CCCC66CCCC99CCCCCCCCCCFFCCFF00CCFF33CCFF66CCFF99CCFFCCCCFFFFFF0000FF0033FF0066FF0099FF00CCFF00FFFF3300FF3333
310
FF3366FF3399FF33CCFF33FFFF6600FF6633FF6666FF6699FF66CCFF66FFFF9900FF9933FF9966FF9999FF99CCFF99FFFFCC00FFCC33FFCC66FFCC99FFCCCCFFCCFFFFFF00FFFF33FFFF66FFFF99FFFFCCFFFFFF0000000D0D0D1A1A1A2828283535354343435050505D5D5D6B6B6B787878868686939393A1A1A1AEAEAEBB
310
BBBBC9C9C9D6D6D6E4E4E4F1F1F1FFFFFF000000000000000000000000000000000000000000000000000000000000790CAC0F0000015A4944415478DAEDD8410A8340100440FFFFCCF9C09EE61E104224896014844D579F64F420A587DE592A3A632CD5C101100F500500C0F36ACDF6D636BFCEEBAEF9E9177D0788FBF600
310
000000000000004D1000000000000000100F50FB4F4C9E8B5578FAFF0300000000000000000000000000000000B00BD069000D0000000000000000A009020000000000000000000000000000000052013A0DA001000000000000000000A8C2000000000000000000000000000000402A40FC420400000000000000002016C0
310
5900000000000000000000000000000000C803885F88000000000000000000C402380B0000000000000000000000000000000000E2003A0DA0010000000000000000344100000000000000000000000000000000C0E7C660F21C04080D0000000000000000C01F54DE73151900000000000000D0AFCDCFB6227CDDAB1C9CD7
310
5DF3D32FAA0902000000C00A109E658C110DF0000E6CC6FBCCF8EC2E0000000049454E44AE426082
  0
ACDSRECORD
 90
        0
  2
AcDbDs::ID
280
    10
320
93E
  2
Thumbnail_Data
280
    15
 94
     1017
310
89504E470D0A1A0A0000000D4948445200000100000000890803000000F46416F000000300504C5445FEFCF0000000FFFFFF0000000000000000000000000000000000000000000000000000330000660000990000CC0000FF0033000033330033660033990033CC0033FF0066000066330066660066990066CC0066FF0099
310
000099330099660099990099CC0099FF00CC0000CC3300CC6600CC9900CCCC00CCFF00FF0000FF3300FF6600FF9900FFCC00FFFF3300003300333300663300993300CC3300FF3333003333333333663333993333CC3333FF3366003366333366663366993366CC3366FF3399003399333399663399993399CC3399FF33CC00
310
33CC3333CC6633CC9933CCCC33CCFF33FF0033FF3333FF6633FF9933FFCC33FFFF6600006600336600666600996600CC6600FF6633006633336633666633996633CC6633FF6666006666336666666666996666CC6666FF6699006699336699666699996699CC6699FF66CC0066CC3366CC6666CC9966CCCC66CCFF66FF0066
310
FF3366FF6666FF9966FFCC66FFFF9900009900339900669900999900CC9900FF9933009933339933669933999933CC9933FF9966009966339966669966999966CC9966FF9999009999339999669999999999CC9999FF99CC0099CC3399CC6699CC9999CCCC99CCFF99FF0099FF3399FF6699FF9999FFCC99FFFFCC0000CC00
310
33CC0066CC0099CC00CCCC00FFCC3300CC3333CC3366CC3399CC33CCCC33FFCC6600CC6633CC6666CC6699CC66CCCC66FFCC9900CC9933CC9966CC9999CC99CCCC99FFCCCC00CCCC33CCCC66CCCC99CCCCCCCCCCFFCCFF00CCFF33CCFF66CCFF99CCFFCCCCFFFFFF0000FF0033FF0066FF0099FF00CCFF00FFFF3300FF3333
310
FF3366FF3399FF33CCFF33FFFF6600FF6633FF6666FF6699FF66CCFF66FFFF9900FF9933FF9966FF9999FF99CCFF99FFFFCC00FFCC33FFCC66FFCC99FFCCCCFFCCFFFFFF00FFFF33FFFF66FFFF99FFFFCCFFFFFF0000000D0D0D1A1A1A2828283535354343435050505D5D5D6B6B6B787878868686939393A1A1A1AEAEAEBB
310
BBBBC9C9C9D6D6D6E4E4E4F1F1F1FFFFFF0000000000000000000000000000000000000000000000000000000000007C77BAA7000000B44944415478DAEDD0310100000C0220FBB7B48931760C22903E1701020408102040800001020408102040800001020408102040800001020408102040800001020408102040800001
310
020408102040800001020408102040800001020408102040800001020408102040800001020408102040800001020408102040800001020408102040800001020408102040800001020408102040800001020408102040800001020408102040800001020408102040C099016B33700943E05F3C0000000049454E44AE4260
310
82
  0
ENDSEC
  0
SECTION
  2
THUMBNAILIMAGE
 90
    14496
310
28000000B80000004900000001000800000000007834000001000000010000000001000000000000FFFFFF008888884030303000F8F8F83F80808077E0E0E02E7070700058585800C0C0C00048484840404040003838383F9898986CB8B8B84DB0B0B000A0A0A000FFFFFF00FFFFFF40FFFFFF00FFFFFF3FFFFFFF00FFFFFF
310
00FFFFFF00FFFFFF00FFFFFF00FFFFFF40FFFFFF00FFFFFF3FFFFFFF00FFFFFF00FFFFFF00FFFFFF00FFFFFF00FFFFFF40FFFFFF00FFFFFF3FFFFFFF00FFFFFF00FFFFFF00FFFFFF00FFFFFF00FFFFFF40FFFFFF00FFFFFF3FFFFFFF00FFFFFF00FFFFFF00FFFFFF00FFFFFF00FFFFFF40FFFFFF00FFFFFF3FFFFFFF00FFFF
310
FF00FFFFFF00FFFFFF00FFFFFF00FFFFFF40FFFFFF00FFFFFF3FFFFFFF00FFFFFF00FFFFFF00FFFFFF00FFFFFF00FFFFFF40FFFFFF00FFFFFF3FFFFFFF00FFFFFF00FFFFFF00FFFFFF00FFFFFF00FFFFFF40FFFFFF00FFFFFF3FFFFFFF00FFFFFF00FFFFFF00FFFFFF00FFFFFF00FFFFFF40FFFFFF00FFFFFF3FFFFFFF00FF
310
FFFF00FFFFFF00FFFFFF00FFFFFF00FFFFFF40FFFFFF00FFFFFF3FFFFFFF00FFFFFF00FFFFFF00FFFFFF00FFFFFF00FFFFFF40FFFFFF00FFFFFF3FFFFFFF00FFFFFF00FFFFFF00FFFFFF00FFFFFF00FFFFFF40FFFFFF00FFFFFF3FFFFFFF00FFFFFF00FFFFFF00FFFFFF00FFFFFF00FFFFFF40FFFFFF00FFFFFF3FFFFFFF00
310
FFFFFF28FFFFFF00FFFFFF00FFFFFF00FFFFFF40FFFFFF00FFFFFF3FFFFFFF00FFFFFF00FFFFFF00FFFFFF00FFFFFF00FFFFFF40FFFFFF00FFFFFF3FFFFFFF00FFFFFF00FFFFFF00FFFFFF00FFFFFF00FFFFFF40FFFFFF00FFFFFF3FFFFFFF00FFFFFF00FFFFFF00FFFFFF00FFFFFF00FFFFFF40FFFFFF00FFFFFF3FFFFFFF
310
00FFFFFF00FFFFFF00FFFFFF00FFFFFF00FFFFFF40FFFFFF00FFFFFF3FFFFFFF00FFFFFF00FFFFFF00FFFFFF00FFFFFF00FFFFFF40FFFFFF00FFFFFF3FFFFFFF00FFFFFF00FFFFFF00FFFFFF00FFFFFF00FFFFFF40FFFFFF00FFFFFF3FFFFFFF00FFFFFF00FFFFFF00FFFFFF00FFFFFF00FFFFFF40FFFFFF00FFFFFF3FFFFF
310
FF00FFFFFF00FFFFFF00FFFFFF00FFFFFF00FFFFFF40FFFFFF00FFFFFF3FFFFFFF00FFFFFF00FFFFFF00FFFFFF00FFFFFF00FFFFFF40FFFFFF00FFFFFF3FFFFFFF00FFFFFF00FFFFFF00FFFFFF00FFFFFF00FFFFFF40FFFFFF00FFFFFF3FFFFFFF00FFFFFF00FFFFFF00FFFFFF00FFFFFF00FFFFFF40FFFFFF00FFFFFF3FFF
310
FFFF00FFFFFF00FFFFFF00FFFFFF00FFFFFF00FFFFFF40FFFFFF00FFFFFF3FFFFFFF00FFFFFF00FFFFFF00FFFFFF00FFFFFF00FFFFFF40FFFFFF00FFFFFF3FFFFFFF00FFFFFF00FFFFFF00FFFFFF00FFFFFF00FFFFFF40FFFFFF00FFFFFF3FFFFFFF00FFFFFF00FFFFFF00FFFFFF00FFFFFF00FFFFFF40FFFFFF00FFFFFF3F
310
FFFFFF00FFFFFF00FFFFFF00FFFFFF00FFFFFF00FFFFFF40FFFFFF00FFFFFF3FFFFFFF00FFFFFF00FFFFFF00FFFFFF0000000000000000000000000000000000000000000000000000000000000000000000000000000000000000000000000000000000000000000000000000000000000000000000000000000000000000
310
00000000000000000000000000000000000000000000000000000000000000000000000000000000000000000000000000000000000000000000000000000000000000000000000000000000000000000000000000000000000000000000000000000000000000000000000000000000000000000000000000000000000000
310
00000000000000000000000000000000000000000000000000000000000000000000000000000000000000000000000000000000000000000000000000000000000000000000000000000000000000000000000000000000000000000000000000000000000000000000000000000000000000000000000000000000000000
310
000000000000000000000000000000000000000000000000000000000000000000000000000000000000000000000000000000000000000000000000000000000000000000000000000000000000000000000000000000000000000000000000000000000000000000000000000000000B0000000103030303030303030303
310
0303010000000B000000000000000000000000000000000000000000000000000000000000000000000000000000000000000000000000000000000000000000000000000000000000000000000000000000000000000000000000000000000000000000000000000000000000000000000000000000000000000000000000
310
00000000000000000000000000000000000000000000000000000000000000000000000000000000030303000303030100000000000000000000010303030303030300000000000000000000000000000000000000000000000000000000000000000000000000000000000000000000000000000000000000000000000000
310
0000000000000000000000000000000000000000000000000000000000000000000000000000000000000000000000000000000000000000000000000000000000000000000000000000000000000000000000000000000000000000000001030303000B00000000000000000000000000000000000000000B000303030100
310
00000000000000000000000000000000000000000000000000000000000000000000000000000000000000000000000000000000000000000000000000000000000000000000000000000000000000000000000000000000000000000000000000000000000000000000000000000000000000000000000000000000000000
310
00000000000000000000000000000000000000000000000303010000000000000000000000000000000000000000000000000000000001030307000000000000000000000000000000000000000000000000000000000000000000000000000000000000000000000000000000000000000000000000000000000000000000
310
00000000000000000000000000000000000000000000000000000000000000000000000000000000000000000000000000000000000000000000000000000000000000000000000000000000000007000300000000000000000000000000000000000000000000000000000000000000000303000000000000000000000000
310
00000000000000000000000000000000000000000000000000000000000000000000000000000000000000000000000000000000000000000000000000000000000000000000000000000000000000000000000000000000000000000000000000000000000000000000000000000000000000000000000000000000000000
310
00000000000000030300000000000000000000000000000000000000000000000000000000000000000000000703030000000000000000000000000000000000000000000000000000000000000000000000000000000000000000000000000000000000000000000000000000000000000000000000000000000000000000
310
00000000000000000000000000000000000000000000000000000000000000000000000000000000000000000000000000000000000000000000000000000103030700000000000000000000000000000000000000000000000000000000000000000000000000030301000000000000000000000000000000000000000000
310
00000000000000000000000000000000000000000000000000000000000000000000000000000000000000000000000000000000000000000000000000000000000000000000000000000000000000000000000000000000000000000000000000000000000000000000000000000000000000000000000301000000000000
310
00000000000000000000000000000000000000000000000000000000000000000000010300000000000000000000000000000000000000000000000000000000000000000000000000000000000000000000000000000000000000000000000000000000000000000000000000000000000000000000000000000000000000
310
00000000000000000000000000000000000000000000000000000000000000000000000000000000000000000000000003030000000000000000000000000000000000000000000000000000000000000000000000000000000000000300000000000000000000000000000000000000000000000000000000000000000000
310
00000000000000000000000000000000000000000000000000000000000000000000000000000000000000000000000000000000000000000000000000000000000000000000000000000000000000000000000000000000000000000000000000000000000000000103000000000000000000000000000000000000000000
310
00000000000000000000000000000000000000000000000301000000000000000000000000000000000000000000000000000000000000000000000000000000000000000000000000000000000000000000000000000000000000000000000000000000000000000000000000000000000000000000000000000000000000
310
00000000000000000000000000000000000000000000000000000000000000000001030100000000000000000000000000000000000000000000000000000000000000000000000000000000000000000103010000000000000000000000000000000000000000000000000000000000000000000000000000000000000000
310
00000000000000000000000000000000000000000000000000000000000000000000000000000000000000000000000000000000000000000000000000000000000000000000000000000000000000000000000000000000000003010000000000000000000000000000000000000000000000000000000000000000000000
310
00000000000000000000000103000000000000000000000000000000000000000000000000000000000000000000000000000000000000000000000000000000000000000000000000000000000000000000000000000000000000000000000000000000000000000000000000000000000000000000000000000000000000
310
00000000000000000000000000000000000000010300000000000000000000000000000000000000000000000000000000000000000000000000000000000000000000000003010000000000000000000000000000000000000000000000000000000000000000000000000000000000000000000000000000000000000000
310
00000000000000000000000000000000000000000000000000000000000000000000000000000000000000000000000000000000000000000000000000000000000000000000000000000000030100000000000000000000000000000000000000000000000000000000000000000000000000000000000000000000000001
310
03000000000000000000000000000000000000000000000000000000000000000000000000000000000000000000000000000000000000000000000000000000000000000000000000000000000000000000000000000000000000000000000000000000000000000000000000000000000000000000000000000000000000
310
00000000000003000000000000000000000000000000000000000000000000000000000000000000000000000000000000000000000000000003000000000000000000000000000000000000000000000000000000000000000000000000000000000000000000000000000000000000000000000000000000000000000000
310
00000000000000000000000000000000000000000000000000000000000000000000000000000000000000000000000000000000000000000000000000090309000000000000000000000000000000000000000000000000000000000000000000000000000000000000000000000000000009030900000000000000000000
310
00000000000000000000000000000000000000000000000000000000000000000000000000000000000000000000000000000000000000000000000000000000000000000000000000000000000000000000000000000000000000000000000000000000000000000000000000000000000000000000000300000000000000
310
00000000000000000000000000000000000000000000000000000000000000000000000000000000000000000000000000000000000000000000000000000000000000000000000000000000000000000000000000000000000000000000000000000000000000000000000000000000000000000000000000000000000000
310
00000000000000000000000000000000000000000000000000000000000000000000000000000000000000000000000000030000000000000000000000000000000000000000000000000000000000000000000000000000000000000000000000000000000003000000000000000000000000000000000000000000000000
310
00000000000000000000000000000000000000000000000000000000000000000000000000000000000000000000000000000000000000000000000000000000000000000000000000000000000000000000000000000000000000000000000000000000000000000003030000000000000000000000000000000000000000
310
00000000000000000000000000000000000000000000000000000000000000000303000000000000000000000000000000000000000000000000000000000000000000000000000000000000000000000000000000000000000000000000000000000000000000000000000000000000000000000000000000000000000000
310
00000000000000000000000000000000000000000000000000000000000000000000000300000000000000000000000000000000000000000000000000000000000000000000000000000000000000000000000000000000000003000000000000000000000000000000000000000000000000000000000000000000000000
310
00000000000000000000000000000000000000000000000000000000000000000000000000000000000000000000000000000000000000000000000000000000000000000000000000000000000000000000000000000000000000000300000000000000000000000000000000000000000000000000000000000000000000
310
00000000000000000000000000000000000000000300000000000000000000000000000000000000000000000000000000000000000000000000000000000000000000000000000000000000000000000000000000000000000000000000000000000000000000000000000000000000000000000000000000000000000000
310
00000000000000000000000000000000000000000000030000000000000000000000000000000000000000000000000000000000000000000000000000000000000000000000000000000000000300000000000000000000000000000000000000000000000000000000000000000000000000000000000000000000000000
310
00000000000000000000000000000000000000000000000000000000000000000000000000000000000000000000000000000000000000000000000000000000000000000000000000000000000000030000000000000000000000000000000000000000060303030303030303030303030600000000000000000000000000
310
00000000000000030000000000000000000000000000000000000000000000000000000000000000000000000000000000000000000000000000000000000000000000000000000000000000000000000000000000000000000000000000000000000000000000000000000000000000000000000000000000000000000000
310
00000000000000000003000000000000000000000000000000000000000000030300000003030000000303000000000000000000000000000000000000000000030000000000000000000000000000000000000000000000000000000000000000000000000000000000000000000000000000000000000000000000000000
310
00000000000000000000000000000000000000000000000000000000000000000000000000000000000000000000000000000000000000000000000000000000000003000000000000000000000000000000000000000000030500000004080000000503000000000000000000000000000000000000000000030000000000
310
00000000000000000000000000000000000000000000000000000000000000000000000000000000000000000000000000000000000000000000000000000000000000000000000000000000000000000000000000000000000000000000000000000000000000000000000000000000000000000000000000000103000000
310
00000000000000000000000000000000000003000B0B000000000B0B000300000000000000000000000000000000000000000003010000000000000000000000000000000000000000000000000000000000000000000000000000000000000000000000000000000000000000000000000000000000000000000000000000
310
00000000000000000000000000000000000000000000000000000000000000000000000000000000000000000000000000000000030100000000000000000000000000000000000000000003000303000000000303000300000000000000000000000000000000000000000001030000000000000000000000000000000000
310
00000000000000000000000000000000000000000000000000000000000000000000000000000000000000000000000000000000000000000000000000000000000000000000000000000000000000000000000000000000000000000000000000000000000000000000000000030000000000000000000000000000000000
310
000000000003000B0B000000000B0B00030000000000000000000000000000000000000000000003000000000000000000000000000000000000000000000000000000000000000000000000000000000000000000000000000000000000000000000000000000000000000000000000000000000000000000000000000000
310
00000000000000000000000000000000000000000000000000000000000000000000000000000003000000000000000000000000000000000000000000000300070D00000000070D00030000000000000000000000000000000000000000000003000000000000000000000000000000000000000000000000000000000000
310
00000000000000000000000000000000000000000000000000000000000000000000000000000000000000000000000000000000000000000000000000000000000000000000000000000000000000000000000000000000000000000000000003000000000000000000000000000000000000000000000300030300000000
310
03030003000000000000000000000000000000000000000000000300000000000000000000000000000000000000000000000000000000000000000000000000000000000000000000000000000000000000000000000000000000000000000000000000000000000000000000000000000000000000000000000000000000
310
00000000000000000000000000000000000000000000000000000000000000000000000000000000000000000000000000030001050000000001050003000000000000000000000000000000000000000000000300000000000000000000000000000000000000000000000000000000000000000000000000000000000000
310
00000000000000000000000000000000000000000000000000000000000000000000000000000000000000000000000000000000000000000000000000000000000000000000000000000000000000000000000300000000000000000000000000000000000000000000030003030000000003030003000000000000000000
310
00000000000000000000000000030000000000000000000000000000000000000000000000000000000000000000000000000000000000000000000000000000000000000000000000000000000000000000000000000000000000000000000000000000000000000000000000000000000000000000000000000000000000
310
0000000000000000000000000003000000000000000000000000000000000000000000000300090F00000000090F000300000000000000000000000000000000000000000000030000000000000000000000000000000000000000000000000000000000000000000000000000000000000000000000000000000000000000
310
00000000000000000000000000000000000000000000000000000000000000000000000000000000000000000000000000000000000000000000000000000000000000000000030000000000000000000000000000000000000000000303000303000000000303000303000000000000000000000000000000000000000000
310
03000000000000000000000000000000000000000000000000000000000000000000000000000000000000000000000000000000000000000000000000000000000000000000000000000000000000000000000000000000000000000000000000000000000000000000000000000000000000000000000000000000000000
310
03000000000000000000000000000000000000000000030303030303030303030303030300000000000000000000000000000000000000000003000000000000000000000000000000000000000000000000000000000000000000000000000000000000000000000000000000000000000000000000000000000000000000
310
00000000000000000000000000000000000000000000000000000000000000000000000000000000000000000000000000000000000000000003000000000000000000000000000000000000000000030303030303030303030303030300000000000000000000000000000000000000000003000000000000000000000000
310
00000000000000000000000000000000000000000000000000000000000000000000000000000000000000000000000000000000000000000000000000000000000000000000000000000000000000000000000000000000000000000000000000000000000000000000000000000000000003000000000000000000000000
310
00000000000000000003030000000000000000000003030000000000000000000000000000000000000000000300000000000000000000000000000000000000000000000000000000000000000000000000000000000000000000000000000000000000000000000000000000000000000000000000000000000000000000
310
00000000000000000000000000000000000000000000000000000000000000000000000000000000000000000300000000000000000000000000000000000000000003030000000000000000000003030000000000000000000000000000000000000000000300000000000000000000000000000000000000000000000000
310
00000000000000000000000000000000000000000000000000000000000000000000000000000000000000000000000000000000000000000000000000000000000000000000000000000000000000000000000000000000000000000000000000000000000300000000000000000000000000000000000000000003030000
310
00000000000000000303000000000000000000000000000000000000000000030000000000000000000000000000000000000000000000000000000000000000000000000000000000000000000000000000000000000000000000000000000000000000000000000000000000000000000000000000000000000000000000
310
00000000000000000000000000000000000000000000000000000000000000030000000000000000000000000000000000000000000303000000000000000000000303000000000000000000000000000000000000000000030000000000000000000000000000000000000000000000000000000000000000000000000000
310
00000000000000000000000000000000000000000000000000000000000000000000000000000000000000000000000000000000000000000000000000000000000000000000000000000000000000000000000000000000030000000000000000000000000000000000000000000303000000000000000000000303000000
310
00000000000000000000000000000000000003000000000000000000000000000000000000000000000000000000000000000000000000000000000000000000000000000000000000000000000000000000000000000000000000000000000000000000000000000000000000000000000000000000000000000000000000
310
00000000000000000000000000000000000003000000000000000000000000000000000000000000030300000000000000000000030300000000000000000000000000000000000000000003000000000000000000000000000000000000000000000000000000000000000000000000000000000000000000000000000000
310
00000000000000000000000000000000000000000000000000000000000000000000000000000000000000000000000000000000000000000000000000000000000000000000000000000003000000000000000000000000000000000000000000030300000000000000000000030300000000000000000000000000000000
310
00000000000300000000000000000000000000000000000000000000000000000000000000000000000000000000000000000000000000000000000000000000000000000000000000000000000000000000000000000000000000000000000000000000000000000000000000000000000000000000000000000000000000
310
00000000000300000000000000000000000000000000000000000003030000000000000000000003030000000000000000000000000000000000000000000300000000000000000000000000000000000000000000000000000000000000000000000000000000000000000000000000000000000000000000000000000000
310
00000000000000000000000000000000000000000000000000000000000000000000000000000000000000000000000000000000000000000000000000000300000000000000000000000000000000000000000003030000000000000000000003030000000000000000000000000000000000000000000300000000000000
310
00000000000000000000000000000000000000000000000000000000000000000000000000000000000000000000000000000000000000000000000000000000000000000000000000000000000000000000000000000000000000000000000000000000000000000000000000000000000000000000000300000000000000
310
00000000000000000000000000000303000000000000000000000303000000000000000000000000000000000000000000030000000000000000000000000000000000000000000000000000000000000000000000000000000000000000000000000000000000000000000000000000000000000000000000000000000000
310
00000000000000000000000000000000000000000000000000000000000000000000000000000000000000000000000000030000000000000000000000000000000000000000000303030303030303030303030303000000000000000000000000000000000000000000030000000000000000000000000000000000000000
310
00000000000000000000000000000000000000000000000000000000000000000000000000000000000000000000000000000000000000000000000000000000000000000000000000000000000000000000000000000000000000000000000000000000000000000000030000000000000000000000000000000000000000
310
00030303030303030303030303030300000000000000000000000000000000000000000003000000000000000000000000000000000000000000000000000000000000000000000000000000000000000000000000000000000000000000000000000000000000000000000000000000000000000000000000000000000000
310
00000000000000000000000000000000000000000000000000000000000000000000000003000000000000000000000000000000000000000000000000000000000000000000000000000000000000000000000000000000000000000000000000000000000000000000000000000000000000000000000000000000000000
310
00000000000000000000000000000000000000000000000000000000000000000000000000000000000000000000000000000000000000000000000000000000000000000000000000000000000000000000000000000000000000000003000000000000000000000000000000000000000000000000000000000000000000
310
00000000000000000000000000000000000000000000000300000000000000000000000000000000000000000000000000000000000000000000000000000000000000000000000000000000000000000000000000000000000000000000000000000000000000000000000000000000000000000000000000000000000000
310
00000000000000000000000000000000000000000000000300000000000000000000000000000000000000000000000000000000000000000000000000000000000000000000000000000000000000000300000000000000000000000000000000000000000000000000000000000000000000000000000000000000000000
310
00000000000000000000000000000000000000000000000000000000000000000000000000000000000000000000000000000000000000000000000000000000000000000000000000000000000000000300000000000000000000000000000000000000000000000000000000000000000000000000000000000000000000
310
00000000000000000000030000000000000000000000000000000000000000000000000000000000000000000000000000000000000000000000000000000000000000000000000000000000000000000000000000000000000000000000000000000000000000000000000000000000000000000000000000000000000000
310
0000000000000000000B030F0000000000000000000000000000000000000000000000000000000000000000000000000000000000000000000000000000000000000F030B00000000000000000000000000000000000000000000000000000000000000000000000000000000000000000000000000000000000000000000
310
00000000000000000000000000000000000000000000000000000000000000000000000000000000000000000000000000000000000000000000000000000000000000010300000000000000000000000000000000000000000000000000000000000000000000000000000000000000000000000000000000000003010000
310
00000000000000000000000000000000000000000000000000000000000000000000000000000000000000000000000000000000000000000000000000000000000000000000000000000000000000000000000000000000000000000000000000000000000000000000000000000000000000000000000000000000000300
310
00000000000000000000000000000000000000000000000000000000000000000000000000000000000000000000000000000000000300000000000000000000000000000000000000000000000000000000000000000000000000000000000000000000000000000000000000000000000000000000000000000000000000
310
00000000000000000000000000000000000000000000000000000000000000000000000000000000000000000000000000000000000000030000000000000000000000000000000000000000000000000000000000000000000000000000000000000000000000000000000000000300000000000000000000000000000000
310
00000000000000000000000000000000000000000000000000000000000000000000000000000000000000000000000000000000000000000000000000000000000000000000000000000000000000000000000000000000000000000000000000000000000000000000000000000000030100000000000000000000000000
310
00000000000000000000000000000000000000000000000000000000000000000000000000000001030000000000000000000000000000000000000000000000000000000000000000000000000000000000000000000000000000000000000000000000000000000000000000000000000000000000000000000000000000
310
00000000000000000000000000000000000000000000000000000000000000000000000000000000000001030100000000000000000000000000000000000000000000000000000000000000000000000000000000000000000000000000000103010000000000000000000000000000000000000000000000000000000000
310
00000000000000000000000000000000000000000000000000000000000000000000000000000000000000000000000000000000000000000000000000000000000000000000000000000000000000000000000000000000000000000000000000000000010300000000000000000000000000000000000000000000000000
310
00000000000000000000000000000000000000000000000000030100000000000000000000000000000000000000000000000000000000000000000000000000000000000000000000000000000000000000000000000000000000000000000000000000000000000000000000000000000000000000000000000000000000
310
00000000000000000000000000000000000000000000000000000000000007030700000000000000000000000000000000000000000000000000000000000000000000000000000000000000000000000007030700000000000000000000000000000000000000000000000000000000000000000000000000000000000000
310
00000000000000000000000000000000000000000000000000000000000000000000000000000000000000000000000000000000000000000000000000000000000000000000000000000000000000000000000000000000000301000000000000000000000000000000000000000000000000000000000000000000000000
310
00000000000000000000010300000000000000000000000000000000000000000000000000000000000000000000000000000000000000000000000000000000000000000000000000000000000000000000000000000000000000000000000000000000000000000000000000000000000000000000000000000000000000
310
00000000000000000000000000000000000000010300000000000000000000000000000000000000000000000000000000000000000000000000000000000000000000030100000000000000000000000000000000000000000000000000000000000000000000000000000000000000000000000000000000000000000000
310
00000000000000000000000000000000000000000000000000000000000000000000000000000000000000000000000000000000000000000000000000000000000000000000000000000000000303000000000000000000000000000000000000000000000000000000000000000000000000000000000000000003030000
310
00000000000000000000000000000000000000000000000000000000000000000000000000000000000000000000000000000000000000000000000000000000000000000000000000000000000000000000000000000000000000000000000000000000000000000000000000000000000000000000000000000000000000
310
00000000000000000301000000000000000000000000000000000000000000000000000000000000000000000000000000000000010300000000000000000000000000000000000000000000000000000000000000000000000000000000000000000000000000000000000000000000000000000000000000000000000000
310
00000000000000000000000000000000000000000000000000000000000000000000000000000000000000000000000000000000000000000000000000000000000103030100000000000000000000000000000000000000000000000000000000000000000000000000000E03030100000000000000000000000000000000
310
00000000000000000000000000000000000000000000000000000000000000000000000000000000000000000000000000000000000000000000000000000000000000000000000000000000000000000000000000000000000000000000000000000000000000000000000000000000000000000000000000000000010307
310
00000000000000000000000000000000000000000000000000000000000000000000000000030100000000000000000000000000000000000000000000000000000000000000000000000000000000000000000000000000000000000000000000000000000000000000000000000000000000000000000000000000000000
310
00000000000000000000000000000000000000000000000000000000000000000000000000000000000000000000000000000000000000000303010000000000000000000000000000000000000000000000000000000000000000010300070000000000000000000000000000000000000000000000000000000000000000
310
00000000000000000000000000000000000000000000000000000000000000000000000000000000000000000000000000000000000000000000000000000000000000000000000000000000000000000000000000000000000000000000000000000000000000000000000000000000000701030300000000000000000000
310
00000000000000000000000000000000000000000303010000000000000000000000000000000000000000000000000000000000000000000000000000000000000000000000000000000000000000000000000000000000000000000000000000000000000000000000000000000000000000000000000000000000000000
310
00000000000000000000000000000000000000000000000000000000000000000000000000000000000000000000000303030300000000000000000000000000000000000000000000030303030000000000000000000000000000000000000000000000000000000000000000000000000000000000000000000000000000
310
00000000000000000000000000000000000000000000000000000000000000000000000000000000000000000000000000000000000000000000000000000000000000000000000000000000000000000000000000000000000000000000000000000000000000000000000303030300030303030303030303030303030303
310
03030303000000000000000000000000000000000000000000000000000000000000000000000000000000000000000000000000000000000000000000000000000000000000000000000000000000000000000000000000000000000000000000000000000000000000000000000000000000000000000000000000000000
310
000000000000000000000000000000000000000000000000000000000000000000000000000B000000000000000000000000000000000000000000000B000000000000000000000000000000000000000000000000000000000000000000000000000000000000000000000000000000000000000000000000000000000000
310
000000000000000000000000000000000000
  0
ENDSEC
  0
EOF
