  0
SECTION
  2
HEADER
  9
$ACADVER
  1
AC1027
  9
$ACADMAINTVER
 70
   125
  9
$DWGCODEPAGE
  3
ANSI_1252
  9
$AUTHOR
  1
WAEngineering2
  9
$LASTSAVEDBY
  1
WAEngineering2
  9
$CUSTOMPROPERTYTAG
  1
BentleyWorkSetProperties
  9
$CUSTOMPROPERTY
  1
02050000000B000000540200000000000000000200000057006F0072006B005300650074004E0061006D00650000000000000001000109040000000200000000000000000000000100000057006F0072006B005300650074004400650073006300720069007000740069006F006E0000000000000001000109080000000000000000000000000000000200000057006F0072006B00530070006100630065004E0061006D006500000000000000010001090C0000000200000000000000000000000400000043006F006E006E00650063007400500072006F006A006500630074004700550049004400000000000000010001091000000000000000000000000000000008000000500072006F006A00650063007400410073007300650074005400790070006500000000000000010001091400000000000000000000000000000010000000500072006F006A0065006300740049006E00640075007300740072007900000000000000010001091800000000000000000000000000000020000000500072006F006A006500630074004C006F0063006100740069006F006E00000000000000010001091C00000000000000000000000000000040000000500072006F006A006500630074004E0075006D00620065007200000000000000010001092000000000000000000000000000000080000000500072006F006A00650063007400530074006100740075007300000000000000010001092400000000000000000000000000000000010000500072006F006A006500630074004E0061006D00650000000000000001000109280000000000000000000000000000000002000031010000000000050002FCFFFF300000004A0000004A0000005A000000A4000000D2000000F4000000F600000004010000120100002C0100004D006500740072006F00530074006100740069006F006E0000004500780061006D0070006C0065000000350039003800370063003200620065002D0066003000660064002D0034003300660038002D0039006100610031002D00620039003100360035006200350030003400650032003300000050006C006100740066006F0072006D007300200061006E0064002000530074006100740069006F006E00730000005200610069006C00200061006E00640020005400720061006E0073006900740000000000310030003000310030003000000041006300740069007600650000004D006500740072006F00530074006100740069006F006E000000
  9
$REQUIREDVERSIONS
160
                 0
  9
$INSBASE
 10
0.0
 20
0.0
 30
0.0
  9
$EXTMIN
 10
1.3534
 20
1.1234
 30
0.0
  9
$EXTMAX
 10
6.8915
 20
7.5306
 30
0.0
  9
$LIMMIN
 10
-12.815409
 20
-12.610859
  9
$LIMMAX
 10
21.060309
 20
21.264859
  9
$ORTHOMODE
 70
     0
  9
$REGENMODE
 70
     1
  9
$FILLMODE
 70
     1
  9
$QTEXTMODE
 70
     0
  9
$MIRRTEXT
 70
     0
  9
$LTSCALE
 40
1.0
  9
$ATTMODE
 70
     1
  9
$TEXTSIZE
 40
0.25
  9
$TRACEWID
 40
0.05
  9
$TEXTSTYLE
  7
Standard
  9
$CLAYER
  8
0
  9
$CELTYPE
  6
ByLayer
  9
$CECOLOR
 62
   256
  9
$CELTSCALE
 40
1.0
  9
$DISPSILH
 70
     0
  9
$DIMSCALE
 40
1.0
  9
$DIMASZ
 40
0.25
  9
$DIMEXO
 40
0.125
  9
$DIMDLI
 40
0.0
  9
$DIMRND
 40
0.0
  9
$DIMDLE
 40
0.0
  9
$DIMEXE
 40
0.125
  9
$DIMTP
 40
0.0
  9
$DIMTM
 40
0.0
  9
$DIMTXT
 40
0.25
  9
$DIMCEN
 40
0.0
  9
$DIMTSZ
 40
0.0
  9
$DIMTOL
 70
     0
  9
$DIMLIM
 70
     0
  9
$DIMTIH
 70
     0
  9
$DIMTOH
 70
     0
  9
$DIMSE1
 70
     0
  9
$DIMSE2
 70
     0
  9
$DIMTAD
 70
     1
  9
$DIMZIN
 70
     8
  9
$DIMBLK
  1
TerminatorOpen_0.5
  9
$DIMASO
 70
     1
  9
$DIMSHO
 70
     1
  9
$DIMPOST
  1

  9
$DIMAPOST
  1

  9
$DIMALT
 70
     0
  9
$DIMALTD
 70
     4
  9
$DIMALTF
 40
1.0
  9
$DIMLFAC
 40
1.0
  9
$DIMTOFL
 70
     0
  9
$DIMTVP
 40
0.0
  9
$DIMTIX
 70
     0
  9
$DIMSOXD
 70
     0
  9
$DIMSAH
 70
     0
  9
$DIMBLK1
  1

  9
$DIMBLK2
  1

  9
$DIMSTYLE
  2
Standard
  9
$DIMCLRD
 70
     0
  9
$DIMCLRE
 70
     0
  9
$DIMCLRT
 70
     0
  9
$DIMTFAC
 40
1.0
  9
$DIMGAP
 40
0.125
  9
$DIMJUST
 70
     0
  9
$DIMSD1
 70
     0
  9
$DIMSD2
 70
     0
  9
$DIMTOLJ
 70
     1
  9
$DIMTZIN
 70
     8
  9
$DIMALTZ
 70
    12
  9
$DIMALTTZ
 70
    12
  9
$DIMUPT
 70
     0
  9
$DIMDEC
 70
     4
  9
$DIMTDEC
 70
     0
  9
$DIMALTU
 70
     2
  9
$DIMALTTD
 70
     0
  9
$DIMTXSTY
  7
Style-Arial
  9
$DIMAUNIT
 70
     0
  9
$DIMADEC
 70
     4
  9
$DIMALTRND
 40
0.0
  9
$DIMAZIN
 70
     3
  9
$DIMDSEP
 70
     0
  9
$DIMATFIT
 70
     1
  9
$DIMFRAC
 70
     2
  9
$DIMLDRBLK
  1
TerminatorOpen_0.5
  9
$DIMLUNIT
 70
     2
  9
$DIMLWD
 70
    -2
  9
$DIMLWE
 70
    -2
  9
$DIMTMOVE
 70
     0
  9
$DIMFXL
 40
1.0
  9
$DIMFXLON
 70
     0
  9
$DIMJOGANG
 40
0.785398
  9
$DIMTFILL
 70
     0
  9
$DIMTFILLCLR
 70
     0
  9
$DIMARCSYM
 70
     0
  9
$DIMLTYPE
  6
ByBlock
  9
$DIMLTEX1
  6
ByBlock
  9
$DIMLTEX2
  6
ByBlock
  9
$DIMTXTDIRECTION
 70
     0
  9
$LUNITS
 70
     2
  9
$LUPREC
 70
     3
  9
$SKETCHINC
 40
0.1
  9
$FILLETRAD
 40
0.0
  9
$AUNITS
 70
     0
  9
$AUPREC
 70
     3
  9
$MENU
  1
.
  9
$ELEVATION
 40
0.0
  9
$PELEVATION
 40
0.0
  9
$THICKNESS
 40
0.0
  9
$LIMCHECK
 70
     0
  9
$CHAMFERA
 40
0.0
  9
$CHAMFERB
 40
0.0
  9
$CHAMFERC
 40
0.0
  9
$CHAMFERD
 40
0.0
  9
$SKPOLY
 70
     0
  9
$TDCREATE
 40
2454145.111354167
  9
$TDUCREATE
 40
2454144.778024017
  9
$TDUPDATE
 40
2459864.584687500
  9
$TDUUPDATE
 40
2459864.251354167
  9
$TDINDWG
 40
0.0058274884
  9
$TDUSRTIMER
 40
0.0058273032
  9
$USRTIMER
 70
     1
  9
$ANGBASE
 50
0.0
  9
$ANGDIR
 70
     0
  9
$PDMODE
 70
     0
  9
$PDSIZE
 40
0.0
  9
$PLINEWID
 40
0.0
  9
$SPLFRAME
 70
     0
  9
$SPLINETYPE
 70
     6
  9
$SPLINESEGS
 70
     8
  9
$HANDSEED
  5
1024
  9
$SURFTAB1
 70
     6
  9
$SURFTAB2
 70
     6
  9
$SURFTYPE
 70
     6
  9
$SURFU
 70
     6
  9
$SURFV
 70
     6
  9
$UCSBASE
  2

  9
$UCSNAME
  2

  9
$UCSORG
 10
0.0
 20
0.0
 30
0.0
  9
$UCSXDIR
 10
1.0
 20
0.0
 30
0.0
  9
$UCSYDIR
 10
0.0
 20
1.0
 30
0.0
  9
$UCSORTHOREF
  2

  9
$UCSORTHOVIEW
 70
     0
  9
$UCSORGTOP
 10
0.0
 20
0.0
 30
0.0
  9
$UCSORGBOTTOM
 10
0.0
 20
0.0
 30
0.0
  9
$UCSORGLEFT
 10
0.0
 20
0.0
 30
0.0
  9
$UCSORGRIGHT
 10
0.0
 20
0.0
 30
0.0
  9
$UCSORGFRONT
 10
0.0
 20
0.0
 30
0.0
  9
$UCSORGBACK
 10
0.0
 20
0.0
 30
0.0
  9
$PUCSBASE
  2

  9
$PUCSNAME
  2

  9
$PUCSORG
 10
0.0
 20
0.0
 30
0.0
  9
$PUCSXDIR
 10
1.0
 20
0.0
 30
0.0
  9
$PUCSYDIR
 10
0.0
 20
1.0
 30
0.0
  9
$PUCSORTHOREF
  2

  9
$PUCSORTHOVIEW
 70
     0
  9
$PUCSORGTOP
 10
0.0
 20
0.0
 30
0.0
  9
$PUCSORGBOTTOM
 10
0.0
 20
0.0
 30
0.0
  9
$PUCSORGLEFT
 10
0.0
 20
0.0
 30
0.0
  9
$PUCSORGRIGHT
 10
0.0
 20
0.0
 30
0.0
  9
$PUCSORGFRONT
 10
0.0
 20
0.0
 30
0.0
  9
$PUCSORGBACK
 10
0.0
 20
0.0
 30
0.0
  9
$USERI1
 70
     0
  9
$USERI2
 70
     0
  9
$USERI3
 70
     0
  9
$USERI4
 70
     0
  9
$USERI5
 70
     0
  9
$USERR1
 40
0.0
  9
$USERR2
 40
0.0
  9
$USERR3
 40
0.0
  9
$USERR4
 40
0.0
  9
$USERR5
 40
0.0
  9
$WORLDVIEW
 70
     1
  9
$SHADEDGE
 70
     3
  9
$SHADEDIF
 70
    70
  9
$TILEMODE
 70
     1
  9
$MAXACTVP
 70
    64
  9
$PINSBASE
 10
0.0
 20
0.0
 30
0.0
  9
$PLIMCHECK
 70
     0
  9
$PEXTMIN
 10
1.05
 20
0.8
 30
0.0
  9
$PEXTMAX
 10
9.45
 20
7.2
 30
0.0
  9
$PLIMMIN
 10
-0.25
 20
-0.25
  9
$PLIMMAX
 10
10.75
 20
8.25
  9
$UNITMODE
 70
     0
  9
$VISRETAIN
 70
     1
  9
$PLINEGEN
 70
     0
  9
$PSLTSCALE
 70
     0
  9
$TREEDEPTH
 70
  3020
  9
$CMLSTYLE
  2
Standard
  9
$CMLJUST
 70
     0
  9
$CMLSCALE
 40
1.0
  9
$PROXYGRAPHICS
 70
     1
  9
$MEASUREMENT
 70
     0
  9
$CELWEIGHT
370
    -1
  9
$ENDCAPS
280
     0
  9
$JOINSTYLE
280
     0
  9
$LWDISPLAY
290
     1
  9
$INSUNITS
 70
     6
  9
$HYPERLINKBASE
  1

  9
$STYLESHEET
  1

  9
$XEDIT
290
     1
  9
$CEPSNTYPE
380
     0
  9
$PSTYLEMODE
290
     1
  9
$FINGERPRINTGUID
  2
{0ECA3F19-A298-4D42-8356-EDA819995C31}
  9
$VERSIONGUID
  2
{38E7CD85-556C-4D6E-9C4C-B935CE7E055D}
  9
$EXTNAMES
290
     1
  9
$PSVPSCALE
 40
0.0
  9
$OLESTARTUP
290
     0
  9
$SORTENTS
280
   127
  9
$INDEXCTL
280
     0
  9
$HIDETEXT
280
     1
  9
$XCLIPFRAME
280
     0
  9
$HALOGAP
280
     0
  9
$OBSCOLOR
 70
   257
  9
$OBSLTYPE
280
     0
  9
$INTERSECTIONDISPLAY
280
     0
  9
$INTERSECTIONCOLOR
 70
   257
  9
$DIMASSOC
280
     2
  9
$PROJECTNAME
  1

  9
$CAMERADISPLAY
290
     0
  9
$LENSLENGTH
 40
50.0
  9
$CAMERAHEIGHT
 40
0.0
  9
$STEPSPERSEC
 40
2.0
  9
$STEPSIZE
 40
6.0
  9
$3DDWFPREC
 40
2.0
  9
$PSOLWIDTH
 40
0.25
  9
$PSOLHEIGHT
 40
4.0
  9
$LOFTANG1
 40
1.570796
  9
$LOFTANG2
 40
1.570796
  9
$LOFTMAG1
 40
0.0
  9
$LOFTMAG2
 40
0.0
  9
$LOFTPARAM
 70
     7
  9
$LOFTNORMALS
280
     1
  9
$LATITUDE
 40
37.795
  9
$LONGITUDE
 40
-122.394
  9
$NORTHDIRECTION
 40
0.0
  9
$TIMEZONE
 70
 -8000
  9
$LIGHTGLYPHDISPLAY
280
     1
  9
$TILEMODELIGHTSYNCH
280
     1
  9
$CMATERIAL
347
967
  9
$SOLIDHIST
280
     1
  9
$SHOWHIST
280
     1
  9
$DWFFRAME
280
     2
  9
$DGNFRAME
280
     0
  9
$REALWORLDSCALE
290
     1
  9
$INTERFERECOLOR
 62
     1
  9
$INTERFEREOBJVS
345
990
  9
$INTERFEREVPVS
346
991
  9
$CSHADOW
280
     0
  9
$SHADOWPLANELOCATION
 40
0.0
  0
ENDSEC
  0
SECTION
  2
CLASSES
  0
CLASS
  1
ACDBDICTIONARYWDFLT
  2
AcDbDictionaryWithDefault
  3
ObjectDBX Classes
 90
        0
 91
        1
280
     0
281
     0
  0
CLASS
  1
DICTIONARYVAR
  2
AcDbDictionaryVar
  3
ObjectDBX Classes
 90
        0
 91
        9
280
     0
281
     0
  0
CLASS
  1
TABLESTYLE
  2
AcDbTableStyle
  3
ObjectDBX Classes
 90
     4095
 91
        1
280
     0
281
     0
  0
CLASS
  1
MATERIAL
  2
AcDbMaterial
  3
ObjectDBX Classes
 90
     1153
 91
        3
280
     0
281
     0
  0
CLASS
  1
VISUALSTYLE
  2
AcDbVisualStyle
  3
ObjectDBX Classes
 90
     4095
 91
       24
280
     0
281
     0
  0
CLASS
  1
SCALE
  2
AcDbScale
  3
ObjectDBX Classes
 90
     1153
 91
       33
280
     0
281
     0
  0
CLASS
  1
MLEADERSTYLE
  2
AcDbMLeaderStyle
  3
ACDB_MLEADERSTYLE_CLASS
 90
     4095
 91
        1
280
     0
281
     0
  0
CLASS
  1
EXACXREFPANELOBJECT
  2
ExAcXREFPanelObject
  3
EXAC_ESW
 90
     1025
 91
        0
280
     1
281
     0
  0
CLASS
  1
NPOCOLLECTION
  2
AcDbImpNonPersistentObjectsCollection
  3
ObjectDBX Classes
 90
     1153
 91
        0
280
     0
281
     0
  0
CLASS
  1
CELLSTYLEMAP
  2
AcDbCellStyleMap
  3
ObjectDBX Classes
 90
     1152
 91
        1
280
     0
281
     0
  0
CLASS
  1
ACDBSECTIONVIEWSTYLE
  2
AcDbSectionViewStyle
  3
ObjectDBX Classes
 90
     1025
 91
        1
280
     0
281
     0
  0
CLASS
  1
ACDBDETAILVIEWSTYLE
  2
AcDbDetailViewStyle
  3
ObjectDBX Classes
 90
     1025
 91
        1
280
     0
281
     0
  0
CLASS
  1
SORTENTSTABLE
  2
AcDbSortentsTable
  3
ObjectDBX Classes
 90
        0
 91
        1
280
     0
281
     0
  0
ENDSEC
  0
SECTION
  2
TABLES
  0
TABLE
  2
VPORT
  5
95B
330
0
100
AcDbSymbolTable
 70
     1
1001
ACAD
1000
DbSaveVer
1071
      253
  0
VPORT
  5
4B
330
95B
100
AcDbSymbolTableRecord
100
AcDbViewportTableRecord
  2
*ACTIVE
 70
     0
 10
0.0
 20
0.0
 11
1.0
 21
1.0
 12
4.2928
 22
4.257013
 13
0.0
 23
0.0
 14
0.1
 24
0.1
 15
1.0
 25
1.0
 16
0.0
 26
0.0
 36
1.0
 17
0.0
 27
0.0
 37
0.0
 40
6.803313
 41
2.437741
 42
50.0
 43
0.0
 44
0.0
 50
0.0
 51
0.0
 71
     0
 72
 20000
 73
     1
 74
     1
 75
     0
 76
     0
 77
     0
 78
     1
281
     0
 65
     1
110
0.0
120
0.0
130
0.0
111
1.0
121
0.0
131
0.0
112
0.0
122
1.0
132
0.0
 79
     0
146
0.0
348
95D
 60
     3
 61
    10
292
     0
282
     1
141
0.0
142
0.0
 63
     7
421
 16777215
  0
ENDTAB
  0
TABLE
  2
LTYPE
  5
956
330
0
100
AcDbSymbolTable
 70
     2
  0
LTYPE
  5
957
330
956
100
AcDbSymbolTableRecord
100
AcDbLinetypeTableRecord
  2
ByBlock
 70
     0
  3

 72
    65
 73
     0
 40
0.0
  0
LTYPE
  5
958
330
956
100
AcDbSymbolTableRecord
100
AcDbLinetypeTableRecord
  2
ByLayer
 70
     0
  3

 72
    65
 73
     0
 40
0.0
  0
LTYPE
  5
92C
330
956
100
AcDbSymbolTableRecord
100
AcDbLinetypeTableRecord
  2
Continuous
 70
     0
  3
Solid line
 72
    65
 73
     0
 40
0.0
  0
LTYPE
  5
AF7
330
956
100
AcDbSymbolTableRecord
100
AcDbLinetypeTableRecord
  2
DGN Style 2
 70
     0
  3
Dgn Style 2
 72
    65
 73
     2
 40
0.165847
 49
0.099508
 74
     0
 49
-0.066339
 74
     0
  0
ENDTAB
  0
TABLE
  2
LAYER
  5
94D
102
{ACAD_XDICTIONARY
360
94E
102
}
330
0
100
AcDbSymbolTable
 70
   323
  0
LAYER
  5
91D
102
{ACAD_XDICTIONARY
360
91E
102
}
330
94D
100
AcDbSymbolTableRecord
100
AcDbLayerTableRecord
  2
0
 70
     0
 62
     7
  6
Continuous
370
    -3
390
920
347
923
348
0
1001
AcCmTransparency
1071
 33554687
  0
LAYER
  5
985
330
94D
100
AcDbSymbolTableRecord
100
AcDbLayerTableRecord
  2
Level 1
 70
     0
 62
     7
  6
Continuous
370
     0
390
920
347
923
348
0
1001
AcCmTransparency
1071
 33554687
  0
LAYER
  5
598
330
94D
100
AcDbSymbolTableRecord
100
AcDbLayerTableRecord
  2
Level 14
 70
     0
 62
     7
  6
Continuous
370
     0
390
920
347
923
348
0
1001
AcAecLayerStandard
1000

1000
Fall Zone Individual
1001
AcCmTransparency
1071
 33554687
  0
LAYER
  5
599
330
94D
100
AcDbSymbolTableRecord
100
AcDbLayerTableRecord
  2
ninja1 - Level 26
 70
     0
 62
     7
  6
Continuous
370
     0
390
920
347
923
348
0
1001
AcAecLayerStandard
1000

1000
Assemblies - Colour Locked
1001
AcCmTransparency
1071
 33554687
  0
LAYER
  5
917
330
94D
100
AcDbSymbolTableRecord
100
AcDbLayerTableRecord
  2
ninja1 - Level 25
 70
     0
 62
     7
  6
Continuous
370
     0
390
920
347
923
348
0
1001
AcAecLayerStandard
1000

1000
Assemblies - Base
1001
AcCmTransparency
1071
 33554687
  0
ENDTAB
  0
TABLE
  2
STYLE
  5
952
330
0
100
AcDbSymbolTable
 70
     3
  0
STYLE
  5
953
330
952
100
AcDbSymbolTableRecord
100
AcDbTextStyleTableRecord
  2
Standard
 70
     0
 40
0.0
 41
1.0
 50
0.0
 71
     0
 42
0.25
  3
txt.shx
  4

1001
AcadAnnotative
1000
AnnotativeData
1002
{
1070
     1
1070
     1
1002
}
  0
STYLE
  5
986
330
952
100
AcDbSymbolTableRecord
100
AcDbTextStyleTableRecord
  2
Style-STANDARD
 70
     0
 40
0.0
 41
1.0
 50
0.0
 71
     0
 42
3.5
  3
STANDARD.shx
  4

1001
AcadAnnotative
1000
AnnotativeData
1002
{
1070
     1
1070
     1
1002
}
  0
STYLE
  5
AF4
330
952
100
AcDbSymbolTableRecord
100
AcDbTextStyleTableRecord
  2
Style-Arial
 70
     0
 40
0.0
 41
1.0
 50
0.0
 71
     0
 42
0.25
  3
arial.ttf
  4

1001
ACAD
1000
Arial
1071
       39
  0
ENDTAB
  0
TABLE
  2
VIEW
  5
959
330
0
100
AcDbSymbolTable
 70
     0
  0
ENDTAB
  0
TABLE
  2
UCS
  5
95A
330
0
100
AcDbSymbolTable
 70
     0
  0
ENDTAB
  0
TABLE
  2
APPID
  5
95F
330
0
100
AcDbSymbolTable
 70
     6
  0
APPID
  5
960
330
95F
100
AcDbSymbolTableRecord
100
AcDbRegAppTableRecord
  2
ACAD
 70
     0
  0
APPID
  5
94C
330
95F
100
AcDbSymbolTableRecord
100
AcDbRegAppTableRecord
  2
ACAD_PSEXT
 70
     0
  0
APPID
  5
92D
330
95F
100
AcDbSymbolTableRecord
100
AcDbRegAppTableRecord
  2
AcCmTransparency
 70
     0
  0
APPID
  5
954
330
95F
100
AcDbSymbolTableRecord
100
AcDbRegAppTableRecord
  2
AcadAnnotative
 70
     0
  0
APPID
  5
932
330
95F
100
AcDbSymbolTableRecord
100
AcDbRegAppTableRecord
  2
MStation
 70
     0
  0
APPID
  5
AF2
330
95F
100
AcDbSymbolTableRecord
100
AcDbRegAppTableRecord
  2
AcAecLayerStandard
 70
     0
  0
ENDTAB
  0
TABLE
  2
DIMSTYLE
  5
961
330
0
100
AcDbSymbolTable
 70
     1
100
AcDbDimStyleTable
 71
     1
340
962
  0
DIMSTYLE
105
962
330
961
100
AcDbSymbolTableRecord
100
AcDbDimStyleTableRecord
  2
Standard
 70
     0
 42
0.0625
 44
0.18
 78
     3
272
     0
274
     0
278
     0
284
     3
285
     3
286
     3
289
     1
340
953
345
92C
346
92C
347
92C
  0
ENDTAB
  0
TABLE
  2
BLOCK_RECORD
  5
918
330
0
100
AcDbSymbolTable
 70
     6
  0
BLOCK_RECORD
  5
919
102
{ACAD_XDICTIONARY
360
91A
102
}
330
918
100
AcDbSymbolTableRecord
100
AcDbBlockTableRecord
  2
*Model_Space
340
944
 70
     0
280
     1
281
     0
  0
BLOCK_RECORD
  5
947
330
918
100
AcDbSymbolTableRecord
100
AcDbBlockTableRecord
  2
*Paper_Space
340
94A
 70
     0
280
     1
281
     0
  0
BLOCK_RECORD
  5
987
330
918
100
AcDbSymbolTableRecord
100
AcDbBlockTableRecord
  2
TerminatorOpen_0.5
340
0
 70
     0
280
     1
281
     0
  0
ENDTAB
  0
ENDSEC
  0
SECTION
  2
BLOCKS
  0
BLOCK
  5
91C
330
919
100
AcDbEntity
  8
0
100
AcDbBlockBegin
  2
*Model_Space
 70
     0
 10
0.0
 20
0.0
 30
0.0
  3
*Model_Space
  1

  0
ENDBLK
  5
943
330
919
100
AcDbEntity
  8
0
100
AcDbBlockEnd
  0
BLOCK
  5
948
330
947
100
AcDbEntity
 67
     1
  8
0
100
AcDbBlockBegin
  2
*Paper_Space
 70
     0
 10
0.0
 20
0.0
 30
0.0
  3
*Paper_Space
  1

  0
ENDBLK
  5
949
330
947
100
AcDbEntity
 67
     1
  8
0
100
AcDbBlockEnd
  0
BLOCK
  5
988
330
987
100
AcDbEntity
  8
0
 62
     7
370
    30
100
AcDbBlockBegin
  2
TerminatorOpen_0.5
 70
     0
 10
0.0
 20
0.0
 30
0.0
  3
TerminatorOpen_0.5
  1

  0
LINE
  5
989
330
987
100
AcDbEntity
  8
0
  6
ByBlock
 62
     0
370
    -2
100
AcDbLine
 10
0.0
 20
0.0
 30
0.0
 11
-1.0
 21
0.0
 31
0.0
  0
LINE
  5
98A
330
987
100
AcDbEntity
  8
0
  6
ByBlock
 62
     0
370
    -2
100
AcDbLine
 10
0.0
 20
0.0
 30
0.0
 11
-1.0
 21
0.25
 31
0.0
  0
LINE
  5
98B
330
987
100
AcDbEntity
  8
0
  6
ByBlock
 62
     0
370
    -2
100
AcDbLine
 10
0.0
 20
0.0
 30
0.0
 11
-1.0
 21
-0.25
 31
0.0
  0
ENDBLK
  5
98C
330
987
100
AcDbEntity
  8
0
 62
     7
370
    30
100
AcDbBlockEnd
  0
ENDSEC
  0
SECTION
  2
ENTITIES
  0
SPLINE
  5
5A3
330
919
100
AcDbEntity
  8
ninja1 - Level 26
  6
Continuous
 62
     7
370
    13
100
AcDbSpline
210
0.0
220
0.0
230
1.0
 70
     8
 71
     3
 72
    10
 73
     6
 74
     0
 42
0.000000001
 43
0.0000000001
 40
0.0
 40
0.0
 40
0.0
 40
0.0
 40
0.2070674904969096
 40
0.9869894094149653
 40
1.0
 40
1.0
 40
1.0
 40
1.0
 10
3.884404340387365
 20
3.674688922675159
 30
0.0
 10
3.884885161061314
 20
3.674209986621376
 30
0.0
 10
3.887966174706383
 20
3.672011699523874
 30
0.0
 10
3.893518929716755
 20
3.672644867452855
 30
0.0
 10
3.895359396411632
 20
3.674672652823994
 30
0.0
 10
3.895393954732173
 20
3.67468957622658
 30
0.0
  0
SPLINE
  5
5A6
330
919
100
AcDbEntity
  8
ninja1 - Level 26
  6
Continuous
 62
     7
370
    13
100
AcDbSpline
210
0.0
220
0.0
230
1.0
 70
     8
 71
     3
 72
     9
 73
     5
 74
     0
 42
0.000000001
 43
0.0000000001
 40
0.0
 40
0.0
 40
0.0
 40
0.0
 40
0.8831717463228736
 40
1.0
 40
1.0
 40
1.0
 40
1.0
 10
3.885382689859069
 20
3.88851184116341
 30
0.0
 10
3.887470997995199
 20
3.887357472163664
 30
0.0
 10
3.891561579708571
 20
3.887179565124121
 30
0.0
 10
3.894133196131178
 20
3.888377865033618
 30
0.0
 10
3.894421333927315
 20
3.888515177128313
 30
0.0
  0
SPLINE
  5
5A9
330
919
100
AcDbEntity
  8
ninja1 - Level 26
  6
Continuous
 62
     7
370
    13
100
AcDbSpline
210
0.0
220
0.0
230
1.0
 70
     8
 71
     3
 72
    10
 73
     6
 74
     0
 42
0.000000001
 43
0.0000000001
 40
0.0
 40
0.0
 40
0.0
 40
0.0
 40
0.4021077649099437
 40
0.9873688854403399
 40
1.0
 40
1.0
 40
1.0
 40
1.0
 10
4.360492661440258
 20
3.674690677603538
 30
0.0
 10
4.359570886779207
 20
3.673721277640787
 30
0.0
 10
4.355682693734343
 20
3.671963217579403
 30
0.0
 10
4.350924839705191
 20
3.673185420154589
 30
0.0
 10
4.349537671858447
 20
3.674666714911623
 30
0.0
 10
4.349504430424838
 20
3.674691278310128
 30
0.0
  0
SPLINE
  5
5AC
330
919
100
AcDbEntity
  8
ninja1 - Level 26
  6
Continuous
 62
     7
370
    13
100
AcDbSpline
210
0.0
220
0.0
230
1.0
 70
     8
 71
     3
 72
    10
 73
     6
 74
     0
 42
0.000000001
 43
0.0000000001
 40
0.0
 40
0.0
 40
0.0
 40
0.0
 40
0.8774480400949816
 40
0.9418212468352338
 40
1.0
 40
1.0
 40
1.0
 40
1.0
 10
4.359514209624092
 20
3.888513282874323
 30
0.0
 10
4.357427660891573
 20
3.887363541118362
 30
0.0
 10
4.353611653107932
 20
3.887189319816367
 30
0.0
 10
4.350920299211811
 20
3.888300293450156
 30
0.0
 10
4.350619066328953
 20
3.888443985492533
 30
0.0
 10
4.350476480506788
 20
3.888515125814049
 30
0.0
  0
LINE
  5
5AF
330
919
100
AcDbEntity
  8
ninja1 - Level 26
  6
Continuous
 62
     7
370
    13
100
AcDbLine
 10
4.557449
 20
4.288528
 30
0.0
 11
4.557449
 21
4.287149
 31
0.0
  0
SPLINE
  5
5B0
330
919
100
AcDbEntity
  8
ninja1 - Level 26
  6
Continuous
 62
     7
370
    13
100
AcDbSpline
210
0.0
220
0.0
230
1.0
 70
     8
 71
     3
 72
     9
 73
     5
 74
     0
 42
0.000000001
 43
0.0000000001
 40
0.0
 40
0.0
 40
0.0
 40
0.0
 40
0.8682765703453203
 40
1.0
 40
1.0
 40
1.0
 40
1.0
 10
3.772449919738437
 20
3.400436835036813
 30
0.0
 10
3.770253073012954
 20
3.400416539423206
 30
0.0
 10
3.767754269276911
 20
3.401481047867386
 30
0.0
 10
3.766617773994736
 20
3.403216058551854
 30
0.0
 10
3.76647623256295
 20
3.403444793941686
 30
0.0
  0
SPLINE
  5
5B3
330
919
100
AcDbEntity
  8
ninja1 - Level 26
  6
Continuous
 62
     7
370
    13
100
AcDbSpline
210
0.0
220
0.0
230
1.0
 70
     8
 71
     3
 72
     9
 73
     5
 74
     0
 42
0.000000001
 43
0.0000000001
 40
0.0
 40
0.0
 40
0.0
 40
0.0
 40
0.8682765703453391
 40
1.0
 40
1.0
 40
1.0
 40
1.0
 10
4.122449919738436
 20
3.400436835036813
 30
0.0
 10
4.120253073012953
 20
3.400416539423205
 30
0.0
 10
4.117754269276911
 20
3.401481047867386
 30
0.0
 10
4.116617773994736
 20
3.403216058551854
 30
0.0
 10
4.11647623256295
 20
3.403444793941686
 30
0.0
  0
SPLINE
  5
5B6
330
919
100
AcDbEntity
  8
ninja1 - Level 26
  6
Continuous
 62
     7
370
    13
100
AcDbSpline
210
0.0
220
0.0
230
1.0
 70
     8
 71
     3
 72
     9
 73
     5
 74
     0
 42
0.000000001
 43
0.0000000001
 40
0.0
 40
0.0
 40
0.0
 40
0.0
 40
0.868276570345262
 40
1.0
 40
1.0
 40
1.0
 40
1.0
 10
4.472449919738437
 20
3.400436835036813
 30
0.0
 10
4.470253073012954
 20
3.400416539423205
 30
0.0
 10
4.467754269276912
 20
3.401481047867394
 30
0.0
 10
4.466617773994737
 20
3.403216058551854
 30
0.0
 10
4.46647623256295
 20
3.403444793941687
 30
0.0
  0
LINE
  5
5B9
330
919
100
AcDbEntity
  8
ninja1 - Level 26
  6
Continuous
 62
     7
370
    13
100
AcDbLine
 10
3.687449
 20
4.244028
 30
0.0
 11
3.687449
 21
3.392262
 31
0.0
  0
LINE
  5
5BA
330
919
100
AcDbEntity
  8
ninja1 - Level 26
  6
Continuous
 62
     7
370
    13
100
AcDbLine
 10
4.557449
 20
4.281153
 30
0.0
 11
4.557449
 21
3.392262
 31
0.0
  0
SPLINE
  5
5BB
330
919
100
AcDbEntity
  8
ninja1 - Level 26
  6
Continuous
 62
     7
370
    13
100
AcDbSpline
210
0.0
220
0.0
230
1.0
 70
     8
 71
     3
 72
     8
 73
     4
 74
     0
 42
0.000000001
 43
0.0000000001
 40
0.0
 40
0.0
 40
0.0
 40
0.0
 40
1.0
 40
1.0
 40
1.0
 40
1.0
 10
3.889898835444744
 20
3.668169858371622
 30
0.0
 10
3.89337788015067
 20
3.668100697968983
 30
0.0
 10
3.896492247068885
 20
3.670161285689314
 30
0.0
 10
3.896398835413923
 20
3.672435236200769
 30
0.0
  0
SPLINE
  5
5BE
330
919
100
AcDbEntity
  8
ninja1 - Level 26
  6
Continuous
 62
     7
370
    13
100
AcDbSpline
210
0.0
220
0.0
230
1.0
 70
     8
 71
     3
 72
    10
 73
     6
 74
     0
 42
0.000000001
 43
0.0000000001
 40
0.0
 40
0.0
 40
0.0
 40
0.0
 40
0.1073904557005849
 40
0.966515384830474
 40
1.0
 40
1.0
 40
1.0
 40
1.0
 10
3.889898835444744
 20
3.882474938641453
 30
0.0
 10
3.890256882055112
 20
3.882485161707572
 30
0.0
 10
3.893605385105984
 20
3.88258494238883
 30
0.0
 10
3.896388023018036
 20
3.884270634571997
 30
0.0
 10
3.896389553472263
 20
3.885939807057864
 30
0.0
 10
3.896398835413923
 20
3.885998378394136
 30
0.0
  0
SPLINE
  5
5C1
330
919
100
AcDbEntity
  8
ninja1 - Level 26
  6
Continuous
 62
     7
370
    13
100
AcDbSpline
210
0.0
220
0.0
230
1.0
 70
     8
 71
     3
 72
    10
 73
     6
 74
     0
 42
0.000000001
 43
0.0000000001
 40
0.0
 40
0.0
 40
0.0
 40
0.0
 40
0.1073904557006009
 40
0.966515384830337
 40
1.0
 40
1.0
 40
1.0
 40
1.0
 10
3.889898835444744
 20
4.054085312024738
 30
0.0
 10
3.890256882055112
 20
4.054093177589884
 30
0.0
 10
3.893605385105984
 20
4.054169991167
 30
0.0
 10
3.896388023018036
 20
4.055467376630145
 30
0.0
 10
3.896389553472263
 20
4.056749958153201
 30
0.0
 10
3.896398835413923
 20
4.056794972246609
 30
0.0
  0
SPLINE
  5
5C4
330
919
100
AcDbEntity
  8
ninja1 - Level 26
  6
Continuous
 62
     7
370
    13
100
AcDbSpline
210
0.0
220
0.0
230
1.0
 70
     8
 71
     3
 72
    10
 73
     6
 74
     0
 42
0.000000001
 43
0.0000000001
 40
0.0
 40
0.0
 40
0.0
 40
0.0
 40
0.107390455700588
 40
0.9665153848303525
 40
1.0
 40
1.0
 40
1.0
 40
1.0
 10
3.889898835444744
 20
4.179501915199639
 30
0.0
 10
3.890256882055112
 20
4.179507262888247
 30
0.0
 10
3.893605385105984
 20
4.179559543164693
 30
0.0
 10
3.896388023018036
 20
4.180442168764012
 30
0.0
 10
3.896389553472263
 20
4.18131200802653
 30
0.0
 10
3.896398835413923
 20
4.181342547058647
 30
0.0
  0
SPLINE
  5
5C7
330
919
100
AcDbEntity
  8
ninja1 - Level 26
  6
Continuous
 62
     7
370
    13
100
AcDbSpline
210
0.0
220
0.0
230
1.0
 70
     8
 71
     3
 72
    10
 73
     6
 74
     0
 42
0.000000001
 43
0.0000000001
 40
0.0
 40
0.0
 40
0.0
 40
0.0
 40
0.1073904557005904
 40
0.966515384830444
 40
1.0
 40
1.0
 40
1.0
 40
1.0
 10
3.889898835444744
 20
4.256167556386502
 30
0.0
 10
3.890256882055112
 20
4.256170277161451
 30
0.0
 10
3.893605385105984
 20
4.256196958164384
 30
0.0
 10
3.896388023018135
 20
4.2566468275352
 30
0.0
 10
3.896389553472257
 20
4.257086188880534
 30
0.0
 10
3.896398835413923
 20
4.257101630173341
 30
0.0
  0
SPLINE
  5
5CA
330
919
100
AcDbEntity
  8
ninja1 - Level 26
  6
Continuous
 62
     7
370
    13
100
AcDbSpline
210
0.0
220
0.0
230
1.0
 70
     8
 71
     3
 72
     8
 73
     4
 74
     0
 42
0.000000001
 43
0.0000000001
 40
0.0
 40
0.0
 40
0.0
 40
0.0
 40
1.0
 40
1.0
 40
1.0
 40
1.0
 10
4.354998835444715
 20
3.668169858371622
 30
0.0
 10
4.351519790738788
 20
3.668100697968982
 30
0.0
 10
4.348405423820574
 20
3.670161285689315
 30
0.0
 10
4.348498835475536
 20
3.672435236200769
 30
0.0
  0
SPLINE
  5
5CD
330
919
100
AcDbEntity
  8
ninja1 - Level 26
  6
Continuous
 62
     7
370
    13
100
AcDbSpline
210
0.0
220
0.0
230
1.0
 70
     8
 71
     3
 72
    10
 73
     6
 74
     0
 42
0.000000001
 43
0.0000000001
 40
0.0
 40
0.0
 40
0.0
 40
0.0
 40
0.1073904557005847
 40
0.9665153848304742
 40
1.0
 40
1.0
 40
1.0
 40
1.0
 10
4.354998835444715
 20
3.882474938641453
 30
0.0
 10
4.354640788834347
 20
3.882485161707572
 30
0.0
 10
4.351292285783475
 20
3.882584942388833
 30
0.0
 10
4.348509647871329
 20
3.884270634571997
 30
0.0
 10
4.348508117417202
 20
3.885939807057864
 30
0.0
 10
4.348498835475536
 20
3.885998378394136
 30
0.0
  0
SPLINE
  5
5D0
330
919
100
AcDbEntity
  8
ninja1 - Level 26
  6
Continuous
 62
     7
370
    13
100
AcDbSpline
210
0.0
220
0.0
230
1.0
 70
     8
 71
     3
 72
    10
 73
     6
 74
     0
 42
0.000000001
 43
0.0000000001
 40
0.0
 40
0.0
 40
0.0
 40
0.0
 40
0.1073904557005986
 40
0.9665153848303365
 40
1.0
 40
1.0
 40
1.0
 40
1.0
 10
4.354998835444715
 20
4.054085312024738
 30
0.0
 10
4.354640788834347
 20
4.054093177589885
 30
0.0
 10
4.351292285783475
 20
4.054169991166999
 30
0.0
 10
4.348509647871329
 20
4.055467376630145
 30
0.0
 10
4.348508117417202
 20
4.056749958153201
 30
0.0
 10
4.348498835475536
 20
4.056794972246609
 30
0.0
  0
SPLINE
  5
5D3
330
919
100
AcDbEntity
  8
ninja1 - Level 26
  6
Continuous
 62
     7
370
    13
100
AcDbSpline
210
0.0
220
0.0
230
1.0
 70
     8
 71
     3
 72
    10
 73
     6
 74
     0
 42
0.000000001
 43
0.0000000001
 40
0.0
 40
0.0
 40
0.0
 40
0.0
 40
0.1073904557005884
 40
0.9665153848303523
 40
1.0
 40
1.0
 40
1.0
 40
1.0
 10
4.354998835444715
 20
4.179501915199639
 30
0.0
 10
4.354640788834347
 20
4.179507262888247
 30
0.0
 10
4.351292285783475
 20
4.179559543164693
 30
0.0
 10
4.348509647871329
 20
4.180442168764012
 30
0.0
 10
4.348508117417202
 20
4.18131200802653
 30
0.0
 10
4.348498835475536
 20
4.181342547058647
 30
0.0
  0
SPLINE
  5
5D6
330
919
100
AcDbEntity
  8
ninja1 - Level 26
  6
Continuous
 62
     7
370
    13
100
AcDbSpline
210
0.0
220
0.0
230
1.0
 70
     8
 71
     3
 72
    10
 73
     6
 74
     0
 42
0.000000001
 43
0.0000000001
 40
0.0
 40
0.0
 40
0.0
 40
0.0
 40
0.1073904557005797
 40
0.9665153848303466
 40
1.0
 40
1.0
 40
1.0
 40
1.0
 10
4.354998835444715
 20
4.256167556386502
 30
0.0
 10
4.354640788834347
 20
4.256170277161451
 30
0.0
 10
4.351292285783475
 20
4.256196958164384
 30
0.0
 10
4.348509647871329
 20
4.256646827535178
 30
0.0
 10
4.348508117417202
 20
4.257086188880535
 30
0.0
 10
4.348498835475536
 20
4.257101630173342
 30
0.0
  0
SPLINE
  5
5D9
330
919
100
AcDbEntity
  8
ninja1 - Level 26
  6
Continuous
 62
     7
370
    13
100
AcDbSpline
210
0.0
220
0.0
230
1.0
 70
     8
 71
     3
 72
     8
 73
     4
 74
     0
 42
0.000000001
 43
0.0000000001
 40
0.0
 40
0.0
 40
0.0
 40
0.0
 40
0.3573010065476009
 40
0.3573010065476009
 40
0.3573010065476009
 40
0.3573010065476009
 10
3.687448835444732
 20
3.392261519773108
 30
0.0
 10
3.687174318525693
 20
3.384947668003387
 30
0.0
 10
3.690065292388378
 20
3.377854324867261
 30
0.0
 10
3.695114519647488
 20
3.37178491206137
 30
0.0
  0
SPLINE
  5
5DC
330
919
100
AcDbEntity
  8
ninja1 - Level 26
  6
Continuous
 62
     7
370
    13
100
AcDbSpline
210
0.0
220
0.0
230
1.0
 70
     8
 71
     3
 72
     8
 73
     4
 74
     0
 42
0.000000001
 43
0.0000000001
 40
0.0
 40
0.0
 40
0.0
 40
0.0
 40
0.3573103520973675
 40
0.3573103520973675
 40
0.3573103520973675
 40
0.3573103520973675
 10
4.549782483203235
 20
3.37178487552216
 30
0.0
 10
4.55483163932646
 20
3.377854601141327
 30
0.0
 10
4.557722664102105
 20
3.384948129088598
 30
0.0
 10
4.557448835444732
 20
3.392261519773107
 30
0.0
  0
SPLINE
  5
5DF
330
919
100
AcDbEntity
  8
ninja1 - Level 26
  6
Continuous
 62
     7
370
    13
100
AcDbSpline
210
0.0
220
0.0
230
1.0
 70
     8
 71
     3
 72
     8
 73
     4
 74
     0
 42
0.000000001
 43
0.0000000001
 40
0.0
 40
0.0
 40
0.0
 40
0.0
 40
1.0
 40
1.0
 40
1.0
 40
1.0
 10
3.772449919738542
 20
3.396556326090612
 30
0.0
 10
3.768970875031399
 20
3.396475900920312
 30
0.0
 10
3.765856508114989
 20
3.39887213874805
 30
0.0
 10
3.765949919769369
 20
3.40151889075168
 30
0.0
  0
SPLINE
  5
5E2
330
919
100
AcDbEntity
  8
ninja1 - Level 26
  6
Continuous
 62
     7
370
    13
100
AcDbSpline
210
0.0
220
0.0
230
1.0
 70
     8
 71
     3
 72
     8
 73
     4
 74
     0
 42
0.000000001
 43
0.0000000001
 40
0.0
 40
0.0
 40
0.0
 40
0.0
 40
1.0
 40
1.0
 40
1.0
 40
1.0
 10
4.122449919738541
 20
3.396556326090612
 30
0.0
 10
4.118970875031393
 20
3.396475900920315
 30
0.0
 10
4.115856508114989
 20
3.398872138748048
 30
0.0
 10
4.115949919769368
 20
3.40151889075168
 30
0.0
  0
SPLINE
  5
5E5
330
919
100
AcDbEntity
  8
ninja1 - Level 26
  6
Continuous
 62
     7
370
    13
100
AcDbSpline
210
0.0
220
0.0
230
1.0
 70
     8
 71
     3
 72
     8
 73
     4
 74
     0
 42
0.000000001
 43
0.0000000001
 40
0.0
 40
0.0
 40
0.0
 40
0.0
 40
1.0
 40
1.0
 40
1.0
 40
1.0
 10
4.472449919738542
 20
3.396556326090612
 30
0.0
 10
4.468970875031393
 20
3.396475900920312
 30
0.0
 10
4.465856508114989
 20
3.398872138748051
 30
0.0
 10
4.465949919769369
 20
3.40151889075168
 30
0.0
  0
SPLINE
  5
5E8
330
919
100
AcDbEntity
  8
ninja1 - Level 26
  6
Continuous
 62
     7
370
    13
100
AcDbSpline
210
0.0
220
0.0
230
1.0
 70
     8
 71
     3
 72
     9
 73
     5
 74
     0
 42
0.000000001
 43
0.0000000001
 40
0.0
 40
0.0
 40
0.0
 40
0.0
 40
0.8660265557560357
 40
1.0
 40
1.0
 40
1.0
 40
1.0
 10
4.361498835431619
 20
4.257101661558701
 30
0.0
 10
4.36156607144243
 20
4.256677244962435
 30
0.0
 10
4.358913999132483
 20
4.256207827340527
 30
0.0
 10
4.355447409141415
 20
4.256171193616375
 30
0.0
 10
4.354998835444715
 20
4.256167556386502
 30
0.0
  0
SPLINE
  5
5EB
330
919
100
AcDbEntity
  8
ninja1 - Level 26
  6
Continuous
 62
     7
370
    13
100
AcDbSpline
210
0.0
220
0.0
230
1.0
 70
     8
 71
     3
 72
    13
 73
     9
 74
     0
 42
0.000000001
 43
0.0000000001
 40
0.0
 40
0.0
 40
0.0
 40
0.0
 40
0.0906810746496772
 40
0.5738857461086404
 40
0.6812642943989669
 40
0.8960221552405675
 40
0.949711614567394
 40
1.0
 40
1.0
 40
1.0
 40
1.0
 10
4.348498835475536
 20
4.257101630173342
 30
0.0
 10
4.348519210749366
 20
4.257184530643876
 30
0.0
 10
4.348947161477673
 20
4.257767768666844
 30
0.0
 10
4.354077933824956
 20
4.258168988059556
 30
0.0
 10
4.359278498798408
 20
4.257843948320295
 30
0.0
 10
4.360912682818513
 20
4.25755471844037
 30
0.0
 10
4.361449760693059
 20
4.257250186929006
 30
0.0
 10
4.36148278697163
 20
4.257150358211597
 30
0.0
 10
4.361498835431619
 20
4.257101661558701
 30
0.0
  0
SPLINE
  5
5EE
330
919
100
AcDbEntity
  8
ninja1 - Level 26
  6
Continuous
 62
     7
370
    13
100
AcDbSpline
210
0.0
220
0.0
230
1.0
 70
     8
 71
     3
 72
     9
 73
     5
 74
     0
 42
0.000000001
 43
0.0000000001
 40
0.0
 40
0.0
 40
0.0
 40
0.0
 40
0.8660265557560485
 40
1.0
 40
1.0
 40
1.0
 40
1.0
 10
3.883398835457841
 20
4.257101661558702
 30
0.0
 10
3.883331599447035
 20
4.256677244962435
 30
0.0
 10
3.885983671756976
 20
4.256207827340527
 30
0.0
 10
3.889450261748043
 20
4.256171193616375
 30
0.0
 10
3.889898835444744
 20
4.256167556386502
 30
0.0
  0
SPLINE
  5
5F1
330
919
100
AcDbEntity
  8
ninja1 - Level 26
  6
Continuous
 62
     7
370
    13
100
AcDbSpline
210
0.0
220
0.0
230
1.0
 70
     8
 71
     3
 72
    13
 73
     9
 74
     0
 42
0.000000001
 43
0.0000000001
 40
0.0
 40
0.0
 40
0.0
 40
0.0
 40
0.0906810746497271
 40
0.5738857461086888
 40
0.6812642943990134
 40
0.8960221552406178
 40
0.9497116145674445
 40
1.0
 40
1.0
 40
1.0
 40
1.0
 10
3.896398835413923
 20
4.257101630173341
 30
0.0
 10
3.896378460140093
 20
4.257184530643876
 30
0.0
 10
3.895950509411786
 20
4.257767768666844
 30
0.0
 10
3.890819737064509
 20
4.258168988059556
 30
0.0
 10
3.885619172091051
 20
4.257843948320295
 30
0.0
 10
3.883984988070934
 20
4.25755471844037
 30
0.0
 10
3.883447910196407
 20
4.257250186929005
 30
0.0
 10
3.883414883917829
 20
4.257150358211599
 30
0.0
 10
3.883398835457841
 20
4.257101661558702
 30
0.0
  0
SPLINE
  5
5F4
330
919
100
AcDbEntity
  8
ninja1 - Level 26
  6
Continuous
 62
     7
370
    13
100
AcDbSpline
210
0.0
220
0.0
230
1.0
 70
     8
 71
     3
 72
     9
 73
     5
 74
     0
 42
0.000000001
 43
0.0000000001
 40
0.0
 40
0.0
 40
0.0
 40
0.0
 40
0.8660265557560281
 40
1.0
 40
1.0
 40
1.0
 40
1.0
 10
4.361498835431619
 20
4.181342609189386
 30
0.0
 10
4.36156607144243
 20
4.180502134022056
 30
0.0
 10
4.358913999132483
 20
4.179580806708397
 30
0.0
 10
4.355447409141415
 20
4.179509068862137
 30
0.0
 10
4.354998835444715
 20
4.179501915199639
 30
0.0
  0
SPLINE
  5
5F7
330
919
100
AcDbEntity
  8
ninja1 - Level 26
  6
Continuous
 62
     7
370
    13
100
AcDbSpline
210
0.0
220
0.0
230
1.0
 70
     8
 71
     3
 72
    13
 73
     9
 74
     0
 42
0.000000001
 43
0.0000000001
 40
0.0
 40
0.0
 40
0.0
 40
0.0
 40
0.0906810746497403
 40
0.5738857461086651
 40
0.6812642943990042
 40
0.8960221552405879
 40
0.9497116145673667
 40
1.0
 40
1.0
 40
1.0
 40
1.0
 10
4.348498835475536
 20
4.181342547058647
 30
0.0
 10
4.348519210749366
 20
4.18150649333325
 30
0.0
 10
4.348947161477679
 20
4.182663381868559
 30
0.0
 10
4.354077933824956
 20
4.183467187803839
 30
0.0
 10
4.359278498798408
 20
4.182817148506695
 30
0.0
 10
4.360912682818513
 20
4.18224110807064
 30
0.0
 10
4.361449760693059
 20
4.181636734070186
 30
0.0
 10
4.36148278697163
 20
4.181439052475814
 30
0.0
 10
4.361498835431619
 20
4.181342609189386
 30
0.0
  0
SPLINE
  5
5FA
330
919
100
AcDbEntity
  8
ninja1 - Level 26
  6
Continuous
 62
     7
370
    13
100
AcDbSpline
210
0.0
220
0.0
230
1.0
 70
     8
 71
     3
 72
     9
 73
     5
 74
     0
 42
0.000000001
 43
0.0000000001
 40
0.0
 40
0.0
 40
0.0
 40
0.0
 40
0.8660265557560276
 40
1.0
 40
1.0
 40
1.0
 40
1.0
 10
3.883398835457841
 20
4.181342609189386
 30
0.0
 10
3.883331599447035
 20
4.180502134022058
 30
0.0
 10
3.885983671756982
 20
4.179580806708397
 30
0.0
 10
3.889450261748043
 20
4.179509068862137
 30
0.0
 10
3.889898835444744
 20
4.179501915199639
 30
0.0
  0
SPLINE
  5
5FD
330
919
100
AcDbEntity
  8
ninja1 - Level 26
  6
Continuous
 62
     7
370
    13
100
AcDbSpline
210
0.0
220
0.0
230
1.0
 70
     8
 71
     3
 72
    13
 73
     9
 74
     0
 42
0.000000001
 43
0.0000000001
 40
0.0
 40
0.0
 40
0.0
 40
0.0
 40
0.0906810746497396
 40
0.5738857461086621
 40
0.6812642943989999
 40
0.8960221552405876
 40
0.9497116145673665
 40
1.0
 40
1.0
 40
1.0
 40
1.0
 10
3.896398835413923
 20
4.181342547058647
 30
0.0
 10
3.896378460140093
 20
4.18150649333325
 30
0.0
 10
3.895950509411786
 20
4.182663381868559
 30
0.0
 10
3.890819737064509
 20
4.183467187803839
 30
0.0
 10
3.885619172091051
 20
4.182817148506695
 30
0.0
 10
3.883984988070934
 20
4.18224110807064
 30
0.0
 10
3.883447910196407
 20
4.181636734070186
 30
0.0
 10
3.883414883917829
 20
4.181439052475814
 30
0.0
 10
3.883398835457841
 20
4.181342609189386
 30
0.0
  0
SPLINE
  5
600
330
919
100
AcDbEntity
  8
ninja1 - Level 26
  6
Continuous
 62
     7
370
    13
100
AcDbSpline
210
0.0
220
0.0
230
1.0
 70
     8
 71
     3
 72
     9
 73
     5
 74
     0
 42
0.000000001
 43
0.0000000001
 40
0.0
 40
0.0
 40
0.0
 40
0.0
 40
0.866026555756056
 40
1.0
 40
1.0
 40
1.0
 40
1.0
 10
4.361498835431619
 20
4.05679506385591
 30
0.0
 10
4.36156607144243
 20
4.055555667052616
 30
0.0
 10
4.358913999132483
 20
4.054201215523556
 30
0.0
 10
4.355447409141415
 20
4.054095836259692
 30
0.0
 10
4.354998835444715
 20
4.054085312024738
 30
0.0
  0
SPLINE
  5
603
330
919
100
AcDbEntity
  8
ninja1 - Level 26
  6
Continuous
 62
     7
370
    13
100
AcDbSpline
210
0.0
220
0.0
230
1.0
 70
     8
 71
     3
 72
    13
 73
     9
 74
     0
 42
0.000000001
 43
0.0000000001
 40
0.0
 40
0.0
 40
0.0
 40
0.0
 40
0.0906810746497609
 40
0.5738857461087267
 40
0.6812642943990968
 40
0.8960221552406249
 40
0.9497116145674601
 40
1.0
 40
1.0
 40
1.0
 40
1.0
 10
4.348498835475536
 20
4.056794972246609
 30
0.0
 10
4.348519210749366
 20
4.057036621529709
 30
0.0
 10
4.348947161477679
 20
4.058743572106795
 30
0.0
 10
4.354077933824956
 20
4.059933575319751
 30
0.0
 10
4.359278498798408
 20
4.058971790492549
 30
0.0
 10
4.360912682818513
 20
4.058120684722535
 30
0.0
 10
4.361449760693059
 20
4.057228791164616
 30
0.0
 10
4.36148278697163
 20
4.05693728733783
 30
0.0
 10
4.361498835431619
 20
4.05679506385591
 30
0.0
  0
SPLINE
  5
606
330
919
100
AcDbEntity
  8
ninja1 - Level 26
  6
Continuous
 62
     7
370
    13
100
AcDbSpline
210
0.0
220
0.0
230
1.0
 70
     8
 71
     3
 72
     9
 73
     5
 74
     0
 42
0.000000001
 43
0.0000000001
 40
0.0
 40
0.0
 40
0.0
 40
0.0
 40
0.8660265557560526
 40
1.0
 40
1.0
 40
1.0
 40
1.0
 10
3.883398835457841
 20
4.05679506385591
 30
0.0
 10
3.883331599447035
 20
4.055555667052615
 30
0.0
 10
3.885983671756976
 20
4.054201215523556
 30
0.0
 10
3.889450261748043
 20
4.054095836259692
 30
0.0
 10
3.889898835444744
 20
4.054085312024738
 30
0.0
  0
SPLINE
  5
609
330
919
100
AcDbEntity
  8
ninja1 - Level 26
  6
Continuous
 62
     7
370
    13
100
AcDbSpline
210
0.0
220
0.0
230
1.0
 70
     8
 71
     3
 72
    13
 73
     9
 74
     0
 42
0.000000001
 43
0.0000000001
 40
0.0
 40
0.0
 40
0.0
 40
0.0
 40
0.0906810746497563
 40
0.5738857461087018
 40
0.6812642943990683
 40
0.8960221552405757
 40
0.9497116145674089
 40
1.0
 40
1.0
 40
1.0
 40
1.0
 10
3.896398835413923
 20
4.056794972246609
 30
0.0
 10
3.896378460140093
 20
4.057036621529709
 30
0.0
 10
3.895950509411786
 20
4.058743572106795
 30
0.0
 10
3.890819737064509
 20
4.059933575319751
 30
0.0
 10
3.885619172091051
 20
4.058971790492549
 30
0.0
 10
3.883984988070934
 20
4.058120684722535
 30
0.0
 10
3.883447910196407
 20
4.057228791164615
 30
0.0
 10
3.883414883917829
 20
4.05693728733783
 30
0.0
 10
3.883398835457841
 20
4.05679506385591
 30
0.0
  0
SPLINE
  5
60C
330
919
100
AcDbEntity
  8
ninja1 - Level 26
  6
Continuous
 62
     7
370
    13
100
AcDbSpline
210
0.0
220
0.0
230
1.0
 70
     8
 71
     3
 72
     9
 73
     5
 74
     0
 42
0.000000001
 43
0.0000000001
 40
0.0
 40
0.0
 40
0.0
 40
0.0
 40
0.8660265557560336
 40
1.0
 40
1.0
 40
1.0
 40
1.0
 10
4.361498835431619
 20
3.885998497614122
 30
0.0
 10
4.36156607144243
 20
3.884385449954303
 30
0.0
 10
4.358913999132483
 20
3.882625490906749
 30
0.0
 10
4.355447409141415
 20
3.882488618864139
 30
0.0
 10
4.354998835444715
 20
3.882474938641453
 30
0.0
  0
SPLINE
  5
60F
330
919
100
AcDbEntity
  8
ninja1 - Level 26
  6
Continuous
 62
     7
370
    13
100
AcDbSpline
210
0.0
220
0.0
230
1.0
 70
     8
 71
     3
 72
    12
 73
     8
 74
     0
 42
0.000000001
 43
0.0000000001
 40
0.0
 40
0.0
 40
0.0
 40
0.0
 40
0.4665070521389934
 40
0.5738857461086387
 40
0.8960221552405139
 40
0.9497116145673583
 40
1.0
 40
1.0
 40
1.0
 40
1.0
 10
4.348498835475536
 20
3.885998378394136
 30
0.0
 10
4.34839096199222
 20
3.887772109960883
 30
0.0
 10
4.351772066717213
 20
3.889664836083207
 30
0.0
 10
4.358038627066244
 20
3.889423565280607
 30
0.0
 10
4.360756198087262
 20
3.88811746465579
 30
0.0
 10
4.361445586609575
 20
3.886561402069541
 30
0.0
 10
4.36148278697163
 20
3.886183601414569
 30
0.0
 10
4.361498835431619
 20
3.885998497614122
 30
0.0
  0
SPLINE
  5
612
330
919
100
AcDbEntity
  8
ninja1 - Level 26
  6
Continuous
 62
     7
370
    13
100
AcDbSpline
210
0.0
220
0.0
230
1.0
 70
     8
 71
     3
 72
     9
 73
     5
 74
     0
 42
0.000000001
 43
0.0000000001
 40
0.0
 40
0.0
 40
0.0
 40
0.0
 40
0.8660265557560387
 40
1.0
 40
1.0
 40
1.0
 40
1.0
 10
3.883398835457841
 20
3.885998497614122
 30
0.0
 10
3.883331599447035
 20
3.884385449954303
 30
0.0
 10
3.885983671756976
 20
3.882625490906756
 30
0.0
 10
3.889450261748043
 20
3.882488618864139
 30
0.0
 10
3.889898835444744
 20
3.882474938641453
 30
0.0
  0
SPLINE
  5
615
330
919
100
AcDbEntity
  8
ninja1 - Level 26
  6
Continuous
 62
     7
370
    13
100
AcDbSpline
210
0.0
220
0.0
230
1.0
 70
     8
 71
     3
 72
    12
 73
     8
 74
     0
 42
0.000000001
 43
0.0000000001
 40
0.0
 40
0.0
 40
0.0
 40
0.0
 40
0.4665070521389887
 40
0.5738857461086284
 40
0.8960221552405025
 40
0.9497116145673466
 40
1.0
 40
1.0
 40
1.0
 40
1.0
 10
3.896398835413923
 20
3.885998378394136
 30
0.0
 10
3.89650670889724
 20
3.887772109960883
 30
0.0
 10
3.893125604172263
 20
3.889664836083202
 30
0.0
 10
3.886859043823214
 20
3.889423565280608
 30
0.0
 10
3.884141472802197
 20
3.88811746465579
 30
0.0
 10
3.883452084279889
 20
3.886561402069542
 30
0.0
 10
3.883414883917829
 20
3.886183601414568
 30
0.0
 10
3.883398835457841
 20
3.885998497614122
 30
0.0
  0
SPLINE
  5
618
330
919
100
AcDbEntity
  8
ninja1 - Level 26
  6
Continuous
 62
     7
370
    13
100
AcDbSpline
210
0.0
220
0.0
230
1.0
 70
     8
 71
     3
 72
     9
 73
     5
 74
     0
 42
0.000000001
 43
0.0000000001
 40
0.0
 40
0.0
 40
0.0
 40
0.0
 40
0.8660265557560059
 40
1.0
 40
1.0
 40
1.0
 40
1.0
 10
3.883398835457841
 20
3.672435380600595
 30
0.0
 10
3.883331599447035
 20
3.670481571447475
 30
0.0
 10
3.885983671756982
 20
3.668351989706042
 30
0.0
 10
3.889450261748043
 20
3.668186415648055
 30
0.0
 10
3.889898835444744
 20
3.668169858371622
 30
0.0
  0
SPLINE
  5
61B
330
919
100
AcDbEntity
  8
ninja1 - Level 26
  6
Continuous
 62
     7
370
    13
100
AcDbSpline
210
0.0
220
0.0
230
1.0
 70
     8
 71
     3
 72
    12
 73
     8
 74
     0
 42
0.000000001
 43
0.0000000001
 40
0.0
 40
0.0
 40
0.0
 40
0.0
 40
0.4665070521390095
 40
0.5738857461086538
 40
0.8960221552405426
 40
0.9497116145672638
 40
1.0
 40
1.0
 40
1.0
 40
1.0
 10
3.896398835413923
 20
3.672435236200769
 30
0.0
 10
3.89650670889724
 20
3.674583536661949
 30
0.0
 10
3.893125604172263
 20
3.676878507023968
 30
0.0
 10
3.886859043823214
 20
3.676585954690421
 30
0.0
 10
3.884141472802203
 20
3.675002408476528
 30
0.0
 10
3.883452084279889
 20
3.673117205053908
 30
0.0
 10
3.883414883917829
 20
3.672659590530943
 30
0.0
 10
3.883398835457841
 20
3.672435380600595
 30
0.0
  0
SPLINE
  5
61E
330
919
100
AcDbEntity
  8
ninja1 - Level 26
  6
Continuous
 62
     7
370
    13
100
AcDbSpline
210
0.0
220
0.0
230
1.0
 70
     8
 71
     3
 72
     9
 73
     5
 74
     0
 42
0.000000001
 43
0.0000000001
 40
0.0
 40
0.0
 40
0.0
 40
0.0
 40
0.8660265557560078
 40
1.0
 40
1.0
 40
1.0
 40
1.0
 10
4.361498835431619
 20
3.672435380600595
 30
0.0
 10
4.361566071442424
 20
3.670481571447475
 30
0.0
 10
4.358913999132483
 20
3.668351989706035
 30
0.0
 10
4.355447409141415
 20
3.668186415648055
 30
0.0
 10
4.354998835444715
 20
3.668169858371622
 30
0.0
  0
SPLINE
  5
621
330
919
100
AcDbEntity
  8
ninja1 - Level 26
  6
Continuous
 62
     7
370
    13
100
AcDbSpline
210
0.0
220
0.0
230
1.0
 70
     8
 71
     3
 72
    12
 73
     8
 74
     0
 42
0.000000001
 43
0.0000000001
 40
0.0
 40
0.0
 40
0.0
 40
0.0
 40
0.4665070521390048
 40
0.5738857461086497
 40
0.8960221552405418
 40
0.9497116145672634
 40
1.0
 40
1.0
 40
1.0
 40
1.0
 10
4.348498835475536
 20
3.672435236200769
 30
0.0
 10
4.34839096199222
 20
3.674583536661949
 30
0.0
 10
4.351772066717196
 20
3.676878507023968
 30
0.0
 10
4.358038627066244
 20
3.676585954690423
 30
0.0
 10
4.360756198087256
 20
3.675002408476522
 30
0.0
 10
4.361445586609575
 20
3.673117205053908
 30
0.0
 10
4.36148278697163
 20
3.672659590530943
 30
0.0
 10
4.361498835431619
 20
3.672435380600595
 30
0.0
  0
SPLINE
  5
624
330
919
100
AcDbEntity
  8
ninja1 - Level 26
  6
Continuous
 62
     7
370
    13
100
AcDbSpline
210
0.0
220
0.0
230
1.0
 70
     8
 71
     3
 72
     9
 73
     5
 74
     0
 42
0.000000001
 43
0.0000000001
 40
0.0
 40
0.0
 40
0.0
 40
0.0
 40
0.8660265559313115
 40
1.0
 40
1.0
 40
1.0
 40
1.0
 10
3.778949919725445
 20
3.401519058820889
 30
0.0
 10
3.779017155735878
 20
3.399244924011016
 30
0.0
 10
3.776365083426898
 20
3.396768118561585
 30
0.0
 10
3.772898493434771
 20
3.396575586498397
 30
0.0
 10
3.772449919738542
 20
3.396556326090612
 30
0.0
  0
SPLINE
  5
627
330
919
100
AcDbEntity
  8
ninja1 - Level 26
  6
Continuous
 62
     7
370
    13
100
AcDbSpline
210
0.0
220
0.0
230
1.0
 70
     8
 71
     3
 72
    12
 73
     8
 74
     0
 42
0.000000001
 43
0.0000000001
 40
0.0
 40
0.0
 40
0.0
 40
0.0
 40
0.4665070519437458
 40
0.5738857460261985
 40
0.8960221553464432
 40
0.9497116146226339
 40
1.0
 40
1.0
 40
1.0
 40
1.0
 10
3.765949919769369
 20
3.40151889075168
 30
0.0
 10
3.765842046285691
 20
3.404019282101735
 30
0.0
 10
3.769223151010103
 20
3.406692630079309
 30
0.0
 10
3.775489711357842
 20
3.406351838258928
 30
0.0
 10
3.77820728238199
 20
3.404507321950096
 30
0.0
 10
3.778896670903483
 20
3.40231267200363
 30
0.0
 10
3.778933871265497
 20
3.401780029895615
 30
0.0
 10
3.778949919725445
 20
3.401519058820889
 30
0.0
  0
SPLINE
  5
62A
330
919
100
AcDbEntity
  8
ninja1 - Level 26
  6
Continuous
 62
     7
370
    13
100
AcDbSpline
210
0.0
220
0.0
230
1.0
 70
     8
 71
     3
 72
     9
 73
     5
 74
     0
 42
0.000000001
 43
0.0000000001
 40
0.0
 40
0.0
 40
0.0
 40
0.0
 40
0.8196483681866219
 40
1.0
 40
1.0
 40
1.0
 40
1.0
 10
3.778426603874998
 20
3.403450136371455
 30
0.0
 10
3.77763106060469
 20
3.401993967769838
 30
0.0
 10
3.775443073630341
 20
3.400608158456262
 30
0.0
 10
3.772905258963964
 20
3.400454023376568
 30
0.0
 10
3.772449919738437
 20
3.400436835036813
 30
0.0
  0
SPLINE
  5
62D
330
919
100
AcDbEntity
  8
ninja1 - Level 26
  6
Continuous
 62
     7
370
    13
100
AcDbSpline
210
0.0
220
0.0
230
1.0
 70
     8
 71
     3
 72
     9
 73
     5
 74
     0
 42
0.000000001
 43
0.0000000001
 40
0.0
 40
0.0
 40
0.0
 40
0.0
 40
0.8660265559313236
 40
1.0
 40
1.0
 40
1.0
 40
1.0
 10
4.128949919725445
 20
3.401519058820889
 30
0.0
 10
4.129017155735878
 20
3.399244924011015
 30
0.0
 10
4.126365083426898
 20
3.396768118561583
 30
0.0
 10
4.122898493434771
 20
3.396575586498397
 30
0.0
 10
4.122449919738541
 20
3.396556326090612
 30
0.0
  0
SPLINE
  5
630
330
919
100
AcDbEntity
  8
ninja1 - Level 26
  6
Continuous
 62
     7
370
    13
100
AcDbSpline
210
0.0
220
0.0
230
1.0
 70
     8
 71
     3
 72
    12
 73
     8
 74
     0
 42
0.000000001
 43
0.0000000001
 40
0.0
 40
0.0
 40
0.0
 40
0.0
 40
0.4665070519437573
 40
0.5738857460262099
 40
0.8960221553464508
 40
0.9497116146226417
 40
1.0
 40
1.0
 40
1.0
 40
1.0
 10
4.115949919769368
 20
3.40151889075168
 30
0.0
 10
4.115842046285691
 20
3.404019282101736
 30
0.0
 10
4.119223151010102
 20
3.406692630079304
 30
0.0
 10
4.125489711357842
 20
3.406351838258929
 30
0.0
 10
4.128207282381991
 20
3.404507321950092
 30
0.0
 10
4.128896670903484
 20
3.40231267200363
 30
0.0
 10
4.128933871265497
 20
3.401780029895616
 30
0.0
 10
4.128949919725445
 20
3.401519058820889
 30
0.0
  0
SPLINE
  5
633
330
919
100
AcDbEntity
  8
ninja1 - Level 26
  6
Continuous
 62
     7
370
    13
100
AcDbSpline
210
0.0
220
0.0
230
1.0
 70
     8
 71
     3
 72
     9
 73
     5
 74
     0
 42
0.000000001
 43
0.0000000001
 40
0.0
 40
0.0
 40
0.0
 40
0.0
 40
0.8196483681866403
 40
1.0
 40
1.0
 40
1.0
 40
1.0
 10
4.128426603874998
 20
3.403450136371455
 30
0.0
 10
4.12763106060469
 20
3.401993967769838
 30
0.0
 10
4.125443073630341
 20
3.40060815845626
 30
0.0
 10
4.122905258963964
 20
3.400454023376568
 30
0.0
 10
4.122449919738436
 20
3.400436835036813
 30
0.0
  0
SPLINE
  5
636
330
919
100
AcDbEntity
  8
ninja1 - Level 26
  6
Continuous
 62
     7
370
    13
100
AcDbSpline
210
0.0
220
0.0
230
1.0
 70
     8
 71
     3
 72
     9
 73
     5
 74
     0
 42
0.000000001
 43
0.0000000001
 40
0.0
 40
0.0
 40
0.0
 40
0.0
 40
0.8660265559313147
 40
1.0
 40
1.0
 40
1.0
 40
1.0
 10
4.478949919725445
 20
3.401519058820889
 30
0.0
 10
4.479017155735879
 20
3.399244924011015
 30
0.0
 10
4.476365083426897
 20
3.396768118561591
 30
0.0
 10
4.472898493434771
 20
3.396575586498397
 30
0.0
 10
4.472449919738542
 20
3.396556326090612
 30
0.0
  0
SPLINE
  5
639
330
919
100
AcDbEntity
  8
ninja1 - Level 26
  6
Continuous
 62
     7
370
    13
100
AcDbSpline
210
0.0
220
0.0
230
1.0
 70
     8
 71
     3
 72
    12
 73
     8
 74
     0
 42
0.000000001
 43
0.0000000001
 40
0.0
 40
0.0
 40
0.0
 40
0.0
 40
0.4665070519437562
 40
0.5738857460262072
 40
0.8960221553464508
 40
0.9497116146226423
 40
1.0
 40
1.0
 40
1.0
 40
1.0
 10
4.465949919769369
 20
3.40151889075168
 30
0.0
 10
4.465842046285691
 20
3.404019282101732
 30
0.0
 10
4.469223151010103
 20
3.406692630079309
 30
0.0
 10
4.475489711357842
 20
3.406351838258927
 30
0.0
 10
4.47820728238199
 20
3.404507321950092
 30
0.0
 10
4.478896670903483
 20
3.40231267200363
 30
0.0
 10
4.478933871265498
 20
3.401780029895616
 30
0.0
 10
4.478949919725445
 20
3.401519058820889
 30
0.0
  0
SPLINE
  5
63C
330
919
100
AcDbEntity
  8
ninja1 - Level 26
  6
Continuous
 62
     7
370
    13
100
AcDbSpline
210
0.0
220
0.0
230
1.0
 70
     8
 71
     3
 72
     9
 73
     5
 74
     0
 42
0.000000001
 43
0.0000000001
 40
0.0
 40
0.0
 40
0.0
 40
0.0
 40
0.8196483681865851
 40
1.0
 40
1.0
 40
1.0
 40
1.0
 10
4.478426603874997
 20
3.403450136371454
 30
0.0
 10
4.477631060604689
 20
3.401993967769835
 30
0.0
 10
4.475443073630342
 20
3.400608158456266
 30
0.0
 10
4.472905258963964
 20
3.400454023376568
 30
0.0
 10
4.472449919738437
 20
3.400436835036813
 30
0.0
  0
LWPOLYLINE
  5
63F
330
919
100
AcDbEntity
  8
Level 14
  6
DGN Style 2
 62
     7
370
    13
100
AcDbPolyline
 90
       13
 70
   128
 43
0.0
 10
6.891449
 20
4.226528
 10
6.891449
 20
5.296528
 42
0.414214
 10
4.657449
 20
7.530528
 10
3.587449
 20
7.530528
 42
0.414214
 10
1.353449
 20
5.296528
 10
1.353449
 20
4.226528
 42
0.028647
 10
1.368092
 20
3.971169
 10
1.468092
 20
3.102054
 42
0.381045
 10
3.687449
 20
1.123413
 10
4.557449
 20
1.123413
 42
0.381045
 10
6.776807
 20
3.102054
 10
6.876807
 20
3.971169
 42
0.028647
 10
6.891449
 20
4.226528
  0
SPLINE
  5
64C
330
919
100
AcDbEntity
  8
ninja1 - Level 26
  6
Continuous
 62
     7
370
    13
100
AcDbSpline
210
0.0
220
0.0
230
1.0
 70
     8
 71
     3
 72
     8
 73
     4
 74
     0
 42
0.000000001
 43
0.0000000001
 40
0.0
 40
0.0
 40
0.0
 40
0.0
 40
0.0211223400632746
 40
0.0211223400632746
 40
0.0211223400632746
 40
0.0211223400632746
 10
3.729448835444733
 20
5.266527525755641
 30
0.0
 10
3.729450372436401
 20
5.266528371673073
 30
0.0
 10
3.729450363265498
 20
5.266527368978782
 30
0.0
 10
3.729448835444726
 20
5.266524539443548
 30
0.0
  0
SPLINE
  5
64F
330
919
100
AcDbEntity
  8
ninja1 - Level 26
  6
Continuous
 62
     7
370
    13
100
AcDbSpline
210
0.0
220
0.0
230
1.0
 70
     8
 71
     3
 72
     8
 73
     4
 74
     0
 42
0.000000001
 43
0.0000000001
 40
0.0
 40
0.0
 40
0.0
 40
0.0
 40
0.0211223400631291
 40
0.0211223400631291
 40
0.0211223400631291
 40
0.0211223400631291
 10
4.515448835444733
 20
5.266527525755648
 30
0.0
 10
4.515447298453058
 20
5.266528371673082
 30
0.0
 10
4.51544730762396
 20
5.26652736897879
 30
0.0
 10
4.515448835444733
 20
5.266524539443557
 30
0.0
  0
LINE
  5
658
330
919
100
AcDbEntity
  8
ninja1 - Level 26
  6
Continuous
 62
     7
370
    13
100
AcDbLine
 10
4.557449
 20
4.296528
 30
0.0
 11
4.557449
 21
4.291528
 31
0.0
  0
LINE
  5
65F
330
919
100
AcDbEntity
  8
ninja1 - Level 25
  6
Continuous
 62
     7
370
    13
100
AcDbLine
 10
3.649949
 20
4.411538
 30
0.0
 11
3.649949
 21
4.394038
 31
0.0
  0
LINE
  5
660
330
919
100
AcDbEntity
  8
ninja1 - Level 25
  6
Continuous
 62
     7
370
    13
100
AcDbLine
 10
3.649949
 20
4.449038
 30
0.0
 11
3.649949
 21
4.431538
 31
0.0
  0
ARC
  5
661
330
919
100
AcDbEntity
  8
ninja1 - Level 25
  6
Continuous
 62
     7
370
    13
100
AcDbCircle
 10
-3.637449
 20
4.449038
 30
0.0
 40
0.0125
210
0.0
220
0.0
230
-1.0
100
AcDbArc
 50
2.291984
 51
180.0
  0
ARC
  5
662
330
919
100
AcDbEntity
  8
ninja1 - Level 25
  6
Continuous
 62
     7
370
    13
100
AcDbCircle
 10
-3.624949
 20
4.449038
 30
0.0
 40
0.0005
210
0.0
220
0.0
230
-1.0
100
AcDbArc
 50
270.0
 51
91.145992
  0
LINE
  5
663
330
919
100
AcDbEntity
  8
ninja1 - Level 25
  6
Continuous
 62
     7
370
    13
100
AcDbLine
 10
3.624949
 20
4.440371
 30
0.0
 11
3.624949
 21
4.448538
 31
0.0
  0
ARC
  5
664
330
919
100
AcDbEntity
  8
ninja1 - Level 25
  6
Continuous
 62
     7
370
    13
100
AcDbCircle
 10
-3.624949
 20
4.439871
 30
0.0
 40
0.0004999999999985
210
0.0
220
0.0
230
-1.0
100
AcDbArc
 50
270.0
 51
90.0
  0
LINE
  5
665
330
919
100
AcDbEntity
  8
ninja1 - Level 25
  6
Continuous
 62
     7
370
    13
100
AcDbLine
 10
3.624949
 20
4.431204
 30
0.0
 11
3.624949
 21
4.439371
 31
0.0
  0
ARC
  5
666
330
919
100
AcDbEntity
  8
ninja1 - Level 25
  6
Continuous
 62
     7
370
    13
100
AcDbCircle
 10
-3.624949
 20
4.430704
 30
0.0
 40
0.0004999999999985
210
0.0
220
0.0
230
-1.0
100
AcDbArc
 50
270.0
 51
90.0
  0
LINE
  5
667
330
919
100
AcDbEntity
  8
ninja1 - Level 25
  6
Continuous
 62
     7
370
    13
100
AcDbLine
 10
3.624949
 20
4.422038
 30
0.0
 11
3.624949
 21
4.430204
 31
0.0
  0
ARC
  5
668
330
919
100
AcDbEntity
  8
ninja1 - Level 25
  6
Continuous
 62
     7
370
    13
100
AcDbCircle
 10
-3.624949
 20
4.421538
 30
0.0
 40
0.0004999999999985
210
0.0
220
0.0
230
-1.0
100
AcDbArc
 50
270.0
 51
90.0
  0
LINE
  5
669
330
919
100
AcDbEntity
  8
ninja1 - Level 25
  6
Continuous
 62
     7
370
    13
100
AcDbLine
 10
3.624949
 20
4.412871
 30
0.0
 11
3.624949
 21
4.421038
 31
0.0
  0
ARC
  5
66A
330
919
100
AcDbEntity
  8
ninja1 - Level 25
  6
Continuous
 62
     7
370
    13
100
AcDbCircle
 10
-3.624949
 20
4.412371
 30
0.0
 40
0.0004999999999985
210
0.0
220
0.0
230
-1.0
100
AcDbArc
 50
270.0
 51
90.0
  0
LINE
  5
66B
330
919
100
AcDbEntity
  8
ninja1 - Level 25
  6
Continuous
 62
     7
370
    13
100
AcDbLine
 10
3.624949
 20
4.403704
 30
0.0
 11
3.624949
 21
4.411871
 31
0.0
  0
ARC
  5
66C
330
919
100
AcDbEntity
  8
ninja1 - Level 25
  6
Continuous
 62
     7
370
    13
100
AcDbCircle
 10
-3.624949
 20
4.403204
 30
0.0
 40
0.0004999999999985
210
0.0
220
0.0
230
-1.0
100
AcDbArc
 50
270.0
 51
90.0
  0
LINE
  5
66D
330
919
100
AcDbEntity
  8
ninja1 - Level 25
  6
Continuous
 62
     7
370
    13
100
AcDbLine
 10
3.624949
 20
4.394538
 30
0.0
 11
3.624949
 21
4.402704
 31
0.0
  0
ARC
  5
66E
330
919
100
AcDbEntity
  8
ninja1 - Level 25
  6
Continuous
 62
     7
370
    13
100
AcDbCircle
 10
-3.624949
 20
4.394038
 30
0.0
 40
0.0005
210
0.0
220
0.0
230
-1.0
100
AcDbArc
 50
268.865461
 51
90.0
  0
LINE
  5
66F
330
919
100
AcDbEntity
  8
ninja1 - Level 25
  6
Continuous
 62
     7
370
    13
100
AcDbLine
 10
4.594949
 20
4.411538
 30
0.0
 11
4.594949
 21
4.394038
 31
0.0
  0
LINE
  5
670
330
919
100
AcDbEntity
  8
ninja1 - Level 25
  6
Continuous
 62
     7
370
    13
100
AcDbLine
 10
4.594949
 20
4.449038
 30
0.0
 11
4.594949
 21
4.431538
 31
0.0
  0
ARC
  5
671
330
919
100
AcDbEntity
  8
ninja1 - Level 25
  6
Continuous
 62
     7
370
    13
100
AcDbCircle
 10
4.607449
 20
4.449038
 30
0.0
 40
0.0125
100
AcDbArc
 50
2.291984
 51
180.0
  0
ARC
  5
672
330
919
100
AcDbEntity
  8
ninja1 - Level 25
  6
Continuous
 62
     7
370
    13
100
AcDbCircle
 10
4.619949
 20
4.449038
 30
0.0
 40
0.0005
100
AcDbArc
 50
270.0
 51
91.145992
  0
LINE
  5
673
330
919
100
AcDbEntity
  8
ninja1 - Level 25
  6
Continuous
 62
     7
370
    13
100
AcDbLine
 10
4.619949
 20
4.440371
 30
0.0
 11
4.619949
 21
4.448538
 31
0.0
  0
ARC
  5
674
330
919
100
AcDbEntity
  8
ninja1 - Level 25
  6
Continuous
 62
     7
370
    13
100
AcDbCircle
 10
4.619949
 20
4.439871
 30
0.0
 40
0.0004999999999985
100
AcDbArc
 50
270.0
 51
90.0
  0
LINE
  5
675
330
919
100
AcDbEntity
  8
ninja1 - Level 25
  6
Continuous
 62
     7
370
    13
100
AcDbLine
 10
4.619949
 20
4.431204
 30
0.0
 11
4.619949
 21
4.439371
 31
0.0
  0
ARC
  5
676
330
919
100
AcDbEntity
  8
ninja1 - Level 25
  6
Continuous
 62
     7
370
    13
100
AcDbCircle
 10
4.619949
 20
4.430704
 30
0.0
 40
0.0004999999999985
100
AcDbArc
 50
270.0
 51
90.0
  0
LINE
  5
677
330
919
100
AcDbEntity
  8
ninja1 - Level 25
  6
Continuous
 62
     7
370
    13
100
AcDbLine
 10
4.619949
 20
4.422038
 30
0.0
 11
4.619949
 21
4.430204
 31
0.0
  0
ARC
  5
678
330
919
100
AcDbEntity
  8
ninja1 - Level 25
  6
Continuous
 62
     7
370
    13
100
AcDbCircle
 10
4.619949
 20
4.421538
 30
0.0
 40
0.0004999999999985
100
AcDbArc
 50
270.0
 51
90.0
  0
LINE
  5
679
330
919
100
AcDbEntity
  8
ninja1 - Level 25
  6
Continuous
 62
     7
370
    13
100
AcDbLine
 10
4.619949
 20
4.412871
 30
0.0
 11
4.619949
 21
4.421038
 31
0.0
  0
ARC
  5
67A
330
919
100
AcDbEntity
  8
ninja1 - Level 25
  6
Continuous
 62
     7
370
    13
100
AcDbCircle
 10
4.619949
 20
4.412371
 30
0.0
 40
0.0004999999999985
100
AcDbArc
 50
270.0
 51
90.0
  0
LINE
  5
67B
330
919
100
AcDbEntity
  8
ninja1 - Level 25
  6
Continuous
 62
     7
370
    13
100
AcDbLine
 10
4.619949
 20
4.403704
 30
0.0
 11
4.619949
 21
4.411871
 31
0.0
  0
ARC
  5
67C
330
919
100
AcDbEntity
  8
ninja1 - Level 25
  6
Continuous
 62
     7
370
    13
100
AcDbCircle
 10
4.619949
 20
4.403204
 30
0.0
 40
0.0004999999999985
100
AcDbArc
 50
270.0
 51
90.0
  0
LINE
  5
67D
330
919
100
AcDbEntity
  8
ninja1 - Level 25
  6
Continuous
 62
     7
370
    13
100
AcDbLine
 10
4.619949
 20
4.394538
 30
0.0
 11
4.619949
 21
4.402704
 31
0.0
  0
ARC
  5
67E
330
919
100
AcDbEntity
  8
ninja1 - Level 25
  6
Continuous
 62
     7
370
    13
100
AcDbCircle
 10
4.619949
 20
4.394038
 30
0.0
 40
0.0005
100
AcDbArc
 50
268.865461
 51
90.0
  0
LINE
  5
67F
330
919
100
AcDbEntity
  8
ninja1 - Level 26
  6
Continuous
 62
     7
370
    13
100
AcDbLine
 10
3.657449
 20
4.326528
 30
0.0
 11
3.657449
 21
4.328152
 31
0.0
  0
LINE
  5
680
330
919
100
AcDbEntity
  8
ninja1 - Level 26
  6
Continuous
 62
     7
370
    13
100
AcDbLine
 10
3.657449
 20
4.333152
 30
0.0
 11
3.657449
 21
4.411079
 31
0.0
  0
LINE
  5
681
330
919
100
AcDbEntity
  8
ninja1 - Level 26
  6
Continuous
 62
     7
370
    13
100
AcDbLine
 10
3.657449
 20
4.431991
 30
0.0
 11
3.657449
 21
4.547077
 31
0.0
  0
LINE
  5
682
330
919
100
AcDbEntity
  8
ninja1 - Level 26
  6
Continuous
 62
     7
370
    13
100
AcDbLine
 10
3.657449
 20
4.567988
 30
0.0
 11
3.657449
 21
4.683072
 31
0.0
  0
LINE
  5
683
330
919
100
AcDbEntity
  8
ninja1 - Level 26
  6
Continuous
 62
     7
370
    13
100
AcDbLine
 10
3.657449
 20
4.703983
 30
0.0
 11
3.657449
 21
4.819072
 31
0.0
  0
LINE
  5
684
330
919
100
AcDbEntity
  8
ninja1 - Level 26
  6
Continuous
 62
     7
370
    13
100
AcDbLine
 10
3.657449
 20
4.839983
 30
0.0
 11
3.657449
 21
4.955067
 31
0.0
  0
LINE
  5
685
330
919
100
AcDbEntity
  8
ninja1 - Level 26
  6
Continuous
 62
     7
370
    13
100
AcDbLine
 10
3.657449
 20
4.975978
 30
0.0
 11
3.657449
 21
5.091064
 31
0.0
  0
LINE
  5
686
330
919
100
AcDbEntity
  8
ninja1 - Level 26
  6
Continuous
 62
     7
370
    13
100
AcDbLine
 10
3.657449
 20
5.111976
 30
0.0
 11
3.657449
 21
5.189903
 31
0.0
  0
LINE
  5
687
330
919
100
AcDbEntity
  8
ninja1 - Level 26
  6
Continuous
 62
     7
370
    13
100
AcDbLine
 10
3.657449
 20
5.194903
 30
0.0
 11
3.657449
 21
5.196528
 31
0.0
  0
LINE
  5
688
330
919
100
AcDbEntity
  8
ninja1 - Level 26
  6
Continuous
 62
     7
370
    13
100
AcDbLine
 10
3.657449
 20
4.326528
 30
0.0
 11
3.652449
 21
4.326528
 31
0.0
  0
LINE
  5
689
330
919
100
AcDbEntity
  8
ninja1 - Level 26
  6
Continuous
 62
     7
370
    13
100
AcDbLine
 10
3.652449
 20
4.326528
 30
0.0
 11
3.652449
 21
4.328822
 31
0.0
  0
LINE
  5
68A
330
919
100
AcDbEntity
  8
ninja1 - Level 26
  6
Continuous
 62
     7
370
    13
100
AcDbLine
 10
3.652449
 20
5.194233
 30
0.0
 11
3.652449
 21
5.196528
 31
0.0
  0
LINE
  5
68B
330
919
100
AcDbEntity
  8
ninja1 - Level 26
  6
Continuous
 62
     7
370
    13
100
AcDbLine
 10
4.587449
 20
5.196528
 30
0.0
 11
4.587449
 21
5.194903
 31
0.0
  0
LINE
  5
68C
330
919
100
AcDbEntity
  8
ninja1 - Level 26
  6
Continuous
 62
     7
370
    13
100
AcDbLine
 10
4.587449
 20
5.189903
 30
0.0
 11
4.587449
 21
5.111976
 31
0.0
  0
LINE
  5
68D
330
919
100
AcDbEntity
  8
ninja1 - Level 26
  6
Continuous
 62
     7
370
    13
100
AcDbLine
 10
4.587449
 20
5.091064
 30
0.0
 11
4.587449
 21
4.975978
 31
0.0
  0
LINE
  5
68E
330
919
100
AcDbEntity
  8
ninja1 - Level 26
  6
Continuous
 62
     7
370
    13
100
AcDbLine
 10
4.587449
 20
4.955067
 30
0.0
 11
4.587449
 21
4.839983
 31
0.0
  0
LINE
  5
68F
330
919
100
AcDbEntity
  8
ninja1 - Level 26
  6
Continuous
 62
     7
370
    13
100
AcDbLine
 10
4.587449
 20
4.819072
 30
0.0
 11
4.587449
 21
4.703983
 31
0.0
  0
LINE
  5
690
330
919
100
AcDbEntity
  8
ninja1 - Level 26
  6
Continuous
 62
     7
370
    13
100
AcDbLine
 10
4.587449
 20
4.683072
 30
0.0
 11
4.587449
 21
4.567988
 31
0.0
  0
LINE
  5
691
330
919
100
AcDbEntity
  8
ninja1 - Level 26
  6
Continuous
 62
     7
370
    13
100
AcDbLine
 10
4.587449
 20
4.547077
 30
0.0
 11
4.587449
 21
4.431991
 31
0.0
  0
LINE
  5
692
330
919
100
AcDbEntity
  8
ninja1 - Level 26
  6
Continuous
 62
     7
370
    13
100
AcDbLine
 10
4.587449
 20
4.411079
 30
0.0
 11
4.587449
 21
4.333152
 31
0.0
  0
LINE
  5
693
330
919
100
AcDbEntity
  8
ninja1 - Level 26
  6
Continuous
 62
     7
370
    13
100
AcDbLine
 10
4.587449
 20
4.328152
 30
0.0
 11
4.587449
 21
4.326528
 31
0.0
  0
LINE
  5
694
330
919
100
AcDbEntity
  8
ninja1 - Level 26
  6
Continuous
 62
     7
370
    13
100
AcDbLine
 10
4.592449
 20
5.196528
 30
0.0
 11
4.592449
 21
5.194233
 31
0.0
  0
LINE
  5
695
330
919
100
AcDbEntity
  8
ninja1 - Level 26
  6
Continuous
 62
     7
370
    13
100
AcDbLine
 10
4.592449
 20
4.328822
 30
0.0
 11
4.592449
 21
4.326528
 31
0.0
  0
LINE
  5
696
330
919
100
AcDbEntity
  8
ninja1 - Level 26
  6
Continuous
 62
     7
370
    13
100
AcDbLine
 10
4.587449
 20
4.326528
 30
0.0
 11
4.592449
 21
4.326528
 31
0.0
  0
LINE
  5
697
330
919
100
AcDbEntity
  8
ninja1 - Level 26
  6
Continuous
 62
     7
370
    13
100
AcDbLine
 10
4.557449
 20
4.312005
 30
0.0
 11
3.687449
 21
4.312005
 31
0.0
  0
LINE
  5
698
330
919
100
AcDbEntity
  8
ninja1 - Level 26
  6
Continuous
 62
     7
370
    13
100
AcDbLine
 10
4.557449
 20
4.326528
 30
0.0
 11
4.557449
 21
4.316528
 31
0.0
  0
LINE
  5
699
330
919
100
AcDbEntity
  8
ninja1 - Level 26
  6
Continuous
 62
     7
370
    13
100
AcDbLine
 10
3.687449
 20
4.316528
 30
0.0
 11
3.687449
 21
4.326528
 31
0.0
  0
LINE
  5
69A
330
919
100
AcDbEntity
  8
ninja1 - Level 26
  6
Continuous
 62
     7
370
    13
100
AcDbLine
 10
3.687449
 20
4.326528
 30
0.0
 11
4.557449
 21
4.326528
 31
0.0
  0
ARC
  5
69B
330
919
100
AcDbEntity
  8
ninja1 - Level 25
  6
Continuous
 62
     7
370
    13
100
AcDbCircle
 10
-3.637449
 20
4.530033
 30
0.0
 40
0.0125
210
0.0
220
0.0
230
-1.0
100
AcDbArc
 50
180.0
 51
357.708037
  0
LINE
  5
69C
330
919
100
AcDbEntity
  8
ninja1 - Level 25
  6
Continuous
 62
     7
370
    13
100
AcDbLine
 10
3.649949
 20
4.547533
 30
0.0
 11
3.649949
 21
4.530033
 31
0.0
  0
LINE
  5
69D
330
919
100
AcDbEntity
  8
ninja1 - Level 25
  6
Continuous
 62
     7
370
    13
100
AcDbLine
 10
3.649949
 20
4.585033
 30
0.0
 11
3.649949
 21
4.567533
 31
0.0
  0
ARC
  5
69E
330
919
100
AcDbEntity
  8
ninja1 - Level 25
  6
Continuous
 62
     7
370
    13
100
AcDbCircle
 10
-3.637449
 20
4.585033
 30
0.0
 40
0.0125
210
0.0
220
0.0
230
-1.0
100
AcDbArc
 50
2.291984
 51
180.0
  0
ARC
  5
69F
330
919
100
AcDbEntity
  8
ninja1 - Level 25
  6
Continuous
 62
     7
370
    13
100
AcDbCircle
 10
-3.624949
 20
4.585033
 30
0.0
 40
0.0005
210
0.0
220
0.0
230
-1.0
100
AcDbArc
 50
270.0
 51
91.145992
  0
LINE
  5
6A0
330
919
100
AcDbEntity
  8
ninja1 - Level 25
  6
Continuous
 62
     7
370
    13
100
AcDbLine
 10
3.624949
 20
4.576366
 30
0.0
 11
3.624949
 21
4.584533
 31
0.0
  0
ARC
  5
6A1
330
919
100
AcDbEntity
  8
ninja1 - Level 25
  6
Continuous
 62
     7
370
    13
100
AcDbCircle
 10
-3.624949
 20
4.575866
 30
0.0
 40
0.0004999999999985
210
0.0
220
0.0
230
-1.0
100
AcDbArc
 50
270.0
 51
90.0
  0
LINE
  5
6A2
330
919
100
AcDbEntity
  8
ninja1 - Level 25
  6
Continuous
 62
     7
370
    13
100
AcDbLine
 10
3.624949
 20
4.567199
 30
0.0
 11
3.624949
 21
4.575366
 31
0.0
  0
ARC
  5
6A3
330
919
100
AcDbEntity
  8
ninja1 - Level 25
  6
Continuous
 62
     7
370
    13
100
AcDbCircle
 10
-3.624949
 20
4.566699
 30
0.0
 40
0.0004999999999985
210
0.0
220
0.0
230
-1.0
100
AcDbArc
 50
270.0
 51
90.0
  0
LINE
  5
6A4
330
919
100
AcDbEntity
  8
ninja1 - Level 25
  6
Continuous
 62
     7
370
    13
100
AcDbLine
 10
3.624949
 20
4.558033
 30
0.0
 11
3.624949
 21
4.566199
 31
0.0
  0
ARC
  5
6A5
330
919
100
AcDbEntity
  8
ninja1 - Level 25
  6
Continuous
 62
     7
370
    13
100
AcDbCircle
 10
-3.624949
 20
4.557533
 30
0.0
 40
0.0004999999999985
210
0.0
220
0.0
230
-1.0
100
AcDbArc
 50
270.0
 51
90.0
  0
LINE
  5
6A6
330
919
100
AcDbEntity
  8
ninja1 - Level 25
  6
Continuous
 62
     7
370
    13
100
AcDbLine
 10
3.624949
 20
4.548866
 30
0.0
 11
3.624949
 21
4.557033
 31
0.0
  0
ARC
  5
6A7
330
919
100
AcDbEntity
  8
ninja1 - Level 25
  6
Continuous
 62
     7
370
    13
100
AcDbCircle
 10
-3.624949
 20
4.548366
 30
0.0
 40
0.0004999999999985
210
0.0
220
0.0
230
-1.0
100
AcDbArc
 50
270.0
 51
90.0
  0
LINE
  5
6A8
330
919
100
AcDbEntity
  8
ninja1 - Level 25
  6
Continuous
 62
     7
370
    13
100
AcDbLine
 10
3.624949
 20
4.539699
 30
0.0
 11
3.624949
 21
4.547866
 31
0.0
  0
ARC
  5
6A9
330
919
100
AcDbEntity
  8
ninja1 - Level 25
  6
Continuous
 62
     7
370
    13
100
AcDbCircle
 10
-3.624949
 20
4.539199
 30
0.0
 40
0.0004999999999985
210
0.0
220
0.0
230
-1.0
100
AcDbArc
 50
270.0
 51
90.0
  0
LINE
  5
6AA
330
919
100
AcDbEntity
  8
ninja1 - Level 25
  6
Continuous
 62
     7
370
    13
100
AcDbLine
 10
3.624949
 20
4.530533
 30
0.0
 11
3.624949
 21
4.538699
 31
0.0
  0
ARC
  5
6AB
330
919
100
AcDbEntity
  8
ninja1 - Level 25
  6
Continuous
 62
     7
370
    13
100
AcDbCircle
 10
-3.624949
 20
4.530033
 30
0.0
 40
0.0005
210
0.0
220
0.0
230
-1.0
100
AcDbArc
 50
268.854029
 51
90.0
  0
ARC
  5
6AC
330
919
100
AcDbEntity
  8
ninja1 - Level 25
  6
Continuous
 62
     7
370
    13
100
AcDbCircle
 10
4.607449
 20
4.530033
 30
0.0
 40
0.0125
100
AcDbArc
 50
180.0
 51
357.708037
  0
LINE
  5
6AD
330
919
100
AcDbEntity
  8
ninja1 - Level 25
  6
Continuous
 62
     7
370
    13
100
AcDbLine
 10
4.594949
 20
4.547533
 30
0.0
 11
4.594949
 21
4.530033
 31
0.0
  0
LINE
  5
6AE
330
919
100
AcDbEntity
  8
ninja1 - Level 25
  6
Continuous
 62
     7
370
    13
100
AcDbLine
 10
4.594949
 20
4.585033
 30
0.0
 11
4.594949
 21
4.567533
 31
0.0
  0
ARC
  5
6AF
330
919
100
AcDbEntity
  8
ninja1 - Level 25
  6
Continuous
 62
     7
370
    13
100
AcDbCircle
 10
4.607449
 20
4.585033
 30
0.0
 40
0.0125
100
AcDbArc
 50
2.291984
 51
180.0
  0
ARC
  5
6B0
330
919
100
AcDbEntity
  8
ninja1 - Level 25
  6
Continuous
 62
     7
370
    13
100
AcDbCircle
 10
4.619949
 20
4.585033
 30
0.0
 40
0.0005
100
AcDbArc
 50
270.0
 51
91.145992
  0
LINE
  5
6B1
330
919
100
AcDbEntity
  8
ninja1 - Level 25
  6
Continuous
 62
     7
370
    13
100
AcDbLine
 10
4.619949
 20
4.576366
 30
0.0
 11
4.619949
 21
4.584533
 31
0.0
  0
ARC
  5
6B2
330
919
100
AcDbEntity
  8
ninja1 - Level 25
  6
Continuous
 62
     7
370
    13
100
AcDbCircle
 10
4.619949
 20
4.575866
 30
0.0
 40
0.0004999999999985
100
AcDbArc
 50
270.0
 51
90.0
  0
LINE
  5
6B3
330
919
100
AcDbEntity
  8
ninja1 - Level 25
  6
Continuous
 62
     7
370
    13
100
AcDbLine
 10
4.619949
 20
4.567199
 30
0.0
 11
4.619949
 21
4.575366
 31
0.0
  0
ARC
  5
6B4
330
919
100
AcDbEntity
  8
ninja1 - Level 25
  6
Continuous
 62
     7
370
    13
100
AcDbCircle
 10
4.619949
 20
4.566699
 30
0.0
 40
0.0004999999999985
100
AcDbArc
 50
270.0
 51
90.0
  0
LINE
  5
6B5
330
919
100
AcDbEntity
  8
ninja1 - Level 25
  6
Continuous
 62
     7
370
    13
100
AcDbLine
 10
4.619949
 20
4.558033
 30
0.0
 11
4.619949
 21
4.566199
 31
0.0
  0
ARC
  5
6B6
330
919
100
AcDbEntity
  8
ninja1 - Level 25
  6
Continuous
 62
     7
370
    13
100
AcDbCircle
 10
4.619949
 20
4.557533
 30
0.0
 40
0.0004999999999985
100
AcDbArc
 50
270.0
 51
90.0
  0
LINE
  5
6B7
330
919
100
AcDbEntity
  8
ninja1 - Level 25
  6
Continuous
 62
     7
370
    13
100
AcDbLine
 10
4.619949
 20
4.548866
 30
0.0
 11
4.619949
 21
4.557033
 31
0.0
  0
ARC
  5
6B8
330
919
100
AcDbEntity
  8
ninja1 - Level 25
  6
Continuous
 62
     7
370
    13
100
AcDbCircle
 10
4.619949
 20
4.548366
 30
0.0
 40
0.0004999999999985
100
AcDbArc
 50
270.0
 51
90.0
  0
LINE
  5
6B9
330
919
100
AcDbEntity
  8
ninja1 - Level 25
  6
Continuous
 62
     7
370
    13
100
AcDbLine
 10
4.619949
 20
4.539699
 30
0.0
 11
4.619949
 21
4.547866
 31
0.0
  0
ARC
  5
6BA
330
919
100
AcDbEntity
  8
ninja1 - Level 25
  6
Continuous
 62
     7
370
    13
100
AcDbCircle
 10
4.619949
 20
4.539199
 30
0.0
 40
0.0004999999999985
100
AcDbArc
 50
270.0
 51
90.0
  0
LINE
  5
6BB
330
919
100
AcDbEntity
  8
ninja1 - Level 25
  6
Continuous
 62
     7
370
    13
100
AcDbLine
 10
4.619949
 20
4.530533
 30
0.0
 11
4.619949
 21
4.538699
 31
0.0
  0
ARC
  5
6BC
330
919
100
AcDbEntity
  8
ninja1 - Level 25
  6
Continuous
 62
     7
370
    13
100
AcDbCircle
 10
4.619949
 20
4.530033
 30
0.0
 40
0.0005
100
AcDbArc
 50
268.854029
 51
90.0
  0
ARC
  5
6BD
330
919
100
AcDbEntity
  8
ninja1 - Level 25
  6
Continuous
 62
     7
370
    13
100
AcDbCircle
 10
-3.637449
 20
4.666028
 30
0.0
 40
0.0125
210
0.0
220
0.0
230
-1.0
100
AcDbArc
 50
180.0
 51
357.708037
  0
LINE
  5
6BE
330
919
100
AcDbEntity
  8
ninja1 - Level 25
  6
Continuous
 62
     7
370
    13
100
AcDbLine
 10
3.649949
 20
4.683528
 30
0.0
 11
3.649949
 21
4.666028
 31
0.0
  0
LINE
  5
6BF
330
919
100
AcDbEntity
  8
ninja1 - Level 25
  6
Continuous
 62
     7
370
    13
100
AcDbLine
 10
3.649949
 20
4.721028
 30
0.0
 11
3.649949
 21
4.703528
 31
0.0
  0
ARC
  5
6C0
330
919
100
AcDbEntity
  8
ninja1 - Level 25
  6
Continuous
 62
     7
370
    13
100
AcDbCircle
 10
-3.637449
 20
4.721028
 30
0.0
 40
0.0125
210
0.0
220
0.0
230
-1.0
100
AcDbArc
 50
2.291984
 51
180.0
  0
ARC
  5
6C1
330
919
100
AcDbEntity
  8
ninja1 - Level 25
  6
Continuous
 62
     7
370
    13
100
AcDbCircle
 10
-3.624949
 20
4.721028
 30
0.0
 40
0.0005
210
0.0
220
0.0
230
-1.0
100
AcDbArc
 50
270.0
 51
91.145992
  0
LINE
  5
6C2
330
919
100
AcDbEntity
  8
ninja1 - Level 25
  6
Continuous
 62
     7
370
    13
100
AcDbLine
 10
3.624949
 20
4.712361
 30
0.0
 11
3.624949
 21
4.720528
 31
0.0
  0
ARC
  5
6C3
330
919
100
AcDbEntity
  8
ninja1 - Level 25
  6
Continuous
 62
     7
370
    13
100
AcDbCircle
 10
-3.624949
 20
4.711861
 30
0.0
 40
0.0004999999999985
210
0.0
220
0.0
230
-1.0
100
AcDbArc
 50
270.0
 51
90.0
  0
LINE
  5
6C4
330
919
100
AcDbEntity
  8
ninja1 - Level 25
  6
Continuous
 62
     7
370
    13
100
AcDbLine
 10
3.624949
 20
4.703194
 30
0.0
 11
3.624949
 21
4.711361
 31
0.0
  0
ARC
  5
6C5
330
919
100
AcDbEntity
  8
ninja1 - Level 25
  6
Continuous
 62
     7
370
    13
100
AcDbCircle
 10
-3.624949
 20
4.702694
 30
0.0
 40
0.0004999999999985
210
0.0
220
0.0
230
-1.0
100
AcDbArc
 50
270.0
 51
90.0
  0
LINE
  5
6C6
330
919
100
AcDbEntity
  8
ninja1 - Level 25
  6
Continuous
 62
     7
370
    13
100
AcDbLine
 10
3.624949
 20
4.694028
 30
0.0
 11
3.624949
 21
4.702194
 31
0.0
  0
ARC
  5
6C7
330
919
100
AcDbEntity
  8
ninja1 - Level 25
  6
Continuous
 62
     7
370
    13
100
AcDbCircle
 10
-3.624949
 20
4.693528
 30
0.0
 40
0.0004999999999985
210
0.0
220
0.0
230
-1.0
100
AcDbArc
 50
270.0
 51
90.0
  0
LINE
  5
6C8
330
919
100
AcDbEntity
  8
ninja1 - Level 25
  6
Continuous
 62
     7
370
    13
100
AcDbLine
 10
3.624949
 20
4.684861
 30
0.0
 11
3.624949
 21
4.693028
 31
0.0
  0
ARC
  5
6C9
330
919
100
AcDbEntity
  8
ninja1 - Level 25
  6
Continuous
 62
     7
370
    13
100
AcDbCircle
 10
-3.624949
 20
4.684361
 30
0.0
 40
0.0004999999999985
210
0.0
220
0.0
230
-1.0
100
AcDbArc
 50
270.0
 51
90.0
  0
LINE
  5
6CA
330
919
100
AcDbEntity
  8
ninja1 - Level 25
  6
Continuous
 62
     7
370
    13
100
AcDbLine
 10
3.624949
 20
4.675694
 30
0.0
 11
3.624949
 21
4.683861
 31
0.0
  0
ARC
  5
6CB
330
919
100
AcDbEntity
  8
ninja1 - Level 25
  6
Continuous
 62
     7
370
    13
100
AcDbCircle
 10
-3.624949
 20
4.675194
 30
0.0
 40
0.0004999999999985
210
0.0
220
0.0
230
-1.0
100
AcDbArc
 50
270.0
 51
90.0
  0
LINE
  5
6CC
330
919
100
AcDbEntity
  8
ninja1 - Level 25
  6
Continuous
 62
     7
370
    13
100
AcDbLine
 10
3.624949
 20
4.666528
 30
0.0
 11
3.624949
 21
4.674694
 31
0.0
  0
ARC
  5
6CD
330
919
100
AcDbEntity
  8
ninja1 - Level 25
  6
Continuous
 62
     7
370
    13
100
AcDbCircle
 10
-3.624949
 20
4.666028
 30
0.0
 40
0.0005
210
0.0
220
0.0
230
-1.0
100
AcDbArc
 50
268.854029
 51
90.0
  0
LINE
  5
6CE
330
919
100
AcDbEntity
  8
ninja1 - Level 26
  6
Continuous
 62
     7
370
    13
100
AcDbLine
 10
3.687449
 20
5.196528
 30
0.0
 11
3.687449
 21
4.326528
 31
0.0
  0
LINE
  5
6CF
330
919
100
AcDbEntity
  8
ninja1 - Level 26
  6
Continuous
 62
     7
370
    13
100
AcDbLine
 10
3.687449
 20
4.326528
 30
0.0
 11
3.677449
 21
4.326528
 31
0.0
  0
LINE
  5
6D0
330
919
100
AcDbEntity
  8
ninja1 - Level 26
  6
Continuous
 62
     7
370
    13
100
AcDbLine
 10
3.677449
 20
5.196528
 30
0.0
 11
3.687449
 21
5.196528
 31
0.0
  0
LINE
  5
6D1
330
919
100
AcDbEntity
  8
ninja1 - Level 26
  6
Continuous
 62
     7
370
    13
100
AcDbLine
 10
4.557449
 20
5.196528
 30
0.0
 11
4.557449
 21
4.326528
 31
0.0
  0
LINE
  5
6D2
330
919
100
AcDbEntity
  8
ninja1 - Level 26
  6
Continuous
 62
     7
370
    13
100
AcDbLine
 10
3.687449
 20
5.196528
 30
0.0
 11
4.557449
 21
5.196528
 31
0.0
  0
LINE
  5
6D3
330
919
100
AcDbEntity
  8
ninja1 - Level 26
  6
Continuous
 62
     7
370
    13
100
AcDbLine
 10
4.557449
 20
5.196528
 30
0.0
 11
4.567449
 21
5.196528
 31
0.0
  0
LINE
  5
6D4
330
919
100
AcDbEntity
  8
ninja1 - Level 26
  6
Continuous
 62
     7
370
    13
100
AcDbLine
 10
4.567449
 20
4.326528
 30
0.0
 11
4.557449
 21
4.326528
 31
0.0
  0
ARC
  5
6D5
330
919
100
AcDbEntity
  8
ninja1 - Level 26
  6
Continuous
 62
     7
370
    13
100
AcDbCircle
 10
3.637699
 20
4.53003
 30
0.0
 40
0.0125000000000009
100
AcDbArc
 50
268.854008
 51
348.521659
  0
ARC
  5
6D6
330
919
100
AcDbEntity
  8
ninja1 - Level 26
  6
Continuous
 62
     7
370
    13
100
AcDbCircle
 10
-3.637699
 20
4.58503
 30
0.0
 40
0.0125000000000009
210
0.0
220
0.0
230
-1.0
100
AcDbArc
 50
90.0
 51
168.521659
  0
ARC
  5
6D7
330
919
100
AcDbEntity
  8
ninja1 - Level 25
  6
Continuous
 62
     7
370
    13
100
AcDbCircle
 10
3.637449
 20
4.993023
 30
0.0
 40
0.0125
100
AcDbArc
 50
360.0
 51
177.708037
  0
LINE
  5
6D8
330
919
100
AcDbEntity
  8
ninja1 - Level 25
  6
Continuous
 62
     7
370
    13
100
AcDbLine
 10
3.649949
 20
4.975523
 30
0.0
 11
3.649949
 21
4.993023
 31
0.0
  0
LINE
  5
6D9
330
919
100
AcDbEntity
  8
ninja1 - Level 25
  6
Continuous
 62
     7
370
    13
100
AcDbLine
 10
3.649949
 20
4.938023
 30
0.0
 11
3.649949
 21
4.955523
 31
0.0
  0
ARC
  5
6DA
330
919
100
AcDbEntity
  8
ninja1 - Level 25
  6
Continuous
 62
     7
370
    13
100
AcDbCircle
 10
3.637449
 20
4.938023
 30
0.0
 40
0.0125
100
AcDbArc
 50
182.291984
 51
360.0
  0
ARC
  5
6DB
330
919
100
AcDbEntity
  8
ninja1 - Level 25
  6
Continuous
 62
     7
370
    13
100
AcDbCircle
 10
3.624949
 20
4.938023
 30
0.0
 40
0.0005
100
AcDbArc
 50
90.0
 51
271.145992
  0
LINE
  5
6DC
330
919
100
AcDbEntity
  8
ninja1 - Level 25
  6
Continuous
 62
     7
370
    13
100
AcDbLine
 10
3.624949
 20
4.946689
 30
0.0
 11
3.624949
 21
4.938523
 31
0.0
  0
ARC
  5
6DD
330
919
100
AcDbEntity
  8
ninja1 - Level 25
  6
Continuous
 62
     7
370
    13
100
AcDbCircle
 10
3.624949
 20
4.947189
 30
0.0
 40
0.0004999999999985
100
AcDbArc
 50
90.0
 51
270.0
  0
LINE
  5
6DE
330
919
100
AcDbEntity
  8
ninja1 - Level 25
  6
Continuous
 62
     7
370
    13
100
AcDbLine
 10
3.624949
 20
4.955856
 30
0.0
 11
3.624949
 21
4.947689
 31
0.0
  0
ARC
  5
6DF
330
919
100
AcDbEntity
  8
ninja1 - Level 25
  6
Continuous
 62
     7
370
    13
100
AcDbCircle
 10
3.624949
 20
4.956356
 30
0.0
 40
0.0004999999999985
100
AcDbArc
 50
90.0
 51
270.0
  0
LINE
  5
6E0
330
919
100
AcDbEntity
  8
ninja1 - Level 25
  6
Continuous
 62
     7
370
    13
100
AcDbLine
 10
3.624949
 20
4.965023
 30
0.0
 11
3.624949
 21
4.956856
 31
0.0
  0
ARC
  5
6E1
330
919
100
AcDbEntity
  8
ninja1 - Level 25
  6
Continuous
 62
     7
370
    13
100
AcDbCircle
 10
3.624949
 20
4.965523
 30
0.0
 40
0.0004999999999985
100
AcDbArc
 50
90.0
 51
270.0
  0
LINE
  5
6E2
330
919
100
AcDbEntity
  8
ninja1 - Level 25
  6
Continuous
 62
     7
370
    13
100
AcDbLine
 10
3.624949
 20
4.974189
 30
0.0
 11
3.624949
 21
4.966023
 31
0.0
  0
ARC
  5
6E3
330
919
100
AcDbEntity
  8
ninja1 - Level 25
  6
Continuous
 62
     7
370
    13
100
AcDbCircle
 10
3.624949
 20
4.974689
 30
0.0
 40
0.0004999999999985
100
AcDbArc
 50
90.0
 51
270.0
  0
LINE
  5
6E4
330
919
100
AcDbEntity
  8
ninja1 - Level 25
  6
Continuous
 62
     7
370
    13
100
AcDbLine
 10
3.624949
 20
4.983356
 30
0.0
 11
3.624949
 21
4.975189
 31
0.0
  0
ARC
  5
6E5
330
919
100
AcDbEntity
  8
ninja1 - Level 25
  6
Continuous
 62
     7
370
    13
100
AcDbCircle
 10
3.624949
 20
4.983856
 30
0.0
 40
0.0004999999999985
100
AcDbArc
 50
90.0
 51
270.0
  0
LINE
  5
6E6
330
919
100
AcDbEntity
  8
ninja1 - Level 25
  6
Continuous
 62
     7
370
    13
100
AcDbLine
 10
3.624949
 20
4.992523
 30
0.0
 11
3.624949
 21
4.984356
 31
0.0
  0
ARC
  5
6E7
330
919
100
AcDbEntity
  8
ninja1 - Level 25
  6
Continuous
 62
     7
370
    13
100
AcDbCircle
 10
3.624949
 20
4.993023
 30
0.0
 40
0.0005
100
AcDbArc
 50
88.854029
 51
270.0
  0
ARC
  5
6E8
330
919
100
AcDbEntity
  8
ninja1 - Level 25
  6
Continuous
 62
     7
370
    13
100
AcDbCircle
 10
4.607449
 20
4.666028
 30
0.0
 40
0.0125
100
AcDbArc
 50
180.0
 51
357.708037
  0
LINE
  5
6E9
330
919
100
AcDbEntity
  8
ninja1 - Level 25
  6
Continuous
 62
     7
370
    13
100
AcDbLine
 10
4.594949
 20
4.683528
 30
0.0
 11
4.594949
 21
4.666028
 31
0.0
  0
LINE
  5
6EA
330
919
100
AcDbEntity
  8
ninja1 - Level 25
  6
Continuous
 62
     7
370
    13
100
AcDbLine
 10
4.594949
 20
4.721028
 30
0.0
 11
4.594949
 21
4.703528
 31
0.0
  0
ARC
  5
6EB
330
919
100
AcDbEntity
  8
ninja1 - Level 25
  6
Continuous
 62
     7
370
    13
100
AcDbCircle
 10
4.607449
 20
4.721028
 30
0.0
 40
0.0125
100
AcDbArc
 50
2.291984
 51
180.0
  0
ARC
  5
6EC
330
919
100
AcDbEntity
  8
ninja1 - Level 25
  6
Continuous
 62
     7
370
    13
100
AcDbCircle
 10
4.619949
 20
4.721028
 30
0.0
 40
0.0005
100
AcDbArc
 50
270.0
 51
91.145992
  0
LINE
  5
6ED
330
919
100
AcDbEntity
  8
ninja1 - Level 25
  6
Continuous
 62
     7
370
    13
100
AcDbLine
 10
4.619949
 20
4.712361
 30
0.0
 11
4.619949
 21
4.720528
 31
0.0
  0
ARC
  5
6EE
330
919
100
AcDbEntity
  8
ninja1 - Level 25
  6
Continuous
 62
     7
370
    13
100
AcDbCircle
 10
4.619949
 20
4.711861
 30
0.0
 40
0.0004999999999985
100
AcDbArc
 50
270.0
 51
90.0
  0
LINE
  5
6EF
330
919
100
AcDbEntity
  8
ninja1 - Level 25
  6
Continuous
 62
     7
370
    13
100
AcDbLine
 10
4.619949
 20
4.703194
 30
0.0
 11
4.619949
 21
4.711361
 31
0.0
  0
ARC
  5
6F0
330
919
100
AcDbEntity
  8
ninja1 - Level 25
  6
Continuous
 62
     7
370
    13
100
AcDbCircle
 10
4.619949
 20
4.702694
 30
0.0
 40
0.0004999999999985
100
AcDbArc
 50
270.0
 51
90.0
  0
LINE
  5
6F1
330
919
100
AcDbEntity
  8
ninja1 - Level 25
  6
Continuous
 62
     7
370
    13
100
AcDbLine
 10
4.619949
 20
4.694028
 30
0.0
 11
4.619949
 21
4.702194
 31
0.0
  0
ARC
  5
6F2
330
919
100
AcDbEntity
  8
ninja1 - Level 25
  6
Continuous
 62
     7
370
    13
100
AcDbCircle
 10
4.619949
 20
4.693528
 30
0.0
 40
0.0004999999999985
100
AcDbArc
 50
270.0
 51
90.0
  0
LINE
  5
6F3
330
919
100
AcDbEntity
  8
ninja1 - Level 25
  6
Continuous
 62
     7
370
    13
100
AcDbLine
 10
4.619949
 20
4.684861
 30
0.0
 11
4.619949
 21
4.693028
 31
0.0
  0
ARC
  5
6F4
330
919
100
AcDbEntity
  8
ninja1 - Level 25
  6
Continuous
 62
     7
370
    13
100
AcDbCircle
 10
4.619949
 20
4.684361
 30
0.0
 40
0.0004999999999985
100
AcDbArc
 50
270.0
 51
90.0
  0
LINE
  5
6F5
330
919
100
AcDbEntity
  8
ninja1 - Level 25
  6
Continuous
 62
     7
370
    13
100
AcDbLine
 10
4.619949
 20
4.675694
 30
0.0
 11
4.619949
 21
4.683861
 31
0.0
  0
ARC
  5
6F6
330
919
100
AcDbEntity
  8
ninja1 - Level 25
  6
Continuous
 62
     7
370
    13
100
AcDbCircle
 10
4.619949
 20
4.675194
 30
0.0
 40
0.0004999999999985
100
AcDbArc
 50
270.0
 51
90.0
  0
LINE
  5
6F7
330
919
100
AcDbEntity
  8
ninja1 - Level 25
  6
Continuous
 62
     7
370
    13
100
AcDbLine
 10
4.619949
 20
4.666528
 30
0.0
 11
4.619949
 21
4.674694
 31
0.0
  0
ARC
  5
6F8
330
919
100
AcDbEntity
  8
ninja1 - Level 25
  6
Continuous
 62
     7
370
    13
100
AcDbCircle
 10
4.619949
 20
4.666028
 30
0.0
 40
0.0005
100
AcDbArc
 50
268.854029
 51
90.0
  0
ARC
  5
6F9
330
919
100
AcDbEntity
  8
ninja1 - Level 25
  6
Continuous
 62
     7
370
    13
100
AcDbCircle
 10
3.637449
 20
4.857028
 30
0.0
 40
0.0125
100
AcDbArc
 50
360.0
 51
177.708037
  0
LINE
  5
6FA
330
919
100
AcDbEntity
  8
ninja1 - Level 25
  6
Continuous
 62
     7
370
    13
100
AcDbLine
 10
3.649949
 20
4.839528
 30
0.0
 11
3.649949
 21
4.857028
 31
0.0
  0
LINE
  5
6FB
330
919
100
AcDbEntity
  8
ninja1 - Level 25
  6
Continuous
 62
     7
370
    13
100
AcDbLine
 10
3.649949
 20
4.802028
 30
0.0
 11
3.649949
 21
4.819528
 31
0.0
  0
ARC
  5
6FC
330
919
100
AcDbEntity
  8
ninja1 - Level 25
  6
Continuous
 62
     7
370
    13
100
AcDbCircle
 10
3.637449
 20
4.802028
 30
0.0
 40
0.0125
100
AcDbArc
 50
182.291984
 51
360.0
  0
ARC
  5
6FD
330
919
100
AcDbEntity
  8
ninja1 - Level 25
  6
Continuous
 62
     7
370
    13
100
AcDbCircle
 10
3.624949
 20
4.802028
 30
0.0
 40
0.0005
100
AcDbArc
 50
90.0
 51
271.145992
  0
LINE
  5
6FE
330
919
100
AcDbEntity
  8
ninja1 - Level 25
  6
Continuous
 62
     7
370
    13
100
AcDbLine
 10
3.624949
 20
4.810694
 30
0.0
 11
3.624949
 21
4.802528
 31
0.0
  0
ARC
  5
6FF
330
919
100
AcDbEntity
  8
ninja1 - Level 25
  6
Continuous
 62
     7
370
    13
100
AcDbCircle
 10
3.624949
 20
4.811194
 30
0.0
 40
0.0004999999999985
100
AcDbArc
 50
90.0
 51
270.0
  0
LINE
  5
700
330
919
100
AcDbEntity
  8
ninja1 - Level 25
  6
Continuous
 62
     7
370
    13
100
AcDbLine
 10
3.624949
 20
4.819861
 30
0.0
 11
3.624949
 21
4.811694
 31
0.0
  0
ARC
  5
701
330
919
100
AcDbEntity
  8
ninja1 - Level 25
  6
Continuous
 62
     7
370
    13
100
AcDbCircle
 10
3.624949
 20
4.820361
 30
0.0
 40
0.0004999999999985
100
AcDbArc
 50
90.0
 51
270.0
  0
LINE
  5
702
330
919
100
AcDbEntity
  8
ninja1 - Level 25
  6
Continuous
 62
     7
370
    13
100
AcDbLine
 10
3.624949
 20
4.829028
 30
0.0
 11
3.624949
 21
4.820861
 31
0.0
  0
ARC
  5
703
330
919
100
AcDbEntity
  8
ninja1 - Level 25
  6
Continuous
 62
     7
370
    13
100
AcDbCircle
 10
3.624949
 20
4.829528
 30
0.0
 40
0.0004999999999985
100
AcDbArc
 50
90.0
 51
270.0
  0
LINE
  5
704
330
919
100
AcDbEntity
  8
ninja1 - Level 25
  6
Continuous
 62
     7
370
    13
100
AcDbLine
 10
3.624949
 20
4.838194
 30
0.0
 11
3.624949
 21
4.830028
 31
0.0
  0
ARC
  5
705
330
919
100
AcDbEntity
  8
ninja1 - Level 25
  6
Continuous
 62
     7
370
    13
100
AcDbCircle
 10
3.624949
 20
4.838694
 30
0.0
 40
0.0004999999999985
100
AcDbArc
 50
90.0
 51
270.0
  0
LINE
  5
706
330
919
100
AcDbEntity
  8
ninja1 - Level 25
  6
Continuous
 62
     7
370
    13
100
AcDbLine
 10
3.624949
 20
4.847361
 30
0.0
 11
3.624949
 21
4.839194
 31
0.0
  0
ARC
  5
707
330
919
100
AcDbEntity
  8
ninja1 - Level 25
  6
Continuous
 62
     7
370
    13
100
AcDbCircle
 10
3.624949
 20
4.847861
 30
0.0
 40
0.0004999999999985
100
AcDbArc
 50
90.0
 51
270.0
  0
LINE
  5
708
330
919
100
AcDbEntity
  8
ninja1 - Level 25
  6
Continuous
 62
     7
370
    13
100
AcDbLine
 10
3.624949
 20
4.856528
 30
0.0
 11
3.624949
 21
4.848361
 31
0.0
  0
ARC
  5
709
330
919
100
AcDbEntity
  8
ninja1 - Level 25
  6
Continuous
 62
     7
370
    13
100
AcDbCircle
 10
3.624949
 20
4.857028
 30
0.0
 40
0.0005
100
AcDbArc
 50
88.854029
 51
270.0
  0
ARC
  5
70A
330
919
100
AcDbEntity
  8
ninja1 - Level 25
  6
Continuous
 62
     7
370
    13
100
AcDbCircle
 10
-4.607449
 20
4.857028
 30
0.0
 40
0.0125
210
0.0
220
0.0
230
-1.0
100
AcDbArc
 50
360.0
 51
177.708037
  0
LINE
  5
70B
330
919
100
AcDbEntity
  8
ninja1 - Level 25
  6
Continuous
 62
     7
370
    13
100
AcDbLine
 10
4.594949
 20
4.839528
 30
0.0
 11
4.594949
 21
4.857028
 31
0.0
  0
LINE
  5
70C
330
919
100
AcDbEntity
  8
ninja1 - Level 25
  6
Continuous
 62
     7
370
    13
100
AcDbLine
 10
4.594949
 20
4.802028
 30
0.0
 11
4.594949
 21
4.819528
 31
0.0
  0
ARC
  5
70D
330
919
100
AcDbEntity
  8
ninja1 - Level 25
  6
Continuous
 62
     7
370
    13
100
AcDbCircle
 10
-4.607449
 20
4.802028
 30
0.0
 40
0.0125
210
0.0
220
0.0
230
-1.0
100
AcDbArc
 50
182.291984
 51
360.0
  0
ARC
  5
70E
330
919
100
AcDbEntity
  8
ninja1 - Level 25
  6
Continuous
 62
     7
370
    13
100
AcDbCircle
 10
-4.619949
 20
4.802028
 30
0.0
 40
0.0005
210
0.0
220
0.0
230
-1.0
100
AcDbArc
 50
90.0
 51
271.145992
  0
LINE
  5
70F
330
919
100
AcDbEntity
  8
ninja1 - Level 25
  6
Continuous
 62
     7
370
    13
100
AcDbLine
 10
4.619949
 20
4.810694
 30
0.0
 11
4.619949
 21
4.802528
 31
0.0
  0
ARC
  5
710
330
919
100
AcDbEntity
  8
ninja1 - Level 25
  6
Continuous
 62
     7
370
    13
100
AcDbCircle
 10
-4.619949
 20
4.811194
 30
0.0
 40
0.0004999999999985
210
0.0
220
0.0
230
-1.0
100
AcDbArc
 50
90.0
 51
270.0
  0
LINE
  5
711
330
919
100
AcDbEntity
  8
ninja1 - Level 25
  6
Continuous
 62
     7
370
    13
100
AcDbLine
 10
4.619949
 20
4.819861
 30
0.0
 11
4.619949
 21
4.811694
 31
0.0
  0
ARC
  5
712
330
919
100
AcDbEntity
  8
ninja1 - Level 25
  6
Continuous
 62
     7
370
    13
100
AcDbCircle
 10
-4.619949
 20
4.820361
 30
0.0
 40
0.0004999999999985
210
0.0
220
0.0
230
-1.0
100
AcDbArc
 50
90.0
 51
270.0
  0
LINE
  5
713
330
919
100
AcDbEntity
  8
ninja1 - Level 25
  6
Continuous
 62
     7
370
    13
100
AcDbLine
 10
4.619949
 20
4.829028
 30
0.0
 11
4.619949
 21
4.820861
 31
0.0
  0
ARC
  5
714
330
919
100
AcDbEntity
  8
ninja1 - Level 25
  6
Continuous
 62
     7
370
    13
100
AcDbCircle
 10
-4.619949
 20
4.829528
 30
0.0
 40
0.0004999999999985
210
0.0
220
0.0
230
-1.0
100
AcDbArc
 50
90.0
 51
270.0
  0
LINE
  5
715
330
919
100
AcDbEntity
  8
ninja1 - Level 25
  6
Continuous
 62
     7
370
    13
100
AcDbLine
 10
4.619949
 20
4.838194
 30
0.0
 11
4.619949
 21
4.830028
 31
0.0
  0
ARC
  5
716
330
919
100
AcDbEntity
  8
ninja1 - Level 25
  6
Continuous
 62
     7
370
    13
100
AcDbCircle
 10
-4.619949
 20
4.838694
 30
0.0
 40
0.0004999999999985
210
0.0
220
0.0
230
-1.0
100
AcDbArc
 50
90.0
 51
270.0
  0
LINE
  5
717
330
919
100
AcDbEntity
  8
ninja1 - Level 25
  6
Continuous
 62
     7
370
    13
100
AcDbLine
 10
4.619949
 20
4.847361
 30
0.0
 11
4.619949
 21
4.839194
 31
0.0
  0
ARC
  5
718
330
919
100
AcDbEntity
  8
ninja1 - Level 25
  6
Continuous
 62
     7
370
    13
100
AcDbCircle
 10
-4.619949
 20
4.847861
 30
0.0
 40
0.0004999999999985
210
0.0
220
0.0
230
-1.0
100
AcDbArc
 50
90.0
 51
270.0
  0
LINE
  5
719
330
919
100
AcDbEntity
  8
ninja1 - Level 25
  6
Continuous
 62
     7
370
    13
100
AcDbLine
 10
4.619949
 20
4.856528
 30
0.0
 11
4.619949
 21
4.848361
 31
0.0
  0
ARC
  5
71A
330
919
100
AcDbEntity
  8
ninja1 - Level 25
  6
Continuous
 62
     7
370
    13
100
AcDbCircle
 10
-4.619949
 20
4.857028
 30
0.0
 40
0.0005
210
0.0
220
0.0
230
-1.0
100
AcDbArc
 50
88.854029
 51
270.0
  0
LINE
  5
71B
330
919
100
AcDbEntity
  8
ninja1 - Level 26
  6
Continuous
 62
     7
370
    13
100
AcDbLine
 10
4.557449
 20
4.244028
 30
0.0
 11
4.545449
 21
4.244028
 31
0.0
  0
LINE
  5
71C
330
919
100
AcDbEntity
  8
ninja1 - Level 26
  6
Continuous
 62
     7
370
    13
100
AcDbLine
 10
4.557449
 20
4.309028
 30
0.0
 11
4.545449
 21
4.309028
 31
0.0
  0
LINE
  5
71D
330
919
100
AcDbEntity
  8
ninja1 - Level 26
  6
Continuous
 62
     7
370
    13
100
AcDbLine
 10
4.557449
 20
4.244028
 30
0.0
 11
4.557449
 21
4.309028
 31
0.0
  0
LINE
  5
71E
330
919
100
AcDbEntity
  8
ninja1 - Level 26
  6
Continuous
 62
     7
370
    13
100
AcDbLine
 10
4.545449
 20
4.244028
 30
0.0
 11
4.545449
 21
4.309028
 31
0.0
  0
LINE
  5
71F
330
919
100
AcDbEntity
  8
ninja1 - Level 26
  6
Continuous
 62
     7
370
    13
100
AcDbLine
 10
4.522708
 20
4.299028
 30
0.0
 11
4.545449
 21
4.299028
 31
0.0
  0
SPLINE
  5
720
330
919
100
AcDbEntity
  8
ninja1 - Level 26
  6
Continuous
 62
     7
370
    13
100
AcDbSpline
210
0.0
220
0.0
230
1.0
 70
     8
 71
     3
 72
     8
 73
     4
 74
     0
 42
0.000000001
 43
0.0000000001
 40
0.0
 40
0.0
 40
0.0
 40
0.0
 40
1.0
 40
1.0
 40
1.0
 40
1.0
 10
4.515448835444726
 20
4.309027525755634
 30
0.0
 10
4.515376069280246
 20
4.309067574227066
 30
0.0
 10
4.51876884454801
 20
4.304964177087277
 30
0.0
 10
4.522707670229758
 20
4.299027525755616
 30
0.0
  0
LINE
  5
723
330
919
100
AcDbEntity
  8
ninja1 - Level 26
  6
Continuous
 62
     7
370
    13
100
AcDbLine
 10
4.515449
 20
4.309028
 30
0.0
 11
4.545449
 21
4.309028
 31
0.0
  0
LINE
  5
724
330
919
100
AcDbEntity
  8
ninja1 - Level 26
  6
Continuous
 62
     7
370
    13
100
AcDbLine
 10
4.522708
 20
4.254028
 30
0.0
 11
4.545449
 21
4.254028
 31
0.0
  0
SPLINE
  5
725
330
919
100
AcDbEntity
  8
ninja1 - Level 26
  6
Continuous
 62
     7
370
    13
100
AcDbSpline
210
0.0
220
0.0
230
1.0
 70
     8
 71
     3
 72
     8
 73
     4
 74
     0
 42
0.000000001
 43
0.0000000001
 40
0.0
 40
0.0
 40
0.0
 40
0.0
 40
1.0
 40
1.0
 40
1.0
 40
1.0
 10
4.522707670229745
 20
4.254027525755621
 30
0.0
 10
4.518771806052185
 20
4.248093761839097
 30
0.0
 10
4.51537443598044
 20
4.243986362466689
 30
0.0
 10
4.515448835444733
 20
4.24402752575562
 30
0.0
  0
LINE
  5
728
330
919
100
AcDbEntity
  8
ninja1 - Level 26
  6
Continuous
 62
     7
370
    13
100
AcDbLine
 10
4.515449
 20
4.244028
 30
0.0
 11
4.545449
 21
4.244028
 31
0.0
  0
LINE
  5
729
330
919
100
AcDbEntity
  8
ninja1 - Level 26
  6
Continuous
 62
     7
370
    13
100
AcDbLine
 10
4.515449
 20
4.309028
 30
0.0
 11
4.515449
 21
4.244028
 31
0.0
  0
LINE
  5
72A
330
919
100
AcDbEntity
  8
ninja1 - Level 26
  6
Continuous
 62
     7
370
    13
100
AcDbLine
 10
3.687449
 20
4.309028
 30
0.0
 11
3.699449
 21
4.309028
 31
0.0
  0
LINE
  5
72B
330
919
100
AcDbEntity
  8
ninja1 - Level 26
  6
Continuous
 62
     7
370
    13
100
AcDbLine
 10
3.687449
 20
4.244028
 30
0.0
 11
3.699449
 21
4.244028
 31
0.0
  0
LINE
  5
72C
330
919
100
AcDbEntity
  8
ninja1 - Level 26
  6
Continuous
 62
     7
370
    13
100
AcDbLine
 10
3.699449
 20
4.244028
 30
0.0
 11
3.699449
 21
4.309028
 31
0.0
  0
LINE
  5
72D
330
919
100
AcDbEntity
  8
ninja1 - Level 26
  6
Continuous
 62
     7
370
    13
100
AcDbLine
 10
3.72219
 20
4.299028
 30
0.0
 11
3.699449
 21
4.299028
 31
0.0
  0
SPLINE
  5
72E
330
919
100
AcDbEntity
  8
ninja1 - Level 26
  6
Continuous
 62
     7
370
    13
100
AcDbSpline
210
0.0
220
0.0
230
1.0
 70
     8
 71
     3
 72
     8
 73
     4
 74
     0
 42
0.000000001
 43
0.0000000001
 40
0.0
 40
0.0
 40
0.0
 40
0.0
 40
1.0
 40
1.0
 40
1.0
 40
1.0
 10
3.729448835444733
 20
4.309027525755634
 30
0.0
 10
3.729521601609213
 20
4.309067574227067
 30
0.0
 10
3.726128826341449
 20
4.304964177087277
 30
0.0
 10
3.722190000659701
 20
4.299027525755617
 30
0.0
  0
LINE
  5
731
330
919
100
AcDbEntity
  8
ninja1 - Level 26
  6
Continuous
 62
     7
370
    13
100
AcDbLine
 10
3.729449
 20
4.309028
 30
0.0
 11
3.699449
 21
4.309028
 31
0.0
  0
LINE
  5
732
330
919
100
AcDbEntity
  8
ninja1 - Level 26
  6
Continuous
 62
     7
370
    13
100
AcDbLine
 10
3.72219
 20
4.254028
 30
0.0
 11
3.699449
 21
4.254028
 31
0.0
  0
SPLINE
  5
733
330
919
100
AcDbEntity
  8
ninja1 - Level 26
  6
Continuous
 62
     7
370
    13
100
AcDbSpline
210
0.0
220
0.0
230
1.0
 70
     8
 71
     3
 72
     8
 73
     4
 74
     0
 42
0.000000001
 43
0.0000000001
 40
0.0
 40
0.0
 40
0.0
 40
0.0
 40
1.0
 40
1.0
 40
1.0
 40
1.0
 10
3.722190000659713
 20
4.254027525755621
 30
0.0
 10
3.726125864837269
 20
4.248093761839098
 30
0.0
 10
3.729523234909019
 20
4.24398636246669
 30
0.0
 10
3.729448835444733
 20
4.24402752575562
 30
0.0
  0
LINE
  5
736
330
919
100
AcDbEntity
  8
ninja1 - Level 26
  6
Continuous
 62
     7
370
    13
100
AcDbLine
 10
3.729449
 20
4.244028
 30
0.0
 11
3.699449
 21
4.244028
 31
0.0
  0
LINE
  5
737
330
919
100
AcDbEntity
  8
ninja1 - Level 26
  6
Continuous
 62
     7
370
    13
100
AcDbLine
 10
3.729449
 20
4.309028
 30
0.0
 11
3.729449
 21
4.244028
 31
0.0
  0
LINE
  5
738
330
919
100
AcDbEntity
  8
ninja1 - Level 25
  6
Continuous
 62
     7
370
    13
100
AcDbLine
 10
4.515449
 20
4.293528
 30
0.0
 11
3.729449
 21
4.293528
 31
0.0
  0
LINE
  5
739
330
919
100
AcDbEntity
  8
ninja1 - Level 25
  6
Continuous
 62
     7
370
    13
100
AcDbLine
 10
3.729449
 20
4.259528
 30
0.0
 11
4.515449
 21
4.259528
 31
0.0
  0
ARC
  5
740
330
919
100
AcDbEntity
  8
ninja1 - Level 25
  6
Continuous
 62
     7
370
    13
100
AcDbCircle
 10
-4.607449
 20
4.993023
 30
0.0
 40
0.0125
210
0.0
220
0.0
230
-1.0
100
AcDbArc
 50
360.0
 51
177.708037
  0
LINE
  5
741
330
919
100
AcDbEntity
  8
ninja1 - Level 25
  6
Continuous
 62
     7
370
    13
100
AcDbLine
 10
4.594949
 20
4.975523
 30
0.0
 11
4.594949
 21
4.993023
 31
0.0
  0
LINE
  5
742
330
919
100
AcDbEntity
  8
ninja1 - Level 25
  6
Continuous
 62
     7
370
    13
100
AcDbLine
 10
4.594949
 20
4.938023
 30
0.0
 11
4.594949
 21
4.955523
 31
0.0
  0
ARC
  5
743
330
919
100
AcDbEntity
  8
ninja1 - Level 25
  6
Continuous
 62
     7
370
    13
100
AcDbCircle
 10
-4.607449
 20
4.938023
 30
0.0
 40
0.0125
210
0.0
220
0.0
230
-1.0
100
AcDbArc
 50
182.291984
 51
360.0
  0
ARC
  5
744
330
919
100
AcDbEntity
  8
ninja1 - Level 25
  6
Continuous
 62
     7
370
    13
100
AcDbCircle
 10
-4.619949
 20
4.938023
 30
0.0
 40
0.0005
210
0.0
220
0.0
230
-1.0
100
AcDbArc
 50
90.0
 51
271.145992
  0
LINE
  5
745
330
919
100
AcDbEntity
  8
ninja1 - Level 25
  6
Continuous
 62
     7
370
    13
100
AcDbLine
 10
4.619949
 20
4.946689
 30
0.0
 11
4.619949
 21
4.938523
 31
0.0
  0
ARC
  5
746
330
919
100
AcDbEntity
  8
ninja1 - Level 25
  6
Continuous
 62
     7
370
    13
100
AcDbCircle
 10
-4.619949
 20
4.947189
 30
0.0
 40
0.0004999999999985
210
0.0
220
0.0
230
-1.0
100
AcDbArc
 50
90.0
 51
270.0
  0
LINE
  5
747
330
919
100
AcDbEntity
  8
ninja1 - Level 25
  6
Continuous
 62
     7
370
    13
100
AcDbLine
 10
4.619949
 20
4.955856
 30
0.0
 11
4.619949
 21
4.947689
 31
0.0
  0
ARC
  5
748
330
919
100
AcDbEntity
  8
ninja1 - Level 25
  6
Continuous
 62
     7
370
    13
100
AcDbCircle
 10
-4.619949
 20
4.956356
 30
0.0
 40
0.0004999999999985
210
0.0
220
0.0
230
-1.0
100
AcDbArc
 50
90.0
 51
270.0
  0
LINE
  5
749
330
919
100
AcDbEntity
  8
ninja1 - Level 25
  6
Continuous
 62
     7
370
    13
100
AcDbLine
 10
4.619949
 20
4.965023
 30
0.0
 11
4.619949
 21
4.956856
 31
0.0
  0
ARC
  5
74A
330
919
100
AcDbEntity
  8
ninja1 - Level 25
  6
Continuous
 62
     7
370
    13
100
AcDbCircle
 10
-4.619949
 20
4.965523
 30
0.0
 40
0.0004999999999985
210
0.0
220
0.0
230
-1.0
100
AcDbArc
 50
90.0
 51
270.0
  0
LINE
  5
74B
330
919
100
AcDbEntity
  8
ninja1 - Level 25
  6
Continuous
 62
     7
370
    13
100
AcDbLine
 10
4.619949
 20
4.974189
 30
0.0
 11
4.619949
 21
4.966023
 31
0.0
  0
ARC
  5
74C
330
919
100
AcDbEntity
  8
ninja1 - Level 25
  6
Continuous
 62
     7
370
    13
100
AcDbCircle
 10
-4.619949
 20
4.974689
 30
0.0
 40
0.0004999999999985
210
0.0
220
0.0
230
-1.0
100
AcDbArc
 50
90.0
 51
270.0
  0
LINE
  5
74D
330
919
100
AcDbEntity
  8
ninja1 - Level 25
  6
Continuous
 62
     7
370
    13
100
AcDbLine
 10
4.619949
 20
4.983356
 30
0.0
 11
4.619949
 21
4.975189
 31
0.0
  0
ARC
  5
74E
330
919
100
AcDbEntity
  8
ninja1 - Level 25
  6
Continuous
 62
     7
370
    13
100
AcDbCircle
 10
-4.619949
 20
4.983856
 30
0.0
 40
0.0004999999999985
210
0.0
220
0.0
230
-1.0
100
AcDbArc
 50
90.0
 51
270.0
  0
LINE
  5
74F
330
919
100
AcDbEntity
  8
ninja1 - Level 25
  6
Continuous
 62
     7
370
    13
100
AcDbLine
 10
4.619949
 20
4.992523
 30
0.0
 11
4.619949
 21
4.984356
 31
0.0
  0
ARC
  5
750
330
919
100
AcDbEntity
  8
ninja1 - Level 25
  6
Continuous
 62
     7
370
    13
100
AcDbCircle
 10
-4.619949
 20
4.993023
 30
0.0
 40
0.0005
210
0.0
220
0.0
230
-1.0
100
AcDbArc
 50
88.854029
 51
270.0
  0
LINE
  5
751
330
919
100
AcDbEntity
  8
ninja1 - Level 25
  6
Continuous
 62
     7
370
    13
100
AcDbLine
 10
3.649949
 20
5.111518
 30
0.0
 11
3.649949
 21
5.129018
 31
0.0
  0
LINE
  5
752
330
919
100
AcDbEntity
  8
ninja1 - Level 25
  6
Continuous
 62
     7
370
    13
100
AcDbLine
 10
3.649949
 20
5.074018
 30
0.0
 11
3.649949
 21
5.091518
 31
0.0
  0
ARC
  5
753
330
919
100
AcDbEntity
  8
ninja1 - Level 25
  6
Continuous
 62
     7
370
    13
100
AcDbCircle
 10
3.637449
 20
5.074018
 30
0.0
 40
0.0125
100
AcDbArc
 50
182.291984
 51
0.0
  0
ARC
  5
754
330
919
100
AcDbEntity
  8
ninja1 - Level 25
  6
Continuous
 62
     7
370
    13
100
AcDbCircle
 10
3.624949
 20
5.074018
 30
0.0
 40
0.0005
100
AcDbArc
 50
90.0
 51
271.145992
  0
LINE
  5
755
330
919
100
AcDbEntity
  8
ninja1 - Level 25
  6
Continuous
 62
     7
370
    13
100
AcDbLine
 10
3.624949
 20
5.082684
 30
0.0
 11
3.624949
 21
5.074518
 31
0.0
  0
ARC
  5
756
330
919
100
AcDbEntity
  8
ninja1 - Level 25
  6
Continuous
 62
     7
370
    13
100
AcDbCircle
 10
3.624949
 20
5.083184
 30
0.0
 40
0.0004999999999985
100
AcDbArc
 50
90.0
 51
270.0
  0
LINE
  5
757
330
919
100
AcDbEntity
  8
ninja1 - Level 25
  6
Continuous
 62
     7
370
    13
100
AcDbLine
 10
3.624949
 20
5.091851
 30
0.0
 11
3.624949
 21
5.083684
 31
0.0
  0
ARC
  5
758
330
919
100
AcDbEntity
  8
ninja1 - Level 25
  6
Continuous
 62
     7
370
    13
100
AcDbCircle
 10
3.624949
 20
5.092351
 30
0.0
 40
0.0004999999999985
100
AcDbArc
 50
90.0
 51
270.0
  0
LINE
  5
759
330
919
100
AcDbEntity
  8
ninja1 - Level 25
  6
Continuous
 62
     7
370
    13
100
AcDbLine
 10
3.624949
 20
5.101018
 30
0.0
 11
3.624949
 21
5.092851
 31
0.0
  0
ARC
  5
75A
330
919
100
AcDbEntity
  8
ninja1 - Level 25
  6
Continuous
 62
     7
370
    13
100
AcDbCircle
 10
3.624949
 20
5.101518
 30
0.0
 40
0.0004999999999985
100
AcDbArc
 50
90.0
 51
270.0
  0
LINE
  5
75B
330
919
100
AcDbEntity
  8
ninja1 - Level 25
  6
Continuous
 62
     7
370
    13
100
AcDbLine
 10
3.624949
 20
5.110184
 30
0.0
 11
3.624949
 21
5.102018
 31
0.0
  0
ARC
  5
75C
330
919
100
AcDbEntity
  8
ninja1 - Level 25
  6
Continuous
 62
     7
370
    13
100
AcDbCircle
 10
3.624949
 20
5.110684
 30
0.0
 40
0.0004999999999985
100
AcDbArc
 50
90.0
 51
270.0
  0
LINE
  5
75D
330
919
100
AcDbEntity
  8
ninja1 - Level 25
  6
Continuous
 62
     7
370
    13
100
AcDbLine
 10
3.624949
 20
5.119351
 30
0.0
 11
3.624949
 21
5.111184
 31
0.0
  0
ARC
  5
75E
330
919
100
AcDbEntity
  8
ninja1 - Level 25
  6
Continuous
 62
     7
370
    13
100
AcDbCircle
 10
3.624949
 20
5.119851
 30
0.0
 40
0.0004999999999985
100
AcDbArc
 50
90.0
 51
270.0
  0
LINE
  5
75F
330
919
100
AcDbEntity
  8
ninja1 - Level 25
  6
Continuous
 62
     7
370
    13
100
AcDbLine
 10
3.624949
 20
5.128518
 30
0.0
 11
3.624949
 21
5.120351
 31
0.0
  0
ARC
  5
760
330
919
100
AcDbEntity
  8
ninja1 - Level 25
  6
Continuous
 62
     7
370
    13
100
AcDbCircle
 10
3.624949
 20
5.129018
 30
0.0
 40
0.0005
100
AcDbArc
 50
88.865461
 51
270.0
  0
LINE
  5
761
330
919
100
AcDbEntity
  8
ninja1 - Level 25
  6
Continuous
 62
     7
370
    13
100
AcDbLine
 10
4.594949
 20
5.111518
 30
0.0
 11
4.594949
 21
5.129018
 31
0.0
  0
LINE
  5
762
330
919
100
AcDbEntity
  8
ninja1 - Level 25
  6
Continuous
 62
     7
370
    13
100
AcDbLine
 10
4.594949
 20
5.074018
 30
0.0
 11
4.594949
 21
5.091518
 31
0.0
  0
ARC
  5
763
330
919
100
AcDbEntity
  8
ninja1 - Level 25
  6
Continuous
 62
     7
370
    13
100
AcDbCircle
 10
-4.607449
 20
5.074018
 30
0.0
 40
0.0125
210
0.0
220
0.0
230
-1.0
100
AcDbArc
 50
182.291984
 51
0.0
  0
ARC
  5
764
330
919
100
AcDbEntity
  8
ninja1 - Level 25
  6
Continuous
 62
     7
370
    13
100
AcDbCircle
 10
-4.619949
 20
5.074018
 30
0.0
 40
0.0005
210
0.0
220
0.0
230
-1.0
100
AcDbArc
 50
90.0
 51
271.145992
  0
LINE
  5
765
330
919
100
AcDbEntity
  8
ninja1 - Level 25
  6
Continuous
 62
     7
370
    13
100
AcDbLine
 10
4.619949
 20
5.082684
 30
0.0
 11
4.619949
 21
5.074518
 31
0.0
  0
ARC
  5
766
330
919
100
AcDbEntity
  8
ninja1 - Level 25
  6
Continuous
 62
     7
370
    13
100
AcDbCircle
 10
-4.619949
 20
5.083184
 30
0.0
 40
0.0004999999999985
210
0.0
220
0.0
230
-1.0
100
AcDbArc
 50
90.0
 51
270.0
  0
LINE
  5
767
330
919
100
AcDbEntity
  8
ninja1 - Level 25
  6
Continuous
 62
     7
370
    13
100
AcDbLine
 10
4.619949
 20
5.091851
 30
0.0
 11
4.619949
 21
5.083684
 31
0.0
  0
ARC
  5
768
330
919
100
AcDbEntity
  8
ninja1 - Level 25
  6
Continuous
 62
     7
370
    13
100
AcDbCircle
 10
-4.619949
 20
5.092351
 30
0.0
 40
0.0004999999999985
210
0.0
220
0.0
230
-1.0
100
AcDbArc
 50
90.0
 51
270.0
  0
LINE
  5
769
330
919
100
AcDbEntity
  8
ninja1 - Level 25
  6
Continuous
 62
     7
370
    13
100
AcDbLine
 10
4.619949
 20
5.101018
 30
0.0
 11
4.619949
 21
5.092851
 31
0.0
  0
ARC
  5
76A
330
919
100
AcDbEntity
  8
ninja1 - Level 25
  6
Continuous
 62
     7
370
    13
100
AcDbCircle
 10
-4.619949
 20
5.101518
 30
0.0
 40
0.0004999999999985
210
0.0
220
0.0
230
-1.0
100
AcDbArc
 50
90.0
 51
270.0
  0
LINE
  5
76B
330
919
100
AcDbEntity
  8
ninja1 - Level 25
  6
Continuous
 62
     7
370
    13
100
AcDbLine
 10
4.619949
 20
5.110184
 30
0.0
 11
4.619949
 21
5.102018
 31
0.0
  0
ARC
  5
76C
330
919
100
AcDbEntity
  8
ninja1 - Level 25
  6
Continuous
 62
     7
370
    13
100
AcDbCircle
 10
-4.619949
 20
5.110684
 30
0.0
 40
0.0004999999999985
210
0.0
220
0.0
230
-1.0
100
AcDbArc
 50
90.0
 51
270.0
  0
LINE
  5
76D
330
919
100
AcDbEntity
  8
ninja1 - Level 25
  6
Continuous
 62
     7
370
    13
100
AcDbLine
 10
4.619949
 20
5.119351
 30
0.0
 11
4.619949
 21
5.111184
 31
0.0
  0
ARC
  5
76E
330
919
100
AcDbEntity
  8
ninja1 - Level 25
  6
Continuous
 62
     7
370
    13
100
AcDbCircle
 10
-4.619949
 20
5.119851
 30
0.0
 40
0.0004999999999985
210
0.0
220
0.0
230
-1.0
100
AcDbArc
 50
90.0
 51
270.0
  0
LINE
  5
76F
330
919
100
AcDbEntity
  8
ninja1 - Level 25
  6
Continuous
 62
     7
370
    13
100
AcDbLine
 10
4.619949
 20
5.128518
 30
0.0
 11
4.619949
 21
5.120351
 31
0.0
  0
ARC
  5
770
330
919
100
AcDbEntity
  8
ninja1 - Level 25
  6
Continuous
 62
     7
370
    13
100
AcDbCircle
 10
-4.619949
 20
5.129018
 30
0.0
 40
0.0005
210
0.0
220
0.0
230
-1.0
100
AcDbArc
 50
88.865461
 51
270.0
  0
LINE
  5
771
330
919
100
AcDbEntity
  8
ninja1 - Level 26
  6
Continuous
 62
     7
370
    13
100
AcDbLine
 10
3.687449
 20
5.196528
 30
0.0
 11
3.687449
 21
5.201528
 31
0.0
  0
LINE
  5
772
330
919
100
AcDbEntity
  8
ninja1 - Level 26
  6
Continuous
 62
     7
370
    13
100
AcDbLine
 10
4.557449
 20
5.201528
 30
0.0
 11
4.557449
 21
5.196528
 31
0.0
  0
LINE
  5
773
330
919
100
AcDbEntity
  8
ninja1 - Level 26
  6
Continuous
 62
     7
370
    13
100
AcDbLine
 10
3.654949
 20
4.333152
 30
0.0
 11
3.679949
 21
4.333152
 31
0.0
  0
LINE
  5
774
330
919
100
AcDbEntity
  8
ninja1 - Level 26
  6
Continuous
 62
     7
370
    13
100
AcDbLine
 10
3.679949
 20
4.333152
 30
0.0
 11
3.679949
 21
4.328152
 31
0.0
  0
LINE
  5
775
330
919
100
AcDbEntity
  8
ninja1 - Level 26
  6
Continuous
 62
     7
370
    13
100
AcDbLine
 10
3.679949
 20
4.328152
 30
0.0
 11
3.654949
 21
4.328152
 31
0.0
  0
ARC
  5
776
330
919
100
AcDbEntity
  8
ninja1 - Level 26
  6
Continuous
 62
     7
370
    13
100
AcDbCircle
 10
3.654949
 20
4.333152
 30
0.0
 40
0.005
100
AcDbArc
 50
180.0
 51
270.0
  0
LINE
  5
777
330
919
100
AcDbEntity
  8
ninja1 - Level 26
  6
Continuous
 62
     7
370
    13
100
AcDbLine
 10
3.649949
 20
4.333152
 30
0.0
 11
3.649949
 21
4.394035
 31
0.0
  0
LINE
  5
778
330
919
100
AcDbEntity
  8
ninja1 - Level 26
  6
Continuous
 62
     7
370
    13
100
AcDbLine
 10
3.649949
 20
4.449038
 30
0.0
 11
3.649949
 21
4.530033
 31
0.0
  0
LINE
  5
779
330
919
100
AcDbEntity
  8
ninja1 - Level 26
  6
Continuous
 62
     7
370
    13
100
AcDbLine
 10
3.649949
 20
4.585033
 30
0.0
 11
3.649949
 21
4.666028
 31
0.0
  0
LINE
  5
77A
330
919
100
AcDbEntity
  8
ninja1 - Level 26
  6
Continuous
 62
     7
370
    13
100
AcDbLine
 10
3.649949
 20
4.721028
 30
0.0
 11
3.649949
 21
4.802028
 31
0.0
  0
LINE
  5
77B
330
919
100
AcDbEntity
  8
ninja1 - Level 26
  6
Continuous
 62
     7
370
    13
100
AcDbLine
 10
3.649949
 20
4.857028
 30
0.0
 11
3.649949
 21
4.938023
 31
0.0
  0
LINE
  5
77C
330
919
100
AcDbEntity
  8
ninja1 - Level 26
  6
Continuous
 62
     7
370
    13
100
AcDbLine
 10
3.649949
 20
4.993023
 30
0.0
 11
3.649949
 21
5.074018
 31
0.0
  0
LINE
  5
77D
330
919
100
AcDbEntity
  8
ninja1 - Level 26
  6
Continuous
 62
     7
370
    13
100
AcDbLine
 10
3.649949
 20
5.12902
 30
0.0
 11
3.649949
 21
5.189903
 31
0.0
  0
ARC
  5
77E
330
919
100
AcDbEntity
  8
ninja1 - Level 26
  6
Continuous
 62
     7
370
    13
100
AcDbCircle
 10
-3.654949
 20
5.189903
 30
0.0
 40
0.005
210
0.0
220
0.0
230
-1.0
100
AcDbArc
 50
0.0
 51
90.0
  0
LINE
  5
77F
330
919
100
AcDbEntity
  8
ninja1 - Level 26
  6
Continuous
 62
     7
370
    13
100
AcDbLine
 10
3.679949
 20
5.194903
 30
0.0
 11
3.654949
 21
5.194903
 31
0.0
  0
LINE
  5
780
330
919
100
AcDbEntity
  8
ninja1 - Level 26
  6
Continuous
 62
     7
370
    13
100
AcDbLine
 10
3.679949
 20
5.189903
 30
0.0
 11
3.679949
 21
5.194903
 31
0.0
  0
LINE
  5
781
330
919
100
AcDbEntity
  8
ninja1 - Level 26
  6
Continuous
 62
     7
370
    13
100
AcDbLine
 10
3.654949
 20
5.189903
 30
0.0
 11
3.679949
 21
5.189903
 31
0.0
  0
LINE
  5
782
330
919
100
AcDbEntity
  8
ninja1 - Level 26
  6
Continuous
 62
     7
370
    13
100
AcDbLine
 10
3.654949
 20
5.189903
 30
0.0
 11
3.654949
 21
4.333152
 31
0.0
  0
LINE
  5
783
330
919
100
AcDbEntity
  8
ninja1 - Level 26
  6
Continuous
 62
     7
370
    13
100
AcDbLine
 10
3.684949
 20
5.194903
 30
0.0
 11
3.684949
 21
5.189903
 31
0.0
  0
LINE
  5
784
330
919
100
AcDbEntity
  8
ninja1 - Level 26
  6
Continuous
 62
     7
370
    13
100
AcDbLine
 10
3.679949
 20
5.189903
 30
0.0
 11
3.684949
 21
5.189903
 31
0.0
  0
LINE
  5
785
330
919
100
AcDbEntity
  8
ninja1 - Level 26
  6
Continuous
 62
     7
370
    13
100
AcDbLine
 10
3.684949
 20
5.194903
 30
0.0
 11
3.679949
 21
5.194903
 31
0.0
  0
LINE
  5
786
330
919
100
AcDbEntity
  8
ninja1 - Level 26
  6
Continuous
 62
     7
370
    13
100
AcDbLine
 10
3.684949
 20
4.328152
 30
0.0
 11
3.684949
 21
4.333152
 31
0.0
  0
LINE
  5
787
330
919
100
AcDbEntity
  8
ninja1 - Level 26
  6
Continuous
 62
     7
370
    13
100
AcDbLine
 10
3.679949
 20
4.333152
 30
0.0
 11
3.684949
 21
4.333152
 31
0.0
  0
LINE
  5
788
330
919
100
AcDbEntity
  8
ninja1 - Level 26
  6
Continuous
 62
     7
370
    13
100
AcDbLine
 10
3.684949
 20
4.328152
 30
0.0
 11
3.679949
 21
4.328152
 31
0.0
  0
LINE
  5
789
330
919
100
AcDbEntity
  8
ninja1 - Level 26
  6
Continuous
 62
     7
370
    13
100
AcDbLine
 10
4.589949
 20
5.189903
 30
0.0
 11
4.564949
 21
5.189903
 31
0.0
  0
LINE
  5
78A
330
919
100
AcDbEntity
  8
ninja1 - Level 26
  6
Continuous
 62
     7
370
    13
100
AcDbLine
 10
4.564949
 20
5.189903
 30
0.0
 11
4.564949
 21
5.194903
 31
0.0
  0
LINE
  5
78B
330
919
100
AcDbEntity
  8
ninja1 - Level 26
  6
Continuous
 62
     7
370
    13
100
AcDbLine
 10
4.564949
 20
5.194903
 30
0.0
 11
4.589949
 21
5.194903
 31
0.0
  0
ARC
  5
78C
330
919
100
AcDbEntity
  8
ninja1 - Level 26
  6
Continuous
 62
     7
370
    13
100
AcDbCircle
 10
4.589949
 20
5.189903
 30
0.0
 40
0.005
100
AcDbArc
 50
0.0
 51
90.0
  0
LINE
  5
78D
330
919
100
AcDbEntity
  8
ninja1 - Level 26
  6
Continuous
 62
     7
370
    13
100
AcDbLine
 10
4.594949
 20
4.333152
 30
0.0
 11
4.594949
 21
4.394035
 31
0.0
  0
LINE
  5
78E
330
919
100
AcDbEntity
  8
ninja1 - Level 26
  6
Continuous
 62
     7
370
    13
100
AcDbLine
 10
4.594949
 20
4.449038
 30
0.0
 11
4.594949
 21
4.530033
 31
0.0
  0
LINE
  5
78F
330
919
100
AcDbEntity
  8
ninja1 - Level 26
  6
Continuous
 62
     7
370
    13
100
AcDbLine
 10
4.594949
 20
4.585033
 30
0.0
 11
4.594949
 21
4.666028
 31
0.0
  0
LINE
  5
790
330
919
100
AcDbEntity
  8
ninja1 - Level 26
  6
Continuous
 62
     7
370
    13
100
AcDbLine
 10
4.594949
 20
4.721028
 30
0.0
 11
4.594949
 21
4.802028
 31
0.0
  0
LINE
  5
791
330
919
100
AcDbEntity
  8
ninja1 - Level 26
  6
Continuous
 62
     7
370
    13
100
AcDbLine
 10
4.594949
 20
4.857028
 30
0.0
 11
4.594949
 21
4.938023
 31
0.0
  0
LINE
  5
792
330
919
100
AcDbEntity
  8
ninja1 - Level 26
  6
Continuous
 62
     7
370
    13
100
AcDbLine
 10
4.594949
 20
4.993023
 30
0.0
 11
4.594949
 21
5.074018
 31
0.0
  0
LINE
  5
793
330
919
100
AcDbEntity
  8
ninja1 - Level 26
  6
Continuous
 62
     7
370
    13
100
AcDbLine
 10
4.594949
 20
5.12902
 30
0.0
 11
4.594949
 21
5.189903
 31
0.0
  0
ARC
  5
794
330
919
100
AcDbEntity
  8
ninja1 - Level 26
  6
Continuous
 62
     7
370
    13
100
AcDbCircle
 10
-4.589949
 20
4.333152
 30
0.0
 40
0.005
210
0.0
220
0.0
230
-1.0
100
AcDbArc
 50
180.0
 51
270.0
  0
LINE
  5
795
330
919
100
AcDbEntity
  8
ninja1 - Level 26
  6
Continuous
 62
     7
370
    13
100
AcDbLine
 10
4.564949
 20
4.328152
 30
0.0
 11
4.589949
 21
4.328152
 31
0.0
  0
LINE
  5
796
330
919
100
AcDbEntity
  8
ninja1 - Level 26
  6
Continuous
 62
     7
370
    13
100
AcDbLine
 10
4.564949
 20
4.333152
 30
0.0
 11
4.564949
 21
4.328152
 31
0.0
  0
LINE
  5
797
330
919
100
AcDbEntity
  8
ninja1 - Level 26
  6
Continuous
 62
     7
370
    13
100
AcDbLine
 10
4.589949
 20
4.333152
 30
0.0
 11
4.564949
 21
4.333152
 31
0.0
  0
LINE
  5
798
330
919
100
AcDbEntity
  8
ninja1 - Level 26
  6
Continuous
 62
     7
370
    13
100
AcDbLine
 10
4.589949
 20
5.189903
 30
0.0
 11
4.589949
 21
4.333152
 31
0.0
  0
LINE
  5
799
330
919
100
AcDbEntity
  8
ninja1 - Level 26
  6
Continuous
 62
     7
370
    13
100
AcDbLine
 10
4.559949
 20
5.194903
 30
0.0
 11
4.559949
 21
5.189903
 31
0.0
  0
LINE
  5
79A
330
919
100
AcDbEntity
  8
ninja1 - Level 26
  6
Continuous
 62
     7
370
    13
100
AcDbLine
 10
4.564949
 20
5.189903
 30
0.0
 11
4.559949
 21
5.189903
 31
0.0
  0
LINE
  5
79B
330
919
100
AcDbEntity
  8
ninja1 - Level 26
  6
Continuous
 62
     7
370
    13
100
AcDbLine
 10
4.559949
 20
5.194903
 30
0.0
 11
4.564949
 21
5.194903
 31
0.0
  0
LINE
  5
79C
330
919
100
AcDbEntity
  8
ninja1 - Level 26
  6
Continuous
 62
     7
370
    13
100
AcDbLine
 10
4.559949
 20
4.328152
 30
0.0
 11
4.559949
 21
4.333152
 31
0.0
  0
LINE
  5
79D
330
919
100
AcDbEntity
  8
ninja1 - Level 26
  6
Continuous
 62
     7
370
    13
100
AcDbLine
 10
4.564949
 20
4.333152
 30
0.0
 11
4.559949
 21
4.333152
 31
0.0
  0
LINE
  5
79E
330
919
100
AcDbEntity
  8
ninja1 - Level 26
  6
Continuous
 62
     7
370
    13
100
AcDbLine
 10
4.559949
 20
4.328152
 30
0.0
 11
4.564949
 21
4.328152
 31
0.0
  0
ARC
  5
79F
330
919
100
AcDbEntity
  8
ninja1 - Level 26
  6
Continuous
 62
     7
370
    13
100
AcDbCircle
 10
3.648949
 20
4.421535
 30
0.0
 40
0.0134749260041462
100
AcDbArc
 50
296.440708
 51
0.0
  0
ARC
  5
7A0
330
919
100
AcDbEntity
  8
ninja1 - Level 26
  6
Continuous
 62
     7
370
    13
100
AcDbCircle
 10
3.648949
 20
4.421535
 30
0.0
 40
0.0134749260041462
100
AcDbArc
 50
0.0
 51
63.559292
  0
ARC
  5
7A1
330
919
100
AcDbEntity
  8
ninja1 - Level 26
  6
Continuous
 62
     7
370
    13
100
AcDbCircle
 10
4.595949
 20
4.421535
 30
0.0
 40
0.0134749260041462
100
AcDbArc
 50
116.440708
 51
243.559292
  0
ARC
  5
7A2
330
919
100
AcDbEntity
  8
ninja1 - Level 26
  6
Continuous
 62
     7
370
    13
100
AcDbCircle
 10
3.648949
 20
4.557533
 30
0.0
 40
0.0134749260041462
100
AcDbArc
 50
296.440708
 51
0.0
  0
ARC
  5
7A3
330
919
100
AcDbEntity
  8
ninja1 - Level 26
  6
Continuous
 62
     7
370
    13
100
AcDbCircle
 10
3.648949
 20
4.557533
 30
0.0
 40
0.0134749260041462
100
AcDbArc
 50
0.0
 51
63.559292
  0
ARC
  5
7A4
330
919
100
AcDbEntity
  8
ninja1 - Level 26
  6
Continuous
 62
     7
370
    13
100
AcDbCircle
 10
3.648949
 20
4.693528
 30
0.0
 40
0.0134749260041462
100
AcDbArc
 50
296.440708
 51
0.0
  0
ARC
  5
7A5
330
919
100
AcDbEntity
  8
ninja1 - Level 26
  6
Continuous
 62
     7
370
    13
100
AcDbCircle
 10
3.648949
 20
4.693528
 30
0.0
 40
0.0134749260041462
100
AcDbArc
 50
0.0
 51
63.559292
  0
LINE
  5
7A6
330
919
100
AcDbEntity
  8
ninja1 - Level 26
  6
Continuous
 62
     7
370
    13
100
AcDbLine
 10
3.629949
 20
4.449035
 30
0.0
 11
3.629949
 21
4.394035
 31
0.0
  0
ARC
  5
7A7
330
919
100
AcDbEntity
  8
ninja1 - Level 26
  6
Continuous
 62
     7
370
    13
100
AcDbCircle
 10
3.637449
 20
4.449035
 30
0.0
 40
0.0075000000000009
100
AcDbArc
 50
0.0
 51
180.0
  0
LINE
  5
7A8
330
919
100
AcDbEntity
  8
ninja1 - Level 26
  6
Continuous
 62
     7
370
    13
100
AcDbLine
 10
3.644949
 20
4.449035
 30
0.0
 11
3.644949
 21
4.394035
 31
0.0
  0
ARC
  5
7A9
330
919
100
AcDbEntity
  8
ninja1 - Level 26
  6
Continuous
 62
     7
370
    13
100
AcDbCircle
 10
-3.637449
 20
4.394035
 30
0.0
 40
0.0075000000000009
210
0.0
220
0.0
230
-1.0
100
AcDbArc
 50
180.0
 51
360.0
  0
LINE
  5
7AA
330
919
100
AcDbEntity
  8
ninja1 - Level 26
  6
Continuous
 62
     7
370
    13
100
AcDbLine
 10
3.629949
 20
4.394035
 30
0.0
 11
3.624949
 21
4.394035
 31
0.0
  0
LINE
  5
7AB
330
919
100
AcDbEntity
  8
ninja1 - Level 26
  6
Continuous
 62
     7
370
    13
100
AcDbLine
 10
3.649949
 20
4.394035
 30
0.0
 11
3.644949
 21
4.394035
 31
0.0
  0
ARC
  5
7AC
330
919
100
AcDbEntity
  8
ninja1 - Level 26
  6
Continuous
 62
     7
370
    13
100
AcDbCircle
 10
3.637449
 20
4.394035
 30
0.0
 40
0.0125000000000009
100
AcDbArc
 50
180.0
 51
0.0
  0
LINE
  5
7AD
330
919
100
AcDbEntity
  8
ninja1 - Level 26
  6
Continuous
 62
     7
370
    13
100
AcDbLine
 10
3.644949
 20
4.449035
 30
0.0
 11
3.649949
 21
4.449035
 31
0.0
  0
LINE
  5
7AE
330
919
100
AcDbEntity
  8
ninja1 - Level 26
  6
Continuous
 62
     7
370
    13
100
AcDbLine
 10
3.649949
 20
4.431538
 30
0.0
 11
3.649949
 21
4.411538
 31
0.0
  0
LINE
  5
7AF
330
919
100
AcDbEntity
  8
ninja1 - Level 26
  6
Continuous
 62
     7
370
    13
100
AcDbLine
 10
3.649949
 20
4.394038
 30
0.0
 11
3.649949
 21
4.394035
 31
0.0
  0
LINE
  5
7B0
330
919
100
AcDbEntity
  8
ninja1 - Level 26
  6
Continuous
 62
     7
370
    13
100
AcDbLine
 10
3.624949
 20
4.449035
 30
0.0
 11
3.629949
 21
4.449035
 31
0.0
  0
ARC
  5
7B1
330
919
100
AcDbEntity
  8
ninja1 - Level 26
  6
Continuous
 62
     7
370
    13
100
AcDbCircle
 10
-3.637449
 20
4.449035
 30
0.0
 40
0.0125000000000009
210
0.0
220
0.0
230
-1.0
100
AcDbArc
 50
360.0
 51
180.0
  0
LINE
  5
7B2
330
919
100
AcDbEntity
  8
ninja1 - Level 26
  6
Continuous
 62
     7
370
    13
100
AcDbLine
 10
3.624949
 20
4.449035
 30
0.0
 11
3.624949
 21
4.448538
 31
0.0
  0
LINE
  5
7B3
330
919
100
AcDbEntity
  8
ninja1 - Level 26
  6
Continuous
 62
     7
370
    13
100
AcDbLine
 10
3.624949
 20
4.440371
 30
0.0
 11
3.624949
 21
4.439371
 31
0.0
  0
LINE
  5
7B4
330
919
100
AcDbEntity
  8
ninja1 - Level 26
  6
Continuous
 62
     7
370
    13
100
AcDbLine
 10
3.624949
 20
4.431204
 30
0.0
 11
3.624949
 21
4.430204
 31
0.0
  0
LINE
  5
7B5
330
919
100
AcDbEntity
  8
ninja1 - Level 26
  6
Continuous
 62
     7
370
    13
100
AcDbLine
 10
3.624949
 20
4.422038
 30
0.0
 11
3.624949
 21
4.421038
 31
0.0
  0
LINE
  5
7B6
330
919
100
AcDbEntity
  8
ninja1 - Level 26
  6
Continuous
 62
     7
370
    13
100
AcDbLine
 10
3.624949
 20
4.412871
 30
0.0
 11
3.624949
 21
4.411871
 31
0.0
  0
LINE
  5
7B7
330
919
100
AcDbEntity
  8
ninja1 - Level 26
  6
Continuous
 62
     7
370
    13
100
AcDbLine
 10
3.624949
 20
4.403704
 30
0.0
 11
3.624949
 21
4.402704
 31
0.0
  0
LINE
  5
7B8
330
919
100
AcDbEntity
  8
ninja1 - Level 26
  6
Continuous
 62
     7
370
    13
100
AcDbLine
 10
3.624949
 20
4.394538
 30
0.0
 11
3.624949
 21
4.394035
 31
0.0
  0
LINE
  5
7B9
330
919
100
AcDbEntity
  8
ninja1 - Level 26
  6
Continuous
 62
     7
370
    13
100
AcDbLine
 10
4.599949
 20
4.449035
 30
0.0
 11
4.599949
 21
4.394035
 31
0.0
  0
ARC
  5
7BA
330
919
100
AcDbEntity
  8
ninja1 - Level 26
  6
Continuous
 62
     7
370
    13
100
AcDbCircle
 10
-4.607449
 20
4.449035
 30
0.0
 40
0.0075000000000009
210
0.0
220
0.0
230
-1.0
100
AcDbArc
 50
0.0
 51
180.0
  0
LINE
  5
7BB
330
919
100
AcDbEntity
  8
ninja1 - Level 26
  6
Continuous
 62
     7
370
    13
100
AcDbLine
 10
4.614949
 20
4.449035
 30
0.0
 11
4.614949
 21
4.394035
 31
0.0
  0
ARC
  5
7BC
330
919
100
AcDbEntity
  8
ninja1 - Level 26
  6
Continuous
 62
     7
370
    13
100
AcDbCircle
 10
4.607449
 20
4.394035
 30
0.0
 40
0.0075000000000009
100
AcDbArc
 50
180.0
 51
360.0
  0
LINE
  5
7BD
330
919
100
AcDbEntity
  8
ninja1 - Level 26
  6
Continuous
 62
     7
370
    13
100
AcDbLine
 10
4.594949
 20
4.394035
 30
0.0
 11
4.599949
 21
4.394035
 31
0.0
  0
LINE
  5
7BE
330
919
100
AcDbEntity
  8
ninja1 - Level 26
  6
Continuous
 62
     7
370
    13
100
AcDbLine
 10
4.614949
 20
4.394035
 30
0.0
 11
4.619949
 21
4.394035
 31
0.0
  0
ARC
  5
7BF
330
919
100
AcDbEntity
  8
ninja1 - Level 26
  6
Continuous
 62
     7
370
    13
100
AcDbCircle
 10
-4.607449
 20
4.394035
 30
0.0
 40
0.0125000000000009
210
0.0
220
0.0
230
-1.0
100
AcDbArc
 50
180.0
 51
0.0
  0
LINE
  5
7C0
330
919
100
AcDbEntity
  8
ninja1 - Level 26
  6
Continuous
 62
     7
370
    13
100
AcDbLine
 10
4.594949
 20
4.431538
 30
0.0
 11
4.594949
 21
4.411538
 31
0.0
  0
LINE
  5
7C1
330
919
100
AcDbEntity
  8
ninja1 - Level 26
  6
Continuous
 62
     7
370
    13
100
AcDbLine
 10
4.594949
 20
4.394038
 30
0.0
 11
4.594949
 21
4.394035
 31
0.0
  0
LINE
  5
7C2
330
919
100
AcDbEntity
  8
ninja1 - Level 26
  6
Continuous
 62
     7
370
    13
100
AcDbLine
 10
4.599949
 20
4.449035
 30
0.0
 11
4.594949
 21
4.449035
 31
0.0
  0
LINE
  5
7C3
330
919
100
AcDbEntity
  8
ninja1 - Level 26
  6
Continuous
 62
     7
370
    13
100
AcDbLine
 10
4.619949
 20
4.449035
 30
0.0
 11
4.614949
 21
4.449035
 31
0.0
  0
ARC
  5
7C4
330
919
100
AcDbEntity
  8
ninja1 - Level 26
  6
Continuous
 62
     7
370
    13
100
AcDbCircle
 10
4.607449
 20
4.449035
 30
0.0
 40
0.0125000000000009
100
AcDbArc
 50
360.0
 51
180.0
  0
LINE
  5
7C5
330
919
100
AcDbEntity
  8
ninja1 - Level 26
  6
Continuous
 62
     7
370
    13
100
AcDbLine
 10
4.619949
 20
4.449035
 30
0.0
 11
4.619949
 21
4.448538
 31
0.0
  0
LINE
  5
7C6
330
919
100
AcDbEntity
  8
ninja1 - Level 26
  6
Continuous
 62
     7
370
    13
100
AcDbLine
 10
4.619949
 20
4.440371
 30
0.0
 11
4.619949
 21
4.439371
 31
0.0
  0
LINE
  5
7C7
330
919
100
AcDbEntity
  8
ninja1 - Level 26
  6
Continuous
 62
     7
370
    13
100
AcDbLine
 10
4.619949
 20
4.431204
 30
0.0
 11
4.619949
 21
4.430204
 31
0.0
  0
LINE
  5
7C8
330
919
100
AcDbEntity
  8
ninja1 - Level 26
  6
Continuous
 62
     7
370
    13
100
AcDbLine
 10
4.619949
 20
4.422038
 30
0.0
 11
4.619949
 21
4.421038
 31
0.0
  0
LINE
  5
7C9
330
919
100
AcDbEntity
  8
ninja1 - Level 26
  6
Continuous
 62
     7
370
    13
100
AcDbLine
 10
4.619949
 20
4.412871
 30
0.0
 11
4.619949
 21
4.411871
 31
0.0
  0
LINE
  5
7CA
330
919
100
AcDbEntity
  8
ninja1 - Level 26
  6
Continuous
 62
     7
370
    13
100
AcDbLine
 10
4.619949
 20
4.403704
 30
0.0
 11
4.619949
 21
4.402704
 31
0.0
  0
LINE
  5
7CB
330
919
100
AcDbEntity
  8
ninja1 - Level 26
  6
Continuous
 62
     7
370
    13
100
AcDbLine
 10
4.619949
 20
4.394538
 30
0.0
 11
4.619949
 21
4.394035
 31
0.0
  0
LINE
  5
7CC
330
919
100
AcDbEntity
  8
ninja1 - Level 26
  6
Continuous
 62
     7
370
    13
100
AcDbLine
 10
3.629949
 20
4.585033
 30
0.0
 11
3.629949
 21
4.530033
 31
0.0
  0
ARC
  5
7CD
330
919
100
AcDbEntity
  8
ninja1 - Level 26
  6
Continuous
 62
     7
370
    13
100
AcDbCircle
 10
3.637449
 20
4.585033
 30
0.0
 40
0.0075000000000009
100
AcDbArc
 50
0.0
 51
180.0
  0
LINE
  5
7CE
330
919
100
AcDbEntity
  8
ninja1 - Level 26
  6
Continuous
 62
     7
370
    13
100
AcDbLine
 10
3.644949
 20
4.585033
 30
0.0
 11
3.644949
 21
4.530033
 31
0.0
  0
ARC
  5
7CF
330
919
100
AcDbEntity
  8
ninja1 - Level 26
  6
Continuous
 62
     7
370
    13
100
AcDbCircle
 10
-3.637449
 20
4.530033
 30
0.0
 40
0.0075000000000009
210
0.0
220
0.0
230
-1.0
100
AcDbArc
 50
180.0
 51
360.0
  0
LINE
  5
7D0
330
919
100
AcDbEntity
  8
ninja1 - Level 26
  6
Continuous
 62
     7
370
    13
100
AcDbLine
 10
3.629949
 20
4.530033
 30
0.0
 11
3.624949
 21
4.530033
 31
0.0
  0
LINE
  5
7D1
330
919
100
AcDbEntity
  8
ninja1 - Level 26
  6
Continuous
 62
     7
370
    13
100
AcDbLine
 10
3.649949
 20
4.530033
 30
0.0
 11
3.644949
 21
4.530033
 31
0.0
  0
ARC
  5
7D2
330
919
100
AcDbEntity
  8
ninja1 - Level 26
  6
Continuous
 62
     7
370
    13
100
AcDbCircle
 10
3.637449
 20
4.530033
 30
0.0
 40
0.0125000000000009
100
AcDbArc
 50
180.0
 51
182.291963
  0
LINE
  5
7D3
330
919
100
AcDbEntity
  8
ninja1 - Level 26
  6
Continuous
 62
     7
370
    13
100
AcDbLine
 10
3.644949
 20
4.585033
 30
0.0
 11
3.649949
 21
4.585033
 31
0.0
  0
LINE
  5
7D4
330
919
100
AcDbEntity
  8
ninja1 - Level 26
  6
Continuous
 62
     7
370
    13
100
AcDbLine
 10
3.649949
 20
4.567533
 30
0.0
 11
3.649949
 21
4.547533
 31
0.0
  0
LINE
  5
7D5
330
919
100
AcDbEntity
  8
ninja1 - Level 26
  6
Continuous
 62
     7
370
    13
100
AcDbLine
 10
3.624949
 20
4.585033
 30
0.0
 11
3.629949
 21
4.585033
 31
0.0
  0
ARC
  5
7D6
330
919
100
AcDbEntity
  8
ninja1 - Level 26
  6
Continuous
 62
     7
370
    13
100
AcDbCircle
 10
-3.637449
 20
4.585033
 30
0.0
 40
0.0125000000000009
210
0.0
220
0.0
230
-1.0
100
AcDbArc
 50
177.708016
 51
180.0
  0
LINE
  5
7D7
330
919
100
AcDbEntity
  8
ninja1 - Level 26
  6
Continuous
 62
     7
370
    13
100
AcDbLine
 10
3.624949
 20
4.585033
 30
0.0
 11
3.624949
 21
4.584533
 31
0.0
  0
LINE
  5
7D8
330
919
100
AcDbEntity
  8
ninja1 - Level 26
  6
Continuous
 62
     7
370
    13
100
AcDbLine
 10
3.624949
 20
4.576366
 30
0.0
 11
3.624949
 21
4.575366
 31
0.0
  0
LINE
  5
7D9
330
919
100
AcDbEntity
  8
ninja1 - Level 26
  6
Continuous
 62
     7
370
    13
100
AcDbLine
 10
3.624949
 20
4.567199
 30
0.0
 11
3.624949
 21
4.566199
 31
0.0
  0
LINE
  5
7DA
330
919
100
AcDbEntity
  8
ninja1 - Level 26
  6
Continuous
 62
     7
370
    13
100
AcDbLine
 10
3.624949
 20
4.558033
 30
0.0
 11
3.624949
 21
4.557033
 31
0.0
  0
LINE
  5
7DB
330
919
100
AcDbEntity
  8
ninja1 - Level 26
  6
Continuous
 62
     7
370
    13
100
AcDbLine
 10
3.624949
 20
4.548866
 30
0.0
 11
3.624949
 21
4.547866
 31
0.0
  0
LINE
  5
7DC
330
919
100
AcDbEntity
  8
ninja1 - Level 26
  6
Continuous
 62
     7
370
    13
100
AcDbLine
 10
3.624949
 20
4.539699
 30
0.0
 11
3.624949
 21
4.538699
 31
0.0
  0
LINE
  5
7DD
330
919
100
AcDbEntity
  8
ninja1 - Level 26
  6
Continuous
 62
     7
370
    13
100
AcDbLine
 10
3.624949
 20
4.530533
 30
0.0
 11
3.624949
 21
4.530033
 31
0.0
  0
LINE
  5
7DE
330
919
100
AcDbEntity
  8
ninja1 - Level 26
  6
Continuous
 62
     7
370
    13
100
AcDbLine
 10
3.629949
 20
4.721028
 30
0.0
 11
3.629949
 21
4.666028
 31
0.0
  0
ARC
  5
7DF
330
919
100
AcDbEntity
  8
ninja1 - Level 26
  6
Continuous
 62
     7
370
    13
100
AcDbCircle
 10
3.637449
 20
4.721028
 30
0.0
 40
0.0075000000000009
100
AcDbArc
 50
0.0
 51
180.0
  0
LINE
  5
7E0
330
919
100
AcDbEntity
  8
ninja1 - Level 26
  6
Continuous
 62
     7
370
    13
100
AcDbLine
 10
3.644949
 20
4.721028
 30
0.0
 11
3.644949
 21
4.666028
 31
0.0
  0
ARC
  5
7E1
330
919
100
AcDbEntity
  8
ninja1 - Level 26
  6
Continuous
 62
     7
370
    13
100
AcDbCircle
 10
-3.637449
 20
4.666028
 30
0.0
 40
0.0075000000000009
210
0.0
220
0.0
230
-1.0
100
AcDbArc
 50
180.0
 51
360.0
  0
LINE
  5
7E2
330
919
100
AcDbEntity
  8
ninja1 - Level 26
  6
Continuous
 62
     7
370
    13
100
AcDbLine
 10
3.629949
 20
4.666028
 30
0.0
 11
3.624949
 21
4.666028
 31
0.0
  0
LINE
  5
7E3
330
919
100
AcDbEntity
  8
ninja1 - Level 26
  6
Continuous
 62
     7
370
    13
100
AcDbLine
 10
3.649949
 20
4.666028
 30
0.0
 11
3.644949
 21
4.666028
 31
0.0
  0
ARC
  5
7E4
330
919
100
AcDbEntity
  8
ninja1 - Level 26
  6
Continuous
 62
     7
370
    13
100
AcDbCircle
 10
3.637449
 20
4.666028
 30
0.0
 40
0.0125000000000009
100
AcDbArc
 50
180.0
 51
182.291963
  0
LINE
  5
7E5
330
919
100
AcDbEntity
  8
ninja1 - Level 26
  6
Continuous
 62
     7
370
    13
100
AcDbLine
 10
3.644949
 20
4.721028
 30
0.0
 11
3.649949
 21
4.721028
 31
0.0
  0
LINE
  5
7E6
330
919
100
AcDbEntity
  8
ninja1 - Level 26
  6
Continuous
 62
     7
370
    13
100
AcDbLine
 10
3.649949
 20
4.703528
 30
0.0
 11
3.649949
 21
4.683528
 31
0.0
  0
LINE
  5
7E7
330
919
100
AcDbEntity
  8
ninja1 - Level 26
  6
Continuous
 62
     7
370
    13
100
AcDbLine
 10
3.624949
 20
4.721028
 30
0.0
 11
3.629949
 21
4.721028
 31
0.0
  0
ARC
  5
7E8
330
919
100
AcDbEntity
  8
ninja1 - Level 26
  6
Continuous
 62
     7
370
    13
100
AcDbCircle
 10
-3.637449
 20
4.721028
 30
0.0
 40
0.0125000000000009
210
0.0
220
0.0
230
-1.0
100
AcDbArc
 50
177.708016
 51
180.0
  0
LINE
  5
7E9
330
919
100
AcDbEntity
  8
ninja1 - Level 26
  6
Continuous
 62
     7
370
    13
100
AcDbLine
 10
3.624949
 20
4.721028
 30
0.0
 11
3.624949
 21
4.720528
 31
0.0
  0
LINE
  5
7EA
330
919
100
AcDbEntity
  8
ninja1 - Level 26
  6
Continuous
 62
     7
370
    13
100
AcDbLine
 10
3.624949
 20
4.712361
 30
0.0
 11
3.624949
 21
4.711361
 31
0.0
  0
LINE
  5
7EB
330
919
100
AcDbEntity
  8
ninja1 - Level 26
  6
Continuous
 62
     7
370
    13
100
AcDbLine
 10
3.624949
 20
4.703194
 30
0.0
 11
3.624949
 21
4.702194
 31
0.0
  0
LINE
  5
7EC
330
919
100
AcDbEntity
  8
ninja1 - Level 26
  6
Continuous
 62
     7
370
    13
100
AcDbLine
 10
3.624949
 20
4.694028
 30
0.0
 11
3.624949
 21
4.693028
 31
0.0
  0
LINE
  5
7ED
330
919
100
AcDbEntity
  8
ninja1 - Level 26
  6
Continuous
 62
     7
370
    13
100
AcDbLine
 10
3.624949
 20
4.684861
 30
0.0
 11
3.624949
 21
4.683861
 31
0.0
  0
LINE
  5
7EE
330
919
100
AcDbEntity
  8
ninja1 - Level 26
  6
Continuous
 62
     7
370
    13
100
AcDbLine
 10
3.624949
 20
4.675694
 30
0.0
 11
3.624949
 21
4.674694
 31
0.0
  0
LINE
  5
7EF
330
919
100
AcDbEntity
  8
ninja1 - Level 26
  6
Continuous
 62
     7
370
    13
100
AcDbLine
 10
3.624949
 20
4.666528
 30
0.0
 11
3.624949
 21
4.666028
 31
0.0
  0
LINE
  5
7F0
330
919
100
AcDbEntity
  8
ninja1 - Level 26
  6
Continuous
 62
     7
370
    13
100
AcDbLine
 10
3.687449
 20
4.316528
 30
0.0
 11
3.687449
 21
4.236528
 31
0.0
  0
LINE
  5
7F1
330
919
100
AcDbEntity
  8
ninja1 - Level 26
  6
Continuous
 62
     7
370
    13
100
AcDbLine
 10
3.680449
 20
4.236528
 30
0.0
 11
3.687449
 21
4.236528
 31
0.0
  0
LINE
  5
7F2
330
919
100
AcDbEntity
  8
ninja1 - Level 26
  6
Continuous
 62
     7
370
    13
100
AcDbLine
 10
3.680449
 20
4.236528
 30
0.0
 11
3.680449
 21
4.316528
 31
0.0
  0
LINE
  5
7F3
330
919
100
AcDbEntity
  8
ninja1 - Level 26
  6
Continuous
 62
     7
370
    13
100
AcDbLine
 10
3.680449
 20
4.316528
 30
0.0
 11
3.687449
 21
4.316528
 31
0.0
  0
LINE
  5
7F4
330
919
100
AcDbEntity
  8
ninja1 - Level 26
  6
Continuous
 62
     7
370
    13
100
AcDbLine
 10
3.597449
 20
4.326528
 30
0.0
 11
3.677449
 21
4.326528
 31
0.0
  0
LINE
  5
7F5
330
919
100
AcDbEntity
  8
ninja1 - Level 26
  6
Continuous
 62
     7
370
    13
100
AcDbLine
 10
3.677449
 20
4.319528
 30
0.0
 11
3.677449
 21
4.326528
 31
0.0
  0
LINE
  5
7F6
330
919
100
AcDbEntity
  8
ninja1 - Level 26
  6
Continuous
 62
     7
370
    13
100
AcDbLine
 10
3.677449
 20
4.319528
 30
0.0
 11
3.597449
 21
4.319528
 31
0.0
  0
LINE
  5
7F7
330
919
100
AcDbEntity
  8
ninja1 - Level 26
  6
Continuous
 62
     7
370
    13
100
AcDbLine
 10
3.597449
 20
4.326528
 30
0.0
 11
3.597449
 21
4.319528
 31
0.0
  0
ARC
  5
7F8
330
919
100
AcDbEntity
  8
ninja1 - Level 26
  6
Continuous
 62
     7
370
    13
100
AcDbCircle
 10
-3.677449
 20
4.316528
 30
0.0
 40
0.01
210
0.0
220
0.0
230
-1.0
100
AcDbArc
 50
90.0
 51
180.0
  0
ARC
  5
7F9
330
919
100
AcDbEntity
  8
ninja1 - Level 26
  6
Continuous
 62
     7
370
    13
100
AcDbCircle
 10
3.677449
 20
4.316528
 30
0.0
 40
0.003
100
AcDbArc
 50
0.0
 51
90.0
  0
ARC
  5
7FA
330
919
100
AcDbEntity
  8
ninja1 - Level 26
  6
Continuous
 62
     7
370
    13
100
AcDbCircle
 10
3.597449
 20
4.316528
 30
0.0
 40
0.003
100
AcDbArc
 50
90.0
 51
180.0
  0
LINE
  5
7FB
330
919
100
AcDbEntity
  8
ninja1 - Level 26
  6
Continuous
 62
     7
370
    13
100
AcDbLine
 10
3.587449
 20
4.316528
 30
0.0
 11
3.594449
 21
4.316528
 31
0.0
  0
ARC
  5
7FC
330
919
100
AcDbEntity
  8
ninja1 - Level 26
  6
Continuous
 62
     7
370
    13
100
AcDbCircle
 10
-3.597449
 20
4.316528
 30
0.0
 40
0.01
210
0.0
220
0.0
230
-1.0
100
AcDbArc
 50
0.0
 51
90.0
  0
LINE
  5
7FD
330
919
100
AcDbEntity
  8
ninja1 - Level 26
  6
Continuous
 62
     7
370
    13
100
AcDbLine
 10
3.677449
 20
4.226528
 30
0.0
 11
3.597449
 21
4.226528
 31
0.0
  0
LINE
  5
7FE
330
919
100
AcDbEntity
  8
ninja1 - Level 26
  6
Continuous
 62
     7
370
    13
100
AcDbLine
 10
3.597449
 20
4.226528
 30
0.0
 11
3.597449
 21
4.233528
 31
0.0
  0
LINE
  5
7FF
330
919
100
AcDbEntity
  8
ninja1 - Level 26
  6
Continuous
 62
     7
370
    13
100
AcDbLine
 10
3.597449
 20
4.233528
 30
0.0
 11
3.677449
 21
4.233528
 31
0.0
  0
LINE
  5
800
330
919
100
AcDbEntity
  8
ninja1 - Level 26
  6
Continuous
 62
     7
370
    13
100
AcDbLine
 10
3.677449
 20
4.233528
 30
0.0
 11
3.677449
 21
4.226528
 31
0.0
  0
LINE
  5
801
330
919
100
AcDbEntity
  8
ninja1 - Level 26
  6
Continuous
 62
     7
370
    13
100
AcDbLine
 10
3.594449
 20
4.316528
 30
0.0
 11
3.594449
 21
4.236528
 31
0.0
  0
LINE
  5
802
330
919
100
AcDbEntity
  8
ninja1 - Level 26
  6
Continuous
 62
     7
370
    13
100
AcDbLine
 10
3.587449
 20
4.236528
 30
0.0
 11
3.594449
 21
4.236528
 31
0.0
  0
LINE
  5
803
330
919
100
AcDbEntity
  8
ninja1 - Level 26
  6
Continuous
 62
     7
370
    13
100
AcDbLine
 10
3.587449
 20
4.236528
 30
0.0
 11
3.587449
 21
4.316528
 31
0.0
  0
ARC
  5
804
330
919
100
AcDbEntity
  8
ninja1 - Level 26
  6
Continuous
 62
     7
370
    13
100
AcDbCircle
 10
-3.677449
 20
4.236528
 30
0.0
 40
0.01
210
0.0
220
0.0
230
-1.0
100
AcDbArc
 50
180.0
 51
270.0
  0
ARC
  5
805
330
919
100
AcDbEntity
  8
ninja1 - Level 26
  6
Continuous
 62
     7
370
    13
100
AcDbCircle
 10
3.677449
 20
4.236528
 30
0.0
 40
0.003
100
AcDbArc
 50
270.0
 51
0.0
  0
ARC
  5
806
330
919
100
AcDbEntity
  8
ninja1 - Level 26
  6
Continuous
 62
     7
370
    13
100
AcDbCircle
 10
3.597449
 20
4.236528
 30
0.0
 40
0.003
100
AcDbArc
 50
180.0
 51
270.0
  0
ARC
  5
807
330
919
100
AcDbEntity
  8
ninja1 - Level 26
  6
Continuous
 62
     7
370
    13
100
AcDbCircle
 10
-3.597449
 20
4.236528
 30
0.0
 40
0.01
210
0.0
220
0.0
230
-1.0
100
AcDbArc
 50
270.0
 51
0.0
  0
LINE
  5
808
330
919
100
AcDbEntity
  8
ninja1 - Level 26
  6
Continuous
 62
     7
370
    13
100
AcDbLine
 10
4.564449
 20
4.236528
 30
0.0
 11
4.564449
 21
4.316528
 31
0.0
  0
LINE
  5
809
330
919
100
AcDbEntity
  8
ninja1 - Level 26
  6
Continuous
 62
     7
370
    13
100
AcDbLine
 10
4.564449
 20
4.236528
 30
0.0
 11
4.557449
 21
4.236528
 31
0.0
  0
LINE
  5
80A
330
919
100
AcDbEntity
  8
ninja1 - Level 26
  6
Continuous
 62
     7
370
    13
100
AcDbLine
 10
4.557449
 20
4.316528
 30
0.0
 11
4.557449
 21
4.236528
 31
0.0
  0
LINE
  5
80B
330
919
100
AcDbEntity
  8
ninja1 - Level 26
  6
Continuous
 62
     7
370
    13
100
AcDbLine
 10
4.564449
 20
4.316528
 30
0.0
 11
4.557449
 21
4.316528
 31
0.0
  0
LINE
  5
80C
330
919
100
AcDbEntity
  8
ninja1 - Level 26
  6
Continuous
 62
     7
370
    13
100
AcDbLine
 10
4.567449
 20
4.319528
 30
0.0
 11
4.647449
 21
4.319528
 31
0.0
  0
LINE
  5
80D
330
919
100
AcDbEntity
  8
ninja1 - Level 26
  6
Continuous
 62
     7
370
    13
100
AcDbLine
 10
4.567449
 20
4.319528
 30
0.0
 11
4.567449
 21
4.326528
 31
0.0
  0
LINE
  5
80E
330
919
100
AcDbEntity
  8
ninja1 - Level 26
  6
Continuous
 62
     7
370
    13
100
AcDbLine
 10
4.647449
 20
4.326528
 30
0.0
 11
4.567449
 21
4.326528
 31
0.0
  0
LINE
  5
80F
330
919
100
AcDbEntity
  8
ninja1 - Level 26
  6
Continuous
 62
     7
370
    13
100
AcDbLine
 10
4.647449
 20
4.326528
 30
0.0
 11
4.647449
 21
4.319528
 31
0.0
  0
ARC
  5
810
330
919
100
AcDbEntity
  8
ninja1 - Level 26
  6
Continuous
 62
     7
370
    13
100
AcDbCircle
 10
-4.567449
 20
4.316528
 30
0.0
 40
0.003
210
0.0
220
0.0
230
-1.0
100
AcDbArc
 50
0.0
 51
90.0
  0
ARC
  5
811
330
919
100
AcDbEntity
  8
ninja1 - Level 26
  6
Continuous
 62
     7
370
    13
100
AcDbCircle
 10
4.567449
 20
4.316528
 30
0.0
 40
0.01
100
AcDbArc
 50
90.0
 51
180.0
  0
ARC
  5
812
330
919
100
AcDbEntity
  8
ninja1 - Level 26
  6
Continuous
 62
     7
370
    13
100
AcDbCircle
 10
4.647449
 20
4.316528
 30
0.0
 40
0.01
100
AcDbArc
 50
0.0
 51
90.0
  0
LINE
  5
813
330
919
100
AcDbEntity
  8
ninja1 - Level 26
  6
Continuous
 62
     7
370
    13
100
AcDbLine
 10
4.657449
 20
4.316528
 30
0.0
 11
4.650449
 21
4.316528
 31
0.0
  0
ARC
  5
814
330
919
100
AcDbEntity
  8
ninja1 - Level 26
  6
Continuous
 62
     7
370
    13
100
AcDbCircle
 10
-4.647449
 20
4.316528
 30
0.0
 40
0.003
210
0.0
220
0.0
230
-1.0
100
AcDbArc
 50
90.0
 51
180.0
  0
LINE
  5
815
330
919
100
AcDbEntity
  8
ninja1 - Level 26
  6
Continuous
 62
     7
370
    13
100
AcDbLine
 10
4.647449
 20
4.233528
 30
0.0
 11
4.567449
 21
4.233528
 31
0.0
  0
LINE
  5
816
330
919
100
AcDbEntity
  8
ninja1 - Level 26
  6
Continuous
 62
     7
370
    13
100
AcDbLine
 10
4.647449
 20
4.226528
 30
0.0
 11
4.647449
 21
4.233528
 31
0.0
  0
LINE
  5
817
330
919
100
AcDbEntity
  8
ninja1 - Level 26
  6
Continuous
 62
     7
370
    13
100
AcDbLine
 10
4.567449
 20
4.226528
 30
0.0
 11
4.647449
 21
4.226528
 31
0.0
  0
LINE
  5
818
330
919
100
AcDbEntity
  8
ninja1 - Level 26
  6
Continuous
 62
     7
370
    13
100
AcDbLine
 10
4.567449
 20
4.233528
 30
0.0
 11
4.567449
 21
4.226528
 31
0.0
  0
LINE
  5
819
330
919
100
AcDbEntity
  8
ninja1 - Level 26
  6
Continuous
 62
     7
370
    13
100
AcDbLine
 10
4.657449
 20
4.236528
 30
0.0
 11
4.657449
 21
4.316528
 31
0.0
  0
LINE
  5
81A
330
919
100
AcDbEntity
  8
ninja1 - Level 26
  6
Continuous
 62
     7
370
    13
100
AcDbLine
 10
4.657449
 20
4.236528
 30
0.0
 11
4.650449
 21
4.236528
 31
0.0
  0
LINE
  5
81B
330
919
100
AcDbEntity
  8
ninja1 - Level 26
  6
Continuous
 62
     7
370
    13
100
AcDbLine
 10
4.650449
 20
4.316528
 30
0.0
 11
4.650449
 21
4.236528
 31
0.0
  0
ARC
  5
81C
330
919
100
AcDbEntity
  8
ninja1 - Level 26
  6
Continuous
 62
     7
370
    13
100
AcDbCircle
 10
-4.567449
 20
4.236528
 30
0.0
 40
0.003
210
0.0
220
0.0
230
-1.0
100
AcDbArc
 50
270.0
 51
0.0
  0
ARC
  5
81D
330
919
100
AcDbEntity
  8
ninja1 - Level 26
  6
Continuous
 62
     7
370
    13
100
AcDbCircle
 10
4.567449
 20
4.236528
 30
0.0
 40
0.01
100
AcDbArc
 50
180.0
 51
270.0
  0
ARC
  5
81E
330
919
100
AcDbEntity
  8
ninja1 - Level 26
  6
Continuous
 62
     7
370
    13
100
AcDbCircle
 10
4.647449
 20
4.236528
 30
0.0
 40
0.01
100
AcDbArc
 50
270.0
 51
0.0
  0
ARC
  5
81F
330
919
100
AcDbEntity
  8
ninja1 - Level 26
  6
Continuous
 62
     7
370
    13
100
AcDbCircle
 10
-4.647449
 20
4.236528
 30
0.0
 40
0.003
210
0.0
220
0.0
230
-1.0
100
AcDbArc
 50
180.0
 51
270.0
  0
ARC
  5
820
330
919
100
AcDbEntity
  8
ninja1 - Level 26
  6
Continuous
 62
     7
370
    13
100
AcDbCircle
 10
4.595949
 20
4.557533
 30
0.0
 40
0.0134749260041462
100
AcDbArc
 50
116.440708
 51
243.559292
  0
ARC
  5
821
330
919
100
AcDbEntity
  8
ninja1 - Level 26
  6
Continuous
 62
     7
370
    13
100
AcDbCircle
 10
3.648949
 20
4.965523
 30
0.0
 40
0.0134749260041462
100
AcDbArc
 50
296.440708
 51
0.0
  0
ARC
  5
822
330
919
100
AcDbEntity
  8
ninja1 - Level 26
  6
Continuous
 62
     7
370
    13
100
AcDbCircle
 10
3.648949
 20
4.965523
 30
0.0
 40
0.0134749260041462
100
AcDbArc
 50
0.0
 51
63.559292
  0
ARC
  5
823
330
919
100
AcDbEntity
  8
ninja1 - Level 26
  6
Continuous
 62
     7
370
    13
100
AcDbCircle
 10
4.595949
 20
4.965523
 30
0.0
 40
0.0134749260041462
100
AcDbArc
 50
116.440708
 51
243.559292
  0
ARC
  5
824
330
919
100
AcDbEntity
  8
ninja1 - Level 26
  6
Continuous
 62
     7
370
    13
100
AcDbCircle
 10
4.595949
 20
4.693528
 30
0.0
 40
0.0134749260041462
100
AcDbArc
 50
116.440708
 51
243.559292
  0
ARC
  5
825
330
919
100
AcDbEntity
  8
ninja1 - Level 26
  6
Continuous
 62
     7
370
    13
100
AcDbCircle
 10
3.648949
 20
4.829527
 30
0.0
 40
0.0134749260041462
100
AcDbArc
 50
296.440708
 51
0.0
  0
ARC
  5
826
330
919
100
AcDbEntity
  8
ninja1 - Level 26
  6
Continuous
 62
     7
370
    13
100
AcDbCircle
 10
3.648949
 20
4.829527
 30
0.0
 40
0.0134749260041462
100
AcDbArc
 50
0.0
 51
63.559292
  0
ARC
  5
827
330
919
100
AcDbEntity
  8
ninja1 - Level 26
  6
Continuous
 62
     7
370
    13
100
AcDbCircle
 10
4.595949
 20
4.829527
 30
0.0
 40
0.0134749260041462
100
AcDbArc
 50
116.440708
 51
243.559292
  0
LINE
  5
828
330
919
100
AcDbEntity
  8
ninja1 - Level 26
  6
Continuous
 62
     7
370
    13
100
AcDbLine
 10
4.599949
 20
4.585033
 30
0.0
 11
4.599949
 21
4.530033
 31
0.0
  0
ARC
  5
829
330
919
100
AcDbEntity
  8
ninja1 - Level 26
  6
Continuous
 62
     7
370
    13
100
AcDbCircle
 10
-4.607449
 20
4.585033
 30
0.0
 40
0.0075000000000009
210
0.0
220
0.0
230
-1.0
100
AcDbArc
 50
0.0
 51
180.0
  0
LINE
  5
82A
330
919
100
AcDbEntity
  8
ninja1 - Level 26
  6
Continuous
 62
     7
370
    13
100
AcDbLine
 10
4.614949
 20
4.585033
 30
0.0
 11
4.614949
 21
4.530033
 31
0.0
  0
ARC
  5
82B
330
919
100
AcDbEntity
  8
ninja1 - Level 26
  6
Continuous
 62
     7
370
    13
100
AcDbCircle
 10
4.607449
 20
4.530033
 30
0.0
 40
0.0075000000000009
100
AcDbArc
 50
180.0
 51
360.0
  0
LINE
  5
82C
330
919
100
AcDbEntity
  8
ninja1 - Level 26
  6
Continuous
 62
     7
370
    13
100
AcDbLine
 10
4.594949
 20
4.530033
 30
0.0
 11
4.599949
 21
4.530033
 31
0.0
  0
LINE
  5
82D
330
919
100
AcDbEntity
  8
ninja1 - Level 26
  6
Continuous
 62
     7
370
    13
100
AcDbLine
 10
4.614949
 20
4.530033
 30
0.0
 11
4.619949
 21
4.530033
 31
0.0
  0
ARC
  5
82E
330
919
100
AcDbEntity
  8
ninja1 - Level 26
  6
Continuous
 62
     7
370
    13
100
AcDbCircle
 10
-4.607449
 20
4.530033
 30
0.0
 40
0.0125000000000009
210
0.0
220
0.0
230
-1.0
100
AcDbArc
 50
357.708037
 51
0.0
  0
LINE
  5
82F
330
919
100
AcDbEntity
  8
ninja1 - Level 26
  6
Continuous
 62
     7
370
    13
100
AcDbLine
 10
4.594949
 20
4.567533
 30
0.0
 11
4.594949
 21
4.547533
 31
0.0
  0
LINE
  5
830
330
919
100
AcDbEntity
  8
ninja1 - Level 26
  6
Continuous
 62
     7
370
    13
100
AcDbLine
 10
4.599949
 20
4.585033
 30
0.0
 11
4.594949
 21
4.585033
 31
0.0
  0
LINE
  5
831
330
919
100
AcDbEntity
  8
ninja1 - Level 26
  6
Continuous
 62
     7
370
    13
100
AcDbLine
 10
4.619949
 20
4.585033
 30
0.0
 11
4.614949
 21
4.585033
 31
0.0
  0
ARC
  5
832
330
919
100
AcDbEntity
  8
ninja1 - Level 26
  6
Continuous
 62
     7
370
    13
100
AcDbCircle
 10
4.607449
 20
4.585033
 30
0.0
 40
0.0125000000000009
100
AcDbArc
 50
360.0
 51
2.291984
  0
LINE
  5
833
330
919
100
AcDbEntity
  8
ninja1 - Level 26
  6
Continuous
 62
     7
370
    13
100
AcDbLine
 10
4.619949
 20
4.585033
 30
0.0
 11
4.619949
 21
4.584533
 31
0.0
  0
LINE
  5
834
330
919
100
AcDbEntity
  8
ninja1 - Level 26
  6
Continuous
 62
     7
370
    13
100
AcDbLine
 10
4.619949
 20
4.576366
 30
0.0
 11
4.619949
 21
4.575366
 31
0.0
  0
LINE
  5
835
330
919
100
AcDbEntity
  8
ninja1 - Level 26
  6
Continuous
 62
     7
370
    13
100
AcDbLine
 10
4.619949
 20
4.567199
 30
0.0
 11
4.619949
 21
4.566199
 31
0.0
  0
LINE
  5
836
330
919
100
AcDbEntity
  8
ninja1 - Level 26
  6
Continuous
 62
     7
370
    13
100
AcDbLine
 10
4.619949
 20
4.558033
 30
0.0
 11
4.619949
 21
4.557033
 31
0.0
  0
LINE
  5
837
330
919
100
AcDbEntity
  8
ninja1 - Level 26
  6
Continuous
 62
     7
370
    13
100
AcDbLine
 10
4.619949
 20
4.548866
 30
0.0
 11
4.619949
 21
4.547866
 31
0.0
  0
LINE
  5
838
330
919
100
AcDbEntity
  8
ninja1 - Level 26
  6
Continuous
 62
     7
370
    13
100
AcDbLine
 10
4.619949
 20
4.539699
 30
0.0
 11
4.619949
 21
4.538699
 31
0.0
  0
LINE
  5
839
330
919
100
AcDbEntity
  8
ninja1 - Level 26
  6
Continuous
 62
     7
370
    13
100
AcDbLine
 10
4.619949
 20
4.530533
 30
0.0
 11
4.619949
 21
4.530033
 31
0.0
  0
LINE
  5
83A
330
919
100
AcDbEntity
  8
ninja1 - Level 26
  6
Continuous
 62
     7
370
    13
100
AcDbLine
 10
4.599949
 20
4.721028
 30
0.0
 11
4.599949
 21
4.666028
 31
0.0
  0
ARC
  5
83B
330
919
100
AcDbEntity
  8
ninja1 - Level 26
  6
Continuous
 62
     7
370
    13
100
AcDbCircle
 10
-4.607449
 20
4.721028
 30
0.0
 40
0.0075000000000009
210
0.0
220
0.0
230
-1.0
100
AcDbArc
 50
0.0
 51
180.0
  0
LINE
  5
83C
330
919
100
AcDbEntity
  8
ninja1 - Level 26
  6
Continuous
 62
     7
370
    13
100
AcDbLine
 10
4.614949
 20
4.721028
 30
0.0
 11
4.614949
 21
4.666028
 31
0.0
  0
ARC
  5
83D
330
919
100
AcDbEntity
  8
ninja1 - Level 26
  6
Continuous
 62
     7
370
    13
100
AcDbCircle
 10
4.607449
 20
4.666028
 30
0.0
 40
0.0075000000000009
100
AcDbArc
 50
180.0
 51
360.0
  0
LINE
  5
83E
330
919
100
AcDbEntity
  8
ninja1 - Level 26
  6
Continuous
 62
     7
370
    13
100
AcDbLine
 10
4.594949
 20
4.666028
 30
0.0
 11
4.599949
 21
4.666028
 31
0.0
  0
LINE
  5
83F
330
919
100
AcDbEntity
  8
ninja1 - Level 26
  6
Continuous
 62
     7
370
    13
100
AcDbLine
 10
4.614949
 20
4.666028
 30
0.0
 11
4.619949
 21
4.666028
 31
0.0
  0
ARC
  5
840
330
919
100
AcDbEntity
  8
ninja1 - Level 26
  6
Continuous
 62
     7
370
    13
100
AcDbCircle
 10
-4.607449
 20
4.666028
 30
0.0
 40
0.0125000000000009
210
0.0
220
0.0
230
-1.0
100
AcDbArc
 50
357.708037
 51
0.0
  0
LINE
  5
841
330
919
100
AcDbEntity
  8
ninja1 - Level 26
  6
Continuous
 62
     7
370
    13
100
AcDbLine
 10
4.594949
 20
4.703528
 30
0.0
 11
4.594949
 21
4.683528
 31
0.0
  0
LINE
  5
842
330
919
100
AcDbEntity
  8
ninja1 - Level 26
  6
Continuous
 62
     7
370
    13
100
AcDbLine
 10
4.599949
 20
4.721028
 30
0.0
 11
4.594949
 21
4.721028
 31
0.0
  0
LINE
  5
843
330
919
100
AcDbEntity
  8
ninja1 - Level 26
  6
Continuous
 62
     7
370
    13
100
AcDbLine
 10
4.619949
 20
4.721028
 30
0.0
 11
4.614949
 21
4.721028
 31
0.0
  0
ARC
  5
844
330
919
100
AcDbEntity
  8
ninja1 - Level 26
  6
Continuous
 62
     7
370
    13
100
AcDbCircle
 10
4.607449
 20
4.721028
 30
0.0
 40
0.0125000000000009
100
AcDbArc
 50
360.0
 51
2.291984
  0
LINE
  5
845
330
919
100
AcDbEntity
  8
ninja1 - Level 26
  6
Continuous
 62
     7
370
    13
100
AcDbLine
 10
4.619949
 20
4.721028
 30
0.0
 11
4.619949
 21
4.720528
 31
0.0
  0
LINE
  5
846
330
919
100
AcDbEntity
  8
ninja1 - Level 26
  6
Continuous
 62
     7
370
    13
100
AcDbLine
 10
4.619949
 20
4.712361
 30
0.0
 11
4.619949
 21
4.711361
 31
0.0
  0
LINE
  5
847
330
919
100
AcDbEntity
  8
ninja1 - Level 26
  6
Continuous
 62
     7
370
    13
100
AcDbLine
 10
4.619949
 20
4.703194
 30
0.0
 11
4.619949
 21
4.702194
 31
0.0
  0
LINE
  5
848
330
919
100
AcDbEntity
  8
ninja1 - Level 26
  6
Continuous
 62
     7
370
    13
100
AcDbLine
 10
4.619949
 20
4.694028
 30
0.0
 11
4.619949
 21
4.693028
 31
0.0
  0
LINE
  5
849
330
919
100
AcDbEntity
  8
ninja1 - Level 26
  6
Continuous
 62
     7
370
    13
100
AcDbLine
 10
4.619949
 20
4.684861
 30
0.0
 11
4.619949
 21
4.683861
 31
0.0
  0
LINE
  5
84A
330
919
100
AcDbEntity
  8
ninja1 - Level 26
  6
Continuous
 62
     7
370
    13
100
AcDbLine
 10
4.619949
 20
4.675694
 30
0.0
 11
4.619949
 21
4.674694
 31
0.0
  0
LINE
  5
84B
330
919
100
AcDbEntity
  8
ninja1 - Level 26
  6
Continuous
 62
     7
370
    13
100
AcDbLine
 10
4.619949
 20
4.666528
 30
0.0
 11
4.619949
 21
4.666028
 31
0.0
  0
LINE
  5
84C
330
919
100
AcDbEntity
  8
ninja1 - Level 26
  6
Continuous
 62
     7
370
    13
100
AcDbLine
 10
3.644949
 20
4.802028
 30
0.0
 11
3.644949
 21
4.857028
 31
0.0
  0
ARC
  5
84D
330
919
100
AcDbEntity
  8
ninja1 - Level 26
  6
Continuous
 62
     7
370
    13
100
AcDbCircle
 10
-3.637449
 20
4.802028
 30
0.0
 40
0.0075000000000009
210
0.0
220
0.0
230
-1.0
100
AcDbArc
 50
180.0
 51
0.0
  0
LINE
  5
84E
330
919
100
AcDbEntity
  8
ninja1 - Level 26
  6
Continuous
 62
     7
370
    13
100
AcDbLine
 10
3.629949
 20
4.802028
 30
0.0
 11
3.629949
 21
4.857028
 31
0.0
  0
ARC
  5
84F
330
919
100
AcDbEntity
  8
ninja1 - Level 26
  6
Continuous
 62
     7
370
    13
100
AcDbCircle
 10
3.637449
 20
4.857028
 30
0.0
 40
0.0075000000000009
100
AcDbArc
 50
360.0
 51
180.0
  0
LINE
  5
850
330
919
100
AcDbEntity
  8
ninja1 - Level 26
  6
Continuous
 62
     7
370
    13
100
AcDbLine
 10
3.649949
 20
4.857028
 30
0.0
 11
3.644949
 21
4.857028
 31
0.0
  0
LINE
  5
851
330
919
100
AcDbEntity
  8
ninja1 - Level 26
  6
Continuous
 62
     7
370
    13
100
AcDbLine
 10
3.629949
 20
4.857028
 30
0.0
 11
3.624949
 21
4.857028
 31
0.0
  0
ARC
  5
852
330
919
100
AcDbEntity
  8
ninja1 - Level 26
  6
Continuous
 62
     7
370
    13
100
AcDbCircle
 10
-3.637449
 20
4.857028
 30
0.0
 40
0.0125000000000009
210
0.0
220
0.0
230
-1.0
100
AcDbArc
 50
177.708037
 51
180.0
  0
LINE
  5
853
330
919
100
AcDbEntity
  8
ninja1 - Level 26
  6
Continuous
 62
     7
370
    13
100
AcDbLine
 10
3.649949
 20
4.819528
 30
0.0
 11
3.649949
 21
4.839528
 31
0.0
  0
LINE
  5
854
330
919
100
AcDbEntity
  8
ninja1 - Level 26
  6
Continuous
 62
     7
370
    13
100
AcDbLine
 10
3.644949
 20
4.802028
 30
0.0
 11
3.649949
 21
4.802028
 31
0.0
  0
LINE
  5
855
330
919
100
AcDbEntity
  8
ninja1 - Level 26
  6
Continuous
 62
     7
370
    13
100
AcDbLine
 10
3.624949
 20
4.802028
 30
0.0
 11
3.629949
 21
4.802028
 31
0.0
  0
ARC
  5
856
330
919
100
AcDbEntity
  8
ninja1 - Level 26
  6
Continuous
 62
     7
370
    13
100
AcDbCircle
 10
3.637449
 20
4.802028
 30
0.0
 40
0.0125000000000009
100
AcDbArc
 50
180.0
 51
182.291984
  0
LINE
  5
857
330
919
100
AcDbEntity
  8
ninja1 - Level 26
  6
Continuous
 62
     7
370
    13
100
AcDbLine
 10
3.624949
 20
4.802028
 30
0.0
 11
3.624949
 21
4.802528
 31
0.0
  0
LINE
  5
858
330
919
100
AcDbEntity
  8
ninja1 - Level 26
  6
Continuous
 62
     7
370
    13
100
AcDbLine
 10
3.624949
 20
4.810694
 30
0.0
 11
3.624949
 21
4.811694
 31
0.0
  0
LINE
  5
859
330
919
100
AcDbEntity
  8
ninja1 - Level 26
  6
Continuous
 62
     7
370
    13
100
AcDbLine
 10
3.624949
 20
4.819861
 30
0.0
 11
3.624949
 21
4.820861
 31
0.0
  0
LINE
  5
85A
330
919
100
AcDbEntity
  8
ninja1 - Level 26
  6
Continuous
 62
     7
370
    13
100
AcDbLine
 10
3.624949
 20
4.829028
 30
0.0
 11
3.624949
 21
4.830028
 31
0.0
  0
LINE
  5
85B
330
919
100
AcDbEntity
  8
ninja1 - Level 26
  6
Continuous
 62
     7
370
    13
100
AcDbLine
 10
3.624949
 20
4.838194
 30
0.0
 11
3.624949
 21
4.839194
 31
0.0
  0
LINE
  5
85C
330
919
100
AcDbEntity
  8
ninja1 - Level 26
  6
Continuous
 62
     7
370
    13
100
AcDbLine
 10
3.624949
 20
4.847361
 30
0.0
 11
3.624949
 21
4.848361
 31
0.0
  0
LINE
  5
85D
330
919
100
AcDbEntity
  8
ninja1 - Level 26
  6
Continuous
 62
     7
370
    13
100
AcDbLine
 10
3.624949
 20
4.856528
 30
0.0
 11
3.624949
 21
4.857028
 31
0.0
  0
LINE
  5
85E
330
919
100
AcDbEntity
  8
ninja1 - Level 26
  6
Continuous
 62
     7
370
    13
100
AcDbLine
 10
4.614949
 20
4.802028
 30
0.0
 11
4.614949
 21
4.857028
 31
0.0
  0
ARC
  5
85F
330
919
100
AcDbEntity
  8
ninja1 - Level 26
  6
Continuous
 62
     7
370
    13
100
AcDbCircle
 10
4.607449
 20
4.802028
 30
0.0
 40
0.0075000000000009
100
AcDbArc
 50
180.0
 51
0.0
  0
LINE
  5
860
330
919
100
AcDbEntity
  8
ninja1 - Level 26
  6
Continuous
 62
     7
370
    13
100
AcDbLine
 10
4.599949
 20
4.802028
 30
0.0
 11
4.599949
 21
4.857028
 31
0.0
  0
ARC
  5
861
330
919
100
AcDbEntity
  8
ninja1 - Level 26
  6
Continuous
 62
     7
370
    13
100
AcDbCircle
 10
-4.607449
 20
4.857028
 30
0.0
 40
0.0075000000000009
210
0.0
220
0.0
230
-1.0
100
AcDbArc
 50
360.0
 51
180.0
  0
LINE
  5
862
330
919
100
AcDbEntity
  8
ninja1 - Level 26
  6
Continuous
 62
     7
370
    13
100
AcDbLine
 10
4.614949
 20
4.857028
 30
0.0
 11
4.619949
 21
4.857028
 31
0.0
  0
LINE
  5
863
330
919
100
AcDbEntity
  8
ninja1 - Level 26
  6
Continuous
 62
     7
370
    13
100
AcDbLine
 10
4.594949
 20
4.857028
 30
0.0
 11
4.599949
 21
4.857028
 31
0.0
  0
ARC
  5
864
330
919
100
AcDbEntity
  8
ninja1 - Level 26
  6
Continuous
 62
     7
370
    13
100
AcDbCircle
 10
4.607449
 20
4.857028
 30
0.0
 40
0.0125000000000009
100
AcDbArc
 50
360.0
 51
2.291963
  0
LINE
  5
865
330
919
100
AcDbEntity
  8
ninja1 - Level 26
  6
Continuous
 62
     7
370
    13
100
AcDbLine
 10
4.599949
 20
4.802028
 30
0.0
 11
4.594949
 21
4.802028
 31
0.0
  0
LINE
  5
866
330
919
100
AcDbEntity
  8
ninja1 - Level 26
  6
Continuous
 62
     7
370
    13
100
AcDbLine
 10
4.594949
 20
4.819528
 30
0.0
 11
4.594949
 21
4.839528
 31
0.0
  0
LINE
  5
867
330
919
100
AcDbEntity
  8
ninja1 - Level 26
  6
Continuous
 62
     7
370
    13
100
AcDbLine
 10
4.619949
 20
4.802028
 30
0.0
 11
4.614949
 21
4.802028
 31
0.0
  0
ARC
  5
868
330
919
100
AcDbEntity
  8
ninja1 - Level 26
  6
Continuous
 62
     7
370
    13
100
AcDbCircle
 10
-4.607449
 20
4.802028
 30
0.0
 40
0.0125000000000009
210
0.0
220
0.0
230
-1.0
100
AcDbArc
 50
357.708016
 51
0.0
  0
LINE
  5
869
330
919
100
AcDbEntity
  8
ninja1 - Level 26
  6
Continuous
 62
     7
370
    13
100
AcDbLine
 10
4.619949
 20
4.802028
 30
0.0
 11
4.619949
 21
4.802528
 31
0.0
  0
LINE
  5
86A
330
919
100
AcDbEntity
  8
ninja1 - Level 26
  6
Continuous
 62
     7
370
    13
100
AcDbLine
 10
4.619949
 20
4.810694
 30
0.0
 11
4.619949
 21
4.811694
 31
0.0
  0
LINE
  5
86B
330
919
100
AcDbEntity
  8
ninja1 - Level 26
  6
Continuous
 62
     7
370
    13
100
AcDbLine
 10
4.619949
 20
4.819861
 30
0.0
 11
4.619949
 21
4.820861
 31
0.0
  0
LINE
  5
86C
330
919
100
AcDbEntity
  8
ninja1 - Level 26
  6
Continuous
 62
     7
370
    13
100
AcDbLine
 10
4.619949
 20
4.829028
 30
0.0
 11
4.619949
 21
4.830028
 31
0.0
  0
LINE
  5
86D
330
919
100
AcDbEntity
  8
ninja1 - Level 26
  6
Continuous
 62
     7
370
    13
100
AcDbLine
 10
4.619949
 20
4.838194
 30
0.0
 11
4.619949
 21
4.839194
 31
0.0
  0
LINE
  5
86E
330
919
100
AcDbEntity
  8
ninja1 - Level 26
  6
Continuous
 62
     7
370
    13
100
AcDbLine
 10
4.619949
 20
4.847361
 30
0.0
 11
4.619949
 21
4.848361
 31
0.0
  0
LINE
  5
86F
330
919
100
AcDbEntity
  8
ninja1 - Level 26
  6
Continuous
 62
     7
370
    13
100
AcDbLine
 10
4.619949
 20
4.856528
 30
0.0
 11
4.619949
 21
4.857028
 31
0.0
  0
LINE
  5
870
330
919
100
AcDbEntity
  8
ninja1 - Level 26
  6
Continuous
 62
     7
370
    13
100
AcDbLine
 10
3.644949
 20
4.938023
 30
0.0
 11
3.644949
 21
4.993023
 31
0.0
  0
ARC
  5
871
330
919
100
AcDbEntity
  8
ninja1 - Level 26
  6
Continuous
 62
     7
370
    13
100
AcDbCircle
 10
-3.637449
 20
4.938023
 30
0.0
 40
0.0075000000000009
210
0.0
220
0.0
230
-1.0
100
AcDbArc
 50
180.0
 51
0.0
  0
LINE
  5
872
330
919
100
AcDbEntity
  8
ninja1 - Level 26
  6
Continuous
 62
     7
370
    13
100
AcDbLine
 10
3.629949
 20
4.938023
 30
0.0
 11
3.629949
 21
4.993023
 31
0.0
  0
ARC
  5
873
330
919
100
AcDbEntity
  8
ninja1 - Level 26
  6
Continuous
 62
     7
370
    13
100
AcDbCircle
 10
3.637449
 20
4.993023
 30
0.0
 40
0.0075000000000009
100
AcDbArc
 50
360.0
 51
180.0
  0
LINE
  5
874
330
919
100
AcDbEntity
  8
ninja1 - Level 26
  6
Continuous
 62
     7
370
    13
100
AcDbLine
 10
3.649949
 20
4.993023
 30
0.0
 11
3.644949
 21
4.993023
 31
0.0
  0
LINE
  5
875
330
919
100
AcDbEntity
  8
ninja1 - Level 26
  6
Continuous
 62
     7
370
    13
100
AcDbLine
 10
3.629949
 20
4.993023
 30
0.0
 11
3.624949
 21
4.993023
 31
0.0
  0
ARC
  5
876
330
919
100
AcDbEntity
  8
ninja1 - Level 26
  6
Continuous
 62
     7
370
    13
100
AcDbCircle
 10
-3.637449
 20
4.993023
 30
0.0
 40
0.0125000000000009
210
0.0
220
0.0
230
-1.0
100
AcDbArc
 50
177.708037
 51
180.0
  0
LINE
  5
877
330
919
100
AcDbEntity
  8
ninja1 - Level 26
  6
Continuous
 62
     7
370
    13
100
AcDbLine
 10
3.649949
 20
4.955523
 30
0.0
 11
3.649949
 21
4.975523
 31
0.0
  0
LINE
  5
878
330
919
100
AcDbEntity
  8
ninja1 - Level 26
  6
Continuous
 62
     7
370
    13
100
AcDbLine
 10
3.644949
 20
4.938023
 30
0.0
 11
3.649949
 21
4.938023
 31
0.0
  0
LINE
  5
879
330
919
100
AcDbEntity
  8
ninja1 - Level 26
  6
Continuous
 62
     7
370
    13
100
AcDbLine
 10
3.624949
 20
4.938023
 30
0.0
 11
3.629949
 21
4.938023
 31
0.0
  0
ARC
  5
87A
330
919
100
AcDbEntity
  8
ninja1 - Level 26
  6
Continuous
 62
     7
370
    13
100
AcDbCircle
 10
3.637449
 20
4.938023
 30
0.0
 40
0.0125000000000009
100
AcDbArc
 50
180.0
 51
182.291984
  0
LINE
  5
87B
330
919
100
AcDbEntity
  8
ninja1 - Level 26
  6
Continuous
 62
     7
370
    13
100
AcDbLine
 10
3.624949
 20
4.938023
 30
0.0
 11
3.624949
 21
4.938523
 31
0.0
  0
LINE
  5
87C
330
919
100
AcDbEntity
  8
ninja1 - Level 26
  6
Continuous
 62
     7
370
    13
100
AcDbLine
 10
3.624949
 20
4.946689
 30
0.0
 11
3.624949
 21
4.947689
 31
0.0
  0
LINE
  5
87D
330
919
100
AcDbEntity
  8
ninja1 - Level 26
  6
Continuous
 62
     7
370
    13
100
AcDbLine
 10
3.624949
 20
4.955856
 30
0.0
 11
3.624949
 21
4.956856
 31
0.0
  0
LINE
  5
87E
330
919
100
AcDbEntity
  8
ninja1 - Level 26
  6
Continuous
 62
     7
370
    13
100
AcDbLine
 10
3.624949
 20
4.965023
 30
0.0
 11
3.624949
 21
4.966023
 31
0.0
  0
LINE
  5
87F
330
919
100
AcDbEntity
  8
ninja1 - Level 26
  6
Continuous
 62
     7
370
    13
100
AcDbLine
 10
3.624949
 20
4.974189
 30
0.0
 11
3.624949
 21
4.975189
 31
0.0
  0
LINE
  5
880
330
919
100
AcDbEntity
  8
ninja1 - Level 26
  6
Continuous
 62
     7
370
    13
100
AcDbLine
 10
3.624949
 20
4.983356
 30
0.0
 11
3.624949
 21
4.984356
 31
0.0
  0
LINE
  5
881
330
919
100
AcDbEntity
  8
ninja1 - Level 26
  6
Continuous
 62
     7
370
    13
100
AcDbLine
 10
3.624949
 20
4.992523
 30
0.0
 11
3.624949
 21
4.993023
 31
0.0
  0
LINE
  5
882
330
919
100
AcDbEntity
  8
ninja1 - Level 26
  6
Continuous
 62
     7
370
    13
100
AcDbLine
 10
4.614949
 20
4.938023
 30
0.0
 11
4.614949
 21
4.993023
 31
0.0
  0
ARC
  5
883
330
919
100
AcDbEntity
  8
ninja1 - Level 26
  6
Continuous
 62
     7
370
    13
100
AcDbCircle
 10
4.607449
 20
4.938023
 30
0.0
 40
0.0075000000000009
100
AcDbArc
 50
180.0
 51
0.0
  0
LINE
  5
884
330
919
100
AcDbEntity
  8
ninja1 - Level 26
  6
Continuous
 62
     7
370
    13
100
AcDbLine
 10
4.599949
 20
4.938023
 30
0.0
 11
4.599949
 21
4.993023
 31
0.0
  0
ARC
  5
885
330
919
100
AcDbEntity
  8
ninja1 - Level 26
  6
Continuous
 62
     7
370
    13
100
AcDbCircle
 10
-4.607449
 20
4.993023
 30
0.0
 40
0.0075000000000009
210
0.0
220
0.0
230
-1.0
100
AcDbArc
 50
360.0
 51
180.0
  0
LINE
  5
886
330
919
100
AcDbEntity
  8
ninja1 - Level 26
  6
Continuous
 62
     7
370
    13
100
AcDbLine
 10
4.614949
 20
4.993023
 30
0.0
 11
4.619949
 21
4.993023
 31
0.0
  0
LINE
  5
887
330
919
100
AcDbEntity
  8
ninja1 - Level 26
  6
Continuous
 62
     7
370
    13
100
AcDbLine
 10
4.594949
 20
4.993023
 30
0.0
 11
4.599949
 21
4.993023
 31
0.0
  0
ARC
  5
888
330
919
100
AcDbEntity
  8
ninja1 - Level 26
  6
Continuous
 62
     7
370
    13
100
AcDbCircle
 10
4.607449
 20
4.993023
 30
0.0
 40
0.0125000000000009
100
AcDbArc
 50
360.0
 51
2.291963
  0
LINE
  5
889
330
919
100
AcDbEntity
  8
ninja1 - Level 26
  6
Continuous
 62
     7
370
    13
100
AcDbLine
 10
4.599949
 20
4.938023
 30
0.0
 11
4.594949
 21
4.938023
 31
0.0
  0
LINE
  5
88A
330
919
100
AcDbEntity
  8
ninja1 - Level 26
  6
Continuous
 62
     7
370
    13
100
AcDbLine
 10
4.594949
 20
4.955523
 30
0.0
 11
4.594949
 21
4.975523
 31
0.0
  0
LINE
  5
88B
330
919
100
AcDbEntity
  8
ninja1 - Level 26
  6
Continuous
 62
     7
370
    13
100
AcDbLine
 10
4.619949
 20
4.938023
 30
0.0
 11
4.614949
 21
4.938023
 31
0.0
  0
ARC
  5
88C
330
919
100
AcDbEntity
  8
ninja1 - Level 26
  6
Continuous
 62
     7
370
    13
100
AcDbCircle
 10
-4.607449
 20
4.938023
 30
0.0
 40
0.0125000000000009
210
0.0
220
0.0
230
-1.0
100
AcDbArc
 50
357.708016
 51
0.0
  0
LINE
  5
88D
330
919
100
AcDbEntity
  8
ninja1 - Level 26
  6
Continuous
 62
     7
370
    13
100
AcDbLine
 10
4.619949
 20
4.938023
 30
0.0
 11
4.619949
 21
4.938523
 31
0.0
  0
LINE
  5
88E
330
919
100
AcDbEntity
  8
ninja1 - Level 26
  6
Continuous
 62
     7
370
    13
100
AcDbLine
 10
4.619949
 20
4.946689
 30
0.0
 11
4.619949
 21
4.947689
 31
0.0
  0
LINE
  5
88F
330
919
100
AcDbEntity
  8
ninja1 - Level 26
  6
Continuous
 62
     7
370
    13
100
AcDbLine
 10
4.619949
 20
4.955856
 30
0.0
 11
4.619949
 21
4.956856
 31
0.0
  0
LINE
  5
890
330
919
100
AcDbEntity
  8
ninja1 - Level 26
  6
Continuous
 62
     7
370
    13
100
AcDbLine
 10
4.619949
 20
4.965023
 30
0.0
 11
4.619949
 21
4.966023
 31
0.0
  0
LINE
  5
891
330
919
100
AcDbEntity
  8
ninja1 - Level 26
  6
Continuous
 62
     7
370
    13
100
AcDbLine
 10
4.619949
 20
4.974189
 30
0.0
 11
4.619949
 21
4.975189
 31
0.0
  0
LINE
  5
892
330
919
100
AcDbEntity
  8
ninja1 - Level 26
  6
Continuous
 62
     7
370
    13
100
AcDbLine
 10
4.619949
 20
4.983356
 30
0.0
 11
4.619949
 21
4.984356
 31
0.0
  0
LINE
  5
893
330
919
100
AcDbEntity
  8
ninja1 - Level 26
  6
Continuous
 62
     7
370
    13
100
AcDbLine
 10
4.619949
 20
4.992523
 30
0.0
 11
4.619949
 21
4.993023
 31
0.0
  0
LINE
  5
894
330
919
100
AcDbEntity
  8
ninja1 - Level 26
  6
Continuous
 62
     7
370
    13
100
AcDbLine
 10
3.687449
 20
5.266528
 30
0.0
 11
3.699449
 21
5.266528
 31
0.0
  0
LINE
  5
895
330
919
100
AcDbEntity
  8
ninja1 - Level 26
  6
Continuous
 62
     7
370
    13
100
AcDbLine
 10
3.687449
 20
5.201528
 30
0.0
 11
3.699449
 21
5.201528
 31
0.0
  0
LINE
  5
896
330
919
100
AcDbEntity
  8
ninja1 - Level 26
  6
Continuous
 62
     7
370
    13
100
AcDbLine
 10
3.687449
 20
5.201528
 30
0.0
 11
3.687449
 21
5.206528
 31
0.0
  0
LINE
  5
897
330
919
100
AcDbEntity
  8
ninja1 - Level 26
  6
Continuous
 62
     7
370
    13
100
AcDbLine
 10
3.699449
 20
5.201528
 30
0.0
 11
3.699449
 21
5.266528
 31
0.0
  0
LINE
  5
898
330
919
100
AcDbEntity
  8
ninja1 - Level 26
  6
Continuous
 62
     7
370
    13
100
AcDbLine
 10
3.72219
 20
5.256528
 30
0.0
 11
3.699449
 21
5.256528
 31
0.0
  0
SPLINE
  5
899
330
919
100
AcDbEntity
  8
ninja1 - Level 26
  6
Continuous
 62
     7
370
    13
100
AcDbSpline
210
0.0
220
0.0
230
1.0
 70
     8
 71
     3
 72
     8
 73
     4
 74
     0
 42
0.000000001
 43
0.0000000001
 40
0.0
 40
0.0
 40
0.0
 40
0.0
 40
1.0
 40
1.0
 40
1.0
 40
1.0
 10
3.729448835444733
 20
5.266527525755641
 30
0.0
 10
3.729521601609207
 20
5.266567574227075
 30
0.0
 10
3.726128826341449
 20
5.262464177087284
 30
0.0
 10
3.722190000659701
 20
5.256527525755624
 30
0.0
  0
LINE
  5
89C
330
919
100
AcDbEntity
  8
ninja1 - Level 26
  6
Continuous
 62
     7
370
    13
100
AcDbLine
 10
3.729449
 20
5.266528
 30
0.0
 11
3.699449
 21
5.266528
 31
0.0
  0
LINE
  5
89D
330
919
100
AcDbEntity
  8
ninja1 - Level 26
  6
Continuous
 62
     7
370
    13
100
AcDbLine
 10
3.72219
 20
5.211528
 30
0.0
 11
3.699449
 21
5.211528
 31
0.0
  0
SPLINE
  5
89E
330
919
100
AcDbEntity
  8
ninja1 - Level 26
  6
Continuous
 62
     7
370
    13
100
AcDbSpline
210
0.0
220
0.0
230
1.0
 70
     8
 71
     3
 72
     8
 73
     4
 74
     0
 42
0.000000001
 43
0.0000000001
 40
0.0
 40
0.0
 40
0.0
 40
0.0
 40
1.0
 40
1.0
 40
1.0
 40
1.0
 10
3.722190000659713
 20
5.211527525755626
 30
0.0
 10
3.726125864837275
 20
5.205593761839108
 30
0.0
 10
3.729523234909019
 20
5.201486362466695
 30
0.0
 10
3.729448835444733
 20
5.201527525755627
 30
0.0
  0
LINE
  5
8A1
330
919
100
AcDbEntity
  8
ninja1 - Level 26
  6
Continuous
 62
     7
370
    13
100
AcDbLine
 10
3.729449
 20
5.201528
 30
0.0
 11
3.699449
 21
5.201528
 31
0.0
  0
LINE
  5
8A2
330
919
100
AcDbEntity
  8
ninja1 - Level 26
  6
Continuous
 62
     7
370
    13
100
AcDbLine
 10
3.729449
 20
5.266528
 30
0.0
 11
3.729449
 21
5.201528
 31
0.0
  0
LINE
  5
8A3
330
919
100
AcDbEntity
  8
ninja1 - Level 25
  6
Continuous
 62
     7
370
    13
100
AcDbLine
 10
4.515449
 20
5.251028
 30
0.0
 11
3.729449
 21
5.251028
 31
0.0
  0
LINE
  5
8A4
330
919
100
AcDbEntity
  8
ninja1 - Level 25
  6
Continuous
 62
     7
370
    13
100
AcDbLine
 10
3.729449
 20
5.217028
 30
0.0
 11
4.515449
 21
5.217028
 31
0.0
  0
ARC
  5
8A5
330
919
100
AcDbEntity
  8
ninja1 - Level 26
  6
Continuous
 62
     7
370
    13
100
AcDbCircle
 10
3.648949
 20
5.10152
 30
0.0
 40
0.0134749260041462
100
AcDbArc
 50
296.440708
 51
0.0
  0
ARC
  5
8A6
330
919
100
AcDbEntity
  8
ninja1 - Level 26
  6
Continuous
 62
     7
370
    13
100
AcDbCircle
 10
3.648949
 20
5.10152
 30
0.0
 40
0.0134749260041462
100
AcDbArc
 50
0.0
 51
63.559292
  0
ARC
  5
8A7
330
919
100
AcDbEntity
  8
ninja1 - Level 26
  6
Continuous
 62
     7
370
    13
100
AcDbCircle
 10
4.595949
 20
5.10152
 30
0.0
 40
0.0134749260041462
100
AcDbArc
 50
116.440708
 51
243.559292
  0
LINE
  5
8A8
330
919
100
AcDbEntity
  8
ninja1 - Level 26
  6
Continuous
 62
     7
370
    13
100
AcDbLine
 10
3.644949
 20
5.07402
 30
0.0
 11
3.644949
 21
5.12902
 31
0.0
  0
ARC
  5
8A9
330
919
100
AcDbEntity
  8
ninja1 - Level 26
  6
Continuous
 62
     7
370
    13
100
AcDbCircle
 10
-3.637449
 20
5.07402
 30
0.0
 40
0.0075000000000009
210
0.0
220
0.0
230
-1.0
100
AcDbArc
 50
180.0
 51
0.0
  0
LINE
  5
8AA
330
919
100
AcDbEntity
  8
ninja1 - Level 26
  6
Continuous
 62
     7
370
    13
100
AcDbLine
 10
3.629949
 20
5.07402
 30
0.0
 11
3.629949
 21
5.12902
 31
0.0
  0
ARC
  5
8AB
330
919
100
AcDbEntity
  8
ninja1 - Level 26
  6
Continuous
 62
     7
370
    13
100
AcDbCircle
 10
3.637449
 20
5.12902
 30
0.0
 40
0.0075000000000009
100
AcDbArc
 50
0.0
 51
180.0
  0
LINE
  5
8AC
330
919
100
AcDbEntity
  8
ninja1 - Level 26
  6
Continuous
 62
     7
370
    13
100
AcDbLine
 10
3.649949
 20
5.12902
 30
0.0
 11
3.644949
 21
5.12902
 31
0.0
  0
LINE
  5
8AD
330
919
100
AcDbEntity
  8
ninja1 - Level 26
  6
Continuous
 62
     7
370
    13
100
AcDbLine
 10
3.629949
 20
5.12902
 30
0.0
 11
3.624949
 21
5.12902
 31
0.0
  0
ARC
  5
8AE
330
919
100
AcDbEntity
  8
ninja1 - Level 26
  6
Continuous
 62
     7
370
    13
100
AcDbCircle
 10
-3.637449
 20
5.12902
 30
0.0
 40
0.0125000000000009
210
0.0
220
0.0
230
-1.0
100
AcDbArc
 50
360.0
 51
180.0
  0
LINE
  5
8AF
330
919
100
AcDbEntity
  8
ninja1 - Level 26
  6
Continuous
 62
     7
370
    13
100
AcDbLine
 10
3.649949
 20
5.091518
 30
0.0
 11
3.649949
 21
5.111518
 31
0.0
  0
LINE
  5
8B0
330
919
100
AcDbEntity
  8
ninja1 - Level 26
  6
Continuous
 62
     7
370
    13
100
AcDbLine
 10
3.649949
 20
5.129018
 30
0.0
 11
3.649949
 21
5.12902
 31
0.0
  0
LINE
  5
8B1
330
919
100
AcDbEntity
  8
ninja1 - Level 26
  6
Continuous
 62
     7
370
    13
100
AcDbLine
 10
3.644949
 20
5.07402
 30
0.0
 11
3.649949
 21
5.07402
 31
0.0
  0
LINE
  5
8B2
330
919
100
AcDbEntity
  8
ninja1 - Level 26
  6
Continuous
 62
     7
370
    13
100
AcDbLine
 10
3.624949
 20
5.07402
 30
0.0
 11
3.629949
 21
5.07402
 31
0.0
  0
ARC
  5
8B3
330
919
100
AcDbEntity
  8
ninja1 - Level 26
  6
Continuous
 62
     7
370
    13
100
AcDbCircle
 10
3.637449
 20
5.07402
 30
0.0
 40
0.0125000000000009
100
AcDbArc
 50
180.0
 51
0.0
  0
LINE
  5
8B4
330
919
100
AcDbEntity
  8
ninja1 - Level 26
  6
Continuous
 62
     7
370
    13
100
AcDbLine
 10
3.624949
 20
5.07402
 30
0.0
 11
3.624949
 21
5.074518
 31
0.0
  0
LINE
  5
8B5
330
919
100
AcDbEntity
  8
ninja1 - Level 26
  6
Continuous
 62
     7
370
    13
100
AcDbLine
 10
3.624949
 20
5.082684
 30
0.0
 11
3.624949
 21
5.083684
 31
0.0
  0
LINE
  5
8B6
330
919
100
AcDbEntity
  8
ninja1 - Level 26
  6
Continuous
 62
     7
370
    13
100
AcDbLine
 10
3.624949
 20
5.091851
 30
0.0
 11
3.624949
 21
5.092851
 31
0.0
  0
LINE
  5
8B7
330
919
100
AcDbEntity
  8
ninja1 - Level 26
  6
Continuous
 62
     7
370
    13
100
AcDbLine
 10
3.624949
 20
5.101018
 30
0.0
 11
3.624949
 21
5.102018
 31
0.0
  0
LINE
  5
8B8
330
919
100
AcDbEntity
  8
ninja1 - Level 26
  6
Continuous
 62
     7
370
    13
100
AcDbLine
 10
3.624949
 20
5.110184
 30
0.0
 11
3.624949
 21
5.111184
 31
0.0
  0
LINE
  5
8B9
330
919
100
AcDbEntity
  8
ninja1 - Level 26
  6
Continuous
 62
     7
370
    13
100
AcDbLine
 10
3.624949
 20
5.119351
 30
0.0
 11
3.624949
 21
5.120351
 31
0.0
  0
LINE
  5
8BA
330
919
100
AcDbEntity
  8
ninja1 - Level 26
  6
Continuous
 62
     7
370
    13
100
AcDbLine
 10
3.624949
 20
5.128518
 30
0.0
 11
3.624949
 21
5.12902
 31
0.0
  0
LINE
  5
8BB
330
919
100
AcDbEntity
  8
ninja1 - Level 26
  6
Continuous
 62
     7
370
    13
100
AcDbLine
 10
4.614949
 20
5.07402
 30
0.0
 11
4.614949
 21
5.12902
 31
0.0
  0
ARC
  5
8BC
330
919
100
AcDbEntity
  8
ninja1 - Level 26
  6
Continuous
 62
     7
370
    13
100
AcDbCircle
 10
4.607449
 20
5.07402
 30
0.0
 40
0.0075000000000009
100
AcDbArc
 50
180.0
 51
0.0
  0
LINE
  5
8BD
330
919
100
AcDbEntity
  8
ninja1 - Level 26
  6
Continuous
 62
     7
370
    13
100
AcDbLine
 10
4.599949
 20
5.07402
 30
0.0
 11
4.599949
 21
5.12902
 31
0.0
  0
ARC
  5
8BE
330
919
100
AcDbEntity
  8
ninja1 - Level 26
  6
Continuous
 62
     7
370
    13
100
AcDbCircle
 10
-4.607449
 20
5.12902
 30
0.0
 40
0.0075000000000009
210
0.0
220
0.0
230
-1.0
100
AcDbArc
 50
0.0
 51
180.0
  0
LINE
  5
8BF
330
919
100
AcDbEntity
  8
ninja1 - Level 26
  6
Continuous
 62
     7
370
    13
100
AcDbLine
 10
4.614949
 20
5.12902
 30
0.0
 11
4.619949
 21
5.12902
 31
0.0
  0
LINE
  5
8C0
330
919
100
AcDbEntity
  8
ninja1 - Level 26
  6
Continuous
 62
     7
370
    13
100
AcDbLine
 10
4.594949
 20
5.12902
 30
0.0
 11
4.599949
 21
5.12902
 31
0.0
  0
ARC
  5
8C1
330
919
100
AcDbEntity
  8
ninja1 - Level 26
  6
Continuous
 62
     7
370
    13
100
AcDbCircle
 10
4.607449
 20
5.12902
 30
0.0
 40
0.0125000000000009
100
AcDbArc
 50
360.0
 51
180.0
  0
LINE
  5
8C2
330
919
100
AcDbEntity
  8
ninja1 - Level 26
  6
Continuous
 62
     7
370
    13
100
AcDbLine
 10
4.599949
 20
5.07402
 30
0.0
 11
4.594949
 21
5.07402
 31
0.0
  0
LINE
  5
8C3
330
919
100
AcDbEntity
  8
ninja1 - Level 26
  6
Continuous
 62
     7
370
    13
100
AcDbLine
 10
4.594949
 20
5.091518
 30
0.0
 11
4.594949
 21
5.111518
 31
0.0
  0
LINE
  5
8C4
330
919
100
AcDbEntity
  8
ninja1 - Level 26
  6
Continuous
 62
     7
370
    13
100
AcDbLine
 10
4.594949
 20
5.129018
 30
0.0
 11
4.594949
 21
5.12902
 31
0.0
  0
LINE
  5
8C5
330
919
100
AcDbEntity
  8
ninja1 - Level 26
  6
Continuous
 62
     7
370
    13
100
AcDbLine
 10
4.619949
 20
5.07402
 30
0.0
 11
4.614949
 21
5.07402
 31
0.0
  0
ARC
  5
8C6
330
919
100
AcDbEntity
  8
ninja1 - Level 26
  6
Continuous
 62
     7
370
    13
100
AcDbCircle
 10
-4.607449
 20
5.07402
 30
0.0
 40
0.0125000000000009
210
0.0
220
0.0
230
-1.0
100
AcDbArc
 50
180.0
 51
0.0
  0
LINE
  5
8C7
330
919
100
AcDbEntity
  8
ninja1 - Level 26
  6
Continuous
 62
     7
370
    13
100
AcDbLine
 10
4.619949
 20
5.07402
 30
0.0
 11
4.619949
 21
5.074518
 31
0.0
  0
LINE
  5
8C8
330
919
100
AcDbEntity
  8
ninja1 - Level 26
  6
Continuous
 62
     7
370
    13
100
AcDbLine
 10
4.619949
 20
5.082684
 30
0.0
 11
4.619949
 21
5.083684
 31
0.0
  0
LINE
  5
8C9
330
919
100
AcDbEntity
  8
ninja1 - Level 26
  6
Continuous
 62
     7
370
    13
100
AcDbLine
 10
4.619949
 20
5.091851
 30
0.0
 11
4.619949
 21
5.092851
 31
0.0
  0
LINE
  5
8CA
330
919
100
AcDbEntity
  8
ninja1 - Level 26
  6
Continuous
 62
     7
370
    13
100
AcDbLine
 10
4.619949
 20
5.101018
 30
0.0
 11
4.619949
 21
5.102018
 31
0.0
  0
LINE
  5
8CB
330
919
100
AcDbEntity
  8
ninja1 - Level 26
  6
Continuous
 62
     7
370
    13
100
AcDbLine
 10
4.619949
 20
5.110184
 30
0.0
 11
4.619949
 21
5.111184
 31
0.0
  0
LINE
  5
8CC
330
919
100
AcDbEntity
  8
ninja1 - Level 26
  6
Continuous
 62
     7
370
    13
100
AcDbLine
 10
4.619949
 20
5.119351
 30
0.0
 11
4.619949
 21
5.120351
 31
0.0
  0
LINE
  5
8CD
330
919
100
AcDbEntity
  8
ninja1 - Level 26
  6
Continuous
 62
     7
370
    13
100
AcDbLine
 10
4.619949
 20
5.128518
 30
0.0
 11
4.619949
 21
5.12902
 31
0.0
  0
LINE
  5
8CE
330
919
100
AcDbEntity
  8
ninja1 - Level 26
  6
Continuous
 62
     7
370
    13
100
AcDbLine
 10
3.680449
 20
5.286528
 30
0.0
 11
3.680449
 21
5.206528
 31
0.0
  0
LINE
  5
8CF
330
919
100
AcDbEntity
  8
ninja1 - Level 26
  6
Continuous
 62
     7
370
    13
100
AcDbLine
 10
3.680449
 20
5.286528
 30
0.0
 11
3.687449
 21
5.286528
 31
0.0
  0
LINE
  5
8D0
330
919
100
AcDbEntity
  8
ninja1 - Level 26
  6
Continuous
 62
     7
370
    13
100
AcDbLine
 10
3.687449
 20
5.206528
 30
0.0
 11
3.687449
 21
5.286528
 31
0.0
  0
LINE
  5
8D1
330
919
100
AcDbEntity
  8
ninja1 - Level 26
  6
Continuous
 62
     7
370
    13
100
AcDbLine
 10
3.680449
 20
5.206528
 30
0.0
 11
3.687449
 21
5.206528
 31
0.0
  0
LINE
  5
8D2
330
919
100
AcDbEntity
  8
ninja1 - Level 26
  6
Continuous
 62
     7
370
    13
100
AcDbLine
 10
3.677449
 20
5.203528
 30
0.0
 11
3.597449
 21
5.203528
 31
0.0
  0
LINE
  5
8D3
330
919
100
AcDbEntity
  8
ninja1 - Level 26
  6
Continuous
 62
     7
370
    13
100
AcDbLine
 10
3.677449
 20
5.203528
 30
0.0
 11
3.677449
 21
5.196528
 31
0.0
  0
LINE
  5
8D4
330
919
100
AcDbEntity
  8
ninja1 - Level 26
  6
Continuous
 62
     7
370
    13
100
AcDbLine
 10
3.597449
 20
5.196528
 30
0.0
 11
3.677449
 21
5.196528
 31
0.0
  0
LINE
  5
8D5
330
919
100
AcDbEntity
  8
ninja1 - Level 26
  6
Continuous
 62
     7
370
    13
100
AcDbLine
 10
3.597449
 20
5.196528
 30
0.0
 11
3.597449
 21
5.203528
 31
0.0
  0
ARC
  5
8D6
330
919
100
AcDbEntity
  8
ninja1 - Level 26
  6
Continuous
 62
     7
370
    13
100
AcDbCircle
 10
-3.677449
 20
5.206528
 30
0.0
 40
0.003
210
0.0
220
0.0
230
-1.0
100
AcDbArc
 50
180.0
 51
270.0
  0
ARC
  5
8D7
330
919
100
AcDbEntity
  8
ninja1 - Level 26
  6
Continuous
 62
     7
370
    13
100
AcDbCircle
 10
3.677449
 20
5.206528
 30
0.0
 40
0.01
100
AcDbArc
 50
270.0
 51
0.0
  0
ARC
  5
8D8
330
919
100
AcDbEntity
  8
ninja1 - Level 26
  6
Continuous
 62
     7
370
    13
100
AcDbCircle
 10
3.597449
 20
5.206528
 30
0.0
 40
0.01
100
AcDbArc
 50
180.0
 51
270.0
  0
LINE
  5
8D9
330
919
100
AcDbEntity
  8
ninja1 - Level 26
  6
Continuous
 62
     7
370
    13
100
AcDbLine
 10
3.587449
 20
5.206528
 30
0.0
 11
3.594449
 21
5.206528
 31
0.0
  0
ARC
  5
8DA
330
919
100
AcDbEntity
  8
ninja1 - Level 26
  6
Continuous
 62
     7
370
    13
100
AcDbCircle
 10
-3.597449
 20
5.206528
 30
0.0
 40
0.003
210
0.0
220
0.0
230
-1.0
100
AcDbArc
 50
270.0
 51
0.0
  0
LINE
  5
8DB
330
919
100
AcDbEntity
  8
ninja1 - Level 26
  6
Continuous
 62
     7
370
    13
100
AcDbLine
 10
3.597449
 20
5.289528
 30
0.0
 11
3.677449
 21
5.289528
 31
0.0
  0
LINE
  5
8DC
330
919
100
AcDbEntity
  8
ninja1 - Level 26
  6
Continuous
 62
     7
370
    13
100
AcDbLine
 10
3.597449
 20
5.296528
 30
0.0
 11
3.597449
 21
5.289528
 31
0.0
  0
LINE
  5
8DD
330
919
100
AcDbEntity
  8
ninja1 - Level 26
  6
Continuous
 62
     7
370
    13
100
AcDbLine
 10
3.677449
 20
5.296528
 30
0.0
 11
3.597449
 21
5.296528
 31
0.0
  0
LINE
  5
8DE
330
919
100
AcDbEntity
  8
ninja1 - Level 26
  6
Continuous
 62
     7
370
    13
100
AcDbLine
 10
3.677449
 20
5.289528
 30
0.0
 11
3.677449
 21
5.296528
 31
0.0
  0
LINE
  5
8DF
330
919
100
AcDbEntity
  8
ninja1 - Level 26
  6
Continuous
 62
     7
370
    13
100
AcDbLine
 10
3.587449
 20
5.286528
 30
0.0
 11
3.587449
 21
5.206528
 31
0.0
  0
LINE
  5
8E0
330
919
100
AcDbEntity
  8
ninja1 - Level 26
  6
Continuous
 62
     7
370
    13
100
AcDbLine
 10
3.587449
 20
5.286528
 30
0.0
 11
3.594449
 21
5.286528
 31
0.0
  0
LINE
  5
8E1
330
919
100
AcDbEntity
  8
ninja1 - Level 26
  6
Continuous
 62
     7
370
    13
100
AcDbLine
 10
3.594449
 20
5.206528
 30
0.0
 11
3.594449
 21
5.286528
 31
0.0
  0
ARC
  5
8E2
330
919
100
AcDbEntity
  8
ninja1 - Level 26
  6
Continuous
 62
     7
370
    13
100
AcDbCircle
 10
-3.677449
 20
5.286528
 30
0.0
 40
0.003
210
0.0
220
0.0
230
-1.0
100
AcDbArc
 50
90.0
 51
180.0
  0
ARC
  5
8E3
330
919
100
AcDbEntity
  8
ninja1 - Level 26
  6
Continuous
 62
     7
370
    13
100
AcDbCircle
 10
3.677449
 20
5.286528
 30
0.0
 40
0.01
100
AcDbArc
 50
0.0
 51
90.0
  0
ARC
  5
8E4
330
919
100
AcDbEntity
  8
ninja1 - Level 26
  6
Continuous
 62
     7
370
    13
100
AcDbCircle
 10
3.597449
 20
5.286528
 30
0.0
 40
0.01
100
AcDbArc
 50
90.0
 51
180.0
  0
ARC
  5
8E5
330
919
100
AcDbEntity
  8
ninja1 - Level 26
  6
Continuous
 62
     7
370
    13
100
AcDbCircle
 10
-3.597449
 20
5.286528
 30
0.0
 40
0.003
210
0.0
220
0.0
230
-1.0
100
AcDbArc
 50
0.0
 51
90.0
  0
LINE
  5
8E6
330
919
100
AcDbEntity
  8
ninja1 - Level 26
  6
Continuous
 62
     7
370
    13
100
AcDbLine
 10
4.557449
 20
5.206528
 30
0.0
 11
4.557449
 21
5.286528
 31
0.0
  0
LINE
  5
8E7
330
919
100
AcDbEntity
  8
ninja1 - Level 26
  6
Continuous
 62
     7
370
    13
100
AcDbLine
 10
4.564449
 20
5.286528
 30
0.0
 11
4.557449
 21
5.286528
 31
0.0
  0
LINE
  5
8E8
330
919
100
AcDbEntity
  8
ninja1 - Level 26
  6
Continuous
 62
     7
370
    13
100
AcDbLine
 10
4.564449
 20
5.286528
 30
0.0
 11
4.564449
 21
5.206528
 31
0.0
  0
LINE
  5
8E9
330
919
100
AcDbEntity
  8
ninja1 - Level 26
  6
Continuous
 62
     7
370
    13
100
AcDbLine
 10
4.564449
 20
5.206528
 30
0.0
 11
4.557449
 21
5.206528
 31
0.0
  0
LINE
  5
8EA
330
919
100
AcDbEntity
  8
ninja1 - Level 26
  6
Continuous
 62
     7
370
    13
100
AcDbLine
 10
4.647449
 20
5.196528
 30
0.0
 11
4.567449
 21
5.196528
 31
0.0
  0
LINE
  5
8EB
330
919
100
AcDbEntity
  8
ninja1 - Level 26
  6
Continuous
 62
     7
370
    13
100
AcDbLine
 10
4.567449
 20
5.203528
 30
0.0
 11
4.567449
 21
5.196528
 31
0.0
  0
LINE
  5
8EC
330
919
100
AcDbEntity
  8
ninja1 - Level 26
  6
Continuous
 62
     7
370
    13
100
AcDbLine
 10
4.567449
 20
5.203528
 30
0.0
 11
4.647449
 21
5.203528
 31
0.0
  0
LINE
  5
8ED
330
919
100
AcDbEntity
  8
ninja1 - Level 26
  6
Continuous
 62
     7
370
    13
100
AcDbLine
 10
4.647449
 20
5.196528
 30
0.0
 11
4.647449
 21
5.203528
 31
0.0
  0
ARC
  5
8EE
330
919
100
AcDbEntity
  8
ninja1 - Level 26
  6
Continuous
 62
     7
370
    13
100
AcDbCircle
 10
-4.567449
 20
5.206528
 30
0.0
 40
0.01
210
0.0
220
0.0
230
-1.0
100
AcDbArc
 50
270.0
 51
0.0
  0
ARC
  5
8EF
330
919
100
AcDbEntity
  8
ninja1 - Level 26
  6
Continuous
 62
     7
370
    13
100
AcDbCircle
 10
4.567449
 20
5.206528
 30
0.0
 40
0.003
100
AcDbArc
 50
180.0
 51
270.0
  0
ARC
  5
8F0
330
919
100
AcDbEntity
  8
ninja1 - Level 26
  6
Continuous
 62
     7
370
    13
100
AcDbCircle
 10
4.647449
 20
5.206528
 30
0.0
 40
0.003
100
AcDbArc
 50
270.0
 51
0.0
  0
LINE
  5
8F1
330
919
100
AcDbEntity
  8
ninja1 - Level 26
  6
Continuous
 62
     7
370
    13
100
AcDbLine
 10
4.657449
 20
5.206528
 30
0.0
 11
4.650449
 21
5.206528
 31
0.0
  0
ARC
  5
8F2
330
919
100
AcDbEntity
  8
ninja1 - Level 26
  6
Continuous
 62
     7
370
    13
100
AcDbCircle
 10
-4.647449
 20
5.206528
 30
0.0
 40
0.01
210
0.0
220
0.0
230
-1.0
100
AcDbArc
 50
180.0
 51
270.0
  0
LINE
  5
8F3
330
919
100
AcDbEntity
  8
ninja1 - Level 26
  6
Continuous
 62
     7
370
    13
100
AcDbLine
 10
4.567449
 20
5.296528
 30
0.0
 11
4.647449
 21
5.296528
 31
0.0
  0
LINE
  5
8F4
330
919
100
AcDbEntity
  8
ninja1 - Level 26
  6
Continuous
 62
     7
370
    13
100
AcDbLine
 10
4.647449
 20
5.296528
 30
0.0
 11
4.647449
 21
5.289528
 31
0.0
  0
LINE
  5
8F5
330
919
100
AcDbEntity
  8
ninja1 - Level 26
  6
Continuous
 62
     7
370
    13
100
AcDbLine
 10
4.647449
 20
5.289528
 30
0.0
 11
4.567449
 21
5.289528
 31
0.0
  0
LINE
  5
8F6
330
919
100
AcDbEntity
  8
ninja1 - Level 26
  6
Continuous
 62
     7
370
    13
100
AcDbLine
 10
4.567449
 20
5.289528
 30
0.0
 11
4.567449
 21
5.296528
 31
0.0
  0
LINE
  5
8F7
330
919
100
AcDbEntity
  8
ninja1 - Level 26
  6
Continuous
 62
     7
370
    13
100
AcDbLine
 10
4.650449
 20
5.206528
 30
0.0
 11
4.650449
 21
5.286528
 31
0.0
  0
LINE
  5
8F8
330
919
100
AcDbEntity
  8
ninja1 - Level 26
  6
Continuous
 62
     7
370
    13
100
AcDbLine
 10
4.657449
 20
5.286528
 30
0.0
 11
4.650449
 21
5.286528
 31
0.0
  0
LINE
  5
8F9
330
919
100
AcDbEntity
  8
ninja1 - Level 26
  6
Continuous
 62
     7
370
    13
100
AcDbLine
 10
4.657449
 20
5.286528
 30
0.0
 11
4.657449
 21
5.206528
 31
0.0
  0
ARC
  5
8FA
330
919
100
AcDbEntity
  8
ninja1 - Level 26
  6
Continuous
 62
     7
370
    13
100
AcDbCircle
 10
-4.567449
 20
5.286528
 30
0.0
 40
0.01
210
0.0
220
0.0
230
-1.0
100
AcDbArc
 50
0.0
 51
90.0
  0
ARC
  5
8FB
330
919
100
AcDbEntity
  8
ninja1 - Level 26
  6
Continuous
 62
     7
370
    13
100
AcDbCircle
 10
4.567449
 20
5.286528
 30
0.0
 40
0.003
100
AcDbArc
 50
90.0
 51
180.0
  0
ARC
  5
8FC
330
919
100
AcDbEntity
  8
ninja1 - Level 26
  6
Continuous
 62
     7
370
    13
100
AcDbCircle
 10
4.647449
 20
5.286528
 30
0.0
 40
0.003
100
AcDbArc
 50
0.0
 51
90.0
  0
ARC
  5
8FD
330
919
100
AcDbEntity
  8
ninja1 - Level 26
  6
Continuous
 62
     7
370
    13
100
AcDbCircle
 10
-4.647449
 20
5.286528
 30
0.0
 40
0.01
210
0.0
220
0.0
230
-1.0
100
AcDbArc
 50
90.0
 51
180.0
  0
LINE
  5
8FE
330
919
100
AcDbEntity
  8
ninja1 - Level 26
  6
Continuous
 62
     7
370
    13
100
AcDbLine
 10
4.557449
 20
5.201528
 30
0.0
 11
4.545449
 21
5.201528
 31
0.0
  0
LINE
  5
8FF
330
919
100
AcDbEntity
  8
ninja1 - Level 26
  6
Continuous
 62
     7
370
    13
100
AcDbLine
 10
4.557449
 20
5.266528
 30
0.0
 11
4.545449
 21
5.266528
 31
0.0
  0
LINE
  5
900
330
919
100
AcDbEntity
  8
ninja1 - Level 26
  6
Continuous
 62
     7
370
    13
100
AcDbLine
 10
4.557449
 20
5.201528
 30
0.0
 11
4.557449
 21
5.206528
 31
0.0
  0
LINE
  5
901
330
919
100
AcDbEntity
  8
ninja1 - Level 26
  6
Continuous
 62
     7
370
    13
100
AcDbLine
 10
4.545449
 20
5.201528
 30
0.0
 11
4.545449
 21
5.266528
 31
0.0
  0
LINE
  5
902
330
919
100
AcDbEntity
  8
ninja1 - Level 26
  6
Continuous
 62
     7
370
    13
100
AcDbLine
 10
4.522708
 20
5.256528
 30
0.0
 11
4.545449
 21
5.256528
 31
0.0
  0
SPLINE
  5
903
330
919
100
AcDbEntity
  8
ninja1 - Level 26
  6
Continuous
 62
     7
370
    13
100
AcDbSpline
210
0.0
220
0.0
230
1.0
 70
     8
 71
     3
 72
     8
 73
     4
 74
     0
 42
0.000000001
 43
0.0000000001
 40
0.0
 40
0.0
 40
0.0
 40
0.0
 40
1.0
 40
1.0
 40
1.0
 40
1.0
 10
4.515448835444733
 20
5.266527525755648
 30
0.0
 10
4.515376069280252
 20
5.266567574227085
 30
0.0
 10
4.518768844548016
 20
5.262464177087291
 30
0.0
 10
4.522707670229758
 20
5.256527525755632
 30
0.0
  0
LINE
  5
906
330
919
100
AcDbEntity
  8
ninja1 - Level 26
  6
Continuous
 62
     7
370
    13
100
AcDbLine
 10
4.515449
 20
5.266528
 30
0.0
 11
4.545449
 21
5.266528
 31
0.0
  0
LINE
  5
907
330
919
100
AcDbEntity
  8
ninja1 - Level 26
  6
Continuous
 62
     7
370
    13
100
AcDbLine
 10
4.522708
 20
5.211528
 30
0.0
 11
4.545449
 21
5.211528
 31
0.0
  0
SPLINE
  5
908
330
919
100
AcDbEntity
  8
ninja1 - Level 26
  6
Continuous
 62
     7
370
    13
100
AcDbSpline
210
0.0
220
0.0
230
1.0
 70
     8
 71
     3
 72
     8
 73
     4
 74
     0
 42
0.000000001
 43
0.0000000001
 40
0.0
 40
0.0
 40
0.0
 40
0.0
 40
1.0
 40
1.0
 40
1.0
 40
1.0
 10
4.522707670229745
 20
5.211527525755635
 30
0.0
 10
4.518771806052185
 20
5.205593761839113
 30
0.0
 10
4.515374435980446
 20
5.201486362466705
 30
0.0
 10
4.515448835444733
 20
5.201527525755635
 30
0.0
  0
LINE
  5
90B
330
919
100
AcDbEntity
  8
ninja1 - Level 26
  6
Continuous
 62
     7
370
    13
100
AcDbLine
 10
4.515449
 20
5.201528
 30
0.0
 11
4.545449
 21
5.201528
 31
0.0
  0
LINE
  5
90C
330
919
100
AcDbEntity
  8
ninja1 - Level 26
  6
Continuous
 62
     7
370
    13
100
AcDbLine
 10
4.515449
 20
5.266528
 30
0.0
 11
4.515449
 21
5.201528
 31
0.0
  0
SPLINE
  5
90D
330
919
100
AcDbEntity
  8
ninja1 - Level 26
  6
Continuous
 62
     7
370
    13
100
AcDbSpline
210
0.0
220
0.0
230
1.0
 70
     8
 71
     3
 72
     8
 73
     4
 74
     0
 42
0.000000001
 43
0.0000000001
 40
0.0
 40
0.0
 40
0.0
 40
0.0
 40
1.0
 40
1.0
 40
1.0
 40
1.0
 10
3.884395294969269
 20
3.674702414367031
 30
0.0
 10
3.884653420246331
 20
3.674430771188373
 30
0.0
 10
3.884957622977093
 20
3.674178424883528
 30
0.0
 10
3.885303064199877
 20
3.673952592195671
 30
0.0
  0
SPLINE
  5
90F
330
919
100
AcDbEntity
  8
ninja1 - Level 26
  6
Continuous
 62
     7
370
    13
100
AcDbSpline
210
0.0
220
0.0
230
1.0
 70
     8
 71
     3
 72
     8
 73
     4
 74
     0
 42
0.000000001
 43
0.0000000001
 40
0.0
 40
0.0
 40
0.0
 40
0.0
 40
1.0
 40
1.0
 40
1.0
 40
1.0
 10
3.894498432090485
 20
3.673955105888699
 30
0.0
 10
3.894841713015999
 20
3.674180915585473
 30
0.0
 10
3.895144199341753
 20
3.674433308968066
 30
0.0
 10
3.895401113145952
 20
3.6747046260308
 30
0.0
  0
SPLINE
  5
911
330
919
100
AcDbEntity
  8
ninja1 - Level 26
  6
Continuous
 62
     7
370
    13
100
AcDbSpline
210
0.0
220
0.0
230
1.0
 70
     8
 71
     3
 72
     8
 73
     4
 74
     0
 42
0.000000001
 43
0.0000000001
 40
0.0
 40
0.0
 40
0.0
 40
0.0
 40
1.0
 40
1.0
 40
1.0
 40
1.0
 10
4.349494837197886
 20
3.674702896182745
 30
0.0
 10
4.349577525907653
 20
3.674615851421655
 30
0.0
 10
4.349664945369135
 20
3.674530787301006
 30
0.0
 10
4.349756936407552
 20
3.674447941211297
 30
0.0
  0
SPLINE
  5
913
330
919
100
AcDbEntity
  8
ninja1 - Level 26
  6
Continuous
 62
     7
370
    13
100
AcDbSpline
210
0.0
220
0.0
230
1.0
 70
     8
 71
     3
 72
     8
 73
     4
 74
     0
 42
0.000000001
 43
0.0000000001
 40
0.0
 40
0.0
 40
0.0
 40
0.0
 40
1.0
 40
1.0
 40
1.0
 40
1.0
 10
4.359598432090456
 20
3.673955105888699
 30
0.0
 10
4.35994151637431
 20
3.674180786234873
 30
0.0
 10
4.360243852781769
 20
3.674433019819717
 30
0.0
 10
4.360500671597153
 20
3.674704159793658
 30
0.0
  0
LINE
  5
915
330
919
100
AcDbEntity
  8
ninja1 - Level 26
  6
Continuous
 62
     7
370
    13
100
AcDbLine
 10
3.695121
 20
3.371786
 30
0.0
 11
4.549777
 21
3.371786
 31
0.0
  0
ENDSEC
  0
SECTION
  2
OBJECTS
  0
DICTIONARY
  5
922
330
0
100
AcDbDictionary
281
     1
  3
ACAD_COLOR
350
977
  3
ACAD_DETAILVIEWSTYLE
350
B19
  3
ACAD_GROUP
350
964
  3
ACAD_LAYOUT
350
945
  3
ACAD_MATERIAL
350
924
  3
ACAD_MLEADERSTYLE
350
97A
  3
ACAD_MLINESTYLE
350
965
  3
ACAD_PLOTSETTINGS
350
966
  3
ACAD_PLOTSTYLENAME
350
921
  3
ACAD_SCALELIST
350
978
  3
ACAD_SECTIONVIEWSTYLE
350
B17
  3
ACAD_TABLESTYLE
350
979
  3
ACAD_VISUALSTYLE
350
95E
  3
AcadDim
350
AF5
  3
ACDB_RECOMPOSE_DATA
350
1017
  3
AcDbVariableDictionary
350
97B
  3
AcDsDecomposeData
350
101D
  3
MicroStation
350
AF3
  0
DICTIONARY
  5
94E
330
94D
100
AcDbDictionary
280
     1
281
     1
  3
ACAD_LAYERFILTERS
360
94F
  3
ACAD_LAYERSTATES
360
950
  3
ACLYDICTIONARY
360
951
  0
DICTIONARY
  5
91E
330
91D
100
AcDbDictionary
280
     1
281
     1
  3
ADSK_XREC_LAYER_RECONCILED
360
91F
  0
DICTIONARY
  5
91A
330
919
100
AcDbDictionary
280
     1
281
     1
  3
ACAD_SORTENTS
360
AF1
  0
DICTIONARY
  5
977
102
{ACAD_REACTORS
330
922
102
}
330
922
100
AcDbDictionary
281
     1
  0
DICTIONARY
  5
B19
102
{ACAD_REACTORS
330
922
102
}
330
922
100
AcDbDictionary
281
     1
  3
Imperial24
350
B1A
  0
DICTIONARY
  5
964
102
{ACAD_REACTORS
330
922
102
}
330
922
100
AcDbDictionary
281
     1
  0
DICTIONARY
  5
945
102
{ACAD_REACTORS
330
922
102
}
330
922
100
AcDbDictionary
281
     1
  3
Layout1
350
94A
  3
Model
350
944
  0
DICTIONARY
  5
924
102
{ACAD_REACTORS
330
922
102
}
330
922
100
AcDbDictionary
281
     1
  3
ByBlock
350
96F
  3
ByLayer
350
967
  3
Global
350
923
  0
DICTIONARY
  5
97A
102
{ACAD_REACTORS
330
922
102
}
330
922
100
AcDbDictionary
281
     1
  3
Standard
350
AF6
  0
DICTIONARY
  5
965
102
{ACAD_REACTORS
330
922
102
}
330
922
100
AcDbDictionary
281
     1
  3
Standard
350
98D
  0
DICTIONARY
  5
966
102
{ACAD_REACTORS
330
922
102
}
330
922
100
AcDbDictionary
281
     1
  0
ACDBDICTIONARYWDFLT
  5
921
102
{ACAD_REACTORS
330
922
102
}
330
922
100
AcDbDictionary
281
     1
  3
Normal
350
920
100
AcDbDictionaryWithDefault
340
920
  0
DICTIONARY
  5
978
102
{ACAD_REACTORS
330
922
102
}
330
922
100
AcDbDictionary
281
     1
  3
A0
350
992
  3
A1
350
993
  3
A2
350
994
  3
A3
350
995
  3
A4
350
996
  3
A5
350
997
  3
A6
350
998
  3
A7
350
999
  3
A8
350
99A
  3
A9
350
99B
  3
B0
350
99C
  3
B1
350
99D
  3
B2
350
99E
  3
B3
350
99F
  3
B4
350
9A0
  3
B5
350
9A1
  3
B6
350
9A2
  3
B7
350
9A3
  3
B8
350
9A4
  3
B9
350
9A5
  3
C0
350
9A6
  3
C1
350
9A7
  3
C2
350
9A8
  3
C3
350
9A9
  3
C4
350
9AA
  3
C5
350
9AB
  3
C6
350
9AC
  3
C7
350
9AD
  3
C8
350
9AE
  3
C9
350
9AF
  3
D0
350
9B0
  3
D1
350
9B1
  3
D2
350
9B2
  0
DICTIONARY
  5
B17
102
{ACAD_REACTORS
330
922
102
}
330
922
100
AcDbDictionary
281
     1
  3
Imperial24
350
B18
  0
DICTIONARY
  5
979
102
{ACAD_REACTORS
330
922
102
}
330
922
100
AcDbDictionary
281
     1
  3
Standard
350
98E
  0
DICTIONARY
  5
95E
102
{ACAD_REACTORS
330
922
102
}
330
922
100
AcDbDictionary
281
     1
  3
2dWireframe
350
95D
  3
Basic
350
B06
  3
Brighten
350
B0A
  3
ColorChange
350
B0E
  3
Conceptual
350
B08
  3
Dim
350
B09
  3
EdgeColorOff
350
B16
  3
Facepattern
350
B0D
  3
Flat
350
B02
  3
FlatWithEdges
350
B03
  3
Gouraud
350
B04
  3
GouraudWithEdges
350
B05
  3
Hidden
350
B07
  3
JitterOff
350
B14
  3
Linepattern
350
B0C
  3
OverhangOff
350
B15
  3
Realistic
350
990
  3
Shaded
350
B13
  3
Shaded with edges
350
B12
  3
Shades of Gray
350
B0F
  3
Sketchy
350
B10
  3
Thicken
350
B0B
  3
Wireframe
350
991
  3
X-Ray
350
B11
  0
XRECORD
  5
AF5
102
{ACAD_REACTORS
330
922
102
}
330
922
100
AcDbXrecord
280
     1
 90
   990106
  3
 
 60
     0
 61
     0
 62
     1
 63
     1
 64
     0
 65
     0
 66
     0
 67
     3
 68
     1
 69
     1
 70
     0
 71
     0
 72
     0
 40
0.0
170
     0
  0
XRECORD
  5
1017
102
{ACAD_REACTORS
330
922
102
}
330
922
100
AcDbXrecord
280
     1
 90
        1
330
98E
  0
DICTIONARY
  5
97B
102
{ACAD_REACTORS
330
922
102
}
330
922
100
AcDbDictionary
281
     1
  3
CANNOSCALE
350
97C
  3
CMLEADERSTYLE
350
97D
  3
CTABLESTYLE
350
97E
  3
CVIEWDETAILSTYLE
350
97F
  3
CVIEWSECTIONSTYLE
350
980
  3
LAYEREVAL
350
981
  3
LAYERNOTIFY
350
982
  3
MSLTSCALE
350
983
  3
PDFFRAME
350
984
  0
DICTIONARY
  5
101D
102
{ACAD_REACTORS
330
922
102
}
330
922
100
AcDbDictionary
281
     1
  3
AcDsRecords
350
101F
  3
AcDsSchemas
350
101E
1001
ACAD
1070
     2
  0
DICTIONARY
  5
AF3
102
{ACAD_REACTORS
330
922
102
}
330
922
100
AcDbDictionary
281
     1
  3
ModelApplicationElement 0 92 702
350
5C
  0
DICTIONARY
  5
94F
102
{ACAD_REACTORS
330
94E
102
}
330
94E
100
AcDbDictionary
281
     1
  0
DICTIONARY
  5
950
102
{ACAD_REACTORS
330
94E
102
}
330
94E
100
AcDbDictionary
281
     1
  0
DICTIONARY
  5
951
102
{ACAD_REACTORS
330
94E
102
}
330
94E
100
AcDbDictionary
281
     1
  0
XRECORD
  5
91F
102
{ACAD_REACTORS
330
91E
102
}
330
91E
100
AcDbXrecord
280
     1
290
     1
  0
SORTENTSTABLE
  5
AF1
102
{ACAD_REACTORS
330
91A
102
}
330
91A
100
AcDbSortentsTable
330
919
  0
ACDBDETAILVIEWSTYLE
  5
B1A
102
{ACAD_XDICTIONARY
360
1022
102
}
102
{ACAD_REACTORS
330
B19
102
}
330
B19
100
AcDbModelDocViewStyle
 70
     0
  3
Imperial24
290
     0
100
AcDbDetailViewStyle
 70
     0
 71
     0
 90
        3
 71
     1
340
953
 62
   256
 40
0.24
340
0
 62
   256
 40
0.24
300

 40
0.36
280
     3
 71
     2
340
92C
 90
       25
 62
   256
 71
     3
340
953
 62
   256
 40
0.24
 90
        1
 40
0.75
 90
        1
300
%<\AcVar ViewType \f "%tc1">% %<\AcVar ViewDetailId>%\PSCALE %<\AcVar ViewScale \f "%sn">%
 71
     4
340
92C
 90
       25
 62
   256
340
92C
 90
       25
 62
   256
280
     0
  0
LAYOUT
  5
94A
102
{ACAD_XDICTIONARY
360
94B
102
}
102
{ACAD_REACTORS
330
945
102
}
330
945
100
AcDbPlotSettings
  1

  2
none_device
  4
Letter_(8.50_x_11.00_Inches)
  6

 40
6.35
 41
6.35
 42
6.350006
 43
6.350006
 44
215.899994
 45
279.399994
 46
0.0
 47
0.0
 48
0.0
 49
0.0
140
0.0
141
0.0
142
1.0
143
1.0
 70
   688
 72
     0
 73
     1
 74
     5
  7

 75
    16
147
1.0
 76
     0
 77
     2
 78
   300
148
0.0
149
0.0
100
AcDbLayout
  1
Layout1
 70
     1
 71
     1
 10
-0.25
 20
-0.25
 11
10.75
 21
8.25
 12
0.0
 22
0.0
 32
0.0
 14
1.05
 24
0.8
 34
0.0
 15
9.45
 25
7.2
 35
0.0
146
0.0
 13
0.0
 23
0.0
 33
0.0
 16
1.0
 26
0.0
 36
0.0
 17
0.0
 27
1.0
 37
0.0
 76
     0
330
947
1001
ACAD_PSEXT
1000
None
1000
None
1000
Not applicable
1000
The layout will not be plotted unless a new plotter configuration name is selected.
1070
     0
  0
LAYOUT
  5
944
102
{ACAD_XDICTIONARY
360
946
102
}
102
{ACAD_REACTORS
330
945
102
}
330
945
100
AcDbPlotSettings
  1

  2
none_device
  4
ANSI_A_(8.50_x_11.00_Inches)
  6

 40
6.35
 41
19.049999
 42
6.350006
 43
19.049988
 44
215.899994
 45
279.399994
 46
0.0
 47
0.0
 48
0.0
 49
0.0
140
0.0
141
0.0
142
1.0
143
2.584895
 70
 11952
 72
     0
 73
     1
 74
     0
  7

 75
     0
147
0.386863
 76
     0
 77
     2
 78
   300
148
0.0
149
0.0
100
AcDbLayout
  1
Model
 70
     1
 71
     0
 10
0.0
 20
0.0
 11
12.0
 21
9.0
 12
0.0
 22
0.0
 32
0.0
 14
0.0
 24
0.0
 34
0.0
 15
0.0
 25
0.0
 35
0.0
146
0.0
 13
0.0
 23
0.0
 33
0.0
 16
1.0
 26
0.0
 36
0.0
 17
0.0
 27
1.0
 37
0.0
 76
     0
330
919
  0
MATERIAL
  5
96F
102
{ACAD_XDICTIONARY
360
970
102
}
102
{ACAD_REACTORS
330
924
102
}
330
924
100
AcDbMaterial
  1
ByBlock
 72
     0
 43
0.020833
 43
0.0
 43
0.0
 43
0.0
 43
0.0
 43
0.020833
 43
0.0
 43
0.0
 43
0.0
 43
0.0
 43
1.0
 43
0.0
 43
0.0
 43
0.0
 43
0.0
 43
1.0
 77
     0
 47
0.020833
 47
0.0
 47
0.0
 47
0.0
 47
0.0
 47
0.020833
 47
0.0
 47
0.0
 47
0.0
 47
0.0
 47
1.0
 47
0.0
 47
0.0
 47
0.0
 47
0.0
 47
1.0
171
     0
 49
0.020833
 49
0.0
 49
0.0
 49
0.0
 49
0.0
 49
0.020833
 49
0.0
 49
0.0
 49
0.0
 49
0.0
 49
1.0
 49
0.0
 49
0.0
 49
0.0
 49
0.0
 49
1.0
175
     0
142
0.020833
142
0.0
142
0.0
142
0.0
142
0.0
142
0.020833
142
0.0
142
0.0
142
0.0
142
0.0
142
1.0
142
0.0
142
0.0
142
0.0
142
0.0
142
1.0
179
     0
144
0.020833
144
0.0
144
0.0
144
0.0
144
0.0
144
0.020833
144
0.0
144
0.0
144
0.0
144
0.0
144
1.0
144
0.0
144
0.0
144
0.0
144
0.0
144
1.0
147
0.020833
147
0.0
147
0.0
147
0.0
147
0.0
147
0.020833
147
0.0
147
0.0
147
0.0
147
0.0
147
1.0
147
0.0
147
0.0
147
0.0
147
0.0
147
1.0
  0
MATERIAL
  5
967
102
{ACAD_XDICTIONARY
360
968
102
}
102
{ACAD_REACTORS
330
924
102
}
330
924
100
AcDbMaterial
  1
ByLayer
 72
     0
 43
0.020833
 43
0.0
 43
0.0
 43
0.0
 43
0.0
 43
0.020833
 43
0.0
 43
0.0
 43
0.0
 43
0.0
 43
1.0
 43
0.0
 43
0.0
 43
0.0
 43
0.0
 43
1.0
 77
     0
 47
0.020833
 47
0.0
 47
0.0
 47
0.0
 47
0.0
 47
0.020833
 47
0.0
 47
0.0
 47
0.0
 47
0.0
 47
1.0
 47
0.0
 47
0.0
 47
0.0
 47
0.0
 47
1.0
171
     0
 49
0.020833
 49
0.0
 49
0.0
 49
0.0
 49
0.0
 49
0.020833
 49
0.0
 49
0.0
 49
0.0
 49
0.0
 49
1.0
 49
0.0
 49
0.0
 49
0.0
 49
0.0
 49
1.0
175
     0
142
0.020833
142
0.0
142
0.0
142
0.0
142
0.0
142
0.020833
142
0.0
142
0.0
142
0.0
142
0.0
142
1.0
142
0.0
142
0.0
142
0.0
142
0.0
142
1.0
179
     0
144
0.020833
144
0.0
144
0.0
144
0.0
144
0.0
144
0.020833
144
0.0
144
0.0
144
0.0
144
0.0
144
1.0
144
0.0
144
0.0
144
0.0
144
0.0
144
1.0
147
0.020833
147
0.0
147
0.0
147
0.0
147
0.0
147
0.020833
147
0.0
147
0.0
147
0.0
147
0.0
147
1.0
147
0.0
147
0.0
147
0.0
147
0.0
147
1.0
  0
MATERIAL
  5
923
102
{ACAD_XDICTIONARY
360
925
102
}
102
{ACAD_REACTORS
330
924
102
}
330
924
100
AcDbMaterial
  1
Global
 72
     0
 43
0.020833
 43
0.0
 43
0.0
 43
0.0
 43
0.0
 43
0.020833
 43
0.0
 43
0.0
 43
0.0
 43
0.0
 43
1.0
 43
0.0
 43
0.0
 43
0.0
 43
0.0
 43
1.0
 77
     0
 47
0.020833
 47
0.0
 47
0.0
 47
0.0
 47
0.0
 47
0.020833
 47
0.0
 47
0.0
 47
0.0
 47
0.0
 47
1.0
 47
0.0
 47
0.0
 47
0.0
 47
0.0
 47
1.0
171
     0
 49
0.020833
 49
0.0
 49
0.0
 49
0.0
 49
0.0
 49
0.020833
 49
0.0
 49
0.0
 49
0.0
 49
0.0
 49
1.0
 49
0.0
 49
0.0
 49
0.0
 49
0.0
 49
1.0
175
     0
142
0.020833
142
0.0
142
0.0
142
0.0
142
0.0
142
0.020833
142
0.0
142
0.0
142
0.0
142
0.0
142
1.0
142
0.0
142
0.0
142
0.0
142
0.0
142
1.0
179
     0
144
0.020833
144
0.0
144
0.0
144
0.0
144
0.0
144
0.020833
144
0.0
144
0.0
144
0.0
144
0.0
144
1.0
144
0.0
144
0.0
144
0.0
144
0.0
144
1.0
147
0.020833
147
0.0
147
0.0
147
0.0
147
0.0
147
0.020833
147
0.0
147
0.0
147
0.0
147
0.0
147
1.0
147
0.0
147
0.0
147
0.0
147
0.0
147
1.0
  0
MLEADERSTYLE
  5
AF6
102
{ACAD_REACTORS
330
97A
102
}
330
97A
100
AcDbMLeaderStyle
179
     2
170
     2
171
     1
172
     0
 90
        2
 40
0.0
 41
0.0
173
     1
 91
-1073741824
 92
       -2
290
     1
 42
0.125
291
     1
 43
0.5
  3

341
987
 44
0.25
300

342
AF4
174
     1
178
     1
175
     1
176
     0
 93
-1073741824
 45
0.25
292
     0
297
     1
 46
5.0
 94
-1073741824
 47
1.0
 49
1.0
140
1.0
293
     1
141
0.0
294
     1
177
     0
142
1.0
295
     0
296
     1
143
0.125
271
     0
272
     9
273
     9
298
     0
  0
MLINESTYLE
  5
98D
102
{ACAD_REACTORS
330
965
102
}
330
965
100
AcDbMlineStyle
  2
STANDARD
 70
     0
  3

 62
   256
 51
90.0
 52
90.0
 71
     2
 49
0.5
 62
   256
  6
BYLAYER
 49
-0.5
 62
   256
  6
BYLAYER
  0
ACDBPLACEHOLDER
  5
920
102
{ACAD_REACTORS
330
921
102
}
330
921
  0
SCALE
  5
992
102
{ACAD_REACTORS
330
978
102
}
330
978
100
AcDbScale
 70
     0
300
1:1
140
1.0
141
1.0
290
     1
  0
SCALE
  5
993
102
{ACAD_REACTORS
330
978
102
}
330
978
100
AcDbScale
 70
     0
300
1:2
140
1.0
141
2.0
290
     0
  0
SCALE
  5
994
102
{ACAD_REACTORS
330
978
102
}
330
978
100
AcDbScale
 70
     0
300
1:4
140
1.0
141
4.0
290
     0
  0
SCALE
  5
995
102
{ACAD_REACTORS
330
978
102
}
330
978
100
AcDbScale
 70
     0
300
1:5
140
1.0
141
5.0
290
     0
  0
SCALE
  5
996
102
{ACAD_REACTORS
330
978
102
}
330
978
100
AcDbScale
 70
     0
300
1:8
140
1.0
141
8.0
290
     0
  0
SCALE
  5
997
102
{ACAD_REACTORS
330
978
102
}
330
978
100
AcDbScale
 70
     0
300
1:10
140
1.0
141
10.0
290
     0
  0
SCALE
  5
998
102
{ACAD_REACTORS
330
978
102
}
330
978
100
AcDbScale
 70
     0
300
1:16
140
1.0
141
16.0
290
     0
  0
SCALE
  5
999
102
{ACAD_REACTORS
330
978
102
}
330
978
100
AcDbScale
 70
     0
300
1:20
140
1.0
141
20.0
290
     0
  0
SCALE
  5
99A
102
{ACAD_REACTORS
330
978
102
}
330
978
100
AcDbScale
 70
     0
300
1:30
140
1.0
141
30.0
290
     0
  0
SCALE
  5
99B
102
{ACAD_REACTORS
330
978
102
}
330
978
100
AcDbScale
 70
     0
300
1:40
140
1.0
141
40.0
290
     0
  0
SCALE
  5
99C
102
{ACAD_REACTORS
330
978
102
}
330
978
100
AcDbScale
 70
     0
300
1:50
140
1.0
141
50.0
290
     0
  0
SCALE
  5
99D
102
{ACAD_REACTORS
330
978
102
}
330
978
100
AcDbScale
 70
     0
300
1:100
140
1.0
141
100.0
290
     0
  0
SCALE
  5
99E
102
{ACAD_REACTORS
330
978
102
}
330
978
100
AcDbScale
 70
     0
300
2:1
140
2.0
141
1.0
290
     0
  0
SCALE
  5
99F
102
{ACAD_REACTORS
330
978
102
}
330
978
100
AcDbScale
 70
     0
300
4:1
140
4.0
141
1.0
290
     0
  0
SCALE
  5
9A0
102
{ACAD_REACTORS
330
978
102
}
330
978
100
AcDbScale
 70
     0
300
8:1
140
8.0
141
1.0
290
     0
  0
SCALE
  5
9A1
102
{ACAD_REACTORS
330
978
102
}
330
978
100
AcDbScale
 70
     0
300
10:1
140
10.0
141
1.0
290
     0
  0
SCALE
  5
9A2
102
{ACAD_REACTORS
330
978
102
}
330
978
100
AcDbScale
 70
     0
300
100:1
140
100.0
141
1.0
290
     0
  0
SCALE
  5
9A3
102
{ACAD_REACTORS
330
978
102
}
330
978
100
AcDbScale
 70
     0
300
1/128" = 1'-0"
140
0.007813
141
12.0
290
     0
  0
SCALE
  5
9A4
102
{ACAD_REACTORS
330
978
102
}
330
978
100
AcDbScale
 70
     0
300
1/64" = 1'-0"
140
0.015625
141
12.0
290
     0
  0
SCALE
  5
9A5
102
{ACAD_REACTORS
330
978
102
}
330
978
100
AcDbScale
 70
     0
300
1/32" = 1'-0"
140
0.03125
141
12.0
290
     0
  0
SCALE
  5
9A6
102
{ACAD_REACTORS
330
978
102
}
330
978
100
AcDbScale
 70
     0
300
1/16" = 1'-0"
140
0.0625
141
12.0
290
     0
  0
SCALE
  5
9A7
102
{ACAD_REACTORS
330
978
102
}
330
978
100
AcDbScale
 70
     0
300
3/32" = 1'-0"
140
0.09375
141
12.0
290
     0
  0
SCALE
  5
9A8
102
{ACAD_REACTORS
330
978
102
}
330
978
100
AcDbScale
 70
     0
300
1/8" = 1'-0"
140
0.125
141
12.0
290
     0
  0
SCALE
  5
9A9
102
{ACAD_REACTORS
330
978
102
}
330
978
100
AcDbScale
 70
     0
300
3/16" = 1'-0"
140
0.1875
141
12.0
290
     0
  0
SCALE
  5
9AA
102
{ACAD_REACTORS
330
978
102
}
330
978
100
AcDbScale
 70
     0
300
1/4" = 1'-0"
140
0.25
141
12.0
290
     0
  0
SCALE
  5
9AB
102
{ACAD_REACTORS
330
978
102
}
330
978
100
AcDbScale
 70
     0
300
3/8" = 1'-0"
140
0.375
141
12.0
290
     0
  0
SCALE
  5
9AC
102
{ACAD_REACTORS
330
978
102
}
330
978
100
AcDbScale
 70
     0
300
1/2" = 1'-0"
140
0.5
141
12.0
290
     0
  0
SCALE
  5
9AD
102
{ACAD_REACTORS
330
978
102
}
330
978
100
AcDbScale
 70
     0
300
3/4" = 1'-0"
140
0.75
141
12.0
290
     0
  0
SCALE
  5
9AE
102
{ACAD_REACTORS
330
978
102
}
330
978
100
AcDbScale
 70
     0
300
1" = 1'-0"
140
1.0
141
12.0
290
     0
  0
SCALE
  5
9AF
102
{ACAD_REACTORS
330
978
102
}
330
978
100
AcDbScale
 70
     0
300
1-1/2" = 1'-0"
140
1.5
141
12.0
290
     0
  0
SCALE
  5
9B0
102
{ACAD_REACTORS
330
978
102
}
330
978
100
AcDbScale
 70
     0
300
3" = 1'-0"
140
3.0
141
12.0
290
     0
  0
SCALE
  5
9B1
102
{ACAD_REACTORS
330
978
102
}
330
978
100
AcDbScale
 70
     0
300
6" = 1'-0"
140
6.0
141
12.0
290
     0
  0
SCALE
  5
9B2
102
{ACAD_REACTORS
330
978
102
}
330
978
100
AcDbScale
 70
     0
300
1'-0" = 1'-0"
140
12.0
141
12.0
290
     0
  0
ACDBSECTIONVIEWSTYLE
  5
B18
102
{ACAD_XDICTIONARY
360
1020
102
}
102
{ACAD_REACTORS
330
B17
102
}
330
B17
100
AcDbModelDocViewStyle
 70
     0
  3
Imperial24
290
     0
100
AcDbSectionViewStyle
 70
     0
 71
     0
 90
       78
 71
     1
340
953
 62
   256
 40
0.24
340
0
340
0
 62
   256
 40
0.24
300
I, O, Q, S, X, Z
 40
0.48
 90
        3
 40
0.18
 90
        1
 71
     2
340
92C
 90
       25
 62
   256
340
92C
 90
       50
 62
   256
 40
0.24
 40
0.0
 40
0.24
 71
     3
340
953
 62
   256
 40
0.24
 90
        1
 40
0.75
 90
        1
300
%<\AcVar ViewType \f "%tc1">% %<\AcVar ViewSectionStartId>%-%<\AcVar ViewSectionEndId>%\PSCALE %<\AcVar ViewScale \f "%sn">%
 71
     4
 62
   256
 62
   257
300
ANSI31
 40
1.0
 90
        0
290
     0
290
     0
 90
        6
 40
0.0
 40
1.570796
 40
0.261799
 40
1.308997
 40
-0.261799
 40
1.832596
  0
TABLESTYLE
  5
98E
102
{ACAD_XDICTIONARY
360
98F
102
}
102
{ACAD_REACTORS
330
979
102
}
330
979
100
AcDbTableStyle
280
     0
  3
Standard
 70
     0
 71
     0
 40
0.06
 41
0.06
280
     0
281
     0
  7
Standard
140
0.18
170
     2
 62
     0
 63
     7
283
     0
 90
        4
 91
        0
  1

274
    -2
284
     1
 64
     0
275
    -2
285
     1
 65
     0
276
    -2
286
     1
 66
     0
277
    -2
287
     1
 67
     0
278
    -2
288
     1
 68
     0
279
    -2
289
     1
 69
     0
  7
Standard
140
0.25
170
     5
 62
     0
 63
     7
283
     0
 90
        4
 91
        0
  1

274
    -2
284
     1
 64
     0
275
    -2
285
     1
 65
     0
276
    -2
286
     1
 66
     0
277
    -2
287
     1
 67
     0
278
    -2
288
     1
 68
     0
279
    -2
289
     1
 69
     0
  7
Standard
140
0.18
170
     5
 62
     0
 63
     7
283
     0
 90
        4
 91
        0
  1

274
    -2
284
     1
 64
     0
275
    -2
285
     1
 65
     0
276
    -2
286
     1
 66
     0
277
    -2
287
     1
 67
     0
278
    -2
288
     1
 68
     0
279
    -2
289
     1
 69
     0
  0
VISUALSTYLE
  5
95D
102
{ACAD_REACTORS
330
95E
102
}
330
95E
100
AcDbVisualStyle
  2
2dWireframe
 70
     4
177
     3
291
     0
 70
    58
 90
        0
176
     1
 90
        2
176
     1
 90
        0
176
     1
 90
        0
176
     1
 40
0.6
176
     1
 40
30.0
176
     1
 62
     7
420
 16777215
176
     1
 90
        1
176
     1
 90
        4
176
     1
 62
     7
176
     1
 62
   257
176
     1
 90
        1
176
     1
 90
        1
176
     1
 40
1.0
176
     1
 90
        0
176
     1
 62
   257
176
     1
 40
1.0
176
     1
 90
        1
176
     1
 90
        6
176
     1
 90
        2
176
     1
 62
     7
176
     1
 90
        5
176
     1
 90
        0
176
     1
 90
        0
176
     1
290
     0
176
     1
 90
        1
176
     1
 40
0.0
176
     1
 90
        0
176
     1
290
     1
176
     1
290
     1
176
     1
290
     0
176
     1
290
     0
176
     1
290
     0
176
     1
290
     0
176
     1
290
     0
176
     1
290
     0
176
     1
290
     0
176
     1
 90
       50
176
     1
 40
0.0
176
     1
 40
1.0
176
     1
 90
        0
176
     1
 62
    18
420
        0
176
     1
 90
       50
176
     1
 90
        3
176
     1
 62
     5
420
      255
176
     1
290
     0
176
     1
 90
       50
176
     1
 90
       50
176
     1
 90
       50
176
     1
290
     0
176
     1
 90
       50
176
     1
 62
   256
176
     0
 40
1.0
176
     0
 90
        2
176
     1
  1
strokes_ogs.tif
176
     1
290
     0
176
     1
 40
1.0
176
     1
 40
1.0
176
     1
1001
ACAD
1000
AcDbSavedByObjectVersion
1070
     0
  0
VISUALSTYLE
  5
B06
102
{ACAD_REACTORS
330
95E
102
}
330
95E
100
AcDbVisualStyle
  2
Basic
 70
     7
177
     3
291
     1
 70
    58
 90
        1
176
     1
 90
        0
176
     1
 90
        1
176
     1
 90
        0
176
     1
 40
0.6
176
     1
 40
30.0
176
     1
 62
     7
420
 16777215
176
     1
 90
        0
176
     1
 90
        4
176
     1
 62
     7
176
     1
 62
   257
176
     1
 90
        1
176
     1
 90
        1
176
     1
 40
1.0
176
     1
 90
        8
176
     1
 62
     7
176
     1
 40
1.0
176
     1
 90
        1
176
     1
 90
        6
176
     1
 90
        2
176
     1
 62
     7
176
     1
 90
        5
176
     1
 90
        0
176
     1
 90
        0
176
     1
290
     0
176
     1
 90
        1
176
     1
 40
0.0
176
     1
 90
        0
176
     1
290
     0
176
     1
290
     1
176
     1
290
     1
176
     1
290
     0
176
     1
290
     0
176
     1
290
     0
176
     1
290
     0
176
     1
290
     0
176
     1
290
     0
176
     1
 90
       50
176
     1
 40
0.0
176
     1
 40
1.0
176
     1
 90
        0
176
     1
 62
    18
420
        0
176
     1
 90
       50
176
     1
 90
        3
176
     1
 62
     5
420
      255
176
     1
290
     0
176
     1
 90
       50
176
     1
 90
       50
176
     1
 90
       50
176
     1
290
     0
176
     1
 90
       50
176
     1
 62
   256
176
     0
 40
1.0
176
     0
 90
        2
176
     1
  1
strokes_ogs.tif
176
     1
290
     0
176
     1
 40
1.0
176
     1
 40
1.0
176
     1
1001
ACAD
1000
AcDbSavedByObjectVersion
1070
     0
  0
VISUALSTYLE
  5
B0A
102
{ACAD_REACTORS
330
95E
102
}
330
95E
100
AcDbVisualStyle
  2
Brighten
 70
    12
177
     3
291
     1
 70
    58
 90
        2
176
     1
 90
        2
176
     1
 90
        0
176
     1
 90
        0
176
     1
 40
0.6
176
     1
 40
30.0
176
     1
 62
     7
420
 16777215
176
     1
 90
        1
176
     1
 90
        4
176
     1
 62
     7
176
     1
 62
   257
176
     1
 90
        1
176
     1
 90
        1
176
     1
 40
1.0
176
     1
 90
        8
176
     1
 62
     7
176
     1
 40
1.0
176
     1
 90
        1
176
     1
 90
        6
176
     1
 90
        2
176
     1
 62
     7
176
     1
 90
        5
176
     1
 90
        0
176
     1
 90
        0
176
     1
290
     0
176
     1
 90
        1
176
     1
 40
50.0
176
     1
 90
        0
176
     1
290
     0
176
     1
290
     1
176
     1
290
     1
176
     1
290
     0
176
     1
290
     0
176
     1
290
     0
176
     1
290
     0
176
     1
290
     0
176
     1
290
     0
176
     1
 90
       50
176
     1
 40
0.0
176
     1
 40
1.0
176
     1
 90
        0
176
     1
 62
    18
420
        0
176
     1
 90
       50
176
     1
 90
        3
176
     1
 62
     5
420
      255
176
     1
290
     0
176
     1
 90
       50
176
     1
 90
       50
176
     1
 90
       50
176
     1
290
     0
176
     1
 90
       50
176
     1
 62
   256
176
     0
 40
1.0
176
     0
 90
        2
176
     1
  1
strokes_ogs.tif
176
     1
290
     0
176
     1
 40
1.0
176
     1
 40
1.0
176
     1
1001
ACAD
1000
AcDbSavedByObjectVersion
1070
     0
  0
VISUALSTYLE
  5
B0E
102
{ACAD_REACTORS
330
95E
102
}
330
95E
100
AcDbVisualStyle
  2
ColorChange
 70
    16
177
     3
291
     1
 70
    58
 90
        2
176
     1
 90
        2
176
     1
 90
        3
176
     1
 90
        0
176
     1
 40
0.6
176
     1
 40
30.0
176
     1
 62
     8
420
  8421504
176
     1
 90
        1
176
     1
 90
        4
176
     1
 62
     7
176
     1
 62
   257
176
     1
 90
        1
176
     1
 90
        1
176
     1
 40
1.0
176
     1
 90
        8
176
     1
 62
     8
420
  8421504
176
     1
 40
1.0
176
     1
 90
        1
176
     1
 90
        6
176
     1
 90
        2
176
     1
 62
     7
176
     1
 90
        5
176
     1
 90
        0
176
     1
 90
        0
176
     1
290
     0
176
     1
 90
        1
176
     1
 40
0.0
176
     1
 90
        0
176
     1
290
     0
176
     1
290
     1
176
     1
290
     1
176
     1
290
     0
176
     1
290
     0
176
     1
290
     0
176
     1
290
     0
176
     1
290
     0
176
     1
290
     0
176
     1
 90
       50
176
     1
 40
0.0
176
     1
 40
1.0
176
     1
 90
        0
176
     1
 62
    18
420
        0
176
     1
 90
       50
176
     1
 90
        3
176
     1
 62
     5
420
      255
176
     1
290
     0
176
     1
 90
       50
176
     1
 90
       50
176
     1
 90
       50
176
     1
290
     0
176
     1
 90
       50
176
     1
 62
   256
176
     0
 40
1.0
176
     0
 90
        2
176
     1
  1
strokes_ogs.tif
176
     1
290
     0
176
     1
 40
1.0
176
     1
 40
1.0
176
     1
1001
ACAD
1000
AcDbSavedByObjectVersion
1070
     0
  0
VISUALSTYLE
  5
B08
102
{ACAD_REACTORS
330
95E
102
}
330
95E
100
AcDbVisualStyle
  2
Conceptual
 70
     9
177
     3
291
     0
 70
    58
 90
        3
176
     1
 90
        2
176
     1
 90
        0
176
     1
 90
        0
176
     1
 40
0.6
176
     1
 40
30.0
176
     1
 62
     7
420
 16777215
176
     1
 90
        2
176
     1
 90
        2
176
     1
 62
     7
176
     1
 62
   257
176
     1
 90
        1
176
     1
 90
        1
176
     1
 40
179.0
176
     1
 90
        8
176
     1
 62
     7
176
     1
 40
1.0
176
     1
 90
        1
176
     1
 90
        6
176
     1
 90
        2
176
     1
 62
     7
176
     1
 90
        3
176
     1
 90
        0
176
     1
 90
        0
176
     1
290
     0
176
     1
 90
        1
176
     1
 40
0.0
176
     1
 90
        0
176
     1
290
     0
176
     1
290
     1
176
     1
290
     1
176
     1
290
     0
176
     1
290
     0
176
     1
290
     0
176
     1
290
     0
176
     1
290
     0
176
     1
290
     0
176
     1
 90
       50
176
     1
 40
0.0
176
     1
 40
1.0
176
     1
 90
        0
176
     1
 62
    18
420
        0
176
     1
 90
       50
176
     1
 90
        3
176
     1
 62
     5
420
      255
176
     1
290
     0
176
     1
 90
       50
176
     1
 90
       50
176
     1
 90
       50
176
     1
290
     0
176
     1
 90
       50
176
     1
 62
   256
176
     0
 40
1.0
176
     0
 90
        2
176
     1
  1
strokes_ogs.tif
176
     1
290
     0
176
     1
 40
1.0
176
     1
 40
1.0
176
     1
1001
ACAD
1000
AcDbSavedByObjectVersion
1070
     0
  0
VISUALSTYLE
  5
B09
102
{ACAD_REACTORS
330
95E
102
}
330
95E
100
AcDbVisualStyle
  2
Dim
 70
    11
177
     3
291
     1
 70
    58
 90
        2
176
     1
 90
        2
176
     1
 90
        0
176
     1
 90
        0
176
     1
 40
0.6
176
     1
 40
30.0
176
     1
 62
     7
420
 16777215
176
     1
 90
        1
176
     1
 90
        4
176
     1
 62
     7
176
     1
 62
   257
176
     1
 90
        1
176
     1
 90
        1
176
     1
 40
1.0
176
     1
 90
        8
176
     1
 62
     7
176
     1
 40
1.0
176
     1
 90
        1
176
     1
 90
        6
176
     1
 90
        2
176
     1
 62
     7
176
     1
 90
        5
176
     1
 90
        0
176
     1
 90
        0
176
     1
290
     0
176
     1
 90
        1
176
     1
 40
-50.0
176
     1
 90
        0
176
     1
290
     0
176
     1
290
     1
176
     1
290
     1
176
     1
290
     0
176
     1
290
     0
176
     1
290
     0
176
     1
290
     0
176
     1
290
     0
176
     1
290
     0
176
     1
 90
       50
176
     1
 40
0.0
176
     1
 40
1.0
176
     1
 90
        0
176
     1
 62
    18
420
        0
176
     1
 90
       50
176
     1
 90
        3
176
     1
 62
     5
420
      255
176
     1
290
     0
176
     1
 90
       50
176
     1
 90
       50
176
     1
 90
       50
176
     1
290
     0
176
     1
 90
       50
176
     1
 62
   256
176
     0
 40
1.0
176
     0
 90
        2
176
     1
  1
strokes_ogs.tif
176
     1
290
     0
176
     1
 40
1.0
176
     1
 40
1.0
176
     1
1001
ACAD
1000
AcDbSavedByObjectVersion
1070
     0
  0
VISUALSTYLE
  5
B16
102
{ACAD_REACTORS
330
95E
102
}
330
95E
100
AcDbVisualStyle
  2
EdgeColorOff
 70
    22
177
     3
291
     1
 70
    58
 90
        2
176
     0
 90
        2
176
     0
 90
        0
176
     0
 90
        0
176
     0
 40
0.6
176
     0
 40
30.0
176
     0
 62
     7
420
 16777215
176
     0
 90
        1
176
     0
 90
        4
176
     0
 62
     7
176
     0
 62
   257
176
     0
 90
        1
176
     0
 90
        1
176
     0
 40
1.0
176
     0
 90
        8
176
     2
 62
     7
176
     0
 40
1.0
176
     0
 90
        1
176
     0
 90
        6
176
     0
 90
        2
176
     0
 62
     7
176
     0
 90
        5
176
     0
 90
        0
176
     0
 90
        0
176
     0
290
     0
176
     0
 90
        1
176
     0
 40
0.0
176
     0
 90
        0
176
     0
290
     0
176
     0
290
     1
176
     0
290
     1
176
     0
290
     0
176
     0
290
     0
176
     0
290
     0
176
     0
290
     0
176
     0
290
     0
176
     0
290
     0
176
     0
 90
       50
176
     0
 40
0.0
176
     0
 40
1.0
176
     0
 90
        0
176
     0
 62
    18
420
        0
176
     0
 90
       50
176
     0
 90
        3
176
     0
 62
     5
420
      255
176
     0
290
     0
176
     0
 90
       50
176
     0
 90
       50
176
     0
 90
       50
176
     0
290
     0
176
     0
 90
       50
176
     0
 62
   256
176
     0
 40
1.0
176
     0
 90
        2
176
     0
  1
strokes_ogs.tif
176
     0
290
     0
176
     0
 40
1.0
176
     0
 40
1.0
176
     0
1001
ACAD
1000
AcDbSavedByObjectVersion
1070
     0
  0
VISUALSTYLE
  5
B0D
102
{ACAD_REACTORS
330
95E
102
}
330
95E
100
AcDbVisualStyle
  2
Facepattern
 70
    15
177
     3
291
     1
 70
    58
 90
        2
176
     1
 90
        2
176
     1
 90
        0
176
     1
 90
        0
176
     1
 40
0.6
176
     1
 40
30.0
176
     1
 62
     7
420
 16777215
176
     1
 90
        1
176
     1
 90
        4
176
     1
 62
     7
176
     1
 62
   257
176
     1
 90
        1
176
     1
 90
        1
176
     1
 40
1.0
176
     1
 90
        8
176
     1
 62
     7
176
     1
 40
1.0
176
     1
 90
        1
176
     1
 90
        6
176
     1
 90
        2
176
     1
 62
     7
176
     1
 90
        5
176
     1
 90
        0
176
     1
 90
        0
176
     1
290
     0
176
     1
 90
        1
176
     1
 40
0.0
176
     1
 90
        0
176
     1
290
     0
176
     1
290
     1
176
     1
290
     1
176
     1
290
     0
176
     1
290
     0
176
     1
290
     0
176
     1
290
     0
176
     1
290
     0
176
     1
290
     0
176
     1
 90
       50
176
     1
 40
0.0
176
     1
 40
1.0
176
     1
 90
        0
176
     1
 62
    18
420
        0
176
     1
 90
       50
176
     1
 90
        3
176
     1
 62
     5
420
      255
176
     1
290
     0
176
     1
 90
       50
176
     1
 90
       50
176
     1
 90
       50
176
     1
290
     0
176
     1
 90
       50
176
     1
 62
   256
176
     0
 40
1.0
176
     0
 90
        2
176
     1
  1
strokes_ogs.tif
176
     1
290
     0
176
     1
 40
1.0
176
     1
 40
1.0
176
     1
1001
ACAD
1000
AcDbSavedByObjectVersion
1070
     0
  0
VISUALSTYLE
  5
B02
102
{ACAD_REACTORS
330
95E
102
}
330
95E
100
AcDbVisualStyle
  2
Flat
 70
     0
177
     3
291
     1
 70
    58
 90
        2
176
     1
 90
        1
176
     1
 90
        1
176
     1
 90
        2
176
     1
 40
0.6
176
     1
 40
30.0
176
     1
 62
     7
420
 16777215
176
     1
 90
        0
176
     1
 90
        0
176
     1
 62
     7
176
     1
 62
   257
176
     1
 90
        1
176
     1
 90
        1
176
     1
 40
1.0
176
     1
 90
        8
176
     1
 62
     7
176
     1
 40
1.0
176
     1
 90
        1
176
     1
 90
        6
176
     1
 90
        2
176
     1
 62
     7
176
     1
 90
        5
176
     1
 90
        0
176
     1
 90
        0
176
     1
290
     0
176
     1
 90
       13
176
     1
 40
0.0
176
     1
 90
        0
176
     1
290
     0
176
     1
290
     1
176
     1
290
     1
176
     1
290
     0
176
     1
290
     0
176
     1
290
     0
176
     1
290
     0
176
     1
290
     0
176
     1
290
     0
176
     1
 90
       50
176
     1
 40
0.0
176
     1
 40
1.0
176
     1
 90
        0
176
     1
 62
    18
420
        0
176
     1
 90
       50
176
     1
 90
        3
176
     1
 62
     5
420
      255
176
     1
290
     0
176
     1
 90
       50
176
     1
 90
       50
176
     1
 90
       50
176
     1
290
     0
176
     1
 90
       50
176
     1
 62
   256
176
     0
 40
1.0
176
     0
 90
        2
176
     1
  1
strokes_ogs.tif
176
     1
290
     0
176
     1
 40
1.0
176
     1
 40
1.0
176
     1
1001
ACAD
1000
AcDbSavedByObjectVersion
1070
     0
  0
VISUALSTYLE
  5
B03
102
{ACAD_REACTORS
330
95E
102
}
330
95E
100
AcDbVisualStyle
  2
FlatWithEdges
 70
     1
177
     3
291
     1
 70
    58
 90
        2
176
     1
 90
        1
176
     1
 90
        1
176
     1
 90
        2
176
     1
 40
0.6
176
     1
 40
30.0
176
     1
 62
     7
420
 16777215
176
     1
 90
        1
176
     1
 90
        0
176
     1
 62
     7
176
     1
 62
   257
176
     1
 90
        1
176
     1
 90
        1
176
     1
 40
1.0
176
     1
 90
        0
176
     1
 62
   257
176
     1
 40
1.0
176
     1
 90
        1
176
     1
 90
        6
176
     1
 90
        2
176
     1
 62
     7
176
     1
 90
        5
176
     1
 90
        0
176
     1
 90
        0
176
     1
290
     0
176
     1
 90
       13
176
     1
 40
0.0
176
     1
 90
        0
176
     1
290
     0
176
     1
290
     1
176
     1
290
     1
176
     1
290
     0
176
     1
290
     0
176
     1
290
     0
176
     1
290
     0
176
     1
290
     0
176
     1
290
     0
176
     1
 90
       50
176
     1
 40
0.0
176
     1
 40
1.0
176
     1
 90
        0
176
     1
 62
    18
420
        0
176
     1
 90
       50
176
     1
 90
        3
176
     1
 62
     5
420
      255
176
     1
290
     0
176
     1
 90
       50
176
     1
 90
       50
176
     1
 90
       50
176
     1
290
     0
176
     1
 90
       50
176
     1
 62
   256
176
     0
 40
1.0
176
     0
 90
        2
176
     1
  1
strokes_ogs.tif
176
     1
290
     0
176
     1
 40
1.0
176
     1
 40
1.0
176
     1
1001
ACAD
1000
AcDbSavedByObjectVersion
1070
     0
  0
VISUALSTYLE
  5
B04
102
{ACAD_REACTORS
330
95E
102
}
330
95E
100
AcDbVisualStyle
  2
Gouraud
 70
     2
177
     3
291
     1
 70
    58
 90
        2
176
     1
 90
        2
176
     1
 90
        1
176
     1
 90
        2
176
     1
 40
0.6
176
     1
 40
30.0
176
     1
 62
     7
420
 16777215
176
     1
 90
        0
176
     1
 90
        0
176
     1
 62
     7
176
     1
 62
   257
176
     1
 90
        1
176
     1
 90
        1
176
     1
 40
1.0
176
     1
 90
        0
176
     1
 62
     7
176
     1
 40
1.0
176
     1
 90
        1
176
     1
 90
        6
176
     1
 90
        2
176
     1
 62
     7
176
     1
 90
        5
176
     1
 90
        0
176
     1
 90
        0
176
     1
290
     0
176
     1
 90
       13
176
     1
 40
0.0
176
     1
 90
        0
176
     1
290
     0
176
     1
290
     1
176
     1
290
     1
176
     1
290
     0
176
     1
290
     0
176
     1
290
     0
176
     1
290
     0
176
     1
290
     0
176
     1
290
     0
176
     1
 90
       50
176
     1
 40
0.0
176
     1
 40
1.0
176
     1
 90
        0
176
     1
 62
    18
420
        0
176
     1
 90
       50
176
     1
 90
        3
176
     1
 62
     5
420
      255
176
     1
290
     0
176
     1
 90
       50
176
     1
 90
       50
176
     1
 90
       50
176
     1
290
     0
176
     1
 90
       50
176
     1
 62
   256
176
     0
 40
1.0
176
     0
 90
        2
176
     1
  1
strokes_ogs.tif
176
     1
290
     0
176
     1
 40
1.0
176
     1
 40
1.0
176
     1
1001
ACAD
1000
AcDbSavedByObjectVersion
1070
     0
  0
VISUALSTYLE
  5
B05
102
{ACAD_REACTORS
330
95E
102
}
330
95E
100
AcDbVisualStyle
  2
GouraudWithEdges
 70
     3
177
     3
291
     1
 70
    58
 90
        2
176
     1
 90
        2
176
     1
 90
        1
176
     1
 90
        2
176
     1
 40
0.6
176
     1
 40
30.0
176
     1
 62
     7
420
 16777215
176
     1
 90
        1
176
     1
 90
        0
176
     1
 62
     7
176
     1
 62
   257
176
     1
 90
        1
176
     1
 90
        1
176
     1
 40
1.0
176
     1
 90
        0
176
     1
 62
   257
176
     1
 40
1.0
176
     1
 90
        1
176
     1
 90
        6
176
     1
 90
        2
176
     1
 62
     7
176
     1
 90
        5
176
     1
 90
        0
176
     1
 90
        0
176
     1
290
     0
176
     1
 90
       13
176
     1
 40
0.0
176
     1
 90
        0
176
     1
290
     0
176
     1
290
     1
176
     1
290
     1
176
     1
290
     0
176
     1
290
     0
176
     1
290
     0
176
     1
290
     0
176
     1
290
     0
176
     1
290
     0
176
     1
 90
       50
176
     1
 40
0.0
176
     1
 40
1.0
176
     1
 90
        0
176
     1
 62
    18
420
        0
176
     1
 90
       50
176
     1
 90
        3
176
     1
 62
     5
420
      255
176
     1
290
     0
176
     1
 90
       50
176
     1
 90
       50
176
     1
 90
       50
176
     1
290
     0
176
     1
 90
       50
176
     1
 62
   256
176
     0
 40
1.0
176
     0
 90
        2
176
     1
  1
strokes_ogs.tif
176
     1
290
     0
176
     1
 40
1.0
176
     1
 40
1.0
176
     1
1001
ACAD
1000
AcDbSavedByObjectVersion
1070
     0
  0
VISUALSTYLE
  5
B07
102
{ACAD_REACTORS
330
95E
102
}
330
95E
100
AcDbVisualStyle
  2
Hidden
 70
     6
177
     3
291
     0
 70
    58
 90
        1
176
     1
 90
        2
176
     1
 90
        2
176
     1
 90
        0
176
     1
 40
0.6
176
     1
 40
30.0
176
     1
 62
     7
420
 16777215
176
     1
 90
        2
176
     1
 90
        2
176
     1
 62
     7
176
     1
 62
   257
176
     1
 90
        2
176
     1
 90
        1
176
     1
 40
40.0
176
     1
 90
        0
176
     1
 62
   257
176
     1
 40
1.0
176
     1
 90
        1
176
     1
 90
        6
176
     1
 90
        2
176
     1
 62
     7
176
     1
 90
        3
176
     1
 90
        0
176
     1
 90
        0
176
     1
290
     0
176
     1
 90
        1
176
     1
 40
0.0
176
     1
 90
        0
176
     1
290
     0
176
     1
290
     1
176
     1
290
     1
176
     1
290
     0
176
     1
290
     0
176
     1
290
     0
176
     1
290
     0
176
     1
290
     0
176
     1
290
     0
176
     1
 90
       50
176
     1
 40
0.0
176
     1
 40
1.0
176
     1
 90
        0
176
     1
 62
    18
420
        0
176
     1
 90
       50
176
     1
 90
        3
176
     1
 62
     5
420
      255
176
     1
290
     0
176
     1
 90
       50
176
     1
 90
       50
176
     1
 90
       50
176
     1
290
     0
176
     1
 90
       50
176
     1
 62
   256
176
     0
 40
1.0
176
     0
 90
        2
176
     1
  1
strokes_ogs.tif
176
     1
290
     0
176
     1
 40
1.0
176
     1
 40
1.0
176
     1
1001
ACAD
1000
AcDbSavedByObjectVersion
1070
     0
  0
VISUALSTYLE
  5
B14
102
{ACAD_REACTORS
330
95E
102
}
330
95E
100
AcDbVisualStyle
  2
JitterOff
 70
    20
177
     3
291
     1
 70
    58
 90
        2
176
     0
 90
        2
176
     0
 90
        0
176
     0
 90
        0
176
     0
 40
0.6
176
     0
 40
30.0
176
     0
 62
     7
420
 16777215
176
     0
 90
        1
176
     0
 90
        4
176
     0
 62
     7
176
     0
 62
   257
176
     0
 90
        1
176
     0
 90
        1
176
     0
 40
1.0
176
     0
 90
       10
176
     2
 62
     7
176
     0
 40
1.0
176
     0
 90
        1
176
     0
 90
        6
176
     0
 90
        2
176
     0
 62
     7
176
     0
 90
        5
176
     0
 90
        0
176
     0
 90
        0
176
     0
290
     0
176
     0
 90
        1
176
     0
 40
0.0
176
     0
 90
        0
176
     0
290
     0
176
     0
290
     1
176
     0
290
     1
176
     0
290
     0
176
     0
290
     0
176
     0
290
     0
176
     0
290
     0
176
     0
290
     0
176
     0
290
     0
176
     0
 90
       50
176
     0
 40
0.0
176
     0
 40
1.0
176
     0
 90
        0
176
     0
 62
    18
420
        0
176
     0
 90
       50
176
     0
 90
        3
176
     0
 62
     5
420
      255
176
     0
290
     0
176
     0
 90
       50
176
     0
 90
       50
176
     0
 90
       50
176
     0
290
     0
176
     0
 90
       50
176
     0
 62
   256
176
     0
 40
1.0
176
     0
 90
        2
176
     0
  1
strokes_ogs.tif
176
     0
290
     0
176
     0
 40
1.0
176
     0
 40
1.0
176
     0
1001
ACAD
1000
AcDbSavedByObjectVersion
1070
     0
  0
VISUALSTYLE
  5
B0C
102
{ACAD_REACTORS
330
95E
102
}
330
95E
100
AcDbVisualStyle
  2
Linepattern
 70
    14
177
     3
291
     1
 70
    58
 90
        2
176
     1
 90
        2
176
     1
 90
        0
176
     1
 90
        0
176
     1
 40
0.6
176
     1
 40
30.0
176
     1
 62
     7
420
 16777215
176
     1
 90
        1
176
     1
 90
        4
176
     1
 62
     7
176
     1
 62
   257
176
     1
 90
        7
176
     1
 90
        7
176
     1
 40
1.0
176
     1
 90
        8
176
     1
 62
     7
176
     1
 40
1.0
176
     1
 90
        1
176
     1
 90
        6
176
     1
 90
        2
176
     1
 62
     7
176
     1
 90
        5
176
     1
 90
        0
176
     1
 90
        0
176
     1
290
     0
176
     1
 90
        1
176
     1
 40
0.0
176
     1
 90
        0
176
     1
290
     0
176
     1
290
     1
176
     1
290
     1
176
     1
290
     0
176
     1
290
     0
176
     1
290
     0
176
     1
290
     0
176
     1
290
     0
176
     1
290
     0
176
     1
 90
       50
176
     1
 40
0.0
176
     1
 40
1.0
176
     1
 90
        0
176
     1
 62
    18
420
        0
176
     1
 90
       50
176
     1
 90
        3
176
     1
 62
     5
420
      255
176
     1
290
     0
176
     1
 90
       50
176
     1
 90
       50
176
     1
 90
       50
176
     1
290
     0
176
     1
 90
       50
176
     1
 62
   256
176
     0
 40
1.0
176
     0
 90
        2
176
     1
  1
strokes_ogs.tif
176
     1
290
     0
176
     1
 40
1.0
176
     1
 40
1.0
176
     1
1001
ACAD
1000
AcDbSavedByObjectVersion
1070
     0
  0
VISUALSTYLE
  5
B15
102
{ACAD_REACTORS
330
95E
102
}
330
95E
100
AcDbVisualStyle
  2
OverhangOff
 70
    21
177
     3
291
     1
 70
    58
 90
        2
176
     0
 90
        2
176
     0
 90
        0
176
     0
 90
        0
176
     0
 40
0.6
176
     0
 40
30.0
176
     0
 62
     7
420
 16777215
176
     0
 90
        1
176
     0
 90
        4
176
     0
 62
     7
176
     0
 62
   257
176
     0
 90
        1
176
     0
 90
        1
176
     0
 40
1.0
176
     0
 90
        9
176
     2
 62
     7
176
     0
 40
1.0
176
     0
 90
        1
176
     0
 90
        6
176
     0
 90
        2
176
     0
 62
     7
176
     0
 90
        5
176
     0
 90
        0
176
     0
 90
        0
176
     0
290
     0
176
     0
 90
        1
176
     0
 40
0.0
176
     0
 90
        0
176
     0
290
     0
176
     0
290
     1
176
     0
290
     1
176
     0
290
     0
176
     0
290
     0
176
     0
290
     0
176
     0
290
     0
176
     0
290
     0
176
     0
290
     0
176
     0
 90
       50
176
     0
 40
0.0
176
     0
 40
1.0
176
     0
 90
        0
176
     0
 62
    18
420
        0
176
     0
 90
       50
176
     0
 90
        3
176
     0
 62
     5
420
      255
176
     0
290
     0
176
     0
 90
       50
176
     0
 90
       50
176
     0
 90
       50
176
     0
290
     0
176
     0
 90
       50
176
     0
 62
   256
176
     0
 40
1.0
176
     0
 90
        2
176
     0
  1
strokes_ogs.tif
176
     0
290
     0
176
     0
 40
1.0
176
     0
 40
1.0
176
     0
1001
ACAD
1000
AcDbSavedByObjectVersion
1070
     0
  0
VISUALSTYLE
  5
990
102
{ACAD_REACTORS
330
95E
102
}
330
95E
100
AcDbVisualStyle
  2
Realistic
 70
     8
177
     3
291
     0
 70
    58
 90
        2
176
     1
 90
        2
176
     1
 90
        0
176
     1
 90
        0
176
     1
 40
0.6
176
     1
 40
30.0
176
     1
 62
     7
420
 16777215
176
     1
 90
        1
176
     1
 90
        0
176
     1
 62
     7
176
     1
 62
   257
176
     1
 90
        1
176
     1
 90
        1
176
     1
 40
1.0
176
     1
 90
        8
176
     1
 62
     8
420
  7895160
176
     1
 40
1.0
176
     1
 90
        1
176
     1
 90
        6
176
     1
 90
        2
176
     1
 62
     7
176
     1
 90
        5
176
     1
 90
        0
176
     1
 90
        0
176
     1
290
     0
176
     1
 90
       13
176
     1
 40
0.0
176
     1
 90
        0
176
     1
290
     0
176
     1
290
     1
176
     1
290
     1
176
     1
290
     0
176
     1
290
     0
176
     1
290
     0
176
     1
290
     0
176
     1
290
     0
176
     1
290
     0
176
     1
 90
       50
176
     1
 40
0.0
176
     1
 40
1.0
176
     1
 90
        0
176
     1
 62
    18
420
        0
176
     1
 90
       50
176
     1
 90
        3
176
     1
 62
     5
420
      255
176
     1
290
     0
176
     1
 90
       50
176
     1
 90
       50
176
     1
 90
       50
176
     1
290
     0
176
     1
 90
       50
176
     1
 62
   256
176
     0
 40
1.0
176
     0
 90
        2
176
     1
  1
strokes_ogs.tif
176
     1
290
     0
176
     1
 40
1.0
176
     1
 40
1.0
176
     1
1001
ACAD
1000
AcDbSavedByObjectVersion
1070
     0
  0
VISUALSTYLE
  5
B13
102
{ACAD_REACTORS
330
95E
102
}
330
95E
100
AcDbVisualStyle
  2
Shaded
 70
    27
177
     3
291
     0
 70
    58
 90
        2
176
     1
 90
        2
176
     1
 90
        1
176
     1
 90
        2
176
     1
 40
0.6
176
     1
 40
30.0
176
     1
 62
     7
420
 16777215
176
     1
 90
        0
176
     1
 90
        4
176
     1
 62
     7
176
     1
 62
   257
176
     1
 90
        1
176
     1
 90
        1
176
     1
 40
1.0
176
     1
 90
        8
176
     1
 62
   257
176
     1
 40
1.0
176
     1
 90
        1
176
     1
 90
        6
176
     1
 90
        2
176
     1
 62
     8
420
  7895160
176
     1
 90
        3
176
     1
 90
        0
176
     1
 90
        0
176
     1
290
     0
176
     1
 90
        5
176
     1
 40
0.0
176
     1
 90
        0
176
     1
290
     0
176
     1
290
     1
176
     1
290
     1
176
     1
290
     0
176
     1
290
     0
176
     1
290
     0
176
     1
290
     0
176
     1
290
     0
176
     1
290
     0
176
     1
 90
       50
176
     1
 40
0.0
176
     1
 40
1.0
176
     1
 90
        0
176
     1
 62
    18
420
        0
176
     1
 90
       50
176
     1
 90
        3
176
     1
 62
     5
420
      255
176
     1
290
     0
176
     1
 90
       50
176
     1
 90
       50
176
     1
 90
       50
176
     1
290
     0
176
     1
 90
       50
176
     1
 62
   256
176
     0
 40
1.0
176
     0
 90
        2
176
     1
  1
strokes_ogs.tif
176
     1
290
     0
176
     1
 40
1.0
176
     1
 40
1.0
176
     1
1001
ACAD
1000
AcDbSavedByObjectVersion
1070
     0
  0
VISUALSTYLE
  5
B12
102
{ACAD_REACTORS
330
95E
102
}
330
95E
100
AcDbVisualStyle
  2
Shaded with edges
 70
    26
177
     3
291
     0
 70
    58
 90
        2
176
     1
 90
        2
176
     1
 90
        1
176
     1
 90
        2
176
     1
 40
0.6
176
     1
 40
30.0
176
     1
 62
     7
420
 16777215
176
     1
 90
        1
176
     1
 90
        2
176
     1
 62
     7
176
     1
 62
   257
176
     1
 90
        2
176
     1
 90
        1
176
     1
 40
1.0
176
     1
 90
        8
176
     1
 62
   257
176
     1
 40
1.0
176
     1
 90
        1
176
     1
 90
        6
176
     1
 90
        2
176
     1
 62
     7
176
     1
 90
        3
176
     1
 90
        0
176
     1
 90
        0
176
     1
290
     0
176
     1
 90
        5
176
     1
 40
0.0
176
     1
 90
        0
176
     1
290
     0
176
     1
290
     1
176
     1
290
     1
176
     1
290
     0
176
     1
290
     0
176
     1
290
     0
176
     1
290
     0
176
     1
290
     0
176
     1
290
     0
176
     1
 90
       50
176
     1
 40
0.0
176
     1
 40
1.0
176
     1
 90
        0
176
     1
 62
    18
420
        0
176
     1
 90
       50
176
     1
 90
        3
176
     1
 62
     5
420
      255
176
     1
290
     0
176
     1
 90
       50
176
     1
 90
       50
176
     1
 90
       50
176
     1
290
     0
176
     1
 90
       50
176
     1
 62
   256
176
     0
 40
1.0
176
     0
 90
        2
176
     1
  1
strokes_ogs.tif
176
     1
290
     0
176
     1
 40
1.0
176
     1
 40
1.0
176
     1
1001
ACAD
1000
AcDbSavedByObjectVersion
1070
     0
  0
VISUALSTYLE
  5
B0F
102
{ACAD_REACTORS
330
95E
102
}
330
95E
100
AcDbVisualStyle
  2
Shades of Gray
 70
    23
177
     3
291
     0
 70
    58
 90
        2
176
     1
 90
        2
176
     1
 90
        3
176
     1
 90
        0
176
     1
 40
0.6
176
     1
 40
30.0
176
     1
 62
     7
420
 16777215
176
     1
 90
        2
176
     1
 90
        2
176
     1
 62
     7
176
     1
 62
     7
176
     1
 90
        1
176
     1
 90
        1
176
     1
 40
40.0
176
     1
 90
        8
176
     1
 62
     7
176
     1
 40
1.0
176
     1
 90
        1
176
     1
 90
        6
176
     1
 90
        2
176
     1
 62
     7
176
     1
 90
        3
176
     1
 90
        0
176
     1
 90
        0
176
     1
290
     0
176
     1
 90
        1
176
     1
 40
0.0
176
     1
 90
        0
176
     1
290
     0
176
     1
290
     1
176
     1
290
     1
176
     1
290
     0
176
     1
290
     0
176
     1
290
     0
176
     1
290
     0
176
     1
290
     0
176
     1
290
     0
176
     1
 90
       50
176
     1
 40
0.0
176
     1
 40
1.0
176
     1
 90
        0
176
     1
 62
    18
420
        0
176
     1
 90
       50
176
     1
 90
        3
176
     1
 62
     5
420
      255
176
     1
290
     0
176
     1
 90
       50
176
     1
 90
       50
176
     1
 90
       50
176
     1
290
     0
176
     1
 90
       50
176
     1
 62
   256
176
     0
 40
1.0
176
     0
 90
        2
176
     1
  1
strokes_ogs.tif
176
     1
290
     0
176
     1
 40
1.0
176
     1
 40
1.0
176
     1
1001
ACAD
1000
AcDbSavedByObjectVersion
1070
     0
  0
VISUALSTYLE
  5
B10
102
{ACAD_REACTORS
330
95E
102
}
330
95E
100
AcDbVisualStyle
  2
Sketchy
 70
    24
177
     3
291
     0
 70
    58
 90
        1
176
     1
 90
        2
176
     1
 90
        2
176
     1
 90
        0
176
     1
 40
0.6
176
     1
 40
30.0
176
     1
 62
     7
420
 16777215
176
     1
 90
        2
176
     1
 90
        2
176
     1
 62
     7
176
     1
 62
     7
176
     1
 90
        1
176
     1
 90
        1
176
     1
 40
40.0
176
     1
 90
       11
176
     1
 62
     7
176
     1
 40
1.0
176
     1
 90
        1
176
     1
 90
        6
176
     1
 90
        2
176
     1
 62
     7
176
     1
 90
        6
176
     1
 90
        0
176
     1
 90
        0
176
     1
290
     0
176
     1
 90
        1
176
     1
 40
0.0
176
     1
 90
        0
176
     1
290
     0
176
     1
290
     1
176
     1
290
     1
176
     1
290
     0
176
     1
290
     0
176
     1
290
     0
176
     1
290
     0
176
     1
290
     0
176
     1
290
     0
176
     1
 90
       50
176
     1
 40
0.0
176
     1
 40
1.0
176
     1
 90
        0
176
     1
 62
    18
420
        0
176
     1
 90
       50
176
     1
 90
        3
176
     1
 62
     5
420
      255
176
     1
290
     0
176
     1
 90
       50
176
     1
 90
       50
176
     1
 90
       50
176
     1
290
     0
176
     1
 90
       50
176
     1
 62
   256
176
     0
 40
1.0
176
     0
 90
        2
176
     1
  1
strokes_ogs.tif
176
     1
290
     0
176
     1
 40
1.0
176
     1
 40
1.0
176
     1
1001
ACAD
1000
AcDbSavedByObjectVersion
1070
     0
  0
VISUALSTYLE
  5
B0B
102
{ACAD_REACTORS
330
95E
102
}
330
95E
100
AcDbVisualStyle
  2
Thicken
 70
    13
177
     3
291
     1
 70
    58
 90
        2
176
     1
 90
        2
176
     1
 90
        0
176
     1
 90
        0
176
     1
 40
0.6
176
     1
 40
30.0
176
     1
 62
     7
420
 16777215
176
     1
 90
        1
176
     1
 90
        4
176
     1
 62
     7
176
     1
 62
   257
176
     1
 90
        1
176
     1
 90
        1
176
     1
 40
1.0
176
     1
 90
       12
176
     1
 62
     7
176
     1
 40
1.0
176
     1
 90
        1
176
     1
 90
        6
176
     1
 90
        2
176
     1
 62
     7
176
     1
 90
        5
176
     1
 90
        0
176
     1
 90
        0
176
     1
290
     0
176
     1
 90
        1
176
     1
 40
0.0
176
     1
 90
        0
176
     1
290
     0
176
     1
290
     1
176
     1
290
     1
176
     1
290
     0
176
     1
290
     0
176
     1
290
     0
176
     1
290
     0
176
     1
290
     0
176
     1
290
     0
176
     1
 90
       50
176
     1
 40
0.0
176
     1
 40
1.0
176
     1
 90
        0
176
     1
 62
    18
420
        0
176
     1
 90
       50
176
     1
 90
        3
176
     1
 62
     5
420
      255
176
     1
290
     0
176
     1
 90
       50
176
     1
 90
       50
176
     1
 90
       50
176
     1
290
     0
176
     1
 90
       50
176
     1
 62
   256
176
     0
 40
1.0
176
     0
 90
        2
176
     1
  1
strokes_ogs.tif
176
     1
290
     0
176
     1
 40
1.0
176
     1
 40
1.0
176
     1
1001
ACAD
1000
AcDbSavedByObjectVersion
1070
     0
  0
VISUALSTYLE
  5
991
102
{ACAD_REACTORS
330
95E
102
}
330
95E
100
AcDbVisualStyle
  2
Wireframe
 70
     5
177
     3
291
     0
 70
    58
 90
        0
176
     1
 90
        2
176
     1
 90
        0
176
     1
 90
        0
176
     1
 40
0.6
176
     1
 40
30.0
176
     1
 62
     7
420
 16777215
176
     1
 90
        1
176
     1
 90
        4
176
     1
 62
     7
176
     1
 62
   257
176
     1
 90
        1
176
     1
 90
        1
176
     1
 40
1.0
176
     1
 90
        0
176
     1
 62
   257
176
     1
 40
1.0
176
     1
 90
        1
176
     1
 90
        6
176
     1
 90
        2
176
     1
 62
     7
176
     1
 90
        3
176
     1
 90
        0
176
     1
 90
        0
176
     1
290
     0
176
     1
 90
        1
176
     1
 40
0.0
176
     1
 90
        0
176
     1
290
     0
176
     1
290
     1
176
     1
290
     1
176
     1
290
     0
176
     1
290
     0
176
     1
290
     0
176
     1
290
     0
176
     1
290
     0
176
     1
290
     0
176
     1
 90
       50
176
     1
 40
0.0
176
     1
 40
1.0
176
     1
 90
        0
176
     1
 62
    18
420
        0
176
     1
 90
       50
176
     1
 90
        3
176
     1
 62
     5
420
      255
176
     1
290
     0
176
     1
 90
       50
176
     1
 90
       50
176
     1
 90
       50
176
     1
290
     0
176
     1
 90
       50
176
     1
 62
   256
176
     0
 40
1.0
176
     0
 90
        2
176
     1
  1
strokes_ogs.tif
176
     1
290
     0
176
     1
 40
1.0
176
     1
 40
1.0
176
     1
1001
ACAD
1000
AcDbSavedByObjectVersion
1070
     0
  0
VISUALSTYLE
  5
B11
102
{ACAD_REACTORS
330
95E
102
}
330
95E
100
AcDbVisualStyle
  2
X-Ray
 70
    25
177
     3
291
     0
 70
    58
 90
        2
176
     1
 90
        2
176
     1
 90
        1
176
     1
 90
        1
176
     1
 40
0.5
176
     1
 40
30.0
176
     1
 62
     7
420
 16777215
176
     1
 90
        1
176
     1
 90
        0
176
     1
 62
     7
176
     1
 62
   257
176
     1
 90
        1
176
     1
 90
        1
176
     1
 40
1.0
176
     1
 90
        8
176
     1
 62
     7
176
     1
 40
1.0
176
     1
 90
        1
176
     1
 90
        6
176
     1
 90
        2
176
     1
 62
     7
176
     1
 90
        3
176
     1
 90
        0
176
     1
 90
        0
176
     1
290
     0
176
     1
 90
       13
176
     1
 40
0.0
176
     1
 90
        0
176
     1
290
     0
176
     1
290
     1
176
     1
290
     1
176
     1
290
     0
176
     1
290
     0
176
     1
290
     0
176
     1
290
     0
176
     1
290
     0
176
     1
290
     0
176
     1
 90
       50
176
     1
 40
0.0
176
     1
 40
1.0
176
     1
 90
        0
176
     1
 62
    18
420
        0
176
     1
 90
       50
176
     1
 90
        3
176
     1
 62
     5
420
      255
176
     1
290
     0
176
     1
 90
       50
176
     1
 90
       50
176
     1
 90
       50
176
     1
290
     0
176
     1
 90
       50
176
     1
 62
   256
176
     0
 40
1.0
176
     0
 90
        2
176
     1
  1
strokes_ogs.tif
176
     1
290
     0
176
     1
 40
1.0
176
     1
 40
1.0
176
     1
1001
ACAD
1000
AcDbSavedByObjectVersion
1070
     0
  0
DICTIONARYVAR
  5
97C
102
{ACAD_REACTORS
330
97B
102
}
330
97B
100
DictionaryVariables
280
     0
  1
1:1
  0
DICTIONARYVAR
  5
97D
102
{ACAD_REACTORS
330
97B
102
}
330
97B
100
DictionaryVariables
280
     0
  1
STANDARD
  0
DICTIONARYVAR
  5
97E
102
{ACAD_REACTORS
330
97B
102
}
330
97B
100
DictionaryVariables
280
     0
  1
STANDARD
  0
DICTIONARYVAR
  5
97F
102
{ACAD_REACTORS
330
97B
102
}
330
97B
100
DictionaryVariables
280
     0
  1
Imperial24
  0
DICTIONARYVAR
  5
980
102
{ACAD_REACTORS
330
97B
102
}
330
97B
100
DictionaryVariables
280
     0
  1
Imperial24
  0
DICTIONARYVAR
  5
981
102
{ACAD_REACTORS
330
97B
102
}
330
97B
100
DictionaryVariables
280
     0
  1
1
  0
DICTIONARYVAR
  5
982
102
{ACAD_REACTORS
330
97B
102
}
330
97B
100
DictionaryVariables
280
     0
  1
15
  0
DICTIONARYVAR
  5
983
102
{ACAD_REACTORS
330
97B
102
}
330
97B
100
DictionaryVariables
280
     0
  1
0
  0
DICTIONARYVAR
  5
984
102
{ACAD_REACTORS
330
97B
102
}
330
97B
100
DictionaryVariables
280
     0
  1
0
  0
DICTIONARY
  5
101F
102
{ACAD_REACTORS
330
101D
102
}
330
101D
100
AcDbDictionary
281
     1
  0
DICTIONARY
  5
101E
102
{ACAD_REACTORS
330
101D
102
}
330
101D
100
AcDbDictionary
281
     1
  3
2712935278208
350
1018
  3
2712935278224
350
1019
  3
2712935278240
350
101A
  3
2712935278256
350
101B
  3
2712935278272
350
101C
  0
XRECORD
  5
5C
102
{ACAD_REACTORS
330
AF3
102
}
330
AF3
100
AcDbXrecord
280
     1
310
0000AC02000400000013000000000000000000000000000000000000000000000000000000000000000000000000000000000000000000000000000000000000000000000000000000000000000000000000000000000000000000000000000000000000000000000000000000000000000000000000000000000000000000
310
00000000000000000000000000000000000000000000000000000000000000000000000000000000000000000000000000000000000000000000000000000000000000000000000000000000000000000000000000000000000000000000000000000000000000000000000000000000000000000000000000000000000000
310
00000000000000000000000000000000000000000000000000000000000000000000000000000000000000000000000000000000000000000000000000000000000000000000000000000000000000000000000000000000000000000000000000000000000000000000000000000000000000000000000000000000000000
310
00000000000000000000000000000000000000000000000000000000000000000000000000000000000000000000000000000000000000000000000000000000000000000000000000000000000000000000000000000000000000000000000000000000000000000000000000000000000000000000000000000000000000
310
00000000000000000000000000000000000000000000000000000000000000000000000000000000000000000000000000000000000000000000000000000000000000000000000000000000000000000000000000000000000000000000000000000000000000000000000000000000000000000000000000000000000000
310
00000000000000000000000000000000000000000000000000000000000000000000000000000000000000000000000000000000000000000000000000000000000000000000000000000000000000000000000000000000000000000000000000000000000000000000000000000000000000000000000000000000000000
310
00000000000000000000000000000000000000000000000000000000000000000000000000000000000000000000000000000000000000000000000000000000000000000000000000000000000000000000000000000000000000000000000000000000000000000000000000000000000000000000000000000000000000
310
00000000000000000000000000000000000000000000000000000000000000000000000000000000000000000000000000000000000000000000000000000000000000000000000000000000000000000000000000000000000000000000000000000000000000000000000000000000000000000000000000000000000000
310
00000000000000000000000000000000000000000000000000000000000000000000000000000000000000000000000000000000000000000000000000000000000000000000000000000000000000000000000000000000000000000000000000000000000000000000000000000000000000000000000000000000000000
310
00000000000000000000000000000000000000000000000000000000000000000000000000000000000000000000000000000000000000000000000000000000000000000000000000000000000000000000000000000000000000000000000000000000000000000000000000000000000000000000000000000000000000
310
000000000000000000000000000000000000000000000000000000000000000000000000000000000000000000000000000000000000000000000000000000000000000000000000000000000000000000000000000000000000000000000000000000000000
  0
DICTIONARY
  5
1022
330
B1A
100
AcDbDictionary
280
     1
281
     1
  3
ACAD_XREC_ROUNDTRIP
360
1023
  0
DICTIONARY
  5
94B
330
94A
100
AcDbDictionary
280
     1
281
     1
  0
DICTIONARY
  5
946
330
944
100
AcDbDictionary
280
     1
281
     1
  0
DICTIONARY
  5
970
330
96F
100
AcDbDictionary
280
     1
281
     1
  3
BUMPTILE
360
971
  3
DIFFUSETILE
360
972
  3
OPACITYTILE
360
973
  3
REFLECTIONTILE
360
974
  3
REFRACTIONTILE
360
975
  3
SPECULARTILE
360
976
  0
DICTIONARY
  5
968
330
967
100
AcDbDictionary
280
     1
281
     1
  3
BUMPTILE
360
969
  3
DIFFUSETILE
360
96A
  3
OPACITYTILE
360
96B
  3
REFLECTIONTILE
360
96C
  3
REFRACTIONTILE
360
96D
  3
SPECULARTILE
360
96E
  0
DICTIONARY
  5
925
330
923
100
AcDbDictionary
280
     1
281
     1
  3
BUMPTILE
360
926
  3
DIFFUSETILE
360
927
  3
OPACITYTILE
360
928
  3
REFLECTIONTILE
360
929
  3
REFRACTIONTILE
360
92A
  3
SPECULARTILE
360
92B
  0
DICTIONARY
  5
1020
330
B18
100
AcDbDictionary
280
     1
281
     1
  3
ACAD_XREC_ROUNDTRIP
360
1021
  0
DICTIONARY
  5
98F
330
98E
100
AcDbDictionary
280
     1
281
     1
  3
ACAD_ROUNDTRIP_2008_TABLESTYLE_CELLSTYLEMAP
360
1016
  0
XRECORD
  5
1018
102
{ACAD_REACTORS
330
101E
102
}
330
101E
100
AcDbXrecord
280
     1
  1
AcDb_Thumbnail_Schema
102
{ATTRRECORD
341
1019
  2
AcDbDs::TreatedAsObjectData
280
     1
291
     1
102
ATTRRECORD}
102
{ATTRRECORD
341
101A
  2
AcDbDs::Legacy
280
     1
291
     1
102
ATTRRECORD}
  2
AcDbDs::ID
280
    10
 91
        8
102
{ATTRRECORD
341
101B
  2
AcDs:Indexable
280
     1
291
     1
102
ATTRRECORD}
102
{ATTRRECORD
341
101C
  2
AcDbDs::HandleAttribute
280
     7
282
     1
102
ATTRRECORD}
  2
Thumbnail_Data
280
    15
 91
        0
  0
XRECORD
  5
1019
102
{ACAD_REACTORS
330
101E
102
}
330
101E
100
AcDbXrecord
280
     1
  1
AcDbDs::TreatedAsObjectDataSchema
  2
AcDbDs::TreatedAsObjectData
280
     1
 91
        0
  0
XRECORD
  5
101A
102
{ACAD_REACTORS
330
101E
102
}
330
101E
100
AcDbXrecord
280
     1
  1
AcDbDs::LegacySchema
  2
AcDbDs::Legacy
280
     1
 91
        0
  0
XRECORD
  5
101B
102
{ACAD_REACTORS
330
101E
102
}
330
101E
100
AcDbXrecord
280
     1
  1
AcDbDs::IndexedPropertySchema
  2
AcDs:Indexable
280
     1
 91
        0
  0
XRECORD
  5
101C
102
{ACAD_REACTORS
330
101E
102
}
330
101E
100
AcDbXrecord
280
     1
  1
AcDbDs::HandleAttributeSchema
  2
AcDbDs::HandleAttribute
280
     7
 91
        1
284
     1
  0
XRECORD
  5
1023
102
{ACAD_REACTORS
330
1022
102
}
330
1022
100
AcDbXrecord
280
     1
102
DISPLAYNAME
  1
Imperial24
102
FLAGS
 90
        0
  0
XRECORD
  5
971
102
{ACAD_REACTORS
330
970
102
}
330
970
100
AcDbXrecord
280
     1
270
     1
271
     1
  0
XRECORD
  5
972
102
{ACAD_REACTORS
330
970
102
}
330
970
100
AcDbXrecord
280
     1
270
     1
271
     1
  0
XRECORD
  5
973
102
{ACAD_REACTORS
330
970
102
}
330
970
100
AcDbXrecord
280
     1
270
     1
271
     1
  0
XRECORD
  5
974
102
{ACAD_REACTORS
330
970
102
}
330
970
100
AcDbXrecord
280
     1
270
     1
271
     1
  0
XRECORD
  5
975
102
{ACAD_REACTORS
330
970
102
}
330
970
100
AcDbXrecord
280
     1
270
     1
271
     1
  0
XRECORD
  5
976
102
{ACAD_REACTORS
330
970
102
}
330
970
100
AcDbXrecord
280
     1
270
     1
271
     1
  0
XRECORD
  5
969
102
{ACAD_REACTORS
330
968
102
}
330
968
100
AcDbXrecord
280
     1
270
     1
271
     1
  0
XRECORD
  5
96A
102
{ACAD_REACTORS
330
968
102
}
330
968
100
AcDbXrecord
280
     1
270
     1
271
     1
  0
XRECORD
  5
96B
102
{ACAD_REACTORS
330
968
102
}
330
968
100
AcDbXrecord
280
     1
270
     1
271
     1
  0
XRECORD
  5
96C
102
{ACAD_REACTORS
330
968
102
}
330
968
100
AcDbXrecord
280
     1
270
     1
271
     1
  0
XRECORD
  5
96D
102
{ACAD_REACTORS
330
968
102
}
330
968
100
AcDbXrecord
280
     1
270
     1
271
     1
  0
XRECORD
  5
96E
102
{ACAD_REACTORS
330
968
102
}
330
968
100
AcDbXrecord
280
     1
270
     1
271
     1
  0
XRECORD
  5
926
102
{ACAD_REACTORS
330
925
102
}
330
925
100
AcDbXrecord
280
     1
270
     1
271
     1
  0
XRECORD
  5
927
102
{ACAD_REACTORS
330
925
102
}
330
925
100
AcDbXrecord
280
     1
270
     1
271
     1
  0
XRECORD
  5
928
102
{ACAD_REACTORS
330
925
102
}
330
925
100
AcDbXrecord
280
     1
270
     1
271
     1
  0
XRECORD
  5
929
102
{ACAD_REACTORS
330
925
102
}
330
925
100
AcDbXrecord
280
     1
270
     1
271
     1
  0
XRECORD
  5
92A
102
{ACAD_REACTORS
330
925
102
}
330
925
100
AcDbXrecord
280
     1
270
     1
271
     1
  0
XRECORD
  5
92B
102
{ACAD_REACTORS
330
925
102
}
330
925
100
AcDbXrecord
280
     1
270
     1
271
     1
  0
XRECORD
  5
1021
102
{ACAD_REACTORS
330
1020
102
}
330
1020
100
AcDbXrecord
280
     1
102
DISPLAYNAME
  1
Imperial24
102
FLAGS
 90
        0
  0
CELLSTYLEMAP
  5
1016
102
{ACAD_REACTORS
330
98F
102
}
330
98F
100
AcDbCellStyleMap
 90
        3
300
CELLSTYLE
  1
TABLEFORMAT_BEGIN
 90
        5
170
     1
 91
        0
 92
    32768
 62
   257
 93
        1
300
CONTENTFORMAT
  1
CONTENTFORMAT_BEGIN
 90
        0
 91
        0
 92
        4
 93
        0
300

 40
0.0
140
1.0
 94
        5
 62
     0
340
953
144
0.25
309
CONTENTFORMAT_END
171
     0
 94
        6
 95
        1
302
GRIDFORMAT
  1
GRIDFORMAT_BEGIN
 90
        0
 91
        1
 62
     0
 92
       -2
340
0
 93
        0
 40
0.045
309
GRIDFORMAT_END
 95
        2
302
GRIDFORMAT
  1
GRIDFORMAT_BEGIN
 90
        0
 91
        1
 62
     0
 92
       -2
340
0
 93
        0
 40
0.045
309
GRIDFORMAT_END
 95
        4
302
GRIDFORMAT
  1
GRIDFORMAT_BEGIN
 90
        0
 91
        1
 62
     0
 92
       -2
340
0
 93
        0
 40
0.045
309
GRIDFORMAT_END
 95
        8
302
GRIDFORMAT
  1
GRIDFORMAT_BEGIN
 90
        0
 91
        1
 62
     0
 92
       -2
340
0
 93
        0
 40
0.045
309
GRIDFORMAT_END
 95
       16
302
GRIDFORMAT
  1
GRIDFORMAT_BEGIN
 90
        0
 91
        1
 62
     0
 92
       -2
340
0
 93
        0
 40
0.045
309
GRIDFORMAT_END
 95
       32
302
GRIDFORMAT
  1
GRIDFORMAT_BEGIN
 90
        0
 91
        1
 62
     0
 92
       -2
340
0
 93
        0
 40
0.045
309
GRIDFORMAT_END
309
TABLEFORMAT_END
  1
CELLSTYLE_BEGIN
 90
        1
 91
        1
300
_TITLE
309
CELLSTYLE_END
300
CELLSTYLE
  1
TABLEFORMAT_BEGIN
 90
        5
170
     1
 91
        0
 92
        0
 62
   257
 93
        1
300
CONTENTFORMAT
  1
CONTENTFORMAT_BEGIN
 90
        0
 91
        0
 92
        4
 93
        0
300

 40
0.0
140
1.0
 94
        5
 62
     0
340
953
144
0.18
309
CONTENTFORMAT_END
171
     0
 94
        6
 95
        1
302
GRIDFORMAT
  1
GRIDFORMAT_BEGIN
 90
        0
 91
        1
 62
     0
 92
       -2
340
0
 93
        0
 40
0.045
309
GRIDFORMAT_END
 95
        2
302
GRIDFORMAT
  1
GRIDFORMAT_BEGIN
 90
        0
 91
        1
 62
     0
 92
       -2
340
0
 93
        0
 40
0.045
309
GRIDFORMAT_END
 95
        4
302
GRIDFORMAT
  1
GRIDFORMAT_BEGIN
 90
        0
 91
        1
 62
     0
 92
       -2
340
0
 93
        0
 40
0.045
309
GRIDFORMAT_END
 95
        8
302
GRIDFORMAT
  1
GRIDFORMAT_BEGIN
 90
        0
 91
        1
 62
     0
 92
       -2
340
0
 93
        0
 40
0.045
309
GRIDFORMAT_END
 95
       16
302
GRIDFORMAT
  1
GRIDFORMAT_BEGIN
 90
        0
 91
        1
 62
     0
 92
       -2
340
0
 93
        0
 40
0.045
309
GRIDFORMAT_END
 95
       32
302
GRIDFORMAT
  1
GRIDFORMAT_BEGIN
 90
        0
 91
        1
 62
     0
 92
       -2
340
0
 93
        0
 40
0.045
309
GRIDFORMAT_END
309
TABLEFORMAT_END
  1
CELLSTYLE_BEGIN
 90
        2
 91
        1
300
_HEADER
309
CELLSTYLE_END
300
CELLSTYLE
  1
TABLEFORMAT_BEGIN
 90
        5
170
     1
 91
        0
 92
        0
 62
   257
 93
        1
300
CONTENTFORMAT
  1
CONTENTFORMAT_BEGIN
 90
        0
 91
        0
 92
        4
 93
        0
300

 40
0.0
140
1.0
 94
        2
 62
     0
340
953
144
0.18
309
CONTENTFORMAT_END
171
     0
 94
        6
 95
        1
302
GRIDFORMAT
  1
GRIDFORMAT_BEGIN
 90
        0
 91
        1
 62
     0
 92
       -2
340
0
 93
        0
 40
0.045
309
GRIDFORMAT_END
 95
        2
302
GRIDFORMAT
  1
GRIDFORMAT_BEGIN
 90
        0
 91
        1
 62
     0
 92
       -2
340
0
 93
        0
 40
0.045
309
GRIDFORMAT_END
 95
        4
302
GRIDFORMAT
  1
GRIDFORMAT_BEGIN
 90
        0
 91
        1
 62
     0
 92
       -2
340
0
 93
        0
 40
0.045
309
GRIDFORMAT_END
 95
        8
302
GRIDFORMAT
  1
GRIDFORMAT_BEGIN
 90
        0
 91
        1
 62
     0
 92
       -2
340
0
 93
        0
 40
0.045
309
GRIDFORMAT_END
 95
       16
302
GRIDFORMAT
  1
GRIDFORMAT_BEGIN
 90
        0
 91
        1
 62
     0
 92
       -2
340
0
 93
        0
 40
0.045
309
GRIDFORMAT_END
 95
       32
302
GRIDFORMAT
  1
GRIDFORMAT_BEGIN
 90
        0
 91
        1
 62
     0
 92
       -2
340
0
 93
        0
 40
0.045
309
GRIDFORMAT_END
309
TABLEFORMAT_END
  1
CELLSTYLE_BEGIN
 90
        3
 91
        2
300
_DATA
309
CELLSTYLE_END
  0
ENDSEC
  0
SECTION
  2
ACDSDATA
 70
     2
 71
     8
  0
ACDSSCHEMA
 90
        0
  1
AcDb_Thumbnail_Schema
  2
AcDbDs::ID
280
    10
 91
        8
  2
Thumbnail_Data
280
    15
 91
        0
101
ACDSRECORD
 95
        0
 90
        1
  2
AcDbDs::TreatedAsObjectData
280
     1
291
     1
101
ACDSRECORD
 95
        0
 90
        2
  2
AcDbDs::Legacy
280
     1
291
     1
101
ACDSRECORD
  1
AcDbDs::ID
 90
        3
  2
AcDs:Indexable
280
     1
291
     1
101
ACDSRECORD
  1
AcDbDs::ID
 90
        4
  2
AcDbDs::HandleAttribute
280
     7
282
     1
  0
ACDSSCHEMA
 90
        1
  1
AcDbDs::TreatedAsObjectDataSchema
  2
AcDbDs::TreatedAsObjectData
280
     1
 91
        0
  0
ACDSSCHEMA
 90
        2
  1
AcDbDs::LegacySchema
  2
AcDbDs::Legacy
280
     1
 91
        0
  0
ACDSSCHEMA
 90
        3
  1
AcDbDs::IndexedPropertySchema
  2
AcDs:Indexable
280
     1
 91
        0
  0
ACDSSCHEMA
 90
        4
  1
AcDbDs::HandleAttributeSchema
  2
AcDbDs::HandleAttribute
280
     7
 91
        1
284
     1
  0
ACDSRECORD
 90
        0
  2
AcDbDs::ID
280
    10
320
94A
  2
Thumbnail_Data
280
    15
 94
     1183
310
89504E470D0A1A0A0000000D4948445200000100000000C508030000008CFEDCE700000300504C5445FFFFFF000000FFFFFF0000000000000000000000000000000000000000000000000000330000660000990000CC0000FF0033000033330033660033990033CC0033FF0066000066330066660066990066CC0066FF0099
310
000099330099660099990099CC0099FF00CC0000CC3300CC6600CC9900CCCC00CCFF00FF0000FF3300FF6600FF9900FFCC00FFFF3300003300333300663300993300CC3300FF3333003333333333663333993333CC3333FF3366003366333366663366993366CC3366FF3399003399333399663399993399CC3399FF33CC00
310
33CC3333CC6633CC9933CCCC33CCFF33FF0033FF3333FF6633FF9933FFCC33FFFF6600006600336600666600996600CC6600FF6633006633336633666633996633CC6633FF6666006666336666666666996666CC6666FF6699006699336699666699996699CC6699FF66CC0066CC3366CC6666CC9966CCCC66CCFF66FF0066
310
FF3366FF6666FF9966FFCC66FFFF9900009900339900669900999900CC9900FF9933009933339933669933999933CC9933FF9966009966339966669966999966CC9966FF9999009999339999669999999999CC9999FF99CC0099CC3399CC6699CC9999CCCC99CCFF99FF0099FF3399FF6699FF9999FFCC99FFFFCC0000CC00
310
33CC0066CC0099CC00CCCC00FFCC3300CC3333CC3366CC3399CC33CCCC33FFCC6600CC6633CC6666CC6699CC66CCCC66FFCC9900CC9933CC9966CC9999CC99CCCC99FFCCCC00CCCC33CCCC66CCCC99CCCCCCCCCCFFCCFF00CCFF33CCFF66CCFF99CCFFCCCCFFFFFF0000FF0033FF0066FF0099FF00CCFF00FFFF3300FF3333
310
FF3366FF3399FF33CCFF33FFFF6600FF6633FF6666FF6699FF66CCFF66FFFF9900FF9933FF9966FF9999FF99CCFF99FFFFCC00FFCC33FFCC66FFCC99FFCCCCFFCCFFFFFF00FFFF33FFFF66FFFF99FFFFCCFFFFFF0000000D0D0D1A1A1A2828283535354343435050505D5D5D6B6B6B787878868686939393A1A1A1AEAEAEBB
310
BBBBC9C9C9D6D6D6E4E4E4F1F1F1FFFFFF000000000000000000000000000000000000000000000000000000000000790CAC0F0000015A4944415478DAEDD8410A8340100440FFFFCCF9C09EE61E104224896014844D579F64F420A587DE592A3A632CD5C101100F500500C0F36ACDF6D636BFCEEBAEF9E9177D0788FBF600
310
000000000000004D1000000000000000100F50FB4F4C9E8B5578FAFF0300000000000000000000000000000000B00BD069000D0000000000000000A009020000000000000000000000000000000052013A0DA001000000000000000000A8C2000000000000000000000000000000402A40FC420400000000000000002016C0
310
5900000000000000000000000000000000C803885F88000000000000000000C402380B0000000000000000000000000000000000E2003A0DA0010000000000000000344100000000000000000000000000000000C0E7C660F21C04080D0000000000000000C01F54DE73151900000000000000D0AFCDCFB6227CDDAB1C9CD7
310
5DF3D32FAA0902000000C00A109E658C110DF0000E6CC6FBCCF8EC2E0000000049454E44AE426082
  0
ACDSRECORD
 90
        0
  2
AcDbDs::ID
280
    10
320
944
  2
Thumbnail_Data
280
    15
 94
     1017
310
89504E470D0A1A0A0000000D4948445200000100000000890803000000F46416F000000300504C5445FEFCF0000000FFFFFF0000000000000000000000000000000000000000000000000000330000660000990000CC0000FF0033000033330033660033990033CC0033FF0066000066330066660066990066CC0066FF0099
310
000099330099660099990099CC0099FF00CC0000CC3300CC6600CC9900CCCC00CCFF00FF0000FF3300FF6600FF9900FFCC00FFFF3300003300333300663300993300CC3300FF3333003333333333663333993333CC3333FF3366003366333366663366993366CC3366FF3399003399333399663399993399CC3399FF33CC00
310
33CC3333CC6633CC9933CCCC33CCFF33FF0033FF3333FF6633FF9933FFCC33FFFF6600006600336600666600996600CC6600FF6633006633336633666633996633CC6633FF6666006666336666666666996666CC6666FF6699006699336699666699996699CC6699FF66CC0066CC3366CC6666CC9966CCCC66CCFF66FF0066
310
FF3366FF6666FF9966FFCC66FFFF9900009900339900669900999900CC9900FF9933009933339933669933999933CC9933FF9966009966339966669966999966CC9966FF9999009999339999669999999999CC9999FF99CC0099CC3399CC6699CC9999CCCC99CCFF99FF0099FF3399FF6699FF9999FFCC99FFFFCC0000CC00
310
33CC0066CC0099CC00CCCC00FFCC3300CC3333CC3366CC3399CC33CCCC33FFCC6600CC6633CC6666CC6699CC66CCCC66FFCC9900CC9933CC9966CC9999CC99CCCC99FFCCCC00CCCC33CCCC66CCCC99CCCCCCCCCCFFCCFF00CCFF33CCFF66CCFF99CCFFCCCCFFFFFF0000FF0033FF0066FF0099FF00CCFF00FFFF3300FF3333
310
FF3366FF3399FF33CCFF33FFFF6600FF6633FF6666FF6699FF66CCFF66FFFF9900FF9933FF9966FF9999FF99CCFF99FFFFCC00FFCC33FFCC66FFCC99FFCCCCFFCCFFFFFF00FFFF33FFFF66FFFF99FFFFCCFFFFFF0000000D0D0D1A1A1A2828283535354343435050505D5D5D6B6B6B787878868686939393A1A1A1AEAEAEBB
310
BBBBC9C9C9D6D6D6E4E4E4F1F1F1FFFFFF0000000000000000000000000000000000000000000000000000000000007C77BAA7000000B44944415478DAEDD0310100000C0220FBB7B48931760C22903E1701020408102040800001020408102040800001020408102040800001020408102040800001020408102040800001
310
020408102040800001020408102040800001020408102040800001020408102040800001020408102040800001020408102040800001020408102040800001020408102040800001020408102040800001020408102040800001020408102040800001020408102040C099016B33700943E05F3C0000000049454E44AE4260
310
82
  0
ENDSEC
  0
SECTION
  2
THUMBNAILIMAGE
 90
    14496
310
28000000B80000004900000001000800000000007834000001000000010000000001000000000000FFFFFF0088888840404040FFF8F8F8FF808080FF707070FFF0F0F0FF686868FF505050FF484848FFE0E0E0FFC0C0C0FFFFFFFFFFFFFFFFFFFFFFFFFFFFFFFFFFFFFFFFFFFFFFFFFFFFFFFFFFFFFFFFFFFFFFFFFFFFFFFF
310
FFFFFFFFFFFFFFFFFFFFFFFFFFFFFFFFFFFFFFFFFFFFFFFFFFFFFFFFFFFFFFFFFFFFFFFFFFFFFFFFFFFFFFFFFFFFFFFFFFFFFFFFFFFFFFFFFFFFFFFFFFFFFFFFFFFFFFFFFFFFFFFFFFFFFFFFFFFFFFFFFFFFFFFFFFFFFFFFFFFFFFFFFFFFFFFFFFFFFFFFFFFFFFFFFFFFFFFFFFFFFFFFFFFFFFFFFFFFFFFFFFFFFFFFFFFFFF
310
FFFFFFFFFFFFFFFFFFFFFFFFFFFFFFFFFFFFFFFFFFFFFFFFFFFFFFFFFFFFFFFFFFFFFFFFFFFFFFFFFFFFFFFFFFFFFFFFFFFFFFFFFFFFFFFFFFFFFFFFFFFFFFFFFFFFFFFFFFFFFFFFFFFFFFFFFFFFFFFFFFFFFFFFFFFFFFFFFFFFFFFFFFFFFFFFFFFFFFFFFFFFFFFFFFFFFFFFFFFFFFFFFFFFFFFFFFFFFFFFFFFFFFFFFFFFFF
310
FFFFFFFFFFFFFFFFFFFFFFFFFFFFFFFFFFFFFFFFFFFFFFFFFFFFFFFFFFFFFFFFFFFFFFFFFFFFFFFFFFFFFFFFFFFFFFFFFFFFFFFFFFFFFFFFFFFFFFFFFFFFFFFFFFFFFFFFFFFFFFFFFFFFFFFFFFFFFFFFFFFFFFFFFFFFFFFFFFFFFFFFFFFFFFFFFFFFFFFFFFFFFFFFFFFFFFFFFFFFFFFFFFFFFFFFFFFFFFFFFFFFFFFFFFFFFF
310
FFFFFFFFFFFFFFFFFFFFFFFFFFFFFFFFFFFFFFFFFFFFFFFFFFFFFFFFFFFFFFFFFFFFFFFFFFFFFFFFFFFFFFFFFFFFFFFFFFFFFFFFFFFFFFFFFFFFFFFFFFFFFFFFFFFFFFFFFFFFFFFFFFFFFFFFFFFFFFFFFFFFFFFFFFFFFFFFFFFFFFFFFFFFFFFFFFFFFFFFFFFFFFFFFFFFFFFFFFFFFFFFFFFFFFFFFFFFFFFFFFFFFFFFFFFFFF
310
FFFFFFFFFFFFFFFFFFFFFFFFFFFFFFFFFFFFFFFFFFFFFFFFFFFFFFFFFFFFFFFFFFFFFFFFFFFFFFFFFFFFFFFFFFFFFFFFFFFFFFFFFFFFFFFFFFFFFFFFFFFFFFFFFFFFFFFFFFFFFFFFFFFFFFFFFFFFFFFFFFFFFFFFFFFFFFFFFFFFFFFFFFFFFFFFFFFFFFFFFFFFFFFFFFFFFFFFFFFFFFFFFFFFFFFFFFFFFFFFFFFFFFFFFFFFFF
310
FFFFFFFFFFFFFFFFFFFFFFFFFFFFFFFFFFFFFFFFFFFFFFFFFFFFFFFFFFFFFFFFFFFFFFFFFFFFFFFFFFFFFFFFFFFFFFFFFFFFFFFFFFFFFFFFFFFFFFFFFFFFFFFFFFFFFFFFFFFFFFFFFFFFFFFFFFFFFFFFFFFFFFFFFFFFFFFFFFFFFFFFFFFFFFFFFFFFFFFFFFFFFFFFFFFFFFFFFFFFFFFFFFFFFFFFFFFFFFFFFFFFFFFFFFFFFF
310
FFFFFFFFFFFFFFFFFFFFFFFFFFFFFFFFFFFFFFFFFFFFFFFFFFFFFFFFFFFFFFFFFFFFFFFFFFFFFFFFFFFFFFFFFFFFFFFFFFFFFFFFFFFFFFFFFFFFFFFFFFFFFFFFFFFFFFFFFFFFFFFFFFFFFFFFFFFFFFFFFFFFFFFFFFFFFFFFFFFFFFFFFFFFFFFFFFFFFFFFFFFFFFFFFFFFFFFFFFFFFFFFFFFFFFFFFFFFFFFFFFFFFFFFFFFFFF
310
FFFFFFFFFFFFFFFFFFFFFFFFFFFFFFFFFFFFFFFFFFFFFFFFFFFFFFFFFFFFFFFFFFFFFFFFFFFFFFFFFFFFFFFFFFFFFFFF00000000000000000000000000000000000000000000000000000000000000000000000000000000000000000000000000000000000000000000000000000000000000000000000000000000000000
310
00000000000000000000000000000000000000000000000000000000000000000000000000000000000000000000000000000000000000000000000000000000000000000000000000000000000000000000000000000000000000000000000000000000000000000000000000000000000000000000000000000000000000
310
00000000000000000000000000000000000000000000000000000000000000000000000000000000000000000000000000000000000000000000000000000000000000000000000000000000000000000000000000000000000000000000000000000000000000000000000000000000000000000000000000000000000000
310
00000000000000000000000000000000000000000000000000000000000000000000000000000000000000000000000000000000000000000000000000000000000000000000000000000000000000000000000000000000000000000000000000000000000000000000000000000000000000000003030303030303030303
310
03030000000000000000000000000000000000000000000000000000000000000000000000000000000000000000000000000000000000000000000000000000000000000000000000000000000000000000000000000000000000000000000000000000000000000000000000000000000000000000000000000000000000
310
00000000000000000000000000000000000000000000000000000000000000000000000000000000000003030003030000000000000000000000000303030303000000000000000000000000000000000000000000000000000000000000000000000000000000000000000000000000000000000000000000000000000000
310
00000000000000000000000000000000000000000000000000000000000000000000000000000000000000000000000000000000000000000000000000000000000000000000000000000000000000000000000000000000000000000000000303030300000000000000000000000000000000000000000000030303030000
310
00000000000000000000000000000000000000000000000000000000000000000000000000000000000000000000000000000000000000000000000000000000000000000000000000000000000000000000000000000000000000000000000000000000000000000000000000000000000000000000000000000000000000
310
00000000000000000000000000000000000000000000080003030000000000000000000000000000000000000000000000000000000003030800000000000000000000000000000000000000000000000000000000000000000000000000000000000000000000000000000000000000000000000000000000000000000000
310
00000000000000000000000000000000000000000000000000000000000000000000000000000000000000000000000000000000000000000000000000000000000000000000000000000000000000030000000000000000000000000000000000000000000000000000000000000000000303000000000000000000000000
310
00000000000000000000000000000000000000000000000000000000000000000000000000000000000000000000000000000000000000000000000000000000000000000000000000000000000000000000000000000000000000000000000000000000000000000000000000000000000000000000000000000000000000
310
00000000000000000008000000000000000000000000000000000000000000000000000000000000000000080000000000000000000000000000000000000000000000000000000000000000000000000000000000000000000000000000000000000000000000000000000000000000000000000000000000000000000000
310
00000000000000000000000000000000000000000000000000000000000000000000000000000000000000000000000000000000000000000000000000000003030000000000000000000000000000000000000000000000000000000000000000000000000000030300000000000000000000000000000000000000000000
310
00000000000000000000000000000000000000000000000000000000000000000000000000000000000000000000000000000000000000000000000000000000000000000000000000000000000000000000000000000000000000000000000000000000000000000000000000000000000000000000000303000000000000
310
00000000000000000000000000000000000000000000000000000000000000000000030300000000000000000000000000000000000000000000000000000000000000000000000000000000000000000000000000000000000000000000000000000000000000000000000000000000000000000000000000000000000000
310
00000000000000000000000000000000000000000000000000000000000000000000000000000000000000000000000003000000000000000000000000000000000000000000000000000000000000000000000000000000000000000003000000000000000000000000000000000000000000000000000000000000000000
310
00000000000000000000000000000000000000000000000000000000000000000000000000000000000000000000000000000000000000000000000000000000000000000000000000000000000000000000000000000000000000000000000000000000000000000003000000000000000000000000000000000000000000
310
00000000000000000000000000000000000000000000000303000000000000000000000000000000000000000000000000000000000000000000000000000000000000000000000000000000000000000000000000000000000000000000000000000000000000000000000000000000000000000000000000000000000000
310
00000000000000000000000000000000000000000000000000000000000000000000030000000000000000000000000000000000000000000000000000000000000000000000000000000000000000000003000000000000000000000000000000000000000000000000000000000000000000000000000000000000000000
310
00000000000000000000000000000000000000000000000000000000000000000000000000000000000000000000000000000000000000000000000000000000000000000000000000000000000000000000000000000000000003000000000000000000000000000000000000000000000000000000000000000000000000
310
00000000000000000000000003000000000000000000000000000000000000000000000000000000000000000000000000000000000000000000000000000000000000000000000000000000000000000000000000000000000000000000000000000000000000000000000000000000000000000000000000000000000000
310
00000000000000000000000000000000000000030300000000000000000000000000000000000000000000000000000000000000000000000000000000000000000000000003030000000000000000000000000000000000000000000000000000000000000000000000000000000000000000000000000000000000000000
310
00000000000000000000000000000000000000000000000000000000000000000000000000000000000000000000000000000000000000000000000000000000000000000000000000000000030000000000000000000000000000000000000000000000000000000000000000000000000000000000000000000000000000
310
03000000000000000000000000000000000000000000000000000000000000000000000000000000000000000000000000000000000000000000000000000000000000000000000000000000000000000000000000000000000000000000000000000000000000000000000000000000000000000000000000000000000000
310
00000000000300000000000000000000000000000000000000000000000000000000000000000000000000000000000000000000000000000000030000000000000000000000000000000000000000000000000000000000000000000000000000000000000000000000000000000000000000000000000000000000000000
310
00000000000000000000000000000000000000000000000000000000000000000000000000000000000000000000000000000000000000000000000000010300000000000000000000000000000000000000000000000000000000000000000000000000000000000000000000000000000000030100000000000000000000
310
00000000000000000000000000000000000000000000000000000000000000000000000000000000000000000000000000000000000000000000000000000000000000000000000000000000000000000000000000000000000000000000000000000000000000000000000000000000000000000000030100000000000000
310
00000000000000000000000000000000000000000000000000000000000000000000000000000000000000000001030000000000000000000000000000000000000000000000000000000000000000000000000000000000000000000000000000000000000000000000000000000000000000000000000000000000000000
310
00000000000000000000000000000000000000000000000000000000000000000000000000000000000000000000000903090000000000000000000000000000000000000000000000000000000000000000000000000000000000000000000000000000000009030900000000000000000000000000000000000000000000
310
00000000000000000000000000000000000000000000000000000000000000000000000000000000000000000000000000000000000000000000000000000000000000000000000000000000000000000000000000000000000000000000000000000000000000000003000000000000000000000000000000000000000000
310
00000000000000000000000000000000000000000000000000000000000000000000000000000000000000000000000000000000000000000000000000000000000000000000000000000000000000000000000000000000000000000000000000000000000000000000000000000000000000000000000000000000000000
310
00000000000000000000000000000000000000000000000000000000000000000000010300000000000000000000000000000000000000000000000000000000000000000000000000000000000000000000000000000000000003010000000000000000000000000000000000000000000000000000000000000000000000
310
00000000000000000000000000000000000000000000000000000000000000000000000000000000000000000000000000000000000000000000000000000000000000000000000000000000000000000000000000000000000000030100000000000000000000000000000000000000000000000000000000000000000000
310
00000000000000000000000000000000000000000103000000000000000000000000000000000000000000000000000000000000000000000000000000000000000000000000000000000000000000000000000000000000000000000000000000000000000000000000000000000000000000000000000000000000000000
310
00000000000000000000000000000000000000000003000000000000000000000000000000000000000000000000000000000000000000000000000000000000000000000000000000000000000003000000000000000000000000000000000000000000000000000000000000000000000000000000000000000000000000
310
00000000000000000000000000000000000000000000000000000000000000000000000000000000000000000000000000000000000000000000000000000000000000000000000000000000000003000000000000000000000000000000000000000000000000000000000000000000000000000000000000000000000000
310
00000000000000000300000000000000000000000000000000000000000000000000000000000000000000000000000000000000000000000000000000000000000000000000000000000000000000000000000000000000000000000000000000000000000000000000000000000000000000000000000000000000000000
310
00000000000000000300000000000000000000000000000000000000000000000000000000000000000000000000000000000000000000000000000000000000000300000000000000000000000000000000000000000000000000000000000000000000000000000000000000000000000000000000000000000000000000
310
0000000000000000000000000000000000000000000000000000000000000000000000000000000000000000000000000000000000000000000000000000000000030000000000000000000000000000000000000000000000000A0000040B00000A0000000000000000000000000000000000000000000000000300000000
310
00000000000000000000000000000000000000000000000000000000000000000000000000000000000000000000000000000000000000000000000000000000000000000000000000000000000000000000000000000000000000000000000000000000000000000000000000000000000000000000000000000300000000
310
00000000000000000000000000000000000005030303030303030303030500000000000000000000000000000000000000000000030000000000000000000000000000000000000000000000000000000000000000000000000000000000000000000000000000000000000000000000000000000000000000000000000000
310
00000000000000000000000000000000000000000000000000000000000000000000000000000000000000000000000000000000030000000000000000000000000000000000000000000000030A0000040B00000A030000000000000000000000000000000000000000000000030000000000000000000000000000000000
310
00000000000000000000000000000000000000000000000000000000000000000000000000000000000000000000000000000000000000000000000000000000000000000000000000000000000000000000000000000000000000000000000000000000000000000000000003000000000000000000000000000000000000
310
00000000000003000700000000070003000000000000000000000000000000000000000000000000030000000000000000000000000000000000000000000000000000000000000000000000000000000000000000000000000000000000000000000000000000000000000000000000000000000000000000000000000000
310
00000000000000000000000000000000000000000000000000000000000000000000000000000300000000000000000000000000000000000000000000000003000300000000030003000000000000000000000000000000000000000000000000030000000000000000000000000000000000000000000000000000000000
310
00000000000000000000000000000000000000000000000000000000000000000000000000000000000000000000000000000000000000000000000000000000000000000000000000000000000000000000000000000000000000000000000300000000000000000000000000000000000000000000000003000A00000000
310
0A000300000000000000000000000000000000000000000000000003000000000000000000000000000000000000000000000000000000000000000000000000000000000000000000000000000000000000000000000000000000000000000000000000000000000000000000000000000000000000000000000000000000
310
00000000000000000000000000000000000000000000000000000000000000000000000000000000000000000000000000000300030000000003000300000000000000000000000000000000000000000000000003000000000000000000000000000000000000000000000000000000000000000000000000000000000000
310
00000000000000000000000000000000000000000000000000000000000000000000000000000000000000000000000000000000000000000000000000000000000000000000000000000000000000000000030000000000000000000000000000000000000000000000000300060000000006000300000000000000000000
310
00000000000000000000000000000300000000000000000000000000000000000000000000000000000000000000000000000000000000000000000000000000000000000000000000000000000000000000000000000000000000000000000000000000000000000000000000000000000000000000000000000000000000
310
00000000000000000000000003000000000000000000000000000000000000000000000000030003000000000300030000000000000000000000000000000000000000000000000300000000000000000000000000000000000000000000000000000000000000000000000000000000000000000000000000000000000000
310
00000000000000000000000000000000000000000000000000000000000000000000000000000000000000000000000000000000000000000000000000000000000000000003000000000000000000000000000000000000000000000000030003000000000300030000000000000000000000000000000000000000000000
310
00030000000000000000000000000000000000000000000000000000000000000000000000000000000000000000000000000000000000000000000000000000000000000000000000000000000000000000000000000000000000000000000000000000000000000000000000000000000000000000000000000000000003
310
00000000000000000000000000000000000000000000000303030303030303030303030000000000000000000000000000000000000000000000030000000000000000000000000000000000000000000000000000000000000000000000000000000000000000000000000000000000000000000000000000000000000000
310
00000000000000000000000000000000000000000000000000000000000000000000000000000000000000000000000000000000000000000300000000000000000000000000000000000000000000000303030303030303030303030000000000000000000000000000000000000000000000030000000000000000000000
310
00000000000000000000000000000000000000000000000000000000000000000000000000000000000000000000000000000000000000000000000000000000000000000000000000000000000000000000000000000000000000000000000000000000000000000000000000000000000300000000000000000000000000
310
00000000000000000000030300000000000000000303000000000000000000000000000000000000000000000003000000000000000000000000000000000000000000000000000000000000000000000000000000000000000000000000000000000000000000000000000000000000000000000000000000000000000000
310
00000000000000000000000000000000000000000000000000000000000000000000000000000000000000030000000000000000000000000000000000000000000000030300000000000000000303000000000000000000000000000000000000000000000003000000000000000000000000000000000000000000000000
310
00000000000000000000000000000000000000000000000000000000000000000000000000000000000000000000000000000000000000000000000000000000000000000000000000000000000000000000000000000000000000000000000000000000030000000000000000000000000000000000000000000000030300
310
00000000000000030300000000000000000000000000000000000000000000000300000000000000000000000000000000000000000000000000000000000000000000000000000000000000000000000000000000000000000000000000000000000000000000000000000000000000000000000000000000000000000000
310
00000000000000000000000000000000000000000000000000000000000003000000000000000000000000000000000000000000000003030000000000000000030300000000000000000000000000000000000000000000000300000000000000000000000000000000000000000000000000000000000000000000000000
310
00000000000000000000000000000000000000000000000000000000000000000000000000000000000000000000000000000000000000000000000000000000000000000000000000000000000000000000000000000003000000000000000000000000000000000000000000000003030000000000000000030300000000
310
00000000000000000000000000000000000000030000000000000000000000000000000000000000000000000000000000000000000000000000000000000000000000000000000000000000000000000000000000000000000000000000000000000000000000000000000000000000000000000000000000000000000000
310
00000000000000000000000000000000000300000000000000000000000000000000000000000000000303000000000000000003030000000000000000000000000000000000000000000000030000000000000000000000000000000000000000000000000000000000000000000000000000000000000000000000000000
310
00000000000000000000000000000000000000000000000000000000000000000000000000000000000000000000000000000000000000000000000000000000000000000000000000000300000000000000000000000000000000000000000000000303000000000000000003030000000000000000000000000000000000
310
00000000000003000000000000000000000000000000000000000000000000000000000000000000000000000000000000000000000000000000000000000000000000000000000000000000000000000000000000000000000000000000000000000000000000000000000000000000000000000000000000000000000000
310
00000000030000000000000000000000000000000000000000000000030300000000000000000303000000000000000000000000000000000000000000000003000000000000000000000000000000000000000000000000000000000000000000000000000000000000000000000000000000000000000000000000000000
310
00000000000000000000000000000000000000000000000000000000000000000000000000000000000000000000000000000000000000000000000000030000000000000000000000000000000000000000000000030303030303030303030303000000000000000000000000000000000000000000000003000000000000
310
00000000000000000000000000000000000000000000000000000000000000000000000000000000000000000000000000000000000000000000000000000000000000000000000000000000000000000000000000000000000000000000000000000000000000000000000000000000000000000000030000000000000000
310
00000000000000000000000000000003030303030303030303030300000000000000000000000000000000000000000000000300000000000000000000000000000000000000000000000000000000000000000000000000000000000000000000000000000000000000000000000000000000000000000000000000000000
310
00000000000000000000000000000000000000000000000000000000000000000000000000000000000000000000000003000000000000000000000000000000000000000000000000000000000000000000000000000000000000000000000000000000000000000000000000000000000000000000000000000000000000
310
00000000000000000000000000000000000000000000000000000000000000000000000000000000000000000000000000000000000000000000000000000000000000000000000000000000000000000000000000000000000000000000000000000000000000000003000000000000000000000000000000000000000000
310
00000000000000000000000000000000000000000000000000000000000000000000000000030000000000000000000000000000000000000000000000000000000000000000000000000000000000000000000000000000000000000000000000000000000000000000000000000000000000000000000000000000000000
310
00000000000000000000000000000000000000000000000000000000000000000000000300000000000000000000000000000000000000000000000000000000000000000000000000000000000000000000000000000000000000000000030000000000000000000000000000000000000000000000000000000000000000
310
00000000000000000000000000000000000000000000000000000000000000000000000000000000000000000000000000000000000000000000000000000000000000000000000000000000000000000000000000000000000000000300000000000000000000000000000000000000000000000000000000000000000000
310
00000000000000000000000000000000000000000000000003000000000000000000000000000000000000000000000000000000000000000000000000000000000000000000000000000000000000000000000000000000000000000000000000000000000000000000000000000000000000000000000000000000000000
310
00000000000000000000000000000000000000000000030100000000000000000000000000000000000000000000000000000000000000000000000000000000000000000000000000000000000000000103000000000000000000000000000000000000000000000000000000000000000000000000000000000000000000
310
00000000000000000000000000000000000000000000000000000000000000000000000000000000000000000000000000000000000000000000000000000000000000000000000000000000000000010300000000000000000000000000000000000000000000000000000000000000000000000000000000000000000000
310
00000000000000000000030100000000000000000000000000000000000000000000000000000000000000000000000000000000000000000000000000000000000000000000000000000000000000000000000000000000000000000000000000000000000000000000000000000000000000000000000000000000000000
310
00000000000000000000030000000000000000000000000000000000000000000000000000000000000000000000000000000000000000000000000000000000000000030000000000000000000000000000000000000000000000000000000000000000000000000000000000000000000000000000000000000000000000
310
00000000000000000000000000000000000000000000000000000000000000000000000000000000000000000000000000000000000000000000000000000000000000030100000000000000000000000000000000000000000000000000000000000000000000000000000000000000000000000000000000000001030000
310
00000000000000000000000000000000000000000000000000000000000000000000000000000000000000000000000000000000000000000000000000000000000000000000000000000000000000000000000000000000000000000000000000000000000000000000000000000000000000000000000000000000010300
310
00000000000000000000000000000000000000000000000000000000000000000000000000000000000000000000000000000000000301000000000000000000000000000000000000000000000000000000000000000000000000000000000000000000000000000000000000000000000000000000000000000000000000
310
00000000000000000000000000000000000000000000000000000000000000000000000000000000000000000000000000000000000000030000000000000000000000000000000000000000000000000000000000000000000000000000000000000000000000000000000000000300000000000000000000000000000000
310
00000000000000000000000000000000000000000000000000000000000000000000000000000000000000000000000000000000000000000000000000000000000000000000000000000000000000000000000000000000000000000000000000000000000000000000000000000000030000000000000000000000000000
310
00000000000000000000000000000000000000000000000000000000000000000000000000000000030000000000000000000000000000000000000000000000000000000000000000000000000000000000000000000000000000000000000000000000000000000000000000000000000000000000000000000000000000
310
00000000000000000000000000000000000000000000000000000000000000000000000000000000000008030800000000000000000000000000000000000000000000000000000000000000000000000000000000000000000000000000000803080000000000000000000000000000000000000000000000000000000000
310
00000000000000000000000000000000000000000000000000000000000000000000000000000000000000000000000000000000000000000000000000000000000000000000000000000000000000000000000000000000000000000000000000000000030300000000000000000000000000000000000000000000000000
310
00000000000000000000000000000000000000000000000000030000000000000000000000000000000000000000000000000000000000000000000000000000000000000000000000000000000000000000000000000000000000000000000000000000000000000000000000000000000000000000000000000000000000
310
00000000000000000000000000000000000000000000000000000000000000030000000000000000000000000000000000000000000000000000000000000000000000000000000000000000000000000000030000000000000000000000000000000000000000000000000000000000000000000000000000000000000000
310
00000000000000000000000000000000000000000000000000000000000000000000000000000000000000000000000000000000000000000000000000000000000000000000000000000000000000000000000000000000000300000000000000000000000000000000000000000000000000000000000000000000000000
310
00000000000000000000000300000000000000000000000000000000000000000000000000000000000000000000000000000000000000000000000000000000000000000000000000000000000000000000000000000000000000000000000000000000000000000000000000000000000000000000000000000000000000
310
00000000000000000000000000000000000000030301000000000000000000000000000000000000000000000000000000000000000000000000000000000000000001030300000000000000000000000000000000000000000000000000000000000000000000000000000000000000000000000000000000000000000000
310
00000000000000000000000000000000000000000000000000000000000000000000000000000000000000000000000000000000000000000000000000000000000000000000000000000000000103010000000000000000000000000000000000000000000000000000000000000000000000000000000000000103010000
310
00000000000000000000000000000000000000000000000000000000000000000000000000000000000000000000000000000000000000000000000000000000000000000000000000000000000000000000000000000000000000000000000000000000000000000000000000000000000000000000000000000000000000
310
00000000000000000103000000000000000000000000000000000000000000000000000000000000000000000000000000000000030100000000000000000000000000000000000000000000000000000000000000000000000000000000000000000000000000000000000000000000000000000000000000000000000000
310
00000000000000000000000000000000000000000000000000000000000000000000000000000000000000000000000000000000000000000000000000000000000003030000000000000000000000000000000000000000000000000000000000000000000000000000000003030000000000000000000000000000000000
310
00000000000000000000000000000000000000000000000000000000000000000000000000000000000000000000000000000000000000000000000000000000000000000000000000000000000000000000000000000000000000000000000000000000000000000000000000000000000000000000000000000000000303
310
08000000000000000000000000000000000000000000000000000000000000000000000803030000000000000000000000000000000000000000000000000000000000000000000000000000000000000000000000000000000000000000000000000000000000000000000000000000000000000000000000000000000000
310
00000000000000000000000000000000000000000000000000000000000000000000000000000000000000000000000000000000000000000003030100000000000000000000000000000000000000000000000000000000000001030303000000000000000000000000000000000000000000000000000000000000000000
310
00000000000000000000000000000000000000000000000000000000000000000000000000000000000000000000000000000000000000000000000000000000000000000000000000000000000000000000000000000000000000000000000000000000000000000000000000000000000008010301000000000000000000
310
00000000000000000000000000000000000000010301080000000000000000000000000000000000000000000000000000000000000000000000000000000000000000000000000000000000000000000000000000000000000000000000000000000000000000000000000000000000000000000000000000000000000000
310
00000000000000000000000000000000000000000000000000000000000000000000000000000000000000000000010303030301000000000000000000000000000000000000000001030303030100000000000000000000000000000000000000000000000000000000000000000000000000000000000000000000000000
310
00000000000000000000000000000000000000000000000000000000000000000000000000000000000000000000000000000000000000000000000000000000000000000000000000000000000000000000000000000000000000000000000000000000000000000000000103030303000303030303030303030303030303
310
03030301000000000000000000000000000000000000000000000000000000000000000000000000000000000000000000000000000000000000000000000000000000000000000000000000000000000000000000000000000000000000000000000000000000000000000000000000000000000000000000000000000000
310
00000000000000000000000000000000000000000000000000000000000000000000000000000000000000000000000000000000000000000000000000000000000000000000000000000000000000000000000000000000000000000000000000000000000000000000000000000000000000000000000000000000000000
310
000000000000000000000000000000000000
  0
ENDSEC
  0
EOF
