  0
SECTION
  2
HEADER
  9
$ACADVER
  1
AC1027
  9
$ACADMAINTVER
 70
   125
  9
$DWGCODEPAGE
  3
ANSI_1252
  9
$AUTHOR
  1
WAEngineering2
  9
$LASTSAVEDBY
  1
WAEngineering2
  9
$CUSTOMPROPERTYTAG
  1
BentleyWorkSetProperties
  9
$CUSTOMPROPERTY
  1
02050000000C000000860200000000000000000200000057006F0072006B005300650074004E0061006D00650000000000000001000109040000000200000000000000000000000100000057006F0072006B005300650074004400650073006300720069007000740069006F006E0000000000000001000109080000000000000000000000000000000200000043006F006E006E00650063007400500072006F006A006500630074004700550049004400000000000000010001090C00000000000000000000000000000004000000500072006F006A00650063007400410073007300650074005400790070006500000000000000010001091000000000000000000000000000000008000000500072006F006A0065006300740049006E00640075007300740072007900000000000000010001091400000000000000000000000000000010000000500072006F006A006500630074004C006F0063006100740069006F006E00000000000000010001091800000000000000000000000000000020000000500072006F006A006500630074004E0075006D00620065007200000000000000010001091C00000000000000000000000000000040000000500072006F006A00650063007400530074006100740075007300000000000000010001092000000000000000000000000000000080000000500072006F006A006500630074004E0061006D00650000000000000001000109240000000000000000000000000000000001000057006F0072006B00530070006100630065004E0061006D00650000000000000001000109280000000000000090010000000000000002000043006F006E006600690067004E0061006D006500000000000000010001092C000000000000002C010000000000000004000063010000000000050002F8FFFF340000004E0000004E00000098000000C6000000E8000000EA000000F80000000601000020010000300100005E0100004D006500740072006F00530074006100740069006F006E000000350039003800370063003200620065002D0066003000660064002D0034003300660038002D0039006100610031002D00620039003100360035006200350030003400650032003300000050006C006100740066006F0072006D007300200061006E0064002000530074006100740069006F006E00730000005200610069006C00200061006E00640020005400720061006E0073006900740000000000310030003000310030003000000041006300740069007600650000004D006500740072006F00530074006100740069006F006E0000004500780061006D0070006C00650000004500780061006D0070006C0065007300200043006F006E00660069006700750072006100740069006F006E000000
  9
$REQUIREDVERSIONS
160
                 0
  9
$INSBASE
 10
0.0
 20
0.0
 30
0.0
  9
$EXTMIN
 10
0.6784
 20
0.7213
 30
0.0
  9
$EXTMAX
 10
3.4745
 20
3.5174
 30
0.0
  9
$LIMMIN
 10
-5.832115
 20
-5.789215
  9
$LIMMAX
 10
9.985015
 20
10.027915
  9
$ORTHOMODE
 70
     0
  9
$REGENMODE
 70
     1
  9
$FILLMODE
 70
     1
  9
$QTEXTMODE
 70
     0
  9
$MIRRTEXT
 70
     0
  9
$LTSCALE
 40
1.0
  9
$ATTMODE
 70
     1
  9
$TEXTSIZE
 40
0.25
  9
$TRACEWID
 40
0.05
  9
$TEXTSTYLE
  7
Standard
  9
$CLAYER
  8
0
  9
$CELTYPE
  6
ByLayer
  9
$CECOLOR
 62
   256
  9
$CELTSCALE
 40
1.0
  9
$DISPSILH
 70
     0
  9
$DIMSCALE
 40
1.0
  9
$DIMASZ
 40
0.25
  9
$DIMEXO
 40
0.125
  9
$DIMDLI
 40
0.0
  9
$DIMRND
 40
0.0
  9
$DIMDLE
 40
0.0
  9
$DIMEXE
 40
0.125
  9
$DIMTP
 40
0.0
  9
$DIMTM
 40
0.0
  9
$DIMTXT
 40
0.25
  9
$DIMCEN
 40
0.0
  9
$DIMTSZ
 40
0.0
  9
$DIMTOL
 70
     0
  9
$DIMLIM
 70
     0
  9
$DIMTIH
 70
     0
  9
$DIMTOH
 70
     0
  9
$DIMSE1
 70
     0
  9
$DIMSE2
 70
     0
  9
$DIMTAD
 70
     1
  9
$DIMZIN
 70
     8
  9
$DIMBLK
  1
TerminatorOpen_0.5
  9
$DIMASO
 70
     1
  9
$DIMSHO
 70
     1
  9
$DIMPOST
  1

  9
$DIMAPOST
  1

  9
$DIMALT
 70
     0
  9
$DIMALTD
 70
     4
  9
$DIMALTF
 40
1.0
  9
$DIMLFAC
 40
1.0
  9
$DIMTOFL
 70
     0
  9
$DIMTVP
 40
0.0
  9
$DIMTIX
 70
     0
  9
$DIMSOXD
 70
     0
  9
$DIMSAH
 70
     0
  9
$DIMBLK1
  1

  9
$DIMBLK2
  1

  9
$DIMSTYLE
  2
Standard
  9
$DIMCLRD
 70
     0
  9
$DIMCLRE
 70
     0
  9
$DIMCLRT
 70
     0
  9
$DIMTFAC
 40
1.0
  9
$DIMGAP
 40
0.125
  9
$DIMJUST
 70
     0
  9
$DIMSD1
 70
     0
  9
$DIMSD2
 70
     0
  9
$DIMTOLJ
 70
     1
  9
$DIMTZIN
 70
     8
  9
$DIMALTZ
 70
    12
  9
$DIMALTTZ
 70
    12
  9
$DIMUPT
 70
     0
  9
$DIMDEC
 70
     4
  9
$DIMTDEC
 70
     0
  9
$DIMALTU
 70
     2
  9
$DIMALTTD
 70
     0
  9
$DIMTXSTY
  7
Style-Arial
  9
$DIMAUNIT
 70
     0
  9
$DIMADEC
 70
     4
  9
$DIMALTRND
 40
0.0
  9
$DIMAZIN
 70
     3
  9
$DIMDSEP
 70
     0
  9
$DIMATFIT
 70
     1
  9
$DIMFRAC
 70
     2
  9
$DIMLDRBLK
  1
TerminatorOpen_0.5
  9
$DIMLUNIT
 70
     2
  9
$DIMLWD
 70
    -2
  9
$DIMLWE
 70
    -2
  9
$DIMTMOVE
 70
     0
  9
$DIMFXL
 40
1.0
  9
$DIMFXLON
 70
     0
  9
$DIMJOGANG
 40
0.785398
  9
$DIMTFILL
 70
     0
  9
$DIMTFILLCLR
 70
     0
  9
$DIMARCSYM
 70
     0
  9
$DIMLTYPE
  6
ByBlock
  9
$DIMLTEX1
  6
ByBlock
  9
$DIMLTEX2
  6
ByBlock
  9
$DIMTXTDIRECTION
 70
     0
  9
$LUNITS
 70
     2
  9
$LUPREC
 70
     3
  9
$SKETCHINC
 40
0.1
  9
$FILLETRAD
 40
0.0
  9
$AUNITS
 70
     0
  9
$AUPREC
 70
     3
  9
$MENU
  1
.
  9
$ELEVATION
 40
0.0
  9
$PELEVATION
 40
0.0
  9
$THICKNESS
 40
0.0
  9
$LIMCHECK
 70
     0
  9
$CHAMFERA
 40
0.0
  9
$CHAMFERB
 40
0.0
  9
$CHAMFERC
 40
0.0
  9
$CHAMFERD
 40
0.0
  9
$SKPOLY
 70
     0
  9
$TDCREATE
 40
2454145.111354167
  9
$TDUCREATE
 40
2454144.778024017
  9
$TDUPDATE
 40
2460175.345578704
  9
$TDUUPDATE
 40
2460175.012245370
  9
$TDINDWG
 40
0.0059548032
  9
$TDUSRTIMER
 40
0.0059546181
  9
$USRTIMER
 70
     1
  9
$ANGBASE
 50
0.0
  9
$ANGDIR
 70
     0
  9
$PDMODE
 70
     0
  9
$PDSIZE
 40
0.0
  9
$PLINEWID
 40
0.0
  9
$SPLFRAME
 70
     0
  9
$SPLINETYPE
 70
     6
  9
$SPLINESEGS
 70
     8
  9
$HANDSEED
  5
3549
  9
$SURFTAB1
 70
     6
  9
$SURFTAB2
 70
     6
  9
$SURFTYPE
 70
     6
  9
$SURFU
 70
     6
  9
$SURFV
 70
     6
  9
$UCSBASE
  2

  9
$UCSNAME
  2

  9
$UCSORG
 10
0.0
 20
0.0
 30
0.0
  9
$UCSXDIR
 10
1.0
 20
0.0
 30
0.0
  9
$UCSYDIR
 10
0.0
 20
1.0
 30
0.0
  9
$UCSORTHOREF
  2

  9
$UCSORTHOVIEW
 70
     0
  9
$UCSORGTOP
 10
0.0
 20
0.0
 30
0.0
  9
$UCSORGBOTTOM
 10
0.0
 20
0.0
 30
0.0
  9
$UCSORGLEFT
 10
0.0
 20
0.0
 30
0.0
  9
$UCSORGRIGHT
 10
0.0
 20
0.0
 30
0.0
  9
$UCSORGFRONT
 10
0.0
 20
0.0
 30
0.0
  9
$UCSORGBACK
 10
0.0
 20
0.0
 30
0.0
  9
$PUCSBASE
  2

  9
$PUCSNAME
  2

  9
$PUCSORG
 10
0.0
 20
0.0
 30
0.0
  9
$PUCSXDIR
 10
1.0
 20
0.0
 30
0.0
  9
$PUCSYDIR
 10
0.0
 20
1.0
 30
0.0
  9
$PUCSORTHOREF
  2

  9
$PUCSORTHOVIEW
 70
     0
  9
$PUCSORGTOP
 10
0.0
 20
0.0
 30
0.0
  9
$PUCSORGBOTTOM
 10
0.0
 20
0.0
 30
0.0
  9
$PUCSORGLEFT
 10
0.0
 20
0.0
 30
0.0
  9
$PUCSORGRIGHT
 10
0.0
 20
0.0
 30
0.0
  9
$PUCSORGFRONT
 10
0.0
 20
0.0
 30
0.0
  9
$PUCSORGBACK
 10
0.0
 20
0.0
 30
0.0
  9
$USERI1
 70
     0
  9
$USERI2
 70
     0
  9
$USERI3
 70
     0
  9
$USERI4
 70
     0
  9
$USERI5
 70
     0
  9
$USERR1
 40
0.0
  9
$USERR2
 40
0.0
  9
$USERR3
 40
0.0
  9
$USERR4
 40
0.0
  9
$USERR5
 40
0.0
  9
$WORLDVIEW
 70
     1
  9
$SHADEDGE
 70
     3
  9
$SHADEDIF
 70
    70
  9
$TILEMODE
 70
     1
  9
$MAXACTVP
 70
    64
  9
$PINSBASE
 10
0.0
 20
0.0
 30
0.0
  9
$PLIMCHECK
 70
     0
  9
$PEXTMIN
 10
1.05
 20
0.8
 30
0.0
  9
$PEXTMAX
 10
9.45
 20
7.2
 30
0.0
  9
$PLIMMIN
 10
-0.25
 20
-0.25
  9
$PLIMMAX
 10
10.75
 20
8.25
  9
$UNITMODE
 70
     0
  9
$VISRETAIN
 70
     1
  9
$PLINEGEN
 70
     0
  9
$PSLTSCALE
 70
     0
  9
$TREEDEPTH
 70
  3020
  9
$CMLSTYLE
  2
Standard
  9
$CMLJUST
 70
     0
  9
$CMLSCALE
 40
1.0
  9
$PROXYGRAPHICS
 70
     1
  9
$MEASUREMENT
 70
     0
  9
$CELWEIGHT
370
    -1
  9
$ENDCAPS
280
     0
  9
$JOINSTYLE
280
     0
  9
$LWDISPLAY
290
     1
  9
$INSUNITS
 70
     6
  9
$HYPERLINKBASE
  1

  9
$STYLESHEET
  1

  9
$XEDIT
290
     1
  9
$CEPSNTYPE
380
     0
  9
$PSTYLEMODE
290
     1
  9
$FINGERPRINTGUID
  2
{CAF0A9F3-1C2B-EB47-938E-E047FEAC49EA}
  9
$VERSIONGUID
  2
{38E7CD85-556C-4D6E-9C4C-B935CE7E055D}
  9
$EXTNAMES
290
     1
  9
$PSVPSCALE
 40
0.0
  9
$OLESTARTUP
290
     0
  9
$SORTENTS
280
   127
  9
$INDEXCTL
280
     0
  9
$HIDETEXT
280
     1
  9
$XCLIPFRAME
280
     0
  9
$HALOGAP
280
     0
  9
$OBSCOLOR
 70
   257
  9
$OBSLTYPE
280
     0
  9
$INTERSECTIONDISPLAY
280
     0
  9
$INTERSECTIONCOLOR
 70
   257
  9
$DIMASSOC
280
     2
  9
$PROJECTNAME
  1

  9
$CAMERADISPLAY
290
     0
  9
$LENSLENGTH
 40
50.0
  9
$CAMERAHEIGHT
 40
0.0
  9
$STEPSPERSEC
 40
2.0
  9
$STEPSIZE
 40
6.0
  9
$3DDWFPREC
 40
2.0
  9
$PSOLWIDTH
 40
0.25
  9
$PSOLHEIGHT
 40
4.0
  9
$LOFTANG1
 40
1.570796
  9
$LOFTANG2
 40
1.570796
  9
$LOFTMAG1
 40
0.0
  9
$LOFTMAG2
 40
0.0
  9
$LOFTPARAM
 70
     7
  9
$LOFTNORMALS
280
     1
  9
$LATITUDE
 40
37.795
  9
$LONGITUDE
 40
-122.394
  9
$NORTHDIRECTION
 40
0.0
  9
$TIMEZONE
 70
 -8000
  9
$LIGHTGLYPHDISPLAY
280
     1
  9
$TILEMODELIGHTSYNCH
280
     1
  9
$CMATERIAL
347
2EE7
  9
$SOLIDHIST
280
     1
  9
$SHOWHIST
280
     1
  9
$DWFFRAME
280
     2
  9
$DGNFRAME
280
     0
  9
$REALWORLDSCALE
290
     1
  9
$INTERFERECOLOR
 62
     1
  9
$INTERFEREOBJVS
345
2F10
  9
$INTERFEREVPVS
346
2F11
  9
$CSHADOW
280
     0
  9
$SHADOWPLANELOCATION
 40
0.0
  0
ENDSEC
  0
SECTION
  2
CLASSES
  0
CLASS
  1
ACDBDICTIONARYWDFLT
  2
AcDbDictionaryWithDefault
  3
ObjectDBX Classes
 90
        0
 91
        1
280
     0
281
     0
  0
CLASS
  1
DICTIONARYVAR
  2
AcDbDictionaryVar
  3
ObjectDBX Classes
 90
        0
 91
        9
280
     0
281
     0
  0
CLASS
  1
TABLESTYLE
  2
AcDbTableStyle
  3
ObjectDBX Classes
 90
     4095
 91
        1
280
     0
281
     0
  0
CLASS
  1
MATERIAL
  2
AcDbMaterial
  3
ObjectDBX Classes
 90
     1153
 91
        3
280
     0
281
     0
  0
CLASS
  1
VISUALSTYLE
  2
AcDbVisualStyle
  3
ObjectDBX Classes
 90
     4095
 91
       24
280
     0
281
     0
  0
CLASS
  1
SCALE
  2
AcDbScale
  3
ObjectDBX Classes
 90
     1153
 91
       33
280
     0
281
     0
  0
CLASS
  1
MLEADERSTYLE
  2
AcDbMLeaderStyle
  3
ACDB_MLEADERSTYLE_CLASS
 90
     4095
 91
        1
280
     0
281
     0
  0
CLASS
  1
EXACXREFPANELOBJECT
  2
ExAcXREFPanelObject
  3
EXAC_ESW
 90
     1025
 91
        0
280
     1
281
     0
  0
CLASS
  1
NPOCOLLECTION
  2
AcDbImpNonPersistentObjectsCollection
  3
ObjectDBX Classes
 90
     1153
 91
        0
280
     0
281
     0
  0
CLASS
  1
CELLSTYLEMAP
  2
AcDbCellStyleMap
  3
ObjectDBX Classes
 90
     1152
 91
        1
280
     0
281
     0
  0
CLASS
  1
ACDBSECTIONVIEWSTYLE
  2
AcDbSectionViewStyle
  3
ObjectDBX Classes
 90
     1025
 91
        1
280
     0
281
     0
  0
CLASS
  1
ACDBDETAILVIEWSTYLE
  2
AcDbDetailViewStyle
  3
ObjectDBX Classes
 90
     1025
 91
        1
280
     0
281
     0
  0
CLASS
  1
SORTENTSTABLE
  2
AcDbSortentsTable
  3
ObjectDBX Classes
 90
        0
 91
        1
280
     0
281
     0
  0
ENDSEC
  0
SECTION
  2
TABLES
  0
TABLE
  2
VPORT
  5
2EDB
330
0
100
AcDbSymbolTable
 70
     1
1001
ACAD
1000
DbSaveVer
1071
      279
  0
VPORT
  5
4B
330
2EDB
100
AcDbSymbolTableRecord
100
AcDbViewportTableRecord
  2
*ACTIVE
 70
     0
 10
0.0
 20
0.0
 11
1.0
 21
1.0
 12
3.441841
 22
1.718302
 13
0.0
 23
0.0
 14
0.1
 24
0.1
 15
1.0
 25
1.0
 16
0.0
 26
0.0
 36
1.0
 17
0.0
 27
0.0
 37
0.0
 40
5.19557
 41
2.437741
 42
50.0
 43
0.0
 44
0.0
 50
0.0
 51
0.0
 71
     0
 72
 20000
 73
     1
 74
     1
 75
     0
 76
     0
 77
     0
 78
     1
281
     0
 65
     1
110
0.0
120
0.0
130
0.0
111
1.0
121
0.0
131
0.0
112
0.0
122
1.0
132
0.0
 79
     0
146
0.0
348
2EDD
 60
     3
 61
    10
292
     0
282
     1
141
0.0
142
0.0
 63
     7
421
 16777215
  0
ENDTAB
  0
TABLE
  2
LTYPE
  5
2ED6
330
0
100
AcDbSymbolTable
 70
     2
  0
LTYPE
  5
2ED7
330
2ED6
100
AcDbSymbolTableRecord
100
AcDbLinetypeTableRecord
  2
ByBlock
 70
     0
  3

 72
    65
 73
     0
 40
0.0
  0
LTYPE
  5
2ED8
330
2ED6
100
AcDbSymbolTableRecord
100
AcDbLinetypeTableRecord
  2
ByLayer
 70
     0
  3

 72
    65
 73
     0
 40
0.0
  0
LTYPE
  5
2EAC
330
2ED6
100
AcDbSymbolTableRecord
100
AcDbLinetypeTableRecord
  2
Continuous
 70
     0
  3
Solid line
 72
    65
 73
     0
 40
0.0
  0
LTYPE
  5
3077
330
2ED6
100
AcDbSymbolTableRecord
100
AcDbLinetypeTableRecord
  2
DGN Style 2
 70
     0
  3
Dgn Style 2
 72
    65
 73
     2
 40
0.126655
 49
0.075993
 74
     0
 49
-0.050662
 74
     0
  0
ENDTAB
  0
TABLE
  2
LAYER
  5
2ECD
102
{ACAD_XDICTIONARY
360
2ECE
102
}
330
0
100
AcDbSymbolTable
 70
   325
  0
LAYER
  5
2E9D
102
{ACAD_XDICTIONARY
360
2E9E
102
}
330
2ECD
100
AcDbSymbolTableRecord
100
AcDbLayerTableRecord
  2
0
 70
     0
 62
     7
  6
Continuous
370
    -3
390
2EA0
347
2EA3
348
0
1001
AcCmTransparency
1071
 33554687
  0
LAYER
  5
2F05
330
2ECD
100
AcDbSymbolTableRecord
100
AcDbLayerTableRecord
  2
Level 1
 70
     0
 62
     7
  6
Continuous
370
     0
390
2EA0
347
2EA3
348
0
1001
AcCmTransparency
1071
 33554687
  0
LAYER
  5
2F33
330
2ECD
100
AcDbSymbolTableRecord
100
AcDbLayerTableRecord
  2
A!|Level 1
 70
    16
 62
     7
  6
Continuous
370
     0
390
2EA0
347
2EA3
348
0
1001
AcCmTransparency
1071
 33554687
  0
LAYER
  5
2F34
330
2ECD
100
AcDbSymbolTableRecord
100
AcDbLayerTableRecord
  2
A!|Level 2
 70
    16
 62
     7
  6
Continuous
370
     0
390
2EA0
347
2EA3
348
0
1001
AcCmTransparency
1071
 33554687
  0
LAYER
  5
2F35
330
2ECD
100
AcDbSymbolTableRecord
100
AcDbLayerTableRecord
  2
A!|Level 3
 70
    16
 62
     7
  6
Continuous
370
     0
390
2EA0
347
2EA3
348
0
1001
AcCmTransparency
1071
 33554687
  0
LAYER
  5
2F36
330
2ECD
100
AcDbSymbolTableRecord
100
AcDbLayerTableRecord
  2
A!|Level 4
 70
    16
 62
     7
  6
Continuous
370
     0
390
2EA0
347
2EA3
348
0
1001
AcCmTransparency
1071
 33554687
  0
LAYER
  5
2F37
330
2ECD
100
AcDbSymbolTableRecord
100
AcDbLayerTableRecord
  2
A!|Level 5
 70
    16
 62
     7
  6
Continuous
370
     0
390
2EA0
347
2EA3
348
0
1001
AcCmTransparency
1071
 33554687
  0
LAYER
  5
2F38
330
2ECD
100
AcDbSymbolTableRecord
100
AcDbLayerTableRecord
  2
A!|Level 6
 70
    16
 62
     7
  6
Continuous
370
     0
390
2EA0
347
2EA3
348
0
1001
AcCmTransparency
1071
 33554687
  0
LAYER
  5
2F39
330
2ECD
100
AcDbSymbolTableRecord
100
AcDbLayerTableRecord
  2
A!|Level 7
 70
    16
 62
     7
  6
Continuous
370
     0
390
2EA0
347
2EA3
348
0
1001
AcCmTransparency
1071
 33554687
  0
LAYER
  5
2F3A
330
2ECD
100
AcDbSymbolTableRecord
100
AcDbLayerTableRecord
  2
A!|Level 8
 70
    16
 62
     7
  6
Continuous
370
     0
390
2EA0
347
2EA3
348
0
1001
AcCmTransparency
1071
 33554687
  0
LAYER
  5
2F3B
330
2ECD
100
AcDbSymbolTableRecord
100
AcDbLayerTableRecord
  2
A!|Level 9
 70
    16
 62
     7
  6
Continuous
370
     0
390
2EA0
347
2EA3
348
0
1001
AcCmTransparency
1071
 33554687
  0
LAYER
  5
2F3C
330
2ECD
100
AcDbSymbolTableRecord
100
AcDbLayerTableRecord
  2
A!|Level 10
 70
    16
 62
     7
  6
Continuous
370
     0
390
2EA0
347
2EA3
348
0
1001
AcCmTransparency
1071
 33554687
  0
LAYER
  5
2F3D
330
2ECD
100
AcDbSymbolTableRecord
100
AcDbLayerTableRecord
  2
A!|Level 11
 70
    16
 62
     7
  6
Continuous
370
     0
390
2EA0
347
2EA3
348
0
1001
AcCmTransparency
1071
 33554687
  0
LAYER
  5
2F3E
330
2ECD
100
AcDbSymbolTableRecord
100
AcDbLayerTableRecord
  2
A!|Level 12
 70
    16
 62
     7
  6
Continuous
370
     0
390
2EA0
347
2EA3
348
0
1001
AcCmTransparency
1071
 33554687
  0
LAYER
  5
2F3F
330
2ECD
100
AcDbSymbolTableRecord
100
AcDbLayerTableRecord
  2
A!|Level 13
 70
    16
 62
     7
  6
Continuous
370
     0
390
2EA0
347
2EA3
348
0
1001
AcCmTransparency
1071
 33554687
  0
LAYER
  5
2F40
330
2ECD
100
AcDbSymbolTableRecord
100
AcDbLayerTableRecord
  2
A!|Level 14
 70
    16
 62
     7
  6
Continuous
370
     0
390
2EA0
347
2EA3
348
0
1001
AcCmTransparency
1071
 33554687
  0
LAYER
  5
2F41
330
2ECD
100
AcDbSymbolTableRecord
100
AcDbLayerTableRecord
  2
A!|Level 15
 70
    16
 62
     7
  6
Continuous
370
     0
390
2EA0
347
2EA3
348
0
1001
AcCmTransparency
1071
 33554687
  0
LAYER
  5
2F42
330
2ECD
100
AcDbSymbolTableRecord
100
AcDbLayerTableRecord
  2
A!|Level 16
 70
    16
 62
     7
  6
Continuous
370
     0
390
2EA0
347
2EA3
348
0
1001
AcCmTransparency
1071
 33554687
  0
LAYER
  5
2F43
330
2ECD
100
AcDbSymbolTableRecord
100
AcDbLayerTableRecord
  2
A!|Level 17
 70
    16
 62
     7
  6
Continuous
370
     0
390
2EA0
347
2EA3
348
0
1001
AcCmTransparency
1071
 33554687
  0
LAYER
  5
2F44
330
2ECD
100
AcDbSymbolTableRecord
100
AcDbLayerTableRecord
  2
A!|Level 18
 70
    16
 62
     7
  6
Continuous
370
     0
390
2EA0
347
2EA3
348
0
1001
AcCmTransparency
1071
 33554687
  0
LAYER
  5
2F45
330
2ECD
100
AcDbSymbolTableRecord
100
AcDbLayerTableRecord
  2
A!|Level 19
 70
    16
 62
     7
  6
Continuous
370
     0
390
2EA0
347
2EA3
348
0
1001
AcCmTransparency
1071
 33554687
  0
LAYER
  5
2F46
330
2ECD
100
AcDbSymbolTableRecord
100
AcDbLayerTableRecord
  2
A!|Level 20
 70
    16
 62
     7
  6
Continuous
370
     0
390
2EA0
347
2EA3
348
0
1001
AcCmTransparency
1071
 33554687
  0
LAYER
  5
2F47
330
2ECD
100
AcDbSymbolTableRecord
100
AcDbLayerTableRecord
  2
A!|Level 21
 70
    16
 62
     7
  6
Continuous
370
     0
390
2EA0
347
2EA3
348
0
1001
AcCmTransparency
1071
 33554687
  0
LAYER
  5
2F48
330
2ECD
100
AcDbSymbolTableRecord
100
AcDbLayerTableRecord
  2
A!|Level 22
 70
    16
 62
     7
  6
Continuous
370
     0
390
2EA0
347
2EA3
348
0
1001
AcCmTransparency
1071
 33554687
  0
LAYER
  5
2F49
330
2ECD
100
AcDbSymbolTableRecord
100
AcDbLayerTableRecord
  2
A!|Level 23
 70
    16
 62
     7
  6
Continuous
370
     0
390
2EA0
347
2EA3
348
0
1001
AcCmTransparency
1071
 33554687
  0
LAYER
  5
2F4A
330
2ECD
100
AcDbSymbolTableRecord
100
AcDbLayerTableRecord
  2
A!|Level 24
 70
    16
 62
     7
  6
Continuous
370
     0
390
2EA0
347
2EA3
348
0
1001
AcCmTransparency
1071
 33554687
  0
LAYER
  5
2F4B
330
2ECD
100
AcDbSymbolTableRecord
100
AcDbLayerTableRecord
  2
A!|Level 25
 70
    16
 62
     7
  6
Continuous
370
     0
390
2EA0
347
2EA3
348
0
1001
AcCmTransparency
1071
 33554687
  0
LAYER
  5
2F4C
330
2ECD
100
AcDbSymbolTableRecord
100
AcDbLayerTableRecord
  2
A!|Level 26
 70
    16
 62
     7
  6
Continuous
370
     0
390
2EA0
347
2EA3
348
0
1001
AcCmTransparency
1071
 33554687
  0
LAYER
  5
2F4D
330
2ECD
100
AcDbSymbolTableRecord
100
AcDbLayerTableRecord
  2
A!|Level 27
 70
    16
 62
     7
  6
Continuous
370
     0
390
2EA0
347
2EA3
348
0
1001
AcCmTransparency
1071
 33554687
  0
LAYER
  5
2F4E
330
2ECD
100
AcDbSymbolTableRecord
100
AcDbLayerTableRecord
  2
A!|Level 28
 70
    16
 62
     7
  6
Continuous
370
     0
390
2EA0
347
2EA3
348
0
1001
AcCmTransparency
1071
 33554687
  0
LAYER
  5
2F4F
330
2ECD
100
AcDbSymbolTableRecord
100
AcDbLayerTableRecord
  2
A!|Level 29
 70
    16
 62
     7
  6
Continuous
370
     0
390
2EA0
347
2EA3
348
0
1001
AcCmTransparency
1071
 33554687
  0
LAYER
  5
2F50
330
2ECD
100
AcDbSymbolTableRecord
100
AcDbLayerTableRecord
  2
A!|Level 30
 70
    16
 62
     7
  6
Continuous
370
     0
390
2EA0
347
2EA3
348
0
1001
AcCmTransparency
1071
 33554687
  0
LAYER
  5
2F51
330
2ECD
100
AcDbSymbolTableRecord
100
AcDbLayerTableRecord
  2
A!|Level 31
 70
    16
 62
     7
  6
Continuous
370
     0
390
2EA0
347
2EA3
348
0
1001
AcCmTransparency
1071
 33554687
  0
LAYER
  5
2F52
330
2ECD
100
AcDbSymbolTableRecord
100
AcDbLayerTableRecord
  2
A!|Level 32
 70
    16
 62
     7
  6
Continuous
370
     0
390
2EA0
347
2EA3
348
0
1001
AcCmTransparency
1071
 33554687
  0
LAYER
  5
2F53
330
2ECD
100
AcDbSymbolTableRecord
100
AcDbLayerTableRecord
  2
A!|Level 33
 70
    16
 62
     7
  6
Continuous
370
     0
390
2EA0
347
2EA3
348
0
1001
AcCmTransparency
1071
 33554687
  0
LAYER
  5
2F54
330
2ECD
100
AcDbSymbolTableRecord
100
AcDbLayerTableRecord
  2
A!|Level 34
 70
    16
 62
     7
  6
Continuous
370
     0
390
2EA0
347
2EA3
348
0
1001
AcCmTransparency
1071
 33554687
  0
LAYER
  5
2F55
330
2ECD
100
AcDbSymbolTableRecord
100
AcDbLayerTableRecord
  2
A!|Level 35
 70
    16
 62
     7
  6
Continuous
370
     0
390
2EA0
347
2EA3
348
0
1001
AcCmTransparency
1071
 33554687
  0
LAYER
  5
2F56
330
2ECD
100
AcDbSymbolTableRecord
100
AcDbLayerTableRecord
  2
A!|Level 36
 70
    16
 62
     7
  6
Continuous
370
     0
390
2EA0
347
2EA3
348
0
1001
AcCmTransparency
1071
 33554687
  0
LAYER
  5
2F57
330
2ECD
100
AcDbSymbolTableRecord
100
AcDbLayerTableRecord
  2
A!|Level 37
 70
    16
 62
     7
  6
Continuous
370
     0
390
2EA0
347
2EA3
348
0
1001
AcCmTransparency
1071
 33554687
  0
LAYER
  5
2F58
330
2ECD
100
AcDbSymbolTableRecord
100
AcDbLayerTableRecord
  2
A!|Level 38
 70
    16
 62
     7
  6
Continuous
370
     0
390
2EA0
347
2EA3
348
0
1001
AcCmTransparency
1071
 33554687
  0
LAYER
  5
2F59
330
2ECD
100
AcDbSymbolTableRecord
100
AcDbLayerTableRecord
  2
A!|Level 39
 70
    16
 62
     7
  6
Continuous
370
     0
390
2EA0
347
2EA3
348
0
1001
AcCmTransparency
1071
 33554687
  0
LAYER
  5
2F5A
330
2ECD
100
AcDbSymbolTableRecord
100
AcDbLayerTableRecord
  2
A!|Level 40
 70
    16
 62
     7
  6
Continuous
370
     0
390
2EA0
347
2EA3
348
0
1001
AcCmTransparency
1071
 33554687
  0
LAYER
  5
2F5B
330
2ECD
100
AcDbSymbolTableRecord
100
AcDbLayerTableRecord
  2
A!|Level 41
 70
    16
 62
     7
  6
Continuous
370
     0
390
2EA0
347
2EA3
348
0
1001
AcCmTransparency
1071
 33554687
  0
LAYER
  5
2F5C
330
2ECD
100
AcDbSymbolTableRecord
100
AcDbLayerTableRecord
  2
A!|Level 42
 70
    16
 62
     7
  6
Continuous
370
     0
390
2EA0
347
2EA3
348
0
1001
AcCmTransparency
1071
 33554687
  0
LAYER
  5
2F5D
330
2ECD
100
AcDbSymbolTableRecord
100
AcDbLayerTableRecord
  2
A!|Level 43
 70
    16
 62
     7
  6
Continuous
370
     0
390
2EA0
347
2EA3
348
0
1001
AcCmTransparency
1071
 33554687
  0
LAYER
  5
2F5E
330
2ECD
100
AcDbSymbolTableRecord
100
AcDbLayerTableRecord
  2
A!|Level 44
 70
    16
 62
     7
  6
Continuous
370
     0
390
2EA0
347
2EA3
348
0
1001
AcCmTransparency
1071
 33554687
  0
LAYER
  5
2F5F
330
2ECD
100
AcDbSymbolTableRecord
100
AcDbLayerTableRecord
  2
A!|Level 45
 70
    16
 62
     7
  6
Continuous
370
     0
390
2EA0
347
2EA3
348
0
1001
AcCmTransparency
1071
 33554687
  0
LAYER
  5
2F60
330
2ECD
100
AcDbSymbolTableRecord
100
AcDbLayerTableRecord
  2
A!|Level 46
 70
    16
 62
     7
  6
Continuous
370
     0
390
2EA0
347
2EA3
348
0
1001
AcCmTransparency
1071
 33554687
  0
LAYER
  5
2F61
330
2ECD
100
AcDbSymbolTableRecord
100
AcDbLayerTableRecord
  2
A!|Level 47
 70
    16
 62
     7
  6
Continuous
370
     0
390
2EA0
347
2EA3
348
0
1001
AcCmTransparency
1071
 33554687
  0
LAYER
  5
2F62
330
2ECD
100
AcDbSymbolTableRecord
100
AcDbLayerTableRecord
  2
A!|Level 48
 70
    16
 62
     7
  6
Continuous
370
     0
390
2EA0
347
2EA3
348
0
1001
AcCmTransparency
1071
 33554687
  0
LAYER
  5
2F63
330
2ECD
100
AcDbSymbolTableRecord
100
AcDbLayerTableRecord
  2
A!|Level 49
 70
    16
 62
     7
  6
Continuous
370
     0
390
2EA0
347
2EA3
348
0
1001
AcCmTransparency
1071
 33554687
  0
LAYER
  5
2F64
330
2ECD
100
AcDbSymbolTableRecord
100
AcDbLayerTableRecord
  2
A!|Level 50
 70
    16
 62
     7
  6
Continuous
370
     0
390
2EA0
347
2EA3
348
0
1001
AcCmTransparency
1071
 33554687
  0
LAYER
  5
2F65
330
2ECD
100
AcDbSymbolTableRecord
100
AcDbLayerTableRecord
  2
A!|Level 51
 70
    16
 62
     7
  6
Continuous
370
     0
390
2EA0
347
2EA3
348
0
1001
AcCmTransparency
1071
 33554687
  0
LAYER
  5
2F66
330
2ECD
100
AcDbSymbolTableRecord
100
AcDbLayerTableRecord
  2
A!|Level 52
 70
    16
 62
     7
  6
Continuous
370
     0
390
2EA0
347
2EA3
348
0
1001
AcCmTransparency
1071
 33554687
  0
LAYER
  5
2F67
330
2ECD
100
AcDbSymbolTableRecord
100
AcDbLayerTableRecord
  2
A!|Level 53
 70
    16
 62
     7
  6
Continuous
370
     0
390
2EA0
347
2EA3
348
0
1001
AcCmTransparency
1071
 33554687
  0
LAYER
  5
2F68
330
2ECD
100
AcDbSymbolTableRecord
100
AcDbLayerTableRecord
  2
A!|Level 54
 70
    16
 62
     7
  6
Continuous
370
     0
390
2EA0
347
2EA3
348
0
1001
AcCmTransparency
1071
 33554687
  0
LAYER
  5
2F69
330
2ECD
100
AcDbSymbolTableRecord
100
AcDbLayerTableRecord
  2
A!|Level 55
 70
    16
 62
     7
  6
Continuous
370
     0
390
2EA0
347
2EA3
348
0
1001
AcCmTransparency
1071
 33554687
  0
LAYER
  5
2F6A
330
2ECD
100
AcDbSymbolTableRecord
100
AcDbLayerTableRecord
  2
A!|Level 56
 70
    16
 62
     7
  6
Continuous
370
     0
390
2EA0
347
2EA3
348
0
1001
AcCmTransparency
1071
 33554687
  0
LAYER
  5
2F6B
330
2ECD
100
AcDbSymbolTableRecord
100
AcDbLayerTableRecord
  2
A!|Level 57
 70
    16
 62
     7
  6
Continuous
370
     0
390
2EA0
347
2EA3
348
0
1001
AcCmTransparency
1071
 33554687
  0
LAYER
  5
2F6C
330
2ECD
100
AcDbSymbolTableRecord
100
AcDbLayerTableRecord
  2
A!|Level 58
 70
    16
 62
     7
  6
Continuous
370
     0
390
2EA0
347
2EA3
348
0
1001
AcCmTransparency
1071
 33554687
  0
LAYER
  5
2F6D
330
2ECD
100
AcDbSymbolTableRecord
100
AcDbLayerTableRecord
  2
A!|Level 59
 70
    16
 62
     7
  6
Continuous
370
     0
390
2EA0
347
2EA3
348
0
1001
AcCmTransparency
1071
 33554687
  0
LAYER
  5
2F6E
330
2ECD
100
AcDbSymbolTableRecord
100
AcDbLayerTableRecord
  2
A!|Level 60
 70
    16
 62
     7
  6
Continuous
370
     0
390
2EA0
347
2EA3
348
0
1001
AcCmTransparency
1071
 33554687
  0
LAYER
  5
2F6F
330
2ECD
100
AcDbSymbolTableRecord
100
AcDbLayerTableRecord
  2
A!|Level 61
 70
    16
 62
     7
  6
Continuous
370
     0
390
2EA0
347
2EA3
348
0
1001
AcCmTransparency
1071
 33554687
  0
LAYER
  5
2F70
330
2ECD
100
AcDbSymbolTableRecord
100
AcDbLayerTableRecord
  2
A!|Level 62
 70
    16
 62
     7
  6
Continuous
370
     0
390
2EA0
347
2EA3
348
0
1001
AcCmTransparency
1071
 33554687
  0
LAYER
  5
2F71
330
2ECD
100
AcDbSymbolTableRecord
100
AcDbLayerTableRecord
  2
A!|Level 63
 70
    16
 62
     7
  6
Continuous
370
     0
390
2EA0
347
2EA3
348
0
1001
AcCmTransparency
1071
 33554687
  0
LAYER
  5
2F72
330
2ECD
100
AcDbSymbolTableRecord
100
AcDbLayerTableRecord
  2
A!|5
 70
    16
 62
     1
  6
Continuous
370
     0
390
2EA0
347
2EA3
348
0
1001
AcCmTransparency
1071
 33554687
  0
LAYER
  5
2F73
330
2ECD
100
AcDbSymbolTableRecord
100
AcDbLayerTableRecord
  2
A!|4
 70
    16
 62
     7
  6
Continuous
370
     0
390
2EA0
347
2EA3
348
0
1001
AcCmTransparency
1071
 33554687
  0
LAYER
  5
2F74
330
2ECD
100
AcDbSymbolTableRecord
100
AcDbLayerTableRecord
  2
A!|3
 70
    16
 62
     7
  6
Continuous
370
     0
390
2EA0
347
2EA3
348
0
1001
AcCmTransparency
1071
 33554687
  0
LAYER
  5
2F75
330
2ECD
100
AcDbSymbolTableRecord
100
AcDbLayerTableRecord
  2
a2|Level 1
 70
    16
 62
     7
  6
Continuous
370
     0
390
2EA0
347
2EA3
348
0
1001
AcCmTransparency
1071
 33554687
  0
LAYER
  5
2F76
330
2ECD
100
AcDbSymbolTableRecord
100
AcDbLayerTableRecord
  2
a2|Level 2
 70
    16
 62
     7
  6
Continuous
370
     0
390
2EA0
347
2EA3
348
0
1001
AcCmTransparency
1071
 33554687
  0
LAYER
  5
2F77
330
2ECD
100
AcDbSymbolTableRecord
100
AcDbLayerTableRecord
  2
a2|Level 3
 70
    16
 62
     7
  6
Continuous
370
     0
390
2EA0
347
2EA3
348
0
1001
AcCmTransparency
1071
 33554687
  0
LAYER
  5
2F78
330
2ECD
100
AcDbSymbolTableRecord
100
AcDbLayerTableRecord
  2
a2|Level 4
 70
    16
 62
     7
  6
Continuous
370
     0
390
2EA0
347
2EA3
348
0
1001
AcCmTransparency
1071
 33554687
  0
LAYER
  5
2F79
330
2ECD
100
AcDbSymbolTableRecord
100
AcDbLayerTableRecord
  2
a2|Level 5
 70
    16
 62
     7
  6
Continuous
370
     0
390
2EA0
347
2EA3
348
0
1001
AcCmTransparency
1071
 33554687
  0
LAYER
  5
2F7A
330
2ECD
100
AcDbSymbolTableRecord
100
AcDbLayerTableRecord
  2
a2|Level 6
 70
    16
 62
     7
  6
Continuous
370
     0
390
2EA0
347
2EA3
348
0
1001
AcCmTransparency
1071
 33554687
  0
LAYER
  5
2F7B
330
2ECD
100
AcDbSymbolTableRecord
100
AcDbLayerTableRecord
  2
a2|Level 7
 70
    16
 62
     7
  6
Continuous
370
     0
390
2EA0
347
2EA3
348
0
1001
AcCmTransparency
1071
 33554687
  0
LAYER
  5
2F7C
330
2ECD
100
AcDbSymbolTableRecord
100
AcDbLayerTableRecord
  2
a2|Level 8
 70
    16
 62
     7
  6
Continuous
370
     0
390
2EA0
347
2EA3
348
0
1001
AcCmTransparency
1071
 33554687
  0
LAYER
  5
2F7D
330
2ECD
100
AcDbSymbolTableRecord
100
AcDbLayerTableRecord
  2
a2|Level 9
 70
    16
 62
     7
  6
Continuous
370
     0
390
2EA0
347
2EA3
348
0
1001
AcCmTransparency
1071
 33554687
  0
LAYER
  5
2F7E
330
2ECD
100
AcDbSymbolTableRecord
100
AcDbLayerTableRecord
  2
a2|Level 10
 70
    16
 62
     7
  6
Continuous
370
     0
390
2EA0
347
2EA3
348
0
1001
AcCmTransparency
1071
 33554687
  0
LAYER
  5
2F7F
330
2ECD
100
AcDbSymbolTableRecord
100
AcDbLayerTableRecord
  2
a2|Level 11
 70
    16
 62
     7
  6
Continuous
370
     0
390
2EA0
347
2EA3
348
0
1001
AcCmTransparency
1071
 33554687
  0
LAYER
  5
2F80
330
2ECD
100
AcDbSymbolTableRecord
100
AcDbLayerTableRecord
  2
a2|Level 12
 70
    16
 62
     7
  6
Continuous
370
     0
390
2EA0
347
2EA3
348
0
1001
AcCmTransparency
1071
 33554687
  0
LAYER
  5
2F81
330
2ECD
100
AcDbSymbolTableRecord
100
AcDbLayerTableRecord
  2
a2|Level 13
 70
    16
 62
     7
  6
Continuous
370
     0
390
2EA0
347
2EA3
348
0
1001
AcCmTransparency
1071
 33554687
  0
LAYER
  5
2F82
330
2ECD
100
AcDbSymbolTableRecord
100
AcDbLayerTableRecord
  2
a2|Level 14
 70
    16
 62
     7
  6
Continuous
370
     0
390
2EA0
347
2EA3
348
0
1001
AcCmTransparency
1071
 33554687
  0
LAYER
  5
2F83
330
2ECD
100
AcDbSymbolTableRecord
100
AcDbLayerTableRecord
  2
a2|Level 15
 70
    16
 62
     7
  6
Continuous
370
     0
390
2EA0
347
2EA3
348
0
1001
AcCmTransparency
1071
 33554687
  0
LAYER
  5
2F84
330
2ECD
100
AcDbSymbolTableRecord
100
AcDbLayerTableRecord
  2
a2|Level 16
 70
    16
 62
     7
  6
Continuous
370
     0
390
2EA0
347
2EA3
348
0
1001
AcCmTransparency
1071
 33554687
  0
LAYER
  5
2F85
330
2ECD
100
AcDbSymbolTableRecord
100
AcDbLayerTableRecord
  2
a2|Level 17
 70
    16
 62
     7
  6
Continuous
370
     0
390
2EA0
347
2EA3
348
0
1001
AcCmTransparency
1071
 33554687
  0
LAYER
  5
2F86
330
2ECD
100
AcDbSymbolTableRecord
100
AcDbLayerTableRecord
  2
a2|Level 18
 70
    16
 62
     7
  6
Continuous
370
     0
390
2EA0
347
2EA3
348
0
1001
AcCmTransparency
1071
 33554687
  0
LAYER
  5
2F87
330
2ECD
100
AcDbSymbolTableRecord
100
AcDbLayerTableRecord
  2
a2|Level 19
 70
    16
 62
     7
  6
Continuous
370
     0
390
2EA0
347
2EA3
348
0
1001
AcCmTransparency
1071
 33554687
  0
LAYER
  5
2F88
330
2ECD
100
AcDbSymbolTableRecord
100
AcDbLayerTableRecord
  2
a2|Level 20
 70
    16
 62
     7
  6
Continuous
370
     0
390
2EA0
347
2EA3
348
0
1001
AcCmTransparency
1071
 33554687
  0
LAYER
  5
2F89
330
2ECD
100
AcDbSymbolTableRecord
100
AcDbLayerTableRecord
  2
a2|Level 21
 70
    16
 62
     7
  6
Continuous
370
     0
390
2EA0
347
2EA3
348
0
1001
AcCmTransparency
1071
 33554687
  0
LAYER
  5
2F8A
330
2ECD
100
AcDbSymbolTableRecord
100
AcDbLayerTableRecord
  2
a2|Level 22
 70
    16
 62
     7
  6
Continuous
370
     0
390
2EA0
347
2EA3
348
0
1001
AcCmTransparency
1071
 33554687
  0
LAYER
  5
2F8B
330
2ECD
100
AcDbSymbolTableRecord
100
AcDbLayerTableRecord
  2
a2|Level 23
 70
    16
 62
     7
  6
Continuous
370
     0
390
2EA0
347
2EA3
348
0
1001
AcCmTransparency
1071
 33554687
  0
LAYER
  5
2F8C
330
2ECD
100
AcDbSymbolTableRecord
100
AcDbLayerTableRecord
  2
a2|Level 24
 70
    16
 62
     7
  6
Continuous
370
     0
390
2EA0
347
2EA3
348
0
1001
AcCmTransparency
1071
 33554687
  0
LAYER
  5
2F8D
330
2ECD
100
AcDbSymbolTableRecord
100
AcDbLayerTableRecord
  2
a2|Level 25
 70
    16
 62
     7
  6
Continuous
370
     0
390
2EA0
347
2EA3
348
0
1001
AcCmTransparency
1071
 33554687
  0
LAYER
  5
2F8E
330
2ECD
100
AcDbSymbolTableRecord
100
AcDbLayerTableRecord
  2
a2|Level 26
 70
    16
 62
     7
  6
Continuous
370
     0
390
2EA0
347
2EA3
348
0
1001
AcCmTransparency
1071
 33554687
  0
LAYER
  5
2F8F
330
2ECD
100
AcDbSymbolTableRecord
100
AcDbLayerTableRecord
  2
a2|Level 27
 70
    16
 62
     7
  6
Continuous
370
     0
390
2EA0
347
2EA3
348
0
1001
AcCmTransparency
1071
 33554687
  0
LAYER
  5
2F90
330
2ECD
100
AcDbSymbolTableRecord
100
AcDbLayerTableRecord
  2
a2|Level 28
 70
    16
 62
     7
  6
Continuous
370
     0
390
2EA0
347
2EA3
348
0
1001
AcCmTransparency
1071
 33554687
  0
LAYER
  5
2F91
330
2ECD
100
AcDbSymbolTableRecord
100
AcDbLayerTableRecord
  2
a2|Level 29
 70
    16
 62
     7
  6
Continuous
370
     0
390
2EA0
347
2EA3
348
0
1001
AcCmTransparency
1071
 33554687
  0
LAYER
  5
2F92
330
2ECD
100
AcDbSymbolTableRecord
100
AcDbLayerTableRecord
  2
a2|Level 30
 70
    16
 62
     7
  6
Continuous
370
     0
390
2EA0
347
2EA3
348
0
1001
AcCmTransparency
1071
 33554687
  0
LAYER
  5
2F93
330
2ECD
100
AcDbSymbolTableRecord
100
AcDbLayerTableRecord
  2
a2|Level 31
 70
    16
 62
     7
  6
Continuous
370
     0
390
2EA0
347
2EA3
348
0
1001
AcCmTransparency
1071
 33554687
  0
LAYER
  5
2F94
330
2ECD
100
AcDbSymbolTableRecord
100
AcDbLayerTableRecord
  2
a2|Level 32
 70
    16
 62
     7
  6
Continuous
370
     0
390
2EA0
347
2EA3
348
0
1001
AcCmTransparency
1071
 33554687
  0
LAYER
  5
2F95
330
2ECD
100
AcDbSymbolTableRecord
100
AcDbLayerTableRecord
  2
a2|Level 33
 70
    16
 62
     7
  6
Continuous
370
     0
390
2EA0
347
2EA3
348
0
1001
AcCmTransparency
1071
 33554687
  0
LAYER
  5
2F96
330
2ECD
100
AcDbSymbolTableRecord
100
AcDbLayerTableRecord
  2
a2|Level 34
 70
    16
 62
     7
  6
Continuous
370
     0
390
2EA0
347
2EA3
348
0
1001
AcCmTransparency
1071
 33554687
  0
LAYER
  5
2F97
330
2ECD
100
AcDbSymbolTableRecord
100
AcDbLayerTableRecord
  2
a2|Level 35
 70
    16
 62
     7
  6
Continuous
370
     0
390
2EA0
347
2EA3
348
0
1001
AcCmTransparency
1071
 33554687
  0
LAYER
  5
2F98
330
2ECD
100
AcDbSymbolTableRecord
100
AcDbLayerTableRecord
  2
a2|Level 36
 70
    16
 62
     7
  6
Continuous
370
     0
390
2EA0
347
2EA3
348
0
1001
AcCmTransparency
1071
 33554687
  0
LAYER
  5
2F99
330
2ECD
100
AcDbSymbolTableRecord
100
AcDbLayerTableRecord
  2
a2|Level 37
 70
    16
 62
     7
  6
Continuous
370
     0
390
2EA0
347
2EA3
348
0
1001
AcCmTransparency
1071
 33554687
  0
LAYER
  5
2F9A
330
2ECD
100
AcDbSymbolTableRecord
100
AcDbLayerTableRecord
  2
a2|Level 38
 70
    16
 62
     7
  6
Continuous
370
     0
390
2EA0
347
2EA3
348
0
1001
AcCmTransparency
1071
 33554687
  0
LAYER
  5
2F9B
330
2ECD
100
AcDbSymbolTableRecord
100
AcDbLayerTableRecord
  2
a2|Level 39
 70
    16
 62
     7
  6
Continuous
370
     0
390
2EA0
347
2EA3
348
0
1001
AcCmTransparency
1071
 33554687
  0
LAYER
  5
2F9C
330
2ECD
100
AcDbSymbolTableRecord
100
AcDbLayerTableRecord
  2
a2|Level 40
 70
    16
 62
     7
  6
Continuous
370
     0
390
2EA0
347
2EA3
348
0
1001
AcCmTransparency
1071
 33554687
  0
LAYER
  5
2F9D
330
2ECD
100
AcDbSymbolTableRecord
100
AcDbLayerTableRecord
  2
a2|Level 41
 70
    16
 62
     7
  6
Continuous
370
     0
390
2EA0
347
2EA3
348
0
1001
AcCmTransparency
1071
 33554687
  0
LAYER
  5
2F9E
330
2ECD
100
AcDbSymbolTableRecord
100
AcDbLayerTableRecord
  2
a2|Level 42
 70
    16
 62
     7
  6
Continuous
370
     0
390
2EA0
347
2EA3
348
0
1001
AcCmTransparency
1071
 33554687
  0
LAYER
  5
2F9F
330
2ECD
100
AcDbSymbolTableRecord
100
AcDbLayerTableRecord
  2
a2|Level 43
 70
    16
 62
     7
  6
Continuous
370
     0
390
2EA0
347
2EA3
348
0
1001
AcCmTransparency
1071
 33554687
  0
LAYER
  5
2FA0
330
2ECD
100
AcDbSymbolTableRecord
100
AcDbLayerTableRecord
  2
a2|Level 44
 70
    16
 62
     7
  6
Continuous
370
     0
390
2EA0
347
2EA3
348
0
1001
AcCmTransparency
1071
 33554687
  0
LAYER
  5
2FA1
330
2ECD
100
AcDbSymbolTableRecord
100
AcDbLayerTableRecord
  2
a2|Level 45
 70
    16
 62
     7
  6
Continuous
370
     0
390
2EA0
347
2EA3
348
0
1001
AcCmTransparency
1071
 33554687
  0
LAYER
  5
2FA2
330
2ECD
100
AcDbSymbolTableRecord
100
AcDbLayerTableRecord
  2
a2|Level 46
 70
    16
 62
     7
  6
Continuous
370
     0
390
2EA0
347
2EA3
348
0
1001
AcCmTransparency
1071
 33554687
  0
LAYER
  5
2FA3
330
2ECD
100
AcDbSymbolTableRecord
100
AcDbLayerTableRecord
  2
a2|Level 47
 70
    16
 62
     7
  6
Continuous
370
     0
390
2EA0
347
2EA3
348
0
1001
AcCmTransparency
1071
 33554687
  0
LAYER
  5
2FA4
330
2ECD
100
AcDbSymbolTableRecord
100
AcDbLayerTableRecord
  2
a2|Level 48
 70
    16
 62
     7
  6
Continuous
370
     0
390
2EA0
347
2EA3
348
0
1001
AcCmTransparency
1071
 33554687
  0
LAYER
  5
2FA5
330
2ECD
100
AcDbSymbolTableRecord
100
AcDbLayerTableRecord
  2
a2|Level 49
 70
    16
 62
     7
  6
Continuous
370
     0
390
2EA0
347
2EA3
348
0
1001
AcCmTransparency
1071
 33554687
  0
LAYER
  5
2FA6
330
2ECD
100
AcDbSymbolTableRecord
100
AcDbLayerTableRecord
  2
a2|Level 50
 70
    16
 62
     7
  6
Continuous
370
     0
390
2EA0
347
2EA3
348
0
1001
AcCmTransparency
1071
 33554687
  0
LAYER
  5
2FA7
330
2ECD
100
AcDbSymbolTableRecord
100
AcDbLayerTableRecord
  2
a2|Level 51
 70
    16
 62
     7
  6
Continuous
370
     0
390
2EA0
347
2EA3
348
0
1001
AcCmTransparency
1071
 33554687
  0
LAYER
  5
2FA8
330
2ECD
100
AcDbSymbolTableRecord
100
AcDbLayerTableRecord
  2
a2|Level 52
 70
    16
 62
     7
  6
Continuous
370
     0
390
2EA0
347
2EA3
348
0
1001
AcCmTransparency
1071
 33554687
  0
LAYER
  5
2FA9
330
2ECD
100
AcDbSymbolTableRecord
100
AcDbLayerTableRecord
  2
a2|Level 53
 70
    16
 62
     7
  6
Continuous
370
     0
390
2EA0
347
2EA3
348
0
1001
AcCmTransparency
1071
 33554687
  0
LAYER
  5
2FAA
330
2ECD
100
AcDbSymbolTableRecord
100
AcDbLayerTableRecord
  2
a2|Level 54
 70
    16
 62
     7
  6
Continuous
370
     0
390
2EA0
347
2EA3
348
0
1001
AcCmTransparency
1071
 33554687
  0
LAYER
  5
2FAB
330
2ECD
100
AcDbSymbolTableRecord
100
AcDbLayerTableRecord
  2
a2|Level 55
 70
    16
 62
     7
  6
Continuous
370
     0
390
2EA0
347
2EA3
348
0
1001
AcCmTransparency
1071
 33554687
  0
LAYER
  5
2FAC
330
2ECD
100
AcDbSymbolTableRecord
100
AcDbLayerTableRecord
  2
a2|Level 56
 70
    16
 62
     7
  6
Continuous
370
     0
390
2EA0
347
2EA3
348
0
1001
AcCmTransparency
1071
 33554687
  0
LAYER
  5
2FAD
330
2ECD
100
AcDbSymbolTableRecord
100
AcDbLayerTableRecord
  2
a2|Level 57
 70
    16
 62
     7
  6
Continuous
370
     0
390
2EA0
347
2EA3
348
0
1001
AcCmTransparency
1071
 33554687
  0
LAYER
  5
2FAE
330
2ECD
100
AcDbSymbolTableRecord
100
AcDbLayerTableRecord
  2
a2|Level 58
 70
    16
 62
     7
  6
Continuous
370
     0
390
2EA0
347
2EA3
348
0
1001
AcCmTransparency
1071
 33554687
  0
LAYER
  5
2FAF
330
2ECD
100
AcDbSymbolTableRecord
100
AcDbLayerTableRecord
  2
a2|Level 59
 70
    16
 62
     7
  6
Continuous
370
     0
390
2EA0
347
2EA3
348
0
1001
AcCmTransparency
1071
 33554687
  0
LAYER
  5
2FB0
330
2ECD
100
AcDbSymbolTableRecord
100
AcDbLayerTableRecord
  2
a2|Level 60
 70
    16
 62
     7
  6
Continuous
370
     0
390
2EA0
347
2EA3
348
0
1001
AcCmTransparency
1071
 33554687
  0
LAYER
  5
2FB1
330
2ECD
100
AcDbSymbolTableRecord
100
AcDbLayerTableRecord
  2
a2|Level 61
 70
    16
 62
     7
  6
Continuous
370
     0
390
2EA0
347
2EA3
348
0
1001
AcCmTransparency
1071
 33554687
  0
LAYER
  5
2FB2
330
2ECD
100
AcDbSymbolTableRecord
100
AcDbLayerTableRecord
  2
a2|Level 62
 70
    16
 62
     7
  6
Continuous
370
     0
390
2EA0
347
2EA3
348
0
1001
AcCmTransparency
1071
 33554687
  0
LAYER
  5
2FB3
330
2ECD
100
AcDbSymbolTableRecord
100
AcDbLayerTableRecord
  2
a2|Level 63
 70
    16
 62
     7
  6
Continuous
370
     0
390
2EA0
347
2EA3
348
0
1001
AcCmTransparency
1071
 33554687
  0
LAYER
  5
2FB4
330
2ECD
100
AcDbSymbolTableRecord
100
AcDbLayerTableRecord
  2
a3|Level 1
 70
    16
 62
     7
  6
Continuous
370
     0
390
2EA0
347
2EA3
348
0
1001
AcCmTransparency
1071
 33554687
  0
LAYER
  5
2FB5
330
2ECD
100
AcDbSymbolTableRecord
100
AcDbLayerTableRecord
  2
a3|Level 2
 70
    16
 62
     7
  6
Continuous
370
     0
390
2EA0
347
2EA3
348
0
1001
AcCmTransparency
1071
 33554687
  0
LAYER
  5
2FB6
330
2ECD
100
AcDbSymbolTableRecord
100
AcDbLayerTableRecord
  2
a3|Level 3
 70
    16
 62
     7
  6
Continuous
370
     0
390
2EA0
347
2EA3
348
0
1001
AcCmTransparency
1071
 33554687
  0
LAYER
  5
2FB7
330
2ECD
100
AcDbSymbolTableRecord
100
AcDbLayerTableRecord
  2
a3|Level 4
 70
    16
 62
     7
  6
Continuous
370
     0
390
2EA0
347
2EA3
348
0
1001
AcCmTransparency
1071
 33554687
  0
LAYER
  5
2FB8
330
2ECD
100
AcDbSymbolTableRecord
100
AcDbLayerTableRecord
  2
a3|Level 5
 70
    16
 62
     7
  6
Continuous
370
     0
390
2EA0
347
2EA3
348
0
1001
AcCmTransparency
1071
 33554687
  0
LAYER
  5
2FB9
330
2ECD
100
AcDbSymbolTableRecord
100
AcDbLayerTableRecord
  2
a3|Level 6
 70
    16
 62
     7
  6
Continuous
370
     0
390
2EA0
347
2EA3
348
0
1001
AcCmTransparency
1071
 33554687
  0
LAYER
  5
2FBA
330
2ECD
100
AcDbSymbolTableRecord
100
AcDbLayerTableRecord
  2
a3|Level 7
 70
    16
 62
     7
  6
Continuous
370
     0
390
2EA0
347
2EA3
348
0
1001
AcCmTransparency
1071
 33554687
  0
LAYER
  5
2FBB
330
2ECD
100
AcDbSymbolTableRecord
100
AcDbLayerTableRecord
  2
a3|Level 8
 70
    16
 62
     7
  6
Continuous
370
     0
390
2EA0
347
2EA3
348
0
1001
AcCmTransparency
1071
 33554687
  0
LAYER
  5
2FBC
330
2ECD
100
AcDbSymbolTableRecord
100
AcDbLayerTableRecord
  2
a3|Level 9
 70
    16
 62
     7
  6
Continuous
370
     0
390
2EA0
347
2EA3
348
0
1001
AcCmTransparency
1071
 33554687
  0
LAYER
  5
2FBD
330
2ECD
100
AcDbSymbolTableRecord
100
AcDbLayerTableRecord
  2
a3|Level 10
 70
    16
 62
     7
  6
Continuous
370
     0
390
2EA0
347
2EA3
348
0
1001
AcCmTransparency
1071
 33554687
  0
LAYER
  5
2FBE
330
2ECD
100
AcDbSymbolTableRecord
100
AcDbLayerTableRecord
  2
a3|Level 11
 70
    16
 62
     7
  6
Continuous
370
     0
390
2EA0
347
2EA3
348
0
1001
AcCmTransparency
1071
 33554687
  0
LAYER
  5
2FBF
330
2ECD
100
AcDbSymbolTableRecord
100
AcDbLayerTableRecord
  2
a3|Level 12
 70
    16
 62
     7
  6
Continuous
370
     0
390
2EA0
347
2EA3
348
0
1001
AcCmTransparency
1071
 33554687
  0
LAYER
  5
2FC0
330
2ECD
100
AcDbSymbolTableRecord
100
AcDbLayerTableRecord
  2
a3|Level 13
 70
    16
 62
     7
  6
Continuous
370
     0
390
2EA0
347
2EA3
348
0
1001
AcCmTransparency
1071
 33554687
  0
LAYER
  5
2FC1
330
2ECD
100
AcDbSymbolTableRecord
100
AcDbLayerTableRecord
  2
a3|Level 14
 70
    16
 62
     7
  6
Continuous
370
     0
390
2EA0
347
2EA3
348
0
1001
AcCmTransparency
1071
 33554687
  0
LAYER
  5
2FC2
330
2ECD
100
AcDbSymbolTableRecord
100
AcDbLayerTableRecord
  2
a3|Level 15
 70
    16
 62
     7
  6
Continuous
370
     0
390
2EA0
347
2EA3
348
0
1001
AcCmTransparency
1071
 33554687
  0
LAYER
  5
2FC3
330
2ECD
100
AcDbSymbolTableRecord
100
AcDbLayerTableRecord
  2
a3|Level 16
 70
    16
 62
     7
  6
Continuous
370
     0
390
2EA0
347
2EA3
348
0
1001
AcCmTransparency
1071
 33554687
  0
LAYER
  5
2FC4
330
2ECD
100
AcDbSymbolTableRecord
100
AcDbLayerTableRecord
  2
a3|Level 17
 70
    16
 62
     7
  6
Continuous
370
     0
390
2EA0
347
2EA3
348
0
1001
AcCmTransparency
1071
 33554687
  0
LAYER
  5
2FC5
330
2ECD
100
AcDbSymbolTableRecord
100
AcDbLayerTableRecord
  2
a3|Level 18
 70
    16
 62
     7
  6
Continuous
370
     0
390
2EA0
347
2EA3
348
0
1001
AcCmTransparency
1071
 33554687
  0
LAYER
  5
2FC6
330
2ECD
100
AcDbSymbolTableRecord
100
AcDbLayerTableRecord
  2
a3|Level 19
 70
    16
 62
     7
  6
Continuous
370
     0
390
2EA0
347
2EA3
348
0
1001
AcCmTransparency
1071
 33554687
  0
LAYER
  5
2FC7
330
2ECD
100
AcDbSymbolTableRecord
100
AcDbLayerTableRecord
  2
a3|Level 20
 70
    16
 62
     7
  6
Continuous
370
     0
390
2EA0
347
2EA3
348
0
1001
AcCmTransparency
1071
 33554687
  0
LAYER
  5
2FC8
330
2ECD
100
AcDbSymbolTableRecord
100
AcDbLayerTableRecord
  2
a3|Level 21
 70
    16
 62
     7
  6
Continuous
370
     0
390
2EA0
347
2EA3
348
0
1001
AcCmTransparency
1071
 33554687
  0
LAYER
  5
2FC9
330
2ECD
100
AcDbSymbolTableRecord
100
AcDbLayerTableRecord
  2
a3|Level 22
 70
    16
 62
     7
  6
Continuous
370
     0
390
2EA0
347
2EA3
348
0
1001
AcCmTransparency
1071
 33554687
  0
LAYER
  5
2FCA
330
2ECD
100
AcDbSymbolTableRecord
100
AcDbLayerTableRecord
  2
a3|Level 23
 70
    16
 62
     7
  6
Continuous
370
     0
390
2EA0
347
2EA3
348
0
1001
AcCmTransparency
1071
 33554687
  0
LAYER
  5
2FCB
330
2ECD
100
AcDbSymbolTableRecord
100
AcDbLayerTableRecord
  2
a3|Level 24
 70
    16
 62
     7
  6
Continuous
370
     0
390
2EA0
347
2EA3
348
0
1001
AcCmTransparency
1071
 33554687
  0
LAYER
  5
2FCC
330
2ECD
100
AcDbSymbolTableRecord
100
AcDbLayerTableRecord
  2
a3|Level 25
 70
    16
 62
     7
  6
Continuous
370
     0
390
2EA0
347
2EA3
348
0
1001
AcCmTransparency
1071
 33554687
  0
LAYER
  5
2FCD
330
2ECD
100
AcDbSymbolTableRecord
100
AcDbLayerTableRecord
  2
a3|Level 26
 70
    16
 62
     7
  6
Continuous
370
     0
390
2EA0
347
2EA3
348
0
1001
AcCmTransparency
1071
 33554687
  0
LAYER
  5
2FCE
330
2ECD
100
AcDbSymbolTableRecord
100
AcDbLayerTableRecord
  2
a3|Level 27
 70
    16
 62
     7
  6
Continuous
370
     0
390
2EA0
347
2EA3
348
0
1001
AcCmTransparency
1071
 33554687
  0
LAYER
  5
2FCF
330
2ECD
100
AcDbSymbolTableRecord
100
AcDbLayerTableRecord
  2
a3|Level 28
 70
    16
 62
     7
  6
Continuous
370
     0
390
2EA0
347
2EA3
348
0
1001
AcCmTransparency
1071
 33554687
  0
LAYER
  5
2FD0
330
2ECD
100
AcDbSymbolTableRecord
100
AcDbLayerTableRecord
  2
a3|Level 29
 70
    16
 62
     7
  6
Continuous
370
     0
390
2EA0
347
2EA3
348
0
1001
AcCmTransparency
1071
 33554687
  0
LAYER
  5
2FD1
330
2ECD
100
AcDbSymbolTableRecord
100
AcDbLayerTableRecord
  2
a3|Level 30
 70
    16
 62
     7
  6
Continuous
370
     0
390
2EA0
347
2EA3
348
0
1001
AcCmTransparency
1071
 33554687
  0
LAYER
  5
2FD2
330
2ECD
100
AcDbSymbolTableRecord
100
AcDbLayerTableRecord
  2
a3|Level 31
 70
    16
 62
     7
  6
Continuous
370
     0
390
2EA0
347
2EA3
348
0
1001
AcCmTransparency
1071
 33554687
  0
LAYER
  5
2FD3
330
2ECD
100
AcDbSymbolTableRecord
100
AcDbLayerTableRecord
  2
a3|Level 32
 70
    16
 62
     7
  6
Continuous
370
     0
390
2EA0
347
2EA3
348
0
1001
AcCmTransparency
1071
 33554687
  0
LAYER
  5
2FD4
330
2ECD
100
AcDbSymbolTableRecord
100
AcDbLayerTableRecord
  2
a3|Level 33
 70
    16
 62
     7
  6
Continuous
370
     0
390
2EA0
347
2EA3
348
0
1001
AcCmTransparency
1071
 33554687
  0
LAYER
  5
2FD5
330
2ECD
100
AcDbSymbolTableRecord
100
AcDbLayerTableRecord
  2
a3|Level 34
 70
    16
 62
     7
  6
Continuous
370
     0
390
2EA0
347
2EA3
348
0
1001
AcCmTransparency
1071
 33554687
  0
LAYER
  5
2FD6
330
2ECD
100
AcDbSymbolTableRecord
100
AcDbLayerTableRecord
  2
a3|Level 35
 70
    16
 62
     7
  6
Continuous
370
     0
390
2EA0
347
2EA3
348
0
1001
AcCmTransparency
1071
 33554687
  0
LAYER
  5
2FD7
330
2ECD
100
AcDbSymbolTableRecord
100
AcDbLayerTableRecord
  2
a3|Level 36
 70
    16
 62
     7
  6
Continuous
370
     0
390
2EA0
347
2EA3
348
0
1001
AcCmTransparency
1071
 33554687
  0
LAYER
  5
2FD8
330
2ECD
100
AcDbSymbolTableRecord
100
AcDbLayerTableRecord
  2
a3|Level 37
 70
    16
 62
     7
  6
Continuous
370
     0
390
2EA0
347
2EA3
348
0
1001
AcCmTransparency
1071
 33554687
  0
LAYER
  5
2FD9
330
2ECD
100
AcDbSymbolTableRecord
100
AcDbLayerTableRecord
  2
a3|Level 38
 70
    16
 62
     7
  6
Continuous
370
     0
390
2EA0
347
2EA3
348
0
1001
AcCmTransparency
1071
 33554687
  0
LAYER
  5
2FDA
330
2ECD
100
AcDbSymbolTableRecord
100
AcDbLayerTableRecord
  2
a3|Level 39
 70
    16
 62
     7
  6
Continuous
370
     0
390
2EA0
347
2EA3
348
0
1001
AcCmTransparency
1071
 33554687
  0
LAYER
  5
2FDB
330
2ECD
100
AcDbSymbolTableRecord
100
AcDbLayerTableRecord
  2
a3|Level 40
 70
    16
 62
     7
  6
Continuous
370
     0
390
2EA0
347
2EA3
348
0
1001
AcCmTransparency
1071
 33554687
  0
LAYER
  5
2FDC
330
2ECD
100
AcDbSymbolTableRecord
100
AcDbLayerTableRecord
  2
a3|Level 41
 70
    16
 62
     7
  6
Continuous
370
     0
390
2EA0
347
2EA3
348
0
1001
AcCmTransparency
1071
 33554687
  0
LAYER
  5
2FDD
330
2ECD
100
AcDbSymbolTableRecord
100
AcDbLayerTableRecord
  2
a3|Level 42
 70
    16
 62
     7
  6
Continuous
370
     0
390
2EA0
347
2EA3
348
0
1001
AcCmTransparency
1071
 33554687
  0
LAYER
  5
2FDE
330
2ECD
100
AcDbSymbolTableRecord
100
AcDbLayerTableRecord
  2
a3|Level 43
 70
    16
 62
     7
  6
Continuous
370
     0
390
2EA0
347
2EA3
348
0
1001
AcCmTransparency
1071
 33554687
  0
LAYER
  5
2FDF
330
2ECD
100
AcDbSymbolTableRecord
100
AcDbLayerTableRecord
  2
a3|Level 44
 70
    16
 62
     7
  6
Continuous
370
     0
390
2EA0
347
2EA3
348
0
1001
AcCmTransparency
1071
 33554687
  0
LAYER
  5
2FE0
330
2ECD
100
AcDbSymbolTableRecord
100
AcDbLayerTableRecord
  2
a3|Level 45
 70
    16
 62
     7
  6
Continuous
370
     0
390
2EA0
347
2EA3
348
0
1001
AcCmTransparency
1071
 33554687
  0
LAYER
  5
2FE1
330
2ECD
100
AcDbSymbolTableRecord
100
AcDbLayerTableRecord
  2
a3|Level 46
 70
    16
 62
     7
  6
Continuous
370
     0
390
2EA0
347
2EA3
348
0
1001
AcCmTransparency
1071
 33554687
  0
LAYER
  5
2FE2
330
2ECD
100
AcDbSymbolTableRecord
100
AcDbLayerTableRecord
  2
a3|Level 47
 70
    16
 62
     7
  6
Continuous
370
     0
390
2EA0
347
2EA3
348
0
1001
AcCmTransparency
1071
 33554687
  0
LAYER
  5
2FE3
330
2ECD
100
AcDbSymbolTableRecord
100
AcDbLayerTableRecord
  2
a3|Level 48
 70
    16
 62
     7
  6
Continuous
370
     0
390
2EA0
347
2EA3
348
0
1001
AcCmTransparency
1071
 33554687
  0
LAYER
  5
2FE4
330
2ECD
100
AcDbSymbolTableRecord
100
AcDbLayerTableRecord
  2
a3|Level 49
 70
    16
 62
     7
  6
Continuous
370
     0
390
2EA0
347
2EA3
348
0
1001
AcCmTransparency
1071
 33554687
  0
LAYER
  5
2FE5
330
2ECD
100
AcDbSymbolTableRecord
100
AcDbLayerTableRecord
  2
a3|Level 50
 70
    16
 62
     7
  6
Continuous
370
     0
390
2EA0
347
2EA3
348
0
1001
AcCmTransparency
1071
 33554687
  0
LAYER
  5
2FE6
330
2ECD
100
AcDbSymbolTableRecord
100
AcDbLayerTableRecord
  2
a3|Level 51
 70
    16
 62
     7
  6
Continuous
370
     0
390
2EA0
347
2EA3
348
0
1001
AcCmTransparency
1071
 33554687
  0
LAYER
  5
2FE7
330
2ECD
100
AcDbSymbolTableRecord
100
AcDbLayerTableRecord
  2
a3|Level 52
 70
    16
 62
     7
  6
Continuous
370
     0
390
2EA0
347
2EA3
348
0
1001
AcCmTransparency
1071
 33554687
  0
LAYER
  5
2FE8
330
2ECD
100
AcDbSymbolTableRecord
100
AcDbLayerTableRecord
  2
a3|Level 53
 70
    16
 62
     7
  6
Continuous
370
     0
390
2EA0
347
2EA3
348
0
1001
AcCmTransparency
1071
 33554687
  0
LAYER
  5
2FE9
330
2ECD
100
AcDbSymbolTableRecord
100
AcDbLayerTableRecord
  2
a3|Level 54
 70
    16
 62
     7
  6
Continuous
370
     0
390
2EA0
347
2EA3
348
0
1001
AcCmTransparency
1071
 33554687
  0
LAYER
  5
2FEA
330
2ECD
100
AcDbSymbolTableRecord
100
AcDbLayerTableRecord
  2
a3|Level 55
 70
    16
 62
     7
  6
Continuous
370
     0
390
2EA0
347
2EA3
348
0
1001
AcCmTransparency
1071
 33554687
  0
LAYER
  5
2FEB
330
2ECD
100
AcDbSymbolTableRecord
100
AcDbLayerTableRecord
  2
a3|Level 56
 70
    16
 62
     7
  6
Continuous
370
     0
390
2EA0
347
2EA3
348
0
1001
AcCmTransparency
1071
 33554687
  0
LAYER
  5
2FEC
330
2ECD
100
AcDbSymbolTableRecord
100
AcDbLayerTableRecord
  2
a3|Level 57
 70
    16
 62
     7
  6
Continuous
370
     0
390
2EA0
347
2EA3
348
0
1001
AcCmTransparency
1071
 33554687
  0
LAYER
  5
2FED
330
2ECD
100
AcDbSymbolTableRecord
100
AcDbLayerTableRecord
  2
a3|Level 58
 70
    16
 62
     7
  6
Continuous
370
     0
390
2EA0
347
2EA3
348
0
1001
AcCmTransparency
1071
 33554687
  0
LAYER
  5
2FEE
330
2ECD
100
AcDbSymbolTableRecord
100
AcDbLayerTableRecord
  2
a3|Level 59
 70
    16
 62
     7
  6
Continuous
370
     0
390
2EA0
347
2EA3
348
0
1001
AcCmTransparency
1071
 33554687
  0
LAYER
  5
2FEF
330
2ECD
100
AcDbSymbolTableRecord
100
AcDbLayerTableRecord
  2
a3|Level 60
 70
    16
 62
     7
  6
Continuous
370
     0
390
2EA0
347
2EA3
348
0
1001
AcCmTransparency
1071
 33554687
  0
LAYER
  5
2FF0
330
2ECD
100
AcDbSymbolTableRecord
100
AcDbLayerTableRecord
  2
a3|Level 61
 70
    16
 62
     7
  6
Continuous
370
     0
390
2EA0
347
2EA3
348
0
1001
AcCmTransparency
1071
 33554687
  0
LAYER
  5
2FF1
330
2ECD
100
AcDbSymbolTableRecord
100
AcDbLayerTableRecord
  2
a3|Level 62
 70
    16
 62
     7
  6
Continuous
370
     0
390
2EA0
347
2EA3
348
0
1001
AcCmTransparency
1071
 33554687
  0
LAYER
  5
2FF2
330
2ECD
100
AcDbSymbolTableRecord
100
AcDbLayerTableRecord
  2
a3|Level 63
 70
    16
 62
     7
  6
Continuous
370
     0
390
2EA0
347
2EA3
348
0
1001
AcCmTransparency
1071
 33554687
  0
LAYER
  5
2FF3
330
2ECD
100
AcDbSymbolTableRecord
100
AcDbLayerTableRecord
  2
a4|Level 1
 70
    16
 62
     7
  6
Continuous
370
     0
390
2EA0
347
2EA3
348
0
1001
AcCmTransparency
1071
 33554687
  0
LAYER
  5
2FF4
330
2ECD
100
AcDbSymbolTableRecord
100
AcDbLayerTableRecord
  2
a4|Level 2
 70
    16
 62
     7
  6
Continuous
370
     0
390
2EA0
347
2EA3
348
0
1001
AcCmTransparency
1071
 33554687
  0
LAYER
  5
2FF5
330
2ECD
100
AcDbSymbolTableRecord
100
AcDbLayerTableRecord
  2
a4|Level 3
 70
    16
 62
     7
  6
Continuous
370
     0
390
2EA0
347
2EA3
348
0
1001
AcCmTransparency
1071
 33554687
  0
LAYER
  5
2FF6
330
2ECD
100
AcDbSymbolTableRecord
100
AcDbLayerTableRecord
  2
a4|Level 4
 70
    16
 62
     7
  6
Continuous
370
     0
390
2EA0
347
2EA3
348
0
1001
AcCmTransparency
1071
 33554687
  0
LAYER
  5
2FF7
330
2ECD
100
AcDbSymbolTableRecord
100
AcDbLayerTableRecord
  2
a4|Level 5
 70
    16
 62
     7
  6
Continuous
370
     0
390
2EA0
347
2EA3
348
0
1001
AcCmTransparency
1071
 33554687
  0
LAYER
  5
2FF8
330
2ECD
100
AcDbSymbolTableRecord
100
AcDbLayerTableRecord
  2
a4|Level 6
 70
    16
 62
     7
  6
Continuous
370
     0
390
2EA0
347
2EA3
348
0
1001
AcCmTransparency
1071
 33554687
  0
LAYER
  5
2FF9
330
2ECD
100
AcDbSymbolTableRecord
100
AcDbLayerTableRecord
  2
a4|Level 7
 70
    16
 62
     7
  6
Continuous
370
     0
390
2EA0
347
2EA3
348
0
1001
AcCmTransparency
1071
 33554687
  0
LAYER
  5
2FFA
330
2ECD
100
AcDbSymbolTableRecord
100
AcDbLayerTableRecord
  2
a4|Level 8
 70
    16
 62
     7
  6
Continuous
370
     0
390
2EA0
347
2EA3
348
0
1001
AcCmTransparency
1071
 33554687
  0
LAYER
  5
2FFB
330
2ECD
100
AcDbSymbolTableRecord
100
AcDbLayerTableRecord
  2
a4|Level 9
 70
    16
 62
     7
  6
Continuous
370
     0
390
2EA0
347
2EA3
348
0
1001
AcCmTransparency
1071
 33554687
  0
LAYER
  5
2FFC
330
2ECD
100
AcDbSymbolTableRecord
100
AcDbLayerTableRecord
  2
a4|Level 10
 70
    16
 62
     7
  6
Continuous
370
     0
390
2EA0
347
2EA3
348
0
1001
AcCmTransparency
1071
 33554687
  0
LAYER
  5
2FFD
330
2ECD
100
AcDbSymbolTableRecord
100
AcDbLayerTableRecord
  2
a4|Level 11
 70
    16
 62
     7
  6
Continuous
370
     0
390
2EA0
347
2EA3
348
0
1001
AcCmTransparency
1071
 33554687
  0
LAYER
  5
2FFE
330
2ECD
100
AcDbSymbolTableRecord
100
AcDbLayerTableRecord
  2
a4|Level 12
 70
    16
 62
     7
  6
Continuous
370
     0
390
2EA0
347
2EA3
348
0
1001
AcCmTransparency
1071
 33554687
  0
LAYER
  5
2FFF
330
2ECD
100
AcDbSymbolTableRecord
100
AcDbLayerTableRecord
  2
a4|Level 13
 70
    16
 62
     7
  6
Continuous
370
     0
390
2EA0
347
2EA3
348
0
1001
AcCmTransparency
1071
 33554687
  0
LAYER
  5
3000
330
2ECD
100
AcDbSymbolTableRecord
100
AcDbLayerTableRecord
  2
a4|Level 14
 70
    16
 62
     7
  6
Continuous
370
     0
390
2EA0
347
2EA3
348
0
1001
AcCmTransparency
1071
 33554687
  0
LAYER
  5
3001
330
2ECD
100
AcDbSymbolTableRecord
100
AcDbLayerTableRecord
  2
a4|Level 15
 70
    16
 62
     7
  6
Continuous
370
     0
390
2EA0
347
2EA3
348
0
1001
AcCmTransparency
1071
 33554687
  0
LAYER
  5
3002
330
2ECD
100
AcDbSymbolTableRecord
100
AcDbLayerTableRecord
  2
a4|Level 16
 70
    16
 62
     7
  6
Continuous
370
     0
390
2EA0
347
2EA3
348
0
1001
AcCmTransparency
1071
 33554687
  0
LAYER
  5
3003
330
2ECD
100
AcDbSymbolTableRecord
100
AcDbLayerTableRecord
  2
a4|Level 17
 70
    16
 62
     7
  6
Continuous
370
     0
390
2EA0
347
2EA3
348
0
1001
AcCmTransparency
1071
 33554687
  0
LAYER
  5
3004
330
2ECD
100
AcDbSymbolTableRecord
100
AcDbLayerTableRecord
  2
a4|Level 18
 70
    16
 62
     7
  6
Continuous
370
     0
390
2EA0
347
2EA3
348
0
1001
AcCmTransparency
1071
 33554687
  0
LAYER
  5
3005
330
2ECD
100
AcDbSymbolTableRecord
100
AcDbLayerTableRecord
  2
a4|Level 19
 70
    16
 62
     7
  6
Continuous
370
     0
390
2EA0
347
2EA3
348
0
1001
AcCmTransparency
1071
 33554687
  0
LAYER
  5
3006
330
2ECD
100
AcDbSymbolTableRecord
100
AcDbLayerTableRecord
  2
a4|Level 20
 70
    16
 62
     7
  6
Continuous
370
     0
390
2EA0
347
2EA3
348
0
1001
AcCmTransparency
1071
 33554687
  0
LAYER
  5
3007
330
2ECD
100
AcDbSymbolTableRecord
100
AcDbLayerTableRecord
  2
a4|Level 21
 70
    16
 62
     7
  6
Continuous
370
     0
390
2EA0
347
2EA3
348
0
1001
AcCmTransparency
1071
 33554687
  0
LAYER
  5
3008
330
2ECD
100
AcDbSymbolTableRecord
100
AcDbLayerTableRecord
  2
a4|Level 22
 70
    16
 62
     7
  6
Continuous
370
     0
390
2EA0
347
2EA3
348
0
1001
AcCmTransparency
1071
 33554687
  0
LAYER
  5
3009
330
2ECD
100
AcDbSymbolTableRecord
100
AcDbLayerTableRecord
  2
a4|Level 23
 70
    16
 62
     7
  6
Continuous
370
     0
390
2EA0
347
2EA3
348
0
1001
AcCmTransparency
1071
 33554687
  0
LAYER
  5
300A
330
2ECD
100
AcDbSymbolTableRecord
100
AcDbLayerTableRecord
  2
a4|Level 24
 70
    16
 62
     7
  6
Continuous
370
     0
390
2EA0
347
2EA3
348
0
1001
AcCmTransparency
1071
 33554687
  0
LAYER
  5
300B
330
2ECD
100
AcDbSymbolTableRecord
100
AcDbLayerTableRecord
  2
a4|Level 25
 70
    16
 62
     7
  6
Continuous
370
     0
390
2EA0
347
2EA3
348
0
1001
AcCmTransparency
1071
 33554687
  0
LAYER
  5
300C
330
2ECD
100
AcDbSymbolTableRecord
100
AcDbLayerTableRecord
  2
a4|Level 26
 70
    16
 62
     7
  6
Continuous
370
     0
390
2EA0
347
2EA3
348
0
1001
AcCmTransparency
1071
 33554687
  0
LAYER
  5
300D
330
2ECD
100
AcDbSymbolTableRecord
100
AcDbLayerTableRecord
  2
a4|Level 27
 70
    16
 62
     7
  6
Continuous
370
     0
390
2EA0
347
2EA3
348
0
1001
AcCmTransparency
1071
 33554687
  0
LAYER
  5
300E
330
2ECD
100
AcDbSymbolTableRecord
100
AcDbLayerTableRecord
  2
a4|Level 28
 70
    16
 62
     7
  6
Continuous
370
     0
390
2EA0
347
2EA3
348
0
1001
AcCmTransparency
1071
 33554687
  0
LAYER
  5
300F
330
2ECD
100
AcDbSymbolTableRecord
100
AcDbLayerTableRecord
  2
a4|Level 29
 70
    16
 62
     7
  6
Continuous
370
     0
390
2EA0
347
2EA3
348
0
1001
AcCmTransparency
1071
 33554687
  0
LAYER
  5
3010
330
2ECD
100
AcDbSymbolTableRecord
100
AcDbLayerTableRecord
  2
a4|Level 30
 70
    16
 62
     7
  6
Continuous
370
     0
390
2EA0
347
2EA3
348
0
1001
AcCmTransparency
1071
 33554687
  0
LAYER
  5
3011
330
2ECD
100
AcDbSymbolTableRecord
100
AcDbLayerTableRecord
  2
a4|Level 31
 70
    16
 62
     7
  6
Continuous
370
     0
390
2EA0
347
2EA3
348
0
1001
AcCmTransparency
1071
 33554687
  0
LAYER
  5
3012
330
2ECD
100
AcDbSymbolTableRecord
100
AcDbLayerTableRecord
  2
a4|Level 32
 70
    16
 62
     7
  6
Continuous
370
     0
390
2EA0
347
2EA3
348
0
1001
AcCmTransparency
1071
 33554687
  0
LAYER
  5
3013
330
2ECD
100
AcDbSymbolTableRecord
100
AcDbLayerTableRecord
  2
a4|Level 33
 70
    16
 62
     7
  6
Continuous
370
     0
390
2EA0
347
2EA3
348
0
1001
AcCmTransparency
1071
 33554687
  0
LAYER
  5
3014
330
2ECD
100
AcDbSymbolTableRecord
100
AcDbLayerTableRecord
  2
a4|Level 34
 70
    16
 62
     7
  6
Continuous
370
     0
390
2EA0
347
2EA3
348
0
1001
AcCmTransparency
1071
 33554687
  0
LAYER
  5
3015
330
2ECD
100
AcDbSymbolTableRecord
100
AcDbLayerTableRecord
  2
a4|Level 35
 70
    16
 62
     7
  6
Continuous
370
     0
390
2EA0
347
2EA3
348
0
1001
AcCmTransparency
1071
 33554687
  0
LAYER
  5
3016
330
2ECD
100
AcDbSymbolTableRecord
100
AcDbLayerTableRecord
  2
a4|Level 36
 70
    16
 62
     7
  6
Continuous
370
     0
390
2EA0
347
2EA3
348
0
1001
AcCmTransparency
1071
 33554687
  0
LAYER
  5
3017
330
2ECD
100
AcDbSymbolTableRecord
100
AcDbLayerTableRecord
  2
a4|Level 37
 70
    16
 62
     7
  6
Continuous
370
     0
390
2EA0
347
2EA3
348
0
1001
AcCmTransparency
1071
 33554687
  0
LAYER
  5
3018
330
2ECD
100
AcDbSymbolTableRecord
100
AcDbLayerTableRecord
  2
a4|Level 38
 70
    16
 62
     7
  6
Continuous
370
     0
390
2EA0
347
2EA3
348
0
1001
AcCmTransparency
1071
 33554687
  0
LAYER
  5
3019
330
2ECD
100
AcDbSymbolTableRecord
100
AcDbLayerTableRecord
  2
a4|Level 39
 70
    16
 62
     7
  6
Continuous
370
     0
390
2EA0
347
2EA3
348
0
1001
AcCmTransparency
1071
 33554687
  0
LAYER
  5
301A
330
2ECD
100
AcDbSymbolTableRecord
100
AcDbLayerTableRecord
  2
a4|Level 40
 70
    16
 62
     7
  6
Continuous
370
     0
390
2EA0
347
2EA3
348
0
1001
AcCmTransparency
1071
 33554687
  0
LAYER
  5
301B
330
2ECD
100
AcDbSymbolTableRecord
100
AcDbLayerTableRecord
  2
a4|Level 41
 70
    16
 62
     7
  6
Continuous
370
     0
390
2EA0
347
2EA3
348
0
1001
AcCmTransparency
1071
 33554687
  0
LAYER
  5
301C
330
2ECD
100
AcDbSymbolTableRecord
100
AcDbLayerTableRecord
  2
a4|Level 42
 70
    16
 62
     7
  6
Continuous
370
     0
390
2EA0
347
2EA3
348
0
1001
AcCmTransparency
1071
 33554687
  0
LAYER
  5
301D
330
2ECD
100
AcDbSymbolTableRecord
100
AcDbLayerTableRecord
  2
a4|Level 43
 70
    16
 62
     7
  6
Continuous
370
     0
390
2EA0
347
2EA3
348
0
1001
AcCmTransparency
1071
 33554687
  0
LAYER
  5
301E
330
2ECD
100
AcDbSymbolTableRecord
100
AcDbLayerTableRecord
  2
a4|Level 44
 70
    16
 62
     7
  6
Continuous
370
     0
390
2EA0
347
2EA3
348
0
1001
AcCmTransparency
1071
 33554687
  0
LAYER
  5
301F
330
2ECD
100
AcDbSymbolTableRecord
100
AcDbLayerTableRecord
  2
a4|Level 45
 70
    16
 62
     7
  6
Continuous
370
     0
390
2EA0
347
2EA3
348
0
1001
AcCmTransparency
1071
 33554687
  0
LAYER
  5
3020
330
2ECD
100
AcDbSymbolTableRecord
100
AcDbLayerTableRecord
  2
a4|Level 46
 70
    16
 62
     7
  6
Continuous
370
     0
390
2EA0
347
2EA3
348
0
1001
AcCmTransparency
1071
 33554687
  0
LAYER
  5
3021
330
2ECD
100
AcDbSymbolTableRecord
100
AcDbLayerTableRecord
  2
a4|Level 47
 70
    16
 62
     7
  6
Continuous
370
     0
390
2EA0
347
2EA3
348
0
1001
AcCmTransparency
1071
 33554687
  0
LAYER
  5
3022
330
2ECD
100
AcDbSymbolTableRecord
100
AcDbLayerTableRecord
  2
a4|Level 48
 70
    16
 62
     7
  6
Continuous
370
     0
390
2EA0
347
2EA3
348
0
1001
AcCmTransparency
1071
 33554687
  0
LAYER
  5
3023
330
2ECD
100
AcDbSymbolTableRecord
100
AcDbLayerTableRecord
  2
a4|Level 49
 70
    16
 62
     7
  6
Continuous
370
     0
390
2EA0
347
2EA3
348
0
1001
AcCmTransparency
1071
 33554687
  0
LAYER
  5
3024
330
2ECD
100
AcDbSymbolTableRecord
100
AcDbLayerTableRecord
  2
a4|Level 50
 70
    16
 62
     7
  6
Continuous
370
     0
390
2EA0
347
2EA3
348
0
1001
AcCmTransparency
1071
 33554687
  0
LAYER
  5
3025
330
2ECD
100
AcDbSymbolTableRecord
100
AcDbLayerTableRecord
  2
a4|Level 51
 70
    16
 62
     7
  6
Continuous
370
     0
390
2EA0
347
2EA3
348
0
1001
AcCmTransparency
1071
 33554687
  0
LAYER
  5
3026
330
2ECD
100
AcDbSymbolTableRecord
100
AcDbLayerTableRecord
  2
a4|Level 52
 70
    16
 62
     7
  6
Continuous
370
     0
390
2EA0
347
2EA3
348
0
1001
AcCmTransparency
1071
 33554687
  0
LAYER
  5
3027
330
2ECD
100
AcDbSymbolTableRecord
100
AcDbLayerTableRecord
  2
a4|Level 53
 70
    16
 62
     7
  6
Continuous
370
     0
390
2EA0
347
2EA3
348
0
1001
AcCmTransparency
1071
 33554687
  0
LAYER
  5
3028
330
2ECD
100
AcDbSymbolTableRecord
100
AcDbLayerTableRecord
  2
a4|Level 54
 70
    16
 62
     7
  6
Continuous
370
     0
390
2EA0
347
2EA3
348
0
1001
AcCmTransparency
1071
 33554687
  0
LAYER
  5
3029
330
2ECD
100
AcDbSymbolTableRecord
100
AcDbLayerTableRecord
  2
a4|Level 55
 70
    16
 62
     7
  6
Continuous
370
     0
390
2EA0
347
2EA3
348
0
1001
AcCmTransparency
1071
 33554687
  0
LAYER
  5
302A
330
2ECD
100
AcDbSymbolTableRecord
100
AcDbLayerTableRecord
  2
a4|Level 56
 70
    16
 62
     7
  6
Continuous
370
     0
390
2EA0
347
2EA3
348
0
1001
AcCmTransparency
1071
 33554687
  0
LAYER
  5
302B
330
2ECD
100
AcDbSymbolTableRecord
100
AcDbLayerTableRecord
  2
a4|Level 57
 70
    16
 62
     7
  6
Continuous
370
     0
390
2EA0
347
2EA3
348
0
1001
AcCmTransparency
1071
 33554687
  0
LAYER
  5
302C
330
2ECD
100
AcDbSymbolTableRecord
100
AcDbLayerTableRecord
  2
a4|Level 58
 70
    16
 62
     7
  6
Continuous
370
     0
390
2EA0
347
2EA3
348
0
1001
AcCmTransparency
1071
 33554687
  0
LAYER
  5
302D
330
2ECD
100
AcDbSymbolTableRecord
100
AcDbLayerTableRecord
  2
a4|Level 59
 70
    16
 62
     7
  6
Continuous
370
     0
390
2EA0
347
2EA3
348
0
1001
AcCmTransparency
1071
 33554687
  0
LAYER
  5
302E
330
2ECD
100
AcDbSymbolTableRecord
100
AcDbLayerTableRecord
  2
a4|Level 60
 70
    16
 62
     7
  6
Continuous
370
     0
390
2EA0
347
2EA3
348
0
1001
AcCmTransparency
1071
 33554687
  0
LAYER
  5
302F
330
2ECD
100
AcDbSymbolTableRecord
100
AcDbLayerTableRecord
  2
a4|Level 61
 70
    16
 62
     7
  6
Continuous
370
     0
390
2EA0
347
2EA3
348
0
1001
AcCmTransparency
1071
 33554687
  0
LAYER
  5
3030
330
2ECD
100
AcDbSymbolTableRecord
100
AcDbLayerTableRecord
  2
a4|Level 62
 70
    16
 62
     7
  6
Continuous
370
     0
390
2EA0
347
2EA3
348
0
1001
AcCmTransparency
1071
 33554687
  0
LAYER
  5
3031
330
2ECD
100
AcDbSymbolTableRecord
100
AcDbLayerTableRecord
  2
a4|Level 63
 70
    16
 62
     7
  6
Continuous
370
     0
390
2EA0
347
2EA3
348
0
1001
AcCmTransparency
1071
 33554687
  0
LAYER
  5
3032
330
2ECD
100
AcDbSymbolTableRecord
100
AcDbLayerTableRecord
  2
b1|Level 1
 70
    16
 62
     7
  6
Continuous
370
     0
390
2EA0
347
2EA3
348
0
1001
AcCmTransparency
1071
 33554687
  0
LAYER
  5
3033
330
2ECD
100
AcDbSymbolTableRecord
100
AcDbLayerTableRecord
  2
b1|Level 2
 70
    16
 62
     7
  6
Continuous
370
     0
390
2EA0
347
2EA3
348
0
1001
AcCmTransparency
1071
 33554687
  0
LAYER
  5
3034
330
2ECD
100
AcDbSymbolTableRecord
100
AcDbLayerTableRecord
  2
b1|Level 3
 70
    16
 62
     7
  6
Continuous
370
     0
390
2EA0
347
2EA3
348
0
1001
AcCmTransparency
1071
 33554687
  0
LAYER
  5
3035
330
2ECD
100
AcDbSymbolTableRecord
100
AcDbLayerTableRecord
  2
b1|Level 4
 70
    16
 62
     7
  6
Continuous
370
     0
390
2EA0
347
2EA3
348
0
1001
AcCmTransparency
1071
 33554687
  0
LAYER
  5
3036
330
2ECD
100
AcDbSymbolTableRecord
100
AcDbLayerTableRecord
  2
b1|Level 5
 70
    16
 62
     7
  6
Continuous
370
     0
390
2EA0
347
2EA3
348
0
1001
AcCmTransparency
1071
 33554687
  0
LAYER
  5
3037
330
2ECD
100
AcDbSymbolTableRecord
100
AcDbLayerTableRecord
  2
b1|Level 6
 70
    16
 62
     7
  6
Continuous
370
     0
390
2EA0
347
2EA3
348
0
1001
AcCmTransparency
1071
 33554687
  0
LAYER
  5
3038
330
2ECD
100
AcDbSymbolTableRecord
100
AcDbLayerTableRecord
  2
b1|Level 7
 70
    16
 62
     7
  6
Continuous
370
     0
390
2EA0
347
2EA3
348
0
1001
AcCmTransparency
1071
 33554687
  0
LAYER
  5
3039
330
2ECD
100
AcDbSymbolTableRecord
100
AcDbLayerTableRecord
  2
b1|Level 8
 70
    16
 62
     7
  6
Continuous
370
     0
390
2EA0
347
2EA3
348
0
1001
AcCmTransparency
1071
 33554687
  0
LAYER
  5
303A
330
2ECD
100
AcDbSymbolTableRecord
100
AcDbLayerTableRecord
  2
b1|Level 9
 70
    16
 62
     7
  6
Continuous
370
     0
390
2EA0
347
2EA3
348
0
1001
AcCmTransparency
1071
 33554687
  0
LAYER
  5
303B
330
2ECD
100
AcDbSymbolTableRecord
100
AcDbLayerTableRecord
  2
b1|Level 10
 70
    16
 62
     7
  6
Continuous
370
     0
390
2EA0
347
2EA3
348
0
1001
AcCmTransparency
1071
 33554687
  0
LAYER
  5
303C
330
2ECD
100
AcDbSymbolTableRecord
100
AcDbLayerTableRecord
  2
b1|Level 11
 70
    16
 62
     7
  6
Continuous
370
     0
390
2EA0
347
2EA3
348
0
1001
AcCmTransparency
1071
 33554687
  0
LAYER
  5
303D
330
2ECD
100
AcDbSymbolTableRecord
100
AcDbLayerTableRecord
  2
b1|Level 12
 70
    16
 62
     7
  6
Continuous
370
     0
390
2EA0
347
2EA3
348
0
1001
AcCmTransparency
1071
 33554687
  0
LAYER
  5
303E
330
2ECD
100
AcDbSymbolTableRecord
100
AcDbLayerTableRecord
  2
b1|Level 13
 70
    16
 62
     7
  6
Continuous
370
     0
390
2EA0
347
2EA3
348
0
1001
AcCmTransparency
1071
 33554687
  0
LAYER
  5
303F
330
2ECD
100
AcDbSymbolTableRecord
100
AcDbLayerTableRecord
  2
b1|Level 14
 70
    16
 62
     7
  6
Continuous
370
     0
390
2EA0
347
2EA3
348
0
1001
AcCmTransparency
1071
 33554687
  0
LAYER
  5
3040
330
2ECD
100
AcDbSymbolTableRecord
100
AcDbLayerTableRecord
  2
b1|Level 15
 70
    16
 62
     7
  6
Continuous
370
     0
390
2EA0
347
2EA3
348
0
1001
AcCmTransparency
1071
 33554687
  0
LAYER
  5
3041
330
2ECD
100
AcDbSymbolTableRecord
100
AcDbLayerTableRecord
  2
b1|Level 16
 70
    16
 62
     7
  6
Continuous
370
     0
390
2EA0
347
2EA3
348
0
1001
AcCmTransparency
1071
 33554687
  0
LAYER
  5
3042
330
2ECD
100
AcDbSymbolTableRecord
100
AcDbLayerTableRecord
  2
b1|Level 17
 70
    16
 62
     7
  6
Continuous
370
     0
390
2EA0
347
2EA3
348
0
1001
AcCmTransparency
1071
 33554687
  0
LAYER
  5
3043
330
2ECD
100
AcDbSymbolTableRecord
100
AcDbLayerTableRecord
  2
b1|Level 18
 70
    16
 62
     7
  6
Continuous
370
     0
390
2EA0
347
2EA3
348
0
1001
AcCmTransparency
1071
 33554687
  0
LAYER
  5
3044
330
2ECD
100
AcDbSymbolTableRecord
100
AcDbLayerTableRecord
  2
b1|Level 19
 70
    16
 62
     7
  6
Continuous
370
     0
390
2EA0
347
2EA3
348
0
1001
AcCmTransparency
1071
 33554687
  0
LAYER
  5
3045
330
2ECD
100
AcDbSymbolTableRecord
100
AcDbLayerTableRecord
  2
b1|Level 20
 70
    16
 62
     7
  6
Continuous
370
     0
390
2EA0
347
2EA3
348
0
1001
AcCmTransparency
1071
 33554687
  0
LAYER
  5
3046
330
2ECD
100
AcDbSymbolTableRecord
100
AcDbLayerTableRecord
  2
b1|Level 21
 70
    16
 62
     7
  6
Continuous
370
     0
390
2EA0
347
2EA3
348
0
1001
AcCmTransparency
1071
 33554687
  0
LAYER
  5
3047
330
2ECD
100
AcDbSymbolTableRecord
100
AcDbLayerTableRecord
  2
b1|Level 22
 70
    16
 62
     7
  6
Continuous
370
     0
390
2EA0
347
2EA3
348
0
1001
AcCmTransparency
1071
 33554687
  0
LAYER
  5
3048
330
2ECD
100
AcDbSymbolTableRecord
100
AcDbLayerTableRecord
  2
b1|Level 23
 70
    16
 62
     7
  6
Continuous
370
     0
390
2EA0
347
2EA3
348
0
1001
AcCmTransparency
1071
 33554687
  0
LAYER
  5
3049
330
2ECD
100
AcDbSymbolTableRecord
100
AcDbLayerTableRecord
  2
b1|Level 24
 70
    16
 62
     7
  6
Continuous
370
     0
390
2EA0
347
2EA3
348
0
1001
AcCmTransparency
1071
 33554687
  0
LAYER
  5
304A
330
2ECD
100
AcDbSymbolTableRecord
100
AcDbLayerTableRecord
  2
b1|Level 25
 70
    16
 62
     7
  6
Continuous
370
     0
390
2EA0
347
2EA3
348
0
1001
AcCmTransparency
1071
 33554687
  0
LAYER
  5
304B
330
2ECD
100
AcDbSymbolTableRecord
100
AcDbLayerTableRecord
  2
b1|Level 26
 70
    16
 62
     7
  6
Continuous
370
     0
390
2EA0
347
2EA3
348
0
1001
AcCmTransparency
1071
 33554687
  0
LAYER
  5
304C
330
2ECD
100
AcDbSymbolTableRecord
100
AcDbLayerTableRecord
  2
b1|Level 27
 70
    16
 62
     7
  6
Continuous
370
     0
390
2EA0
347
2EA3
348
0
1001
AcCmTransparency
1071
 33554687
  0
LAYER
  5
304D
330
2ECD
100
AcDbSymbolTableRecord
100
AcDbLayerTableRecord
  2
b1|Level 28
 70
    16
 62
     7
  6
Continuous
370
     0
390
2EA0
347
2EA3
348
0
1001
AcCmTransparency
1071
 33554687
  0
LAYER
  5
304E
330
2ECD
100
AcDbSymbolTableRecord
100
AcDbLayerTableRecord
  2
b1|Level 29
 70
    16
 62
     7
  6
Continuous
370
     0
390
2EA0
347
2EA3
348
0
1001
AcCmTransparency
1071
 33554687
  0
LAYER
  5
304F
330
2ECD
100
AcDbSymbolTableRecord
100
AcDbLayerTableRecord
  2
b1|Level 30
 70
    16
 62
     7
  6
Continuous
370
     0
390
2EA0
347
2EA3
348
0
1001
AcCmTransparency
1071
 33554687
  0
LAYER
  5
3050
330
2ECD
100
AcDbSymbolTableRecord
100
AcDbLayerTableRecord
  2
b1|Level 31
 70
    16
 62
     7
  6
Continuous
370
     0
390
2EA0
347
2EA3
348
0
1001
AcCmTransparency
1071
 33554687
  0
LAYER
  5
3051
330
2ECD
100
AcDbSymbolTableRecord
100
AcDbLayerTableRecord
  2
b1|Level 32
 70
    16
 62
     7
  6
Continuous
370
     0
390
2EA0
347
2EA3
348
0
1001
AcCmTransparency
1071
 33554687
  0
LAYER
  5
3052
330
2ECD
100
AcDbSymbolTableRecord
100
AcDbLayerTableRecord
  2
b1|Level 33
 70
    16
 62
     7
  6
Continuous
370
     0
390
2EA0
347
2EA3
348
0
1001
AcCmTransparency
1071
 33554687
  0
LAYER
  5
3053
330
2ECD
100
AcDbSymbolTableRecord
100
AcDbLayerTableRecord
  2
b1|Level 34
 70
    16
 62
     7
  6
Continuous
370
     0
390
2EA0
347
2EA3
348
0
1001
AcCmTransparency
1071
 33554687
  0
LAYER
  5
3054
330
2ECD
100
AcDbSymbolTableRecord
100
AcDbLayerTableRecord
  2
b1|Level 35
 70
    16
 62
     7
  6
Continuous
370
     0
390
2EA0
347
2EA3
348
0
1001
AcCmTransparency
1071
 33554687
  0
LAYER
  5
3055
330
2ECD
100
AcDbSymbolTableRecord
100
AcDbLayerTableRecord
  2
b1|Level 36
 70
    16
 62
     7
  6
Continuous
370
     0
390
2EA0
347
2EA3
348
0
1001
AcCmTransparency
1071
 33554687
  0
LAYER
  5
3056
330
2ECD
100
AcDbSymbolTableRecord
100
AcDbLayerTableRecord
  2
b1|Level 37
 70
    16
 62
     7
  6
Continuous
370
     0
390
2EA0
347
2EA3
348
0
1001
AcCmTransparency
1071
 33554687
  0
LAYER
  5
3057
330
2ECD
100
AcDbSymbolTableRecord
100
AcDbLayerTableRecord
  2
b1|Level 38
 70
    16
 62
     7
  6
Continuous
370
     0
390
2EA0
347
2EA3
348
0
1001
AcCmTransparency
1071
 33554687
  0
LAYER
  5
3058
330
2ECD
100
AcDbSymbolTableRecord
100
AcDbLayerTableRecord
  2
b1|Level 39
 70
    16
 62
     7
  6
Continuous
370
     0
390
2EA0
347
2EA3
348
0
1001
AcCmTransparency
1071
 33554687
  0
LAYER
  5
3059
330
2ECD
100
AcDbSymbolTableRecord
100
AcDbLayerTableRecord
  2
b1|Level 40
 70
    16
 62
     7
  6
Continuous
370
     0
390
2EA0
347
2EA3
348
0
1001
AcCmTransparency
1071
 33554687
  0
LAYER
  5
305A
330
2ECD
100
AcDbSymbolTableRecord
100
AcDbLayerTableRecord
  2
b1|Level 41
 70
    16
 62
     7
  6
Continuous
370
     0
390
2EA0
347
2EA3
348
0
1001
AcCmTransparency
1071
 33554687
  0
LAYER
  5
305B
330
2ECD
100
AcDbSymbolTableRecord
100
AcDbLayerTableRecord
  2
b1|Level 42
 70
    16
 62
     7
  6
Continuous
370
     0
390
2EA0
347
2EA3
348
0
1001
AcCmTransparency
1071
 33554687
  0
LAYER
  5
305C
330
2ECD
100
AcDbSymbolTableRecord
100
AcDbLayerTableRecord
  2
b1|Level 43
 70
    16
 62
     7
  6
Continuous
370
     0
390
2EA0
347
2EA3
348
0
1001
AcCmTransparency
1071
 33554687
  0
LAYER
  5
305D
330
2ECD
100
AcDbSymbolTableRecord
100
AcDbLayerTableRecord
  2
b1|Level 44
 70
    16
 62
     7
  6
Continuous
370
     0
390
2EA0
347
2EA3
348
0
1001
AcCmTransparency
1071
 33554687
  0
LAYER
  5
305E
330
2ECD
100
AcDbSymbolTableRecord
100
AcDbLayerTableRecord
  2
b1|Level 45
 70
    16
 62
     7
  6
Continuous
370
     0
390
2EA0
347
2EA3
348
0
1001
AcCmTransparency
1071
 33554687
  0
LAYER
  5
305F
330
2ECD
100
AcDbSymbolTableRecord
100
AcDbLayerTableRecord
  2
b1|Level 46
 70
    16
 62
     7
  6
Continuous
370
     0
390
2EA0
347
2EA3
348
0
1001
AcCmTransparency
1071
 33554687
  0
LAYER
  5
3060
330
2ECD
100
AcDbSymbolTableRecord
100
AcDbLayerTableRecord
  2
b1|Level 47
 70
    16
 62
     7
  6
Continuous
370
     0
390
2EA0
347
2EA3
348
0
1001
AcCmTransparency
1071
 33554687
  0
LAYER
  5
3061
330
2ECD
100
AcDbSymbolTableRecord
100
AcDbLayerTableRecord
  2
b1|Level 48
 70
    16
 62
     7
  6
Continuous
370
     0
390
2EA0
347
2EA3
348
0
1001
AcCmTransparency
1071
 33554687
  0
LAYER
  5
3062
330
2ECD
100
AcDbSymbolTableRecord
100
AcDbLayerTableRecord
  2
b1|Level 49
 70
    16
 62
     7
  6
Continuous
370
     0
390
2EA0
347
2EA3
348
0
1001
AcCmTransparency
1071
 33554687
  0
LAYER
  5
3063
330
2ECD
100
AcDbSymbolTableRecord
100
AcDbLayerTableRecord
  2
b1|Level 50
 70
    16
 62
     7
  6
Continuous
370
     0
390
2EA0
347
2EA3
348
0
1001
AcCmTransparency
1071
 33554687
  0
LAYER
  5
3064
330
2ECD
100
AcDbSymbolTableRecord
100
AcDbLayerTableRecord
  2
b1|Level 51
 70
    16
 62
     7
  6
Continuous
370
     0
390
2EA0
347
2EA3
348
0
1001
AcCmTransparency
1071
 33554687
  0
LAYER
  5
3065
330
2ECD
100
AcDbSymbolTableRecord
100
AcDbLayerTableRecord
  2
b1|Level 52
 70
    16
 62
     7
  6
Continuous
370
     0
390
2EA0
347
2EA3
348
0
1001
AcCmTransparency
1071
 33554687
  0
LAYER
  5
3066
330
2ECD
100
AcDbSymbolTableRecord
100
AcDbLayerTableRecord
  2
b1|Level 53
 70
    16
 62
     7
  6
Continuous
370
     0
390
2EA0
347
2EA3
348
0
1001
AcCmTransparency
1071
 33554687
  0
LAYER
  5
3067
330
2ECD
100
AcDbSymbolTableRecord
100
AcDbLayerTableRecord
  2
b1|Level 54
 70
    16
 62
     7
  6
Continuous
370
     0
390
2EA0
347
2EA3
348
0
1001
AcCmTransparency
1071
 33554687
  0
LAYER
  5
3068
330
2ECD
100
AcDbSymbolTableRecord
100
AcDbLayerTableRecord
  2
b1|Level 55
 70
    16
 62
     7
  6
Continuous
370
     0
390
2EA0
347
2EA3
348
0
1001
AcCmTransparency
1071
 33554687
  0
LAYER
  5
3069
330
2ECD
100
AcDbSymbolTableRecord
100
AcDbLayerTableRecord
  2
b1|Level 56
 70
    16
 62
     7
  6
Continuous
370
     0
390
2EA0
347
2EA3
348
0
1001
AcCmTransparency
1071
 33554687
  0
LAYER
  5
306A
330
2ECD
100
AcDbSymbolTableRecord
100
AcDbLayerTableRecord
  2
b1|Level 57
 70
    16
 62
     7
  6
Continuous
370
     0
390
2EA0
347
2EA3
348
0
1001
AcCmTransparency
1071
 33554687
  0
LAYER
  5
306B
330
2ECD
100
AcDbSymbolTableRecord
100
AcDbLayerTableRecord
  2
b1|Level 58
 70
    16
 62
     7
  6
Continuous
370
     0
390
2EA0
347
2EA3
348
0
1001
AcCmTransparency
1071
 33554687
  0
LAYER
  5
306C
330
2ECD
100
AcDbSymbolTableRecord
100
AcDbLayerTableRecord
  2
b1|Level 59
 70
    16
 62
     7
  6
Continuous
370
     0
390
2EA0
347
2EA3
348
0
1001
AcCmTransparency
1071
 33554687
  0
LAYER
  5
306D
330
2ECD
100
AcDbSymbolTableRecord
100
AcDbLayerTableRecord
  2
b1|Level 60
 70
    16
 62
     7
  6
Continuous
370
     0
390
2EA0
347
2EA3
348
0
1001
AcCmTransparency
1071
 33554687
  0
LAYER
  5
306E
330
2ECD
100
AcDbSymbolTableRecord
100
AcDbLayerTableRecord
  2
b1|Level 61
 70
    16
 62
     7
  6
Continuous
370
     0
390
2EA0
347
2EA3
348
0
1001
AcCmTransparency
1071
 33554687
  0
LAYER
  5
306F
330
2ECD
100
AcDbSymbolTableRecord
100
AcDbLayerTableRecord
  2
b1|Level 62
 70
    16
 62
     7
  6
Continuous
370
     0
390
2EA0
347
2EA3
348
0
1001
AcCmTransparency
1071
 33554687
  0
LAYER
  5
3070
330
2ECD
100
AcDbSymbolTableRecord
100
AcDbLayerTableRecord
  2
b1|Level 63
 70
    16
 62
     7
  6
Continuous
370
     0
390
2EA0
347
2EA3
348
0
1001
AcCmTransparency
1071
 33554687
  0
LAYER
  5
597
330
2ECD
100
AcDbSymbolTableRecord
100
AcDbLayerTableRecord
  2
Level 8
 70
     0
 62
    30
  6
Continuous
370
     0
390
2EA0
347
2EA3
348
0
1001
AcAecLayerStandard
1000

1000
Assembly Label Text
1001
AcCmTransparency
1071
 33554687
  0
LAYER
  5
598
330
2ECD
100
AcDbSymbolTableRecord
100
AcDbLayerTableRecord
  2
Level 14
 70
     0
 62
     7
  6
Continuous
370
     0
390
2EA0
347
2EA3
348
0
1001
AcAecLayerStandard
1000

1000
Fall Zone Individual
1001
AcCmTransparency
1071
 33554687
  0
LAYER
  5
2E95
330
2ECD
100
AcDbSymbolTableRecord
100
AcDbLayerTableRecord
  2
freestand3 - Level 26
 70
     0
 62
     7
  6
Continuous
370
     0
390
2EA0
347
2EA3
348
0
1001
AcAecLayerStandard
1000

1000
Assemblies - Colour Locked
1001
AcCmTransparency
1071
 33554687
  0
LAYER
  5
2E96
330
2ECD
100
AcDbSymbolTableRecord
100
AcDbLayerTableRecord
  2
freestand3 - Level 27
 70
     0
 62
     7
  6
Continuous
370
     0
390
2EA0
347
2EA3
348
0
1001
AcAecLayerStandard
1000

1000
Assemblies - Secondary 27
1001
AcCmTransparency
1071
 33554687
  0
LAYER
  5
2E97
330
2ECD
100
AcDbSymbolTableRecord
100
AcDbLayerTableRecord
  2
freestand3 - Level 25
 70
     0
 62
     7
  6
Continuous
370
     0
390
2EA0
347
2EA3
348
0
1001
AcAecLayerStandard
1000

1000
Assemblies - Base
1001
AcCmTransparency
1071
 33554687
  0
ENDTAB
  0
TABLE
  2
STYLE
  5
2ED2
330
0
100
AcDbSymbolTable
 70
     3
  0
STYLE
  5
2ED3
330
2ED2
100
AcDbSymbolTableRecord
100
AcDbTextStyleTableRecord
  2
Standard
 70
     0
 40
0.0
 41
1.0
 50
0.0
 71
     0
 42
0.25
  3
txt.shx
  4

1001
AcadAnnotative
1000
AnnotativeData
1002
{
1070
     1
1070
     1
1002
}
  0
STYLE
  5
2F06
330
2ED2
100
AcDbSymbolTableRecord
100
AcDbTextStyleTableRecord
  2
Style-STANDARD
 70
     0
 40
0.0
 41
1.0
 50
0.0
 71
     0
 42
3.5
  3
STANDARD.shx
  4

1001
AcadAnnotative
1000
AnnotativeData
1002
{
1070
     1
1070
     1
1002
}
  0
STYLE
  5
3074
330
2ED2
100
AcDbSymbolTableRecord
100
AcDbTextStyleTableRecord
  2
Style-Arial
 70
     0
 40
0.0
 41
1.0
 50
0.0
 71
     0
 42
0.25
  3
arial.ttf
  4

1001
ACAD
1000
Arial
1071
       39
  0
ENDTAB
  0
TABLE
  2
VIEW
  5
2ED9
330
0
100
AcDbSymbolTable
 70
     0
  0
ENDTAB
  0
TABLE
  2
UCS
  5
2EDA
330
0
100
AcDbSymbolTable
 70
     0
  0
ENDTAB
  0
TABLE
  2
APPID
  5
2EDF
330
0
100
AcDbSymbolTable
 70
     6
  0
APPID
  5
2EE0
330
2EDF
100
AcDbSymbolTableRecord
100
AcDbRegAppTableRecord
  2
ACAD
 70
     0
  0
APPID
  5
2ECC
330
2EDF
100
AcDbSymbolTableRecord
100
AcDbRegAppTableRecord
  2
ACAD_PSEXT
 70
     0
  0
APPID
  5
2EAD
330
2EDF
100
AcDbSymbolTableRecord
100
AcDbRegAppTableRecord
  2
AcCmTransparency
 70
     0
  0
APPID
  5
2ED4
330
2EDF
100
AcDbSymbolTableRecord
100
AcDbRegAppTableRecord
  2
AcadAnnotative
 70
     0
  0
APPID
  5
2EB2
330
2EDF
100
AcDbSymbolTableRecord
100
AcDbRegAppTableRecord
  2
MStation
 70
     0
  0
APPID
  5
3072
330
2EDF
100
AcDbSymbolTableRecord
100
AcDbRegAppTableRecord
  2
AcAecLayerStandard
 70
     0
  0
ENDTAB
  0
TABLE
  2
DIMSTYLE
  5
2EE1
330
0
100
AcDbSymbolTable
 70
     1
100
AcDbDimStyleTable
 71
     1
340
2EE2
  0
DIMSTYLE
105
2EE2
330
2EE1
100
AcDbSymbolTableRecord
100
AcDbDimStyleTableRecord
  2
Standard
 70
     0
 42
0.0625
 44
0.18
 78
     3
272
     0
274
     0
278
     0
284
     3
285
     3
286
     3
289
     1
340
2ED3
345
2EAC
346
2EAC
347
2EAC
  0
ENDTAB
  0
TABLE
  2
BLOCK_RECORD
  5
2E98
330
0
100
AcDbSymbolTable
 70
     6
  0
BLOCK_RECORD
  5
2E99
102
{ACAD_XDICTIONARY
360
2E9A
102
}
330
2E98
100
AcDbSymbolTableRecord
100
AcDbBlockTableRecord
  2
*Model_Space
340
2EC4
 70
     0
280
     1
281
     0
  0
BLOCK_RECORD
  5
2EC7
330
2E98
100
AcDbSymbolTableRecord
100
AcDbBlockTableRecord
  2
*Paper_Space
340
2ECA
 70
     0
280
     1
281
     0
  0
BLOCK_RECORD
  5
2F07
330
2E98
100
AcDbSymbolTableRecord
100
AcDbBlockTableRecord
  2
TerminatorOpen_0.5
340
0
 70
     0
280
     1
281
     0
  0
ENDTAB
  0
ENDSEC
  0
SECTION
  2
BLOCKS
  0
BLOCK
  5
2E9C
330
2E99
100
AcDbEntity
  8
0
100
AcDbBlockBegin
  2
*Model_Space
 70
     0
 10
0.0
 20
0.0
 30
0.0
  3
*Model_Space
  1

  0
ENDBLK
  5
2EC3
330
2E99
100
AcDbEntity
  8
0
100
AcDbBlockEnd
  0
BLOCK
  5
2EC8
330
2EC7
100
AcDbEntity
 67
     1
  8
0
100
AcDbBlockBegin
  2
*Paper_Space
 70
     0
 10
0.0
 20
0.0
 30
0.0
  3
*Paper_Space
  1

  0
ENDBLK
  5
2EC9
330
2EC7
100
AcDbEntity
 67
     1
  8
0
100
AcDbBlockEnd
  0
BLOCK
  5
2F08
330
2F07
100
AcDbEntity
  8
0
 62
     7
370
    30
100
AcDbBlockBegin
  2
TerminatorOpen_0.5
 70
     0
 10
0.0
 20
0.0
 30
0.0
  3
TerminatorOpen_0.5
  1

  0
LINE
  5
2F09
330
2F07
100
AcDbEntity
  8
0
  6
ByBlock
 62
     0
370
    -2
100
AcDbLine
 10
0.0
 20
0.0
 30
0.0
 11
-1.0
 21
0.0
 31
0.0
  0
LINE
  5
2F0A
330
2F07
100
AcDbEntity
  8
0
  6
ByBlock
 62
     0
370
    -2
100
AcDbLine
 10
0.0
 20
0.0
 30
0.0
 11
-1.0
 21
0.25
 31
0.0
  0
LINE
  5
2F0B
330
2F07
100
AcDbEntity
  8
0
  6
ByBlock
 62
     0
370
    -2
100
AcDbLine
 10
0.0
 20
0.0
 30
0.0
 11
-1.0
 21
-0.25
 31
0.0
  0
ENDBLK
  5
2F0C
330
2F07
100
AcDbEntity
  8
0
 62
     7
370
    30
100
AcDbBlockEnd
  0
ENDSEC
  0
SECTION
  2
ENTITIES
  0
ARC
  5
28E9
330
2E99
100
AcDbEntity
  8
Level 14
  6
DGN Style 2
 62
     7
370
    13
100
AcDbCircle
 10
2.076478
 20
2.119322
 30
0.0
 40
1.397999999999999
100
AcDbArc
 50
0.0
 51
359.999994
  0
SPLINE
  5
28EA
330
2E99
100
AcDbEntity
  8
Level 8
  6
Continuous
 62
     7
370
    13
100
AcDbSpline
210
0.0
220
0.0
230
1.0
 70
     9
 71
     2
 72
   102
 73
    99
 74
     0
 42
0.000000001
 43
0.0000000001
 40
0.0
 40
0.0
 40
0.0
 40
0.0204081632653061
 40
0.0204081632653061
 40
0.0408163265306122
 40
0.0408163265306122
 40
0.0612244897959183
 40
0.0612244897959183
 40
0.0816326530612245
 40
0.0816326530612245
 40
0.1020408163265306
 40
0.1020408163265306
 40
0.1224489795918367
 40
0.1224489795918367
 40
0.1428571428571427
 40
0.1428571428571427
 40
0.163265306122449
 40
0.163265306122449
 40
0.1836734693877551
 40
0.1836734693877551
 40
0.2040816326530611
 40
0.2040816326530611
 40
0.2244897959183673
 40
0.2244897959183673
 40
0.2448979591836733
 40
0.2448979591836733
 40
0.2653061224489796
 40
0.2653061224489796
 40
0.2857142857142855
 40
0.2857142857142855
 40
0.3061224489795918
 40
0.3061224489795918
 40
0.3265306122448979
 40
0.3265306122448979
 40
0.346938775510204
 40
0.346938775510204
 40
0.3673469387755102
 40
0.3673469387755102
 40
0.3877551020408162
 40
0.3877551020408162
 40
0.4081632653061223
 40
0.4081632653061223
 40
0.4285714285714284
 40
0.4285714285714284
 40
0.4489795918367346
 40
0.4489795918367346
 40
0.4693877551020409
 40
0.4693877551020409
 40
0.4897959183673467
 40
0.4897959183673467
 40
0.5102040816326531
 40
0.5102040816326531
 40
0.5306122448979592
 40
0.5306122448979592
 40
0.5510204081632649
 40
0.5510204081632649
 40
0.571428571428571
 40
0.571428571428571
 40
0.5918367346938772
 40
0.5918367346938772
 40
0.6122448979591836
 40
0.6122448979591836
 40
0.6326530612244897
 40
0.6326530612244897
 40
0.6530612244897959
 40
0.6530612244897959
 40
0.6734693877551021
 40
0.6734693877551021
 40
0.693877551020408
 40
0.693877551020408
 40
0.7142857142857143
 40
0.7142857142857143
 40
0.7346938775510204
 40
0.7346938775510204
 40
0.7551020408163265
 40
0.7551020408163265
 40
0.7755102040816324
 40
0.7755102040816324
 40
0.7959183673469387
 40
0.7959183673469387
 40
0.8163265306122447
 40
0.8163265306122447
 40
0.836734693877551
 40
0.836734693877551
 40
0.8571428571428571
 40
0.8571428571428571
 40
0.8775510204081632
 40
0.8775510204081632
 40
0.8979591836734693
 40
0.8979591836734693
 40
0.9183673469387754
 40
0.9183673469387754
 40
0.9387755102040815
 40
0.9387755102040815
 40
0.9591836734693877
 40
0.9591836734693877
 40
0.9795918367346938
 40
0.9795918367346938
 40
1.0
 40
1.0
 40
1.0
 10
2.058958017912269
 20
1.49218879497921
 30
0.0
 10
2.058958017912269
 20
1.490960802021463
 30
0.0
 10
2.058896398193959
 20
1.490039440519116
 30
0.0
 10
2.058834778475649
 20
1.489118079016769
 30
0.0
 10
2.058681022607105
 20
1.488427791458083
 30
0.0
 10
2.05852726673856
 20
1.487737503899398
 30
0.0
 10
2.05828078786532
 20
1.487199798500337
 30
0.0
 10
2.058034308992081
 20
1.486662093101275
 30
0.0
 10
2.057418111808983
 20
1.485885978077801
 30
0.0
 10
2.056801914625884
 20
1.485109863054327
 30
0.0
 10
2.054830670494429
 20
1.483518020331322
 30
0.0
 10
2.052859426362973
 20
1.481926177608318
 30
0.0
 10
2.049933956879405
 20
1.480412826669351
 30
0.0
 10
2.047008487395837
 20
1.478899475730384
 30
0.0
 10
2.04321975500147
 20
1.477851206951041
 30
0.0
 10
2.039431022607105
 20
1.476802938171698
 30
0.0
 10
2.034934543733865
 20
1.476802938171698
 30
0.0
 10
2.027173980353583
 20
1.476802938171698
 30
0.0
 10
2.020921632935743
 20
1.48003283840644
 30
0.0
 10
2.014669285517903
 20
1.483262738641182
 30
0.0
 10
2.010264942794898
 20
1.489568489814891
 30
0.0
 10
2.005860600071893
 20
1.495874240988599
 30
0.0
 10
2.003489121198654
 20
1.505141406481557
 30
0.0
 10
2.001117642325414
 20
1.514408571974515
 30
0.0
 10
2.001117642325414
 20
1.526481635354797
 30
0.0
 10
2.001117642325414
 20
1.538862797326628
 30
0.0
 10
2.003674567208044
 20
1.548552498030853
 30
0.0
 10
2.006231492090672
 20
1.558242198735078
 30
0.0
 10
2.010851797254992
 20
1.56497121868813
 30
0.0
 10
2.015472102419311
 20
1.571700238641182
 30
0.0
 10
2.021909895846541
 20
1.575237503899398
 30
0.0
 10
2.028347689273771
 20
1.578774769157614
 30
0.0
 10
2.036171632935743
 20
1.578774769157614
 30
0.0
 10
2.039621163452175
 20
1.578774769157614
 30
0.0
 10
2.042886421668137
 20
1.577966377138834
 30
0.0
 10
2.0461516798841
 20
1.577157985120055
 30
0.0
 10
2.048923980353583
 20
1.575927057890008
 30
0.0
 10
2.051696280823067
 20
1.574696130659961
 30
0.0
 10
2.053852384109452
 20
1.573079346622402
 30
0.0
 10
2.056008487395837
 20
1.571462562584844
 30
0.0
 10
2.05684006016579
 20
1.570423830190478
 30
0.0
 10
2.057671632935743
 20
1.569385097796111
 30
0.0
 10
2.057918111808982
 20
1.568848125965125
 30
0.0
 10
2.058164590682222
 20
1.56831115413414
 30
0.0
 10
2.058318933405227
 20
1.567582721035548
 30
0.0
 10
2.058473276128232
 20
1.566854287936956
 30
0.0
 10
2.058565412278466
 20
1.565856635354797
 30
0.0
 10
2.058657548428701
 20
1.564858982772638
 30
0.0
 10
2.058657548428701
 20
1.563478407655267
 30
0.0
 10
2.058657548428701
 20
1.561943783242121
 30
0.0
 10
2.058533722137621
 20
1.560869839580149
 30
0.0
 10
2.058409895846541
 20
1.559795895918177
 30
0.0
 10
2.058162243264382
 20
1.559067462819585
 30
0.0
 10
2.057914590682222
 20
1.558339029720994
 30
0.0
 10
2.057573628240907
 20
1.557993519157614
 30
0.0
 10
2.057232665799593
 20
1.557648008594233
 30
0.0
 10
2.056736186926353
 20
1.557648008594233
 30
0.0
 10
2.055868816034335
 20
1.557648008594233
 30
0.0
 10
2.054320107114147
 20
1.559142286763247
 30
0.0
 10
2.052771398193959
 20
1.560636564932261
 30
0.0
 10
2.050323628240907
 20
1.5624367409886
 30
0.0
 10
2.047875858287856
 20
1.564236917044938
 30
0.0
 10
2.044375271433396
 20
1.565731195213952
 30
0.0
 10
2.040874684578935
 20
1.567225473382966
 30
0.0
 10
2.035979144672832
 20
1.567225473382966
 30
0.0
 10
2.03065050617518
 20
1.567225473382966
 30
0.0
 10
2.026282548428701
 20
1.564574358359492
 30
0.0
 10
2.021914590682222
 20
1.561923243336017
 30
0.0
 10
2.018816585987386
 20
1.556775062584844
 30
0.0
 10
2.015718581292551
 20
1.55162688183367
 30
0.0
 10
2.014014355940437
 20
1.544211975730384
 30
0.0
 10
2.012310130588325
 20
1.536797069627097
 30
0.0
 10
2.012310130588325
 20
1.527268020331323
 30
0.0
 10
2.012310130588325
 20
1.51781672925151
 30
0.0
 10
2.013951562513208
 20
1.510555138875924
 30
0.0
 10
2.01559299443809
 20
1.503293548500337
 30
0.0
 10
2.018659895846541
 20
1.498413853664656
 30
0.0
 10
2.021726797254992
 20
1.493534158828975
 30
0.0
 10
2.026186891151705
 20
1.491037093101275
 30
0.0
 10
2.030646985048419
 20
1.488540027373576
 30
0.0
 10
2.036284308992081
 20
1.488540027373576
 30
0.0
 10
2.041054262043724
 20
1.488540027373576
 30
0.0
 10
2.044616468616494
 20
1.490004962819585
 30
0.0
 10
2.048178675189264
 20
1.491469898265595
 30
0.0
 10
2.050687478006166
 20
1.493281811411135
 30
0.0
 10
2.053196280823067
 20
1.495093724556675
 30
0.0
 10
2.054807196316025
 20
1.496558660002684
 30
0.0
 10
2.056418111808982
 20
1.498023595448693
 30
0.0
 10
2.057347689273771
 20
1.498023595448693
 30
0.0
 10
2.057780787865321
 20
1.498023595448693
 30
0.0
 10
2.05809064702025
 20
1.497793255073107
 30
0.0
 10
2.05840050617518
 20
1.49756291469752
 30
0.0
 10
2.058586539039029
 20
1.49691077267874
 30
0.0
 10
2.058772571902879
 20
1.496258630659961
 30
0.0
 10
2.058865294907574
 20
1.495106928782027
 30
0.0
 10
2.058958017912269
 20
1.493955226904093
 30
0.0
 10
2.058958017912269
 20
1.49218879497921
 30
0.0
 10
2.058958017912269
 20
1.49218879497921
 30
0.0
 10
2.058958017912269
 20
1.49218879497921
 30
0.0
  0
SPLINE
  5
297C
330
2E99
100
AcDbEntity
  8
Level 8
  6
Continuous
 62
     7
370
    13
100
AcDbSpline
210
0.0
220
0.0
230
1.0
 70
     9
 71
     2
 72
   106
 73
   103
 74
     0
 42
0.000000001
 43
0.0000000001
 40
0.0
 40
0.0
 40
0.0
 40
0.0222222222222222
 40
0.0222222222222222
 40
0.0444444444444445
 40
0.0444444444444445
 40
0.0666666666666667
 40
0.0666666666666667
 40
0.0888888888888889
 40
0.0888888888888889
 40
0.1111111111111111
 40
0.1111111111111111
 40
0.1333333333333333
 40
0.1333333333333333
 40
0.1555555555555555
 40
0.1555555555555555
 40
0.1777777777777778
 40
0.1777777777777778
 40
0.1851851851851852
 40
0.1851851851851852
 40
0.1925925925925925
 40
0.1925925925925925
 40
0.2
 40
0.2
 40
0.2222222222222221
 40
0.2222222222222221
 40
0.2444444444444444
 40
0.2444444444444444
 40
0.2666666666666666
 40
0.2666666666666666
 40
0.2888888888888889
 40
0.2888888888888889
 40
0.311111111111111
 40
0.311111111111111
 40
0.3333333333333333
 40
0.3333333333333333
 40
0.3555555555555556
 40
0.3555555555555556
 40
0.3777777777777777
 40
0.3777777777777777
 40
0.3851851851851849
 40
0.3851851851851849
 40
0.3925925925925925
 40
0.3925925925925925
 40
0.4
 40
0.4
 40
0.4222222222222222
 40
0.4222222222222222
 40
0.4444444444444443
 40
0.4444444444444443
 40
0.4666666666666666
 40
0.4666666666666666
 40
0.4888888888888889
 40
0.4888888888888889
 40
0.5111111111111112
 40
0.5111111111111112
 40
0.5333333333333332
 40
0.5333333333333332
 40
0.5555555555555558
 40
0.5555555555555558
 40
0.5777777777777779
 40
0.5777777777777779
 40
0.5999999999999998
 40
0.5999999999999998
 40
0.622222222222222
 40
0.622222222222222
 40
0.6444444444444443
 40
0.6444444444444443
 40
0.6666666666666666
 40
0.6666666666666666
 40
0.6888888888888888
 40
0.6888888888888888
 40
0.7111111111111112
 40
0.7111111111111112
 40
0.7333333333333334
 40
0.7333333333333334
 40
0.7555555555555555
 40
0.7555555555555555
 40
0.7629629629629631
 40
0.7629629629629631
 40
0.7703703703703702
 40
0.7703703703703702
 40
0.7777777777777778
 40
0.7777777777777778
 40
0.8
 40
0.8
 40
0.8222222222222223
 40
0.8222222222222223
 40
0.8444444444444442
 40
0.8444444444444442
 40
0.8666666666666667
 40
0.8666666666666667
 40
0.8888888888888889
 40
0.8888888888888889
 40
0.911111111111111
 40
0.911111111111111
 40
0.9333333333333333
 40
0.9333333333333333
 40
0.9555555555555555
 40
0.9555555555555555
 40
0.9777777777777778
 40
0.9777777777777778
 40
1.0
 40
1.0
 40
1.0
 10
1.771183370024945
 20
1.480015966340713
 30
0.0
 10
1.771183370024945
 20
1.479399769157614
 30
0.0
 10
1.770929848898184
 20
1.478938354838365
 30
0.0
 10
1.770676327771424
 20
1.478476940519116
 30
0.0
 10
1.770041938100062
 20
1.478207721035548
 30
0.0
 10
1.769407548428701
 20
1.47793850155198
 30
0.0
 10
1.768424567208044
 20
1.477746306716299
 30
0.0
 10
1.767441585987386
 20
1.477554111880618
 30
0.0
 10
1.765855905236212
 20
1.477554111880618
 30
0.0
 10
1.764396985048419
 20
1.477554111880618
 30
0.0
 10
1.763350623546072
 20
1.477746306716299
 30
0.0
 10
1.762304262043724
 20
1.47793850155198
 30
0.0
 10
1.761701562513208
 20
1.478207721035548
 30
0.0
 10
1.761098862982692
 20
1.478476940519116
 30
0.0
 10
1.760845341855931
 20
1.478938354838365
 30
0.0
 10
1.76059182072917
 20
1.479399769157614
 30
0.0
 10
1.76059182072917
 20
1.480015966340713
 30
0.0
 10
1.76059182072917
 20
1.523361770331323
 30
0.0
 10
1.76059182072917
 20
1.566707574321933
 30
0.0
 10
1.76053020101086
 20
1.566707574321933
 30
0.0
 10
1.76046858129255
 20
1.566707574321933
 30
0.0
 10
1.746442172841846
 20
1.523169575495642
 30
0.0
 10
1.732415764391142
 20
1.479631576669351
 30
0.0
 10
1.732231492090673
 20
1.479093137702215
 30
0.0
 10
1.731892877067198
 20
1.478708014462778
 30
0.0
 10
1.731554262043724
 20
1.478322891223341
 30
0.0
 10
1.730908135283161
 20
1.478053671739773
 30
0.0
 10
1.730262008522597
 20
1.477784452256206
 30
0.0
 10
1.729369402888795
 20
1.477669282068412
 30
0.0
 10
1.728476797254992
 20
1.477554111880618
 30
0.0
 10
1.727246750306635
 20
1.477554111880618
 30
0.0
 10
1.725953323076588
 20
1.477554111880618
 30
0.0
 10
1.72503020101086
 20
1.477708161176393
 30
0.0
 10
1.724107078945133
 20
1.477862210472168
 30
0.0
 10
1.723492055470955
 20
1.478131429955736
 30
0.0
 10
1.722877031996776
 20
1.478400649439304
 30
0.0
 10
1.722538416973302
 20
1.478785039110666
 30
0.0
 10
1.722199801949827
 20
1.479169428782027
 30
0.0
 10
1.722076562513208
 20
1.479631576669351
 30
0.0
 10
1.7086516798841
 20
1.523169575495642
 30
0.0
 10
1.695226797254992
 20
1.566707574321933
 30
0.0
 10
1.695195693968607
 20
1.566707574321933
 30
0.0
 10
1.695164590682222
 20
1.566707574321933
 30
0.0
 10
1.695164590682222
 20
1.523361770331323
 30
0.0
 10
1.695164590682222
 20
1.480015966340713
 30
0.0
 10
1.695164590682222
 20
1.479399769157614
 30
0.0
 10
1.694911069555461
 20
1.478938354838365
 30
0.0
 10
1.694657548428701
 20
1.478476940519116
 30
0.0
 10
1.69402315875734
 20
1.478207721035548
 30
0.0
 10
1.693388769085978
 20
1.47793850155198
 30
0.0
 10
1.692374097724475
 20
1.477746306716299
 30
0.0
 10
1.691359426362973
 20
1.477554111880618
 30
0.0
 10
1.689773745611799
 20
1.477554111880618
 30
0.0
 10
1.688251445142316
 20
1.477554111880618
 30
0.0
 10
1.687236773780813
 20
1.477746306716299
 30
0.0
 10
1.686222102419311
 20
1.47793850155198
 30
0.0
 10
1.685619402888795
 20
1.478207721035548
 30
0.0
 10
1.685016703358278
 20
1.478476940519116
 30
0.0
 10
1.684794872372363
 20
1.478938354838365
 30
0.0
 10
1.684573041386447
 20
1.479399769157614
 30
0.0
 10
1.684573041386447
 20
1.480015966340713
 30
0.0
 10
1.684573041386447
 20
1.525784745683435
 30
0.0
 10
1.684573041386447
 20
1.571553525026158
 30
0.0
 10
1.684573041386447
 20
1.574784158828975
 30
0.0
 10
1.685948628240907
 20
1.576169135354797
 30
0.0
 10
1.687324215095368
 20
1.577554111880618
 30
0.0
 10
1.689012008522597
 20
1.577554111880618
 30
0.0
 10
1.692262595377057
 20
1.577554111880618
 30
0.0
 10
1.695513182231517
 20
1.577554111880618
 30
0.0
 10
1.697513182231518
 20
1.577554111880618
 30
0.0
 10
1.699013769085978
 20
1.57709269756137
 30
0.0
 10
1.700514355940438
 20
1.576631283242121
 30
0.0
 10
1.701639355940438
 20
1.575631429955736
 30
0.0
 10
1.702764355940438
 20
1.574631576669351
 30
0.0
 10
1.703514942794898
 20
1.57309328441583
 30
0.0
 10
1.704265529649358
 20
1.571554992162309
 30
0.0
 10
1.704827736222128
 20
1.569477527373576
 30
0.0
 10
1.716221515564851
 20
1.53343879497921
 30
0.0
 10
1.727615294907574
 20
1.497400062584844
 30
0.0
 10
1.727769050776118
 20
1.497400062584844
 30
0.0
 10
1.727922806644663
 20
1.497400062584844
 30
0.0
 10
1.739764355940438
 20
1.533322891223342
 30
0.0
 10
1.751605905236212
 20
1.569245719861839
 30
0.0
 10
1.752293698663442
 20
1.571553525026158
 30
0.0
 10
1.753107078945133
 20
1.573168841927567
 30
0.0
 10
1.753920459226823
 20
1.574784158828975
 30
0.0
 10
1.754889942794898
 20
1.575745866575454
 30
0.0
 10
1.755859426362973
 20
1.576707574321933
 30
0.0
 10
1.757047806644663
 20
1.577130843101276
 30
0.0
 10
1.758236186926353
 20
1.577554111880618
 30
0.0
 10
1.759799567208044
 20
1.577554111880618
 30
0.0
 10
1.763208604766729
 20
1.577554111880618
 30
0.0
 10
1.766617642325414
 20
1.577554111880618
 30
0.0
 10
1.767555435752644
 20
1.577554111880618
 30
0.0
 10
1.76839991932072
 20
1.577207867749163
 30
0.0
 10
1.769244402888795
 20
1.576861623617708
 30
0.0
 10
1.76983888645687
 20
1.576130989814891
 30
0.0
 10
1.770433370024945
 20
1.575400356012074
 30
0.0
 10
1.770808370024945
 20
1.574284598969821
 30
0.0
 10
1.771183370024945
 20
1.573168841927567
 30
0.0
 10
1.771183370024945
 20
1.571553525026158
 30
0.0
 10
1.771183370024945
 20
1.525784745683435
 30
0.0
 10
1.771183370024945
 20
1.480015966340713
 30
0.0
  0
SPLINE
  5
29F6
330
2E99
100
AcDbEntity
  8
Level 8
  6
Continuous
 62
     7
370
    13
100
AcDbSpline
210
0.0
220
0.0
230
1.0
 70
     9
 71
     2
 72
    62
 73
    59
 74
     0
 42
0.000000001
 43
0.0000000001
 40
0.0
 40
0.0
 40
0.0
 40
0.037037037037037
 40
0.037037037037037
 40
0.0740740740740741
 40
0.0740740740740741
 40
0.111111111111111
 40
0.111111111111111
 40
0.1481481481481481
 40
0.1481481481481481
 40
0.1851851851851851
 40
0.1851851851851851
 40
0.2222222222222221
 40
0.2222222222222221
 40
0.2592592592592591
 40
0.2592592592592591
 40
0.2962962962962963
 40
0.2962962962962963
 40
0.3333333333333333
 40
0.3333333333333333
 40
0.3703703703703703
 40
0.3703703703703703
 40
0.4074074074074074
 40
0.4074074074074074
 40
0.4444444444444442
 40
0.4444444444444442
 40
0.4814814814814814
 40
0.4814814814814814
 40
0.5185185185185183
 40
0.5185185185185183
 40
0.5555555555555555
 40
0.5555555555555555
 40
0.5925925925925926
 40
0.5925925925925926
 40
0.6296296296296294
 40
0.6296296296296294
 40
0.6666666666666666
 40
0.6666666666666666
 40
0.6790123456790124
 40
0.6790123456790124
 40
0.6913580246913583
 40
0.6913580246913583
 40
0.7037037037037038
 40
0.7037037037037038
 40
0.7407407407407407
 40
0.7407407407407407
 40
0.7777777777777777
 40
0.7777777777777777
 40
0.8148148148148148
 40
0.8148148148148148
 40
0.8518518518518519
 40
0.8518518518518519
 40
0.8888888888888889
 40
0.8888888888888889
 40
0.9259259259259257
 40
0.9259259259259257
 40
0.9629629629629629
 40
0.9629629629629629
 40
1.0
 40
1.0
 40
1.0
 10
1.851999097724475
 20
1.482703759767943
 30
0.0
 10
1.838643463921659
 20
1.52893908840644
 30
0.0
 10
1.825287830118842
 20
1.575174417044937
 30
0.0
 10
1.825042524954522
 20
1.576020954603623
 30
0.0
 10
1.824611186926353
 20
1.576599006246816
 30
0.0
 10
1.824179848898184
 20
1.577177057890008
 30
0.0
 10
1.823379966269077
 20
1.577485156481557
 30
0.0
 10
1.822580083639969
 20
1.577793255073107
 30
0.0
 10
1.821287830118841
 20
1.5779084252609
 30
0.0
 10
1.819995576597715
 20
1.578023595448694
 30
0.0
 10
1.81802609302964
 20
1.578023595448694
 30
0.0
 10
1.816179848898184
 20
1.578023595448694
 30
0.0
 10
1.814979731527292
 20
1.5779084252609
 30
0.0
 10
1.8137796141564
 20
1.577793255073107
 30
0.0
 10
1.813010247959217
 20
1.577485156481557
 30
0.0
 10
1.812240881762034
 20
1.577177057890008
 30
0.0
 10
1.81184064702025
 20
1.576637885354797
 30
0.0
 10
1.811440412278466
 20
1.576098712819586
 30
0.0
 10
1.811193933405226
 20
1.57525070812475
 30
0.0
 10
1.797838299602409
 20
1.529015379486252
 30
0.0
 10
1.784482665799593
 20
1.482780050847755
 30
0.0
 10
1.783990881762034
 20
1.481086975730384
 30
0.0
 10
1.783959778475649
 20
1.480050444040243
 30
0.0
 10
1.783928675189264
 20
1.479013912350102
 30
0.0
 10
1.784390529649358
 20
1.478476206951041
 30
0.0
 10
1.784852384109452
 20
1.47793850155198
 30
0.0
 10
1.785990881762034
 20
1.477746306716299
 30
0.0
 10
1.787129379414616
 20
1.477554111880618
 30
0.0
 10
1.788914590682222
 20
1.477554111880618
 30
0.0
 10
1.790637595377058
 20
1.477554111880618
 30
0.0
 10
1.79171447331133
 20
1.477707427608318
 30
0.0
 10
1.792791351245602
 20
1.477860743336018
 30
0.0
 10
1.793376445142316
 20
1.478206253899398
 30
0.0
 10
1.793961539039029
 20
1.478551764462778
 30
0.0
 10
1.794269050776119
 20
1.479051324321933
 30
0.0
 10
1.794576562513208
 20
1.479550884181088
 30
0.0
 10
1.794760834813677
 20
1.480241905307848
 30
0.0
 10
1.798023158757339
 20
1.492184393570759
 30
0.0
 10
1.801285482701001
 20
1.50412688183367
 30
0.0
 10
1.81784123387471
 20
1.50412688183367
 30
0.0
 10
1.834396985048419
 20
1.50412688183367
 30
0.0
 10
1.837813064860626
 20
1.49203107784306
 30
0.0
 10
1.841229144672832
 20
1.479935273852449
 30
0.0
 10
1.841474449837151
 20
1.479244252725689
 30
0.0
 10
1.841751445142316
 20
1.478783571974515
 30
0.0
 10
1.84202844044748
 20
1.478322891223341
 30
0.0
 10
1.842613534344194
 20
1.478053671739773
 30
0.0
 10
1.843198628240907
 20
1.477784452256206
 30
0.0
 10
1.84433712589349
 20
1.477669282068412
 30
0.0
 10
1.845475623546072
 20
1.477554111880618
 30
0.0
 10
1.847382900541377
 20
1.477554111880618
 30
0.0
 10
1.849291351245602
 20
1.477554111880618
 30
0.0
 10
1.850429848898184
 20
1.477707427608318
 30
0.0
 10
1.851568346550766
 20
1.477860743336018
 30
0.0
 10
1.852060717442785
 20
1.478398448735078
 30
0.0
 10
1.852553088334804
 20
1.47893615413414
 30
0.0
 10
1.852522571902879
 20
1.479973419392355
 30
0.0
 10
1.852492055470954
 20
1.481010684650571
 30
0.0
 10
1.851999097724475
 20
1.482703759767943
 30
0.0
  0
LWPOLYLINE
  5
2A42
330
2E99
100
AcDbEntity
  8
Level 8
  6
Continuous
 62
     7
370
    13
100
AcDbPolyline
 90
        5
 70
   128
 43
0.0
 10
1.817719
 20
1.564315
 10
1.831627
 20
1.514643
 10
1.803932
 20
1.514643
 10
1.817656
 20
1.564315
 10
1.817719
 20
1.564315
  0
SPLINE
  5
2A43
330
2E99
100
AcDbEntity
  8
Level 8
  6
Continuous
 62
     7
370
    13
100
AcDbSpline
210
0.0
220
0.0
230
1.0
 70
     9
 71
     2
 72
    94
 73
    91
 74
     0
 42
0.000000001
 43
0.0000000001
 40
0.0
 40
0.0
 40
0.0
 40
0.0227272727272727
 40
0.0227272727272727
 40
0.0454545454545455
 40
0.0454545454545455
 40
0.0681818181818182
 40
0.0681818181818182
 40
0.0909090909090909
 40
0.0909090909090909
 40
0.1136363636363636
 40
0.1136363636363636
 40
0.1363636363636363
 40
0.1363636363636363
 40
0.159090909090909
 40
0.159090909090909
 40
0.1818181818181818
 40
0.1818181818181818
 40
0.2045454545454545
 40
0.2045454545454545
 40
0.2272727272727272
 40
0.2272727272727272
 40
0.2499999999999999
 40
0.2499999999999999
 40
0.2727272727272726
 40
0.2727272727272726
 40
0.2954545454545455
 40
0.2954545454545455
 40
0.3181818181818181
 40
0.3181818181818181
 40
0.3409090909090909
 40
0.3409090909090909
 40
0.3636363636363637
 40
0.3636363636363637
 40
0.3863636363636363
 40
0.3863636363636363
 40
0.4090909090909091
 40
0.4090909090909091
 40
0.4318181818181818
 40
0.4318181818181818
 40
0.4545454545454544
 40
0.4545454545454544
 40
0.4772727272727272
 40
0.4772727272727272
 40
0.5
 40
0.5
 40
0.5227272727272729
 40
0.5227272727272729
 40
0.5454545454545452
 40
0.5454545454545452
 40
0.5681818181818183
 40
0.5681818181818183
 40
0.590909090909091
 40
0.590909090909091
 40
0.6136363636363634
 40
0.6136363636363634
 40
0.6363636363636362
 40
0.6363636363636362
 40
0.6590909090909089
 40
0.6590909090909089
 40
0.6818181818181818
 40
0.6818181818181818
 40
0.6931818181818183
 40
0.6931818181818183
 40
0.7045454545454544
 40
0.7045454545454544
 40
0.7272727272727274
 40
0.7272727272727274
 40
0.75
 40
0.75
 40
0.7727272727272726
 40
0.7727272727272726
 40
0.7954545454545455
 40
0.7954545454545455
 40
0.8181818181818181
 40
0.8181818181818181
 40
0.840909090909091
 40
0.840909090909091
 40
0.8636363636363634
 40
0.8636363636363634
 40
0.8863636363636363
 40
0.8863636363636363
 40
0.9090909090909091
 40
0.9090909090909091
 40
0.9318181818181818
 40
0.9318181818181818
 40
0.9545454545454546
 40
0.9545454545454546
 40
0.9772727272727273
 40
0.9772727272727273
 40
1.0
 40
1.0
 40
1.0
 10
1.918422806644663
 20
1.480013032068412
 30
0.0
 10
1.918422806644663
 20
1.480013032068412
 30
0.0
 10
1.918422806644663
 20
1.480013032068412
 30
0.0
 10
1.918422806644663
 20
1.48062776211536
 30
0.0
 10
1.918176327771424
 20
1.481742052021464
 30
0.0
 10
1.917929848898184
 20
1.482856341927567
 30
0.0
 10
1.917068346550766
 20
1.485621893570759
 30
0.0
 10
1.913498510870015
 20
1.496571864228037
 30
0.0
 10
1.909928675189264
 20
1.507521834885314
 30
0.0
 10
1.908698628240907
 20
1.511286506246816
 30
0.0
 10
1.90746740758363
 20
1.51428313183367
 30
0.0
 10
1.906236186926353
 20
1.517279757420524
 30
0.0
 10
1.904851797254992
 20
1.519585361880618
 30
0.0
 10
1.90346740758363
 20
1.521890966340713
 30
0.0
 10
1.901867055470954
 20
1.523542961645876
 30
0.0
 10
1.900266703358278
 20
1.525194956951041
 30
0.0
 10
1.898297219790203
 20
1.526270367749163
 30
0.0
 10
1.901804262043724
 20
1.527810860706909
 30
0.0
 10
1.904635247959217
 20
1.530043841927567
 30
0.0
 10
1.90746623387471
 20
1.532276823148224
 30
0.0
 10
1.909496750306635
 20
1.53531819638766
 30
0.0
 10
1.91152726673856
 20
1.538359569627097
 30
0.0
 10
1.912604144672832
 20
1.542325238641182
 30
0.0
 10
1.913681022607104
 20
1.546290907655267
 30
0.0
 10
1.913681022607104
 20
1.551296776199867
 30
0.0
 10
1.913681022607104
 20
1.556455226904093
 30
0.0
 10
1.912480905236213
 20
1.560728994509726
 30
0.0
 10
1.911280787865321
 20
1.56500276211536
 30
0.0
 10
1.908880553123536
 20
1.56831408840644
 30
0.0
 10
1.906480318381753
 20
1.57162541469752
 30
0.0
 10
1.902940999132926
 20
1.57378137127029
 30
0.0
 10
1.8994016798841
 20
1.57593732784306
 30
0.0
 10
1.894786656409921
 20
1.57693791469752
 30
0.0
 10
1.893185717442785
 20
1.577169722209257
 30
0.0
 10
1.891185717442785
 20
1.577361917044938
 30
0.0
 10
1.889185717442785
 20
1.577554111880618
 30
0.0
 10
1.886169285517903
 20
1.577554111880618
 30
0.0
 10
1.877706844203348
 20
1.577554111880618
 30
0.0
 10
1.869244402888794
 20
1.577554111880618
 30
0.0
 10
1.867828909931048
 20
1.577554111880618
 30
0.0
 10
1.866567172841846
 20
1.576362063758552
 30
0.0
 10
1.865305435752644
 20
1.575170015636487
 30
0.0
 10
1.865305435752644
 20
1.572169722209257
 30
0.0
 10
1.865305435752644
 20
1.526092844274985
 30
0.0
 10
1.865305435752644
 20
1.480015966340713
 30
0.0
 10
1.865305435752644
 20
1.479399769157614
 30
0.0
 10
1.865551914625884
 20
1.478938354838365
 30
0.0
 10
1.865798393499123
 20
1.478476940519116
 30
0.0
 10
1.866414003827761
 20
1.478207721035548
 30
0.0
 10
1.8670296141564
 20
1.47793850155198
 30
0.0
 10
1.868045459226823
 20
1.477746306716299
 30
0.0
 10
1.869061304297245
 20
1.477554111880618
 30
0.0
 10
1.870601210400532
 20
1.477554111880618
 30
0.0
 10
1.872141116503818
 20
1.477554111880618
 30
0.0
 10
1.873156961574241
 20
1.477746306716299
 30
0.0
 10
1.874172806644663
 20
1.47793850155198
 30
0.0
 10
1.874757900541377
 20
1.478206987467473
 30
0.0
 10
1.87534299443809
 20
1.478475473382966
 30
0.0
 10
1.875619989743255
 20
1.478936887702215
 30
0.0
 10
1.875896985048419
 20
1.479398302021464
 30
0.0
 10
1.875896985048419
 20
1.480013032068412
 30
0.0
 10
1.875896985048419
 20
1.501177938171698
 30
0.0
 10
1.875896985048419
 20
1.522342844274985
 30
0.0
 10
1.879435130588325
 20
1.522342844274985
 30
0.0
 10
1.882973276128231
 20
1.522342844274985
 30
0.0
 10
1.886604731527292
 20
1.522342844274985
 30
0.0
 10
1.889189238569546
 20
1.520998213993294
 30
0.0
 10
1.891773745611799
 20
1.519653583711605
 30
0.0
 10
1.893681609461564
 20
1.517233542631792
 30
0.0
 10
1.89558947331133
 20
1.51481350155198
 30
0.0
 10
1.896973862982692
 20
1.51147209896982
 30
0.0
 10
1.898358252654053
 20
1.508130696387661
 30
0.0
 10
1.89965050617518
 20
1.504135684650571
 30
0.0
 10
1.903312478006165
 20
1.492419868922872
 30
0.0
 10
1.906974449837152
 20
1.480704053195172
 30
0.0
 10
1.907220928710391
 20
1.479782691692825
 30
0.0
 10
1.907559543733865
 20
1.479167961645876
 30
0.0
 10
1.90789815875734
 20
1.478553231598928
 30
0.0
 10
1.908513769085978
 20
1.478206987467473
 30
0.0
 10
1.909129379414616
 20
1.477860743336018
 30
0.0
 10
1.910144637630579
 20
1.477707427608318
 30
0.0
 10
1.911159895846541
 20
1.477554111880618
 30
0.0
 10
1.912760834813677
 20
1.477554111880618
 30
0.0
 10
1.914607078945133
 20
1.477554111880618
 30
0.0
 10
1.91571447331133
 20
1.477707427608318
 30
0.0
 10
1.916821867677527
 20
1.477860743336018
 30
0.0
 10
1.917437478006165
 20
1.478168108359492
 30
0.0
 10
1.918053088334804
 20
1.478475473382966
 30
0.0
 10
1.918237947489734
 20
1.478936887702215
 30
0.0
 10
1.918422806644663
 20
1.479398302021464
 30
0.0
 10
1.918422806644663
 20
1.480013032068412
 30
0.0
  0
SPLINE
  5
2ABC
330
2E99
100
AcDbEntity
  8
Level 8
  6
Continuous
 62
     7
370
    13
100
AcDbSpline
210
0.0
220
0.0
230
1.0
 70
     9
 71
     2
 72
    28
 73
    25
 74
     0
 42
0.000000001
 43
0.0000000001
 40
0.0
 40
0.0
 40
0.0
 40
0.1
 40
0.1
 40
0.2
 40
0.2
 40
0.3
 40
0.3
 40
0.4
 40
0.4
 40
0.5
 40
0.5
 40
0.5333333333333333
 40
0.5333333333333333
 40
0.5666666666666666
 40
0.5666666666666666
 40
0.6000000000000001
 40
0.6000000000000001
 40
0.7
 40
0.7
 40
0.8
 40
0.8
 40
0.9
 40
0.9
 40
1.0
 40
1.0
 40
1.0
 10
1.902488534344194
 20
1.549932339580149
 30
0.0
 10
1.902488534344194
 20
1.549932339580149
 30
0.0
 10
1.902488534344194
 20
1.549932339580149
 30
0.0
 10
1.902488534344194
 20
1.546308513289069
 30
0.0
 10
1.901534308992081
 20
1.543224593101276
 30
0.0
 10
1.900580083639968
 20
1.540140672913483
 30
0.0
 10
1.898548980353583
 20
1.537865878312544
 30
0.0
 10
1.896517877067198
 20
1.535591083711605
 30
0.0
 10
1.893470928710391
 20
1.534319076669351
 30
0.0
 10
1.890423980353583
 20
1.533047069627097
 30
0.0
 10
1.886238534344194
 20
1.533047069627097
 30
0.0
 10
1.881067759696307
 20
1.533047069627097
 30
0.0
 10
1.875896985048419
 20
1.533047069627097
 30
0.0
 10
1.875896985048419
 20
1.549854581364186
 30
0.0
 10
1.875896985048419
 20
1.566662093101276
 30
0.0
 10
1.880359426362973
 20
1.566662093101276
 30
0.0
 10
1.884821867677527
 20
1.566662093101276
 30
0.0
 10
1.887961539039029
 20
1.566662093101276
 30
0.0
 10
1.889900506175179
 20
1.566431019157614
 30
0.0
 10
1.89183947331133
 20
1.566199945213952
 30
0.0
 10
1.893378205705696
 20
1.565660039110666
 30
0.0
 10
1.898303088334804
 20
1.563886271505032
 30
0.0
 10
1.900395811339499
 20
1.559838442866534
 30
0.0
 10
1.902488534344194
 20
1.555790614228036
 30
0.0
 10
1.902488534344194
 20
1.549932339580149
 30
0.0
  0
SPLINE
  5
2AD7
330
2E99
100
AcDbEntity
  8
Level 8
  6
Continuous
 62
     7
370
    13
100
AcDbSpline
210
0.0
220
0.0
230
1.0
 70
     9
 71
     2
 72
    62
 73
    59
 74
     0
 42
0.000000001
 43
0.0000000001
 40
0.0
 40
0.0
 40
0.0
 40
0.037037037037037
 40
0.037037037037037
 40
0.0740740740740741
 40
0.0740740740740741
 40
0.111111111111111
 40
0.111111111111111
 40
0.1481481481481481
 40
0.1481481481481481
 40
0.1851851851851851
 40
0.1851851851851851
 40
0.2222222222222221
 40
0.2222222222222221
 40
0.2592592592592591
 40
0.2592592592592591
 40
0.2962962962962963
 40
0.2962962962962963
 40
0.3333333333333333
 40
0.3333333333333333
 40
0.3703703703703703
 40
0.3703703703703703
 40
0.4074074074074074
 40
0.4074074074074074
 40
0.4444444444444442
 40
0.4444444444444442
 40
0.4814814814814814
 40
0.4814814814814814
 40
0.5185185185185183
 40
0.5185185185185183
 40
0.5555555555555555
 40
0.5555555555555555
 40
0.5925925925925926
 40
0.5925925925925926
 40
0.6296296296296294
 40
0.6296296296296294
 40
0.6666666666666666
 40
0.6666666666666666
 40
0.6790123456790124
 40
0.6790123456790124
 40
0.6913580246913583
 40
0.6913580246913583
 40
0.7037037037037038
 40
0.7037037037037038
 40
0.7407407407407407
 40
0.7407407407407407
 40
0.7777777777777777
 40
0.7777777777777777
 40
0.8148148148148148
 40
0.8148148148148148
 40
0.8518518518518519
 40
0.8518518518518519
 40
0.8888888888888889
 40
0.8888888888888889
 40
0.9259259259259257
 40
0.9259259259259257
 40
0.9629629629629629
 40
0.9629629629629629
 40
1.0
 40
1.0
 40
1.0
 10
1.993369989743255
 20
1.482703759767943
 30
0.0
 10
1.980014355940437
 20
1.52893908840644
 30
0.0
 10
1.966658722137621
 20
1.575174417044937
 30
0.0
 10
1.966413416973302
 20
1.576020954603623
 30
0.0
 10
1.965982078945133
 20
1.576599006246816
 30
0.0
 10
1.965550740916964
 20
1.577177057890008
 30
0.0
 10
1.964750858287856
 20
1.577485156481557
 30
0.0
 10
1.963950975658748
 20
1.577793255073107
 30
0.0
 10
1.962658722137621
 20
1.5779084252609
 30
0.0
 10
1.961366468616494
 20
1.578023595448694
 30
0.0
 10
1.959396985048419
 20
1.578023595448694
 30
0.0
 10
1.957550740916964
 20
1.578023595448694
 30
0.0
 10
1.956350623546072
 20
1.5779084252609
 30
0.0
 10
1.955150506175179
 20
1.577793255073107
 30
0.0
 10
1.954381139977997
 20
1.577485156481557
 30
0.0
 10
1.953611773780813
 20
1.577177057890008
 30
0.0
 10
1.953211539039029
 20
1.576637885354797
 30
0.0
 10
1.952811304297245
 20
1.576098712819586
 30
0.0
 10
1.952564825424006
 20
1.57525070812475
 30
0.0
 10
1.939209191621189
 20
1.529015379486252
 30
0.0
 10
1.925853557818372
 20
1.482780050847755
 30
0.0
 10
1.925361773780814
 20
1.481086975730384
 30
0.0
 10
1.925330670494428
 20
1.480050444040243
 30
0.0
 10
1.925299567208044
 20
1.479013912350102
 30
0.0
 10
1.925761421668137
 20
1.478476206951041
 30
0.0
 10
1.926223276128231
 20
1.47793850155198
 30
0.0
 10
1.927361773780813
 20
1.477746306716299
 30
0.0
 10
1.928500271433396
 20
1.477554111880618
 30
0.0
 10
1.930285482701001
 20
1.477554111880618
 30
0.0
 10
1.932008487395837
 20
1.477554111880618
 30
0.0
 10
1.933085365330109
 20
1.477707427608318
 30
0.0
 10
1.934162243264381
 20
1.477860743336018
 30
0.0
 10
1.934747337161095
 20
1.478206253899398
 30
0.0
 10
1.935332431057809
 20
1.478551764462778
 30
0.0
 10
1.935639942794898
 20
1.479051324321933
 30
0.0
 10
1.935947454531987
 20
1.479550884181088
 30
0.0
 10
1.936131726832457
 20
1.480241905307848
 30
0.0
 10
1.939394050776119
 20
1.492184393570759
 30
0.0
 10
1.942656374719781
 20
1.50412688183367
 30
0.0
 10
1.95921212589349
 20
1.50412688183367
 30
0.0
 10
1.975767877067198
 20
1.50412688183367
 30
0.0
 10
1.979183956879405
 20
1.49203107784306
 30
0.0
 10
1.982600036691612
 20
1.479935273852449
 30
0.0
 10
1.982845341855931
 20
1.479244252725689
 30
0.0
 10
1.983122337161095
 20
1.478783571974515
 30
0.0
 10
1.98339933246626
 20
1.478322891223341
 30
0.0
 10
1.983984426362973
 20
1.478053671739773
 30
0.0
 10
1.984569520259687
 20
1.477784452256206
 30
0.0
 10
1.985708017912269
 20
1.477669282068412
 30
0.0
 10
1.986846515564851
 20
1.477554111880618
 30
0.0
 10
1.988753792560156
 20
1.477554111880618
 30
0.0
 10
1.990662243264382
 20
1.477554111880618
 30
0.0
 10
1.991800740916964
 20
1.477707427608318
 30
0.0
 10
1.992939238569546
 20
1.477860743336018
 30
0.0
 10
1.993431609461564
 20
1.478398448735078
 30
0.0
 10
1.993923980353583
 20
1.47893615413414
 30
0.0
 10
1.993893463921659
 20
1.479973419392355
 30
0.0
 10
1.993862947489733
 20
1.481010684650571
 30
0.0
 10
1.993369989743255
 20
1.482703759767943
 30
0.0
  0
LWPOLYLINE
  5
2B23
330
2E99
100
AcDbEntity
  8
Level 8
  6
Continuous
 62
     7
370
    13
100
AcDbPolyline
 90
        5
 70
   128
 43
0.0
 10
1.959089
 20
1.564315
 10
1.972998
 20
1.514643
 10
1.945303
 20
1.514643
 10
1.959027
 20
1.564315
 10
1.959089
 20
1.564315
  0
ARC
  5
2B24
330
2E99
100
AcDbEntity
  8
freestand3 - Level 26
  6
Continuous
 62
     7
370
    13
100
AcDbCircle
 10
2.01161
 20
2.053322
 30
0.0
 40
0.02
100
AcDbArc
 50
0.0
 51
359.999994
  0
ARC
  5
2B25
330
2E99
100
AcDbEntity
  8
freestand3 - Level 26
  6
Continuous
 62
     7
370
    13
100
AcDbCircle
 10
2.067833
 20
2.094258
 30
0.0
 40
0.02
100
AcDbArc
 50
68.559822
 51
355.069938
  0
ARC
  5
2B26
330
2E99
100
AcDbEntity
  8
freestand3 - Level 26
  6
Continuous
 62
     7
370
    13
100
AcDbCircle
 10
2.09272
 20
2.139283
 30
0.0
 40
0.02
100
AcDbArc
 50
0.0
 51
61.913558
  0
ARC
  5
2B27
330
2E99
100
AcDbEntity
  8
freestand3 - Level 26
  6
Continuous
 62
     7
370
    13
100
AcDbCircle
 10
2.09272
 20
2.139283
 30
0.0
 40
0.02
100
AcDbArc
 50
187.098623
 51
229.654835
  0
ARC
  5
2B28
330
2E99
100
AcDbEntity
  8
freestand3 - Level 26
  6
Continuous
 62
     7
370
    13
100
AcDbCircle
 10
2.09272
 20
2.139283
 30
0.0
 40
0.02
100
AcDbArc
 50
319.893771
 51
0.0
  0
ARC
  5
2B29
330
2E99
100
AcDbEntity
  8
freestand3 - Level 26
  6
Continuous
 62
     7
370
    13
100
AcDbCircle
 10
2.004198
 20
2.111156
 30
0.0
 40
0.02
100
AcDbArc
 50
0.0
 51
359.999994
  0
ARC
  5
2B2A
330
2E99
100
AcDbEntity
  8
freestand3 - Level 26
  6
Continuous
 62
     7
370
    13
100
AcDbCircle
 10
1.991418
 20
2.154456
 30
0.0
 40
0.02
100
AcDbArc
 50
0.0
 51
359.999994
  0
SPLINE
  5
2B2B
330
2E99
100
AcDbEntity
  8
Level 8
  6
Continuous
 62
     7
370
    13
100
AcDbSpline
210
0.0
220
0.0
230
1.0
 70
     9
 71
     2
 72
    62
 73
    59
 74
     0
 42
0.000000001
 43
0.0000000001
 40
0.0
 40
0.0
 40
0.0
 40
0.037037037037037
 40
0.037037037037037
 40
0.0740740740740741
 40
0.0740740740740741
 40
0.111111111111111
 40
0.111111111111111
 40
0.1481481481481481
 40
0.1481481481481481
 40
0.1851851851851851
 40
0.1851851851851851
 40
0.2222222222222221
 40
0.2222222222222221
 40
0.2592592592592591
 40
0.2592592592592591
 40
0.2962962962962963
 40
0.2962962962962963
 40
0.3333333333333333
 40
0.3333333333333333
 40
0.3703703703703703
 40
0.3703703703703703
 40
0.4074074074074074
 40
0.4074074074074074
 40
0.4444444444444442
 40
0.4444444444444442
 40
0.4814814814814814
 40
0.4814814814814814
 40
0.5185185185185183
 40
0.5185185185185183
 40
0.5555555555555555
 40
0.5555555555555555
 40
0.5925925925925926
 40
0.5925925925925926
 40
0.6296296296296294
 40
0.6296296296296294
 40
0.6666666666666666
 40
0.6666666666666666
 40
0.6790123456790124
 40
0.6790123456790124
 40
0.6913580246913583
 40
0.6913580246913583
 40
0.7037037037037038
 40
0.7037037037037038
 40
0.7407407407407407
 40
0.7407407407407407
 40
0.7777777777777777
 40
0.7777777777777777
 40
0.8148148148148148
 40
0.8148148148148148
 40
0.8518518518518519
 40
0.8518518518518519
 40
0.8888888888888889
 40
0.8888888888888889
 40
0.9259259259259257
 40
0.9259259259259257
 40
0.9629629629629629
 40
0.9629629629629629
 40
1.0
 40
1.0
 40
1.0
 10
2.132637595377058
 20
1.482703759767943
 30
0.0
 10
2.119281961574241
 20
1.52893908840644
 30
0.0
 10
2.105926327771424
 20
1.575174417044937
 30
0.0
 10
2.105681022607104
 20
1.576020954603623
 30
0.0
 10
2.105249684578935
 20
1.576599006246816
 30
0.0
 10
2.104818346550767
 20
1.577177057890008
 30
0.0
 10
2.104018463921659
 20
1.577485156481557
 30
0.0
 10
2.10321858129255
 20
1.577793255073107
 30
0.0
 10
2.101926327771424
 20
1.5779084252609
 30
0.0
 10
2.100634074250297
 20
1.578023595448694
 30
0.0
 10
2.098664590682222
 20
1.578023595448694
 30
0.0
 10
2.096818346550767
 20
1.578023595448694
 30
0.0
 10
2.095618229179875
 20
1.5779084252609
 30
0.0
 10
2.094418111808983
 20
1.577793255073107
 30
0.0
 10
2.093648745611799
 20
1.577485156481557
 30
0.0
 10
2.092879379414616
 20
1.577177057890008
 30
0.0
 10
2.092479144672832
 20
1.576637885354797
 30
0.0
 10
2.092078909931048
 20
1.576098712819586
 30
0.0
 10
2.091832431057809
 20
1.57525070812475
 30
0.0
 10
2.078476797254992
 20
1.529015379486252
 30
0.0
 10
2.065121163452175
 20
1.482780050847755
 30
0.0
 10
2.064629379414616
 20
1.481086975730384
 30
0.0
 10
2.064598276128231
 20
1.480050444040243
 30
0.0
 10
2.064567172841846
 20
1.479013912350102
 30
0.0
 10
2.06502902730194
 20
1.478476206951041
 30
0.0
 10
2.065490881762034
 20
1.47793850155198
 30
0.0
 10
2.066629379414616
 20
1.477746306716299
 30
0.0
 10
2.067767877067198
 20
1.477554111880618
 30
0.0
 10
2.069553088334804
 20
1.477554111880618
 30
0.0
 10
2.07127609302964
 20
1.477554111880618
 30
0.0
 10
2.072352970963912
 20
1.477707427608318
 30
0.0
 10
2.073429848898184
 20
1.477860743336018
 30
0.0
 10
2.074014942794898
 20
1.478206253899398
 30
0.0
 10
2.074600036691611
 20
1.478551764462778
 30
0.0
 10
2.0749075484287
 20
1.479051324321933
 30
0.0
 10
2.07521506016579
 20
1.479550884181088
 30
0.0
 10
2.075399332466259
 20
1.480241905307848
 30
0.0
 10
2.078661656409921
 20
1.492184393570759
 30
0.0
 10
2.081923980353583
 20
1.50412688183367
 30
0.0
 10
2.098479731527292
 20
1.50412688183367
 30
0.0
 10
2.115035482701001
 20
1.50412688183367
 30
0.0
 10
2.118451562513208
 20
1.49203107784306
 30
0.0
 10
2.121867642325414
 20
1.479935273852449
 30
0.0
 10
2.122112947489733
 20
1.479244252725689
 30
0.0
 10
2.122389942794898
 20
1.478783571974515
 30
0.0
 10
2.122666938100062
 20
1.478322891223341
 30
0.0
 10
2.123252031996776
 20
1.478053671739773
 30
0.0
 10
2.12383712589349
 20
1.477784452256206
 30
0.0
 10
2.124975623546072
 20
1.477669282068412
 30
0.0
 10
2.126114121198654
 20
1.477554111880618
 30
0.0
 10
2.128021398193959
 20
1.477554111880618
 30
0.0
 10
2.129929848898184
 20
1.477554111880618
 30
0.0
 10
2.131068346550766
 20
1.477707427608318
 30
0.0
 10
2.132206844203349
 20
1.477860743336018
 30
0.0
 10
2.132699215095367
 20
1.478398448735078
 30
0.0
 10
2.133191585987386
 20
1.47893615413414
 30
0.0
 10
2.133161069555461
 20
1.479973419392355
 30
0.0
 10
2.133130553123536
 20
1.481010684650571
 30
0.0
 10
2.132637595377058
 20
1.482703759767943
 30
0.0
  0
LWPOLYLINE
  5
2B77
330
2E99
100
AcDbEntity
  8
Level 8
  6
Continuous
 62
     7
370
    13
100
AcDbPolyline
 90
        5
 70
   128
 43
0.0
 10
2.098357
 20
1.564315
 10
2.112266
 20
1.514643
 10
2.084571
 20
1.514643
 10
2.098295
 20
1.564315
 10
2.098357
 20
1.564315
  0
SPLINE
  5
2B78
330
2E99
100
AcDbEntity
  8
Level 8
  6
Continuous
 62
     7
370
    13
100
AcDbSpline
210
0.0
220
0.0
230
1.0
 70
     9
 71
     2
 72
    62
 73
    59
 74
     0
 42
0.000000001
 43
0.0000000001
 40
0.0
 40
0.0
 40
0.0
 40
0.0344827586206897
 40
0.0344827586206897
 40
0.0689655172413793
 40
0.0689655172413793
 40
0.1034482758620689
 40
0.1034482758620689
 40
0.1379310344827586
 40
0.1379310344827586
 40
0.1724137931034482
 40
0.1724137931034482
 40
0.2068965517241378
 40
0.2068965517241378
 40
0.2413793103448274
 40
0.2413793103448274
 40
0.2758620689655173
 40
0.2758620689655173
 40
0.3103448275862069
 40
0.3103448275862069
 40
0.3448275862068964
 40
0.3448275862068964
 40
0.3793103448275861
 40
0.3793103448275861
 40
0.4137931034482756
 40
0.4137931034482756
 40
0.4482758620689654
 40
0.4482758620689654
 40
0.4827586206896549
 40
0.4827586206896549
 40
0.5172413793103448
 40
0.5172413793103448
 40
0.5517241379310346
 40
0.5517241379310346
 40
0.5862068965517239
 40
0.5862068965517239
 40
0.6206896551724138
 40
0.6206896551724138
 40
0.6551724137931033
 40
0.6551724137931033
 40
0.6896551724137929
 40
0.6896551724137929
 40
0.7241379310344826
 40
0.7241379310344826
 40
0.7586206896551725
 40
0.7586206896551725
 40
0.7931034482758622
 40
0.7931034482758622
 40
0.8275862068965517
 40
0.8275862068965517
 40
0.8620689655172412
 40
0.8620689655172412
 40
0.8965517241379309
 40
0.8965517241379309
 40
0.9310344827586206
 40
0.9310344827586206
 40
0.9655172413793103
 40
0.9655172413793103
 40
1.0
 40
1.0
 40
1.0
 10
2.165820693968607
 20
1.584069663523811
 30
0.0
 10
2.159973276128231
 20
1.568598712819586
 30
0.0
 10
2.157111186926353
 20
1.552319370096581
 30
0.0
 10
2.154249097724475
 20
1.536040027373576
 30
0.0
 10
2.154249097724475
 20
1.519568489814891
 30
0.0
 10
2.154249097724475
 20
1.503020661176393
 30
0.0
 10
2.157172806644664
 20
1.48678019756137
 30
0.0
 10
2.160096515564851
 20
1.470539733946346
 30
0.0
 10
2.165697454531987
 20
1.454914733946346
 30
0.0
 10
2.166004966269077
 20
1.453990438171698
 30
0.0
 10
2.166035482701001
 20
1.453336095448694
 30
0.0
 10
2.166065999132926
 20
1.452681752725689
 30
0.0
 10
2.165635247959217
 20
1.452258483946346
 30
0.0
 10
2.165204496785508
 20
1.451835215167004
 30
0.0
 10
2.164312478006165
 20
1.451643020331323
 30
0.0
 10
2.163420459226823
 20
1.451450825495642
 30
0.0
 10
2.161881726832457
 20
1.451450825495642
 30
0.0
 10
2.160773745611799
 20
1.451450825495642
 30
0.0
 10
2.159973276128231
 20
1.45152785014353
 30
0.0
 10
2.159172806644663
 20
1.451604874791417
 30
0.0
 10
2.158588299602409
 20
1.451835948735078
 30
0.0
 10
2.158003792560156
 20
1.452067022678741
 30
0.0
 10
2.157634661104756
 20
1.452374387702215
 30
0.0
 10
2.157265529649358
 20
1.452681752725689
 30
0.0
 10
2.157080083639968
 20
1.4530676095332
 30
0.0
 10
2.153757313686917
 20
1.460918255073107
 30
0.0
 10
2.151233839508513
 20
1.468961829016769
 30
0.0
 10
2.148710365330109
 20
1.477005402960431
 30
0.0
 10
2.146986773780814
 20
1.485317462819585
 30
0.0
 10
2.145263182231518
 20
1.493629522678741
 30
0.0
 10
2.1444016798841
 20
1.502135244509726
 30
0.0
 10
2.143540177536682
 20
1.510640966340712
 30
0.0
 10
2.143540177536682
 20
1.519338149439304
 30
0.0
 10
2.143540177536682
 20
1.528035332537895
 30
0.0
 10
2.144494402888795
 20
1.5365021752609
 30
0.0
 10
2.145448628240907
 20
1.544969017983905
 30
0.0
 10
2.147202149367668
 20
1.553319956951041
 30
0.0
 10
2.148955670494429
 20
1.561670895918177
 30
0.0
 10
2.151479144672832
 20
1.56975334896982
 30
0.0
 10
2.154002618851236
 20
1.577835802021463
 30
0.0
 10
2.157142290212738
 20
1.585762738641182
 30
0.0
 10
2.157203323076588
 20
1.586070837232731
 30
0.0
 10
2.157480318381753
 20
1.586301911176393
 30
0.0
 10
2.157757313686917
 20
1.586532985120055
 30
0.0
 10
2.158249684578935
 20
1.586764059063717
 30
0.0
 10
2.158742055470955
 20
1.586995133007379
 30
0.0
 10
2.159604144672832
 20
1.587110303195172
 30
0.0
 10
2.16046623387471
 20
1.587225473382966
 30
0.0
 10
2.161819520259687
 20
1.587225473382966
 30
0.0
 10
2.163235013217433
 20
1.587225473382966
 30
0.0
 10
2.164096515564851
 20
1.586994399439304
 30
0.0
 10
2.164958017912269
 20
1.586763325495642
 30
0.0
 10
2.165450388804287
 20
1.58637893582428
 30
0.0
 10
2.165942759696307
 20
1.585994546152919
 30
0.0
 10
2.166004379414616
 20
1.58537834896982
 30
0.0
 10
2.166065999132926
 20
1.584762151786722
 30
0.0
 10
2.165820693968607
 20
1.584069663523811
 30
0.0
 10
2.165820693968607
 20
1.584069663523811
 30
0.0
 10
2.165820693968607
 20
1.584069663523811
 30
0.0
  0
SPLINE
  5
2BCE
330
2E99
100
AcDbEntity
  8
Level 8
  6
Continuous
 62
     7
370
    13
100
AcDbSpline
210
0.0
220
0.0
230
1.0
 70
     9
 71
     2
 72
    58
 73
    55
 74
     0
 42
0.000000001
 43
0.0000000001
 40
0.0
 40
0.0
 40
0.0
 40
0.037037037037037
 40
0.037037037037037
 40
0.0740740740740741
 40
0.0740740740740741
 40
0.111111111111111
 40
0.111111111111111
 40
0.1481481481481481
 40
0.1481481481481481
 40
0.1851851851851851
 40
0.1851851851851851
 40
0.2222222222222221
 40
0.2222222222222221
 40
0.2592592592592591
 40
0.2592592592592591
 40
0.2962962962962963
 40
0.2962962962962963
 40
0.3333333333333333
 40
0.3333333333333333
 40
0.3703703703703703
 40
0.3703703703703703
 40
0.4074074074074074
 40
0.4074074074074074
 40
0.4444444444444442
 40
0.4444444444444442
 40
0.4814814814814814
 40
0.4814814814814814
 40
0.5185185185185183
 40
0.5185185185185183
 40
0.5555555555555555
 40
0.5555555555555555
 40
0.5925925925925926
 40
0.5925925925925926
 40
0.6296296296296294
 40
0.6296296296296294
 40
0.6666666666666666
 40
0.6666666666666666
 40
0.7037037037037038
 40
0.7037037037037038
 40
0.7407407407407407
 40
0.7407407407407407
 40
0.7777777777777777
 40
0.7777777777777777
 40
0.8148148148148148
 40
0.8148148148148148
 40
0.8518518518518519
 40
0.8518518518518519
 40
0.8888888888888889
 40
0.8888888888888889
 40
0.9259259259259257
 40
0.9259259259259257
 40
0.9629629629629629
 40
0.9629629629629629
 40
1.0
 40
1.0
 40
1.0
 10
2.509136421668137
 20
1.519338149439304
 30
0.0
 10
2.509136421668137
 20
1.510640966340712
 30
0.0
 10
2.508274919320719
 20
1.502135244509726
 30
0.0
 10
2.507413416973302
 20
1.493629522678741
 30
0.0
 10
2.505689825424006
 20
1.485317462819585
 30
0.0
 10
2.50396623387471
 20
1.477005402960431
 30
0.0
 10
2.501473862982692
 20
1.468961829016769
 30
0.0
 10
2.498981492090672
 20
1.460918255073107
 30
0.0
 10
2.495657548428701
 20
1.4530676095332
 30
0.0
 10
2.495473276128231
 20
1.452681752725689
 30
0.0
 10
2.495104144672832
 20
1.452374387702215
 30
0.0
 10
2.494735013217433
 20
1.452067022678741
 30
0.0
 10
2.494149919320719
 20
1.451835948735078
 30
0.0
 10
2.493564825424006
 20
1.451604874791417
 30
0.0
 10
2.492764942794898
 20
1.45152785014353
 30
0.0
 10
2.49196506016579
 20
1.451450825495642
 30
0.0
 10
2.490857078945133
 20
1.451450825495642
 30
0.0
 10
2.489257313686917
 20
1.451450825495642
 30
0.0
 10
2.488364708053114
 20
1.451643020331323
 30
0.0
 10
2.487472102419311
 20
1.451835215167004
 30
0.0
 10
2.487071867677527
 20
1.452258483946346
 30
0.0
 10
2.486671632935743
 20
1.452681752725689
 30
0.0
 10
2.486702736222128
 20
1.453336095448694
 30
0.0
 10
2.486733839508513
 20
1.453990438171698
 30
0.0
 10
2.487041351245602
 20
1.454914733946346
 30
0.0
 10
2.492703323076588
 20
1.470461975730384
 30
0.0
 10
2.495595928710391
 20
1.486741318453389
 30
0.0
 10
2.498488534344194
 20
1.503020661176393
 30
0.0
 10
2.498488534344194
 20
1.519568489814891
 30
0.0
 10
2.498488534344194
 20
1.536040027373576
 30
0.0
 10
2.495595928710391
 20
1.552319370096581
 30
0.0
 10
2.492703323076588
 20
1.568598712819586
 30
0.0
 10
2.486918111808983
 20
1.584069663523811
 30
0.0
 10
2.486671632935743
 20
1.584762151786722
 30
0.0
 10
2.486733252654053
 20
1.58537834896982
 30
0.0
 10
2.486794872372363
 20
1.585994546152919
 30
0.0
 10
2.487287243264381
 20
1.58637893582428
 30
0.0
 10
2.4877796141564
 20
1.586763325495642
 30
0.0
 10
2.488641703358279
 20
1.586994399439304
 30
0.0
 10
2.489503792560156
 20
1.587225473382966
 30
0.0
 10
2.490919285517902
 20
1.587225473382966
 30
0.0
 10
2.492211539039029
 20
1.587225473382966
 30
0.0
 10
2.493073041386447
 20
1.587110303195172
 30
0.0
 10
2.493934543733865
 20
1.586995133007379
 30
0.0
 10
2.494457431057809
 20
1.586764059063717
 30
0.0
 10
2.494980318381752
 20
1.586532985120055
 30
0.0
 10
2.495226797254991
 20
1.586301911176393
 30
0.0
 10
2.495473276128231
 20
1.586070837232731
 30
0.0
 10
2.495596515564851
 20
1.585762738641182
 30
0.0
 10
2.501935717442785
 20
1.569983689345407
 30
0.0
 10
2.505536069555461
 20
1.553319956951041
 30
0.0
 10
2.509136421668137
 20
1.536656224556675
 30
0.0
 10
2.509136421668137
 20
1.519338149439304
 30
0.0
 10
2.509136421668137
 20
1.519338149439304
 30
0.0
 10
2.509136421668137
 20
1.519338149439304
 30
0.0
  0
SPLINE
  5
2C1E
330
2E99
100
AcDbEntity
  8
Level 8
  6
Continuous
 62
     7
370
    13
100
AcDbSpline
210
0.0
220
0.0
230
1.0
 70
     9
 71
     2
 72
   130
 73
   127
 74
     0
 42
0.000000001
 43
0.0000000001
 40
0.0
 40
0.0
 40
0.0
 40
0.0158730158730159
 40
0.0158730158730159
 40
0.0317460317460318
 40
0.0317460317460318
 40
0.0476190476190476
 40
0.0476190476190476
 40
0.0634920634920635
 40
0.0634920634920635
 40
0.0793650793650794
 40
0.0793650793650794
 40
0.0952380952380952
 40
0.0952380952380952
 40
0.111111111111111
 40
0.111111111111111
 40
0.1269841269841269
 40
0.1269841269841269
 40
0.1428571428571428
 40
0.1428571428571428
 40
0.1587301587301587
 40
0.1587301587301587
 40
0.1746031746031745
 40
0.1746031746031745
 40
0.1904761904761903
 40
0.1904761904761903
 40
0.2063492063492063
 40
0.2063492063492063
 40
0.222222222222222
 40
0.222222222222222
 40
0.2380952380952381
 40
0.2380952380952381
 40
0.2539682539682539
 40
0.2539682539682539
 40
0.2698412698412698
 40
0.2698412698412698
 40
0.2857142857142856
 40
0.2857142857142856
 40
0.3015873015873014
 40
0.3015873015873014
 40
0.3174603174603174
 40
0.3174603174603174
 40
0.3333333333333331
 40
0.3333333333333331
 40
0.3492063492063489
 40
0.3492063492063489
 40
0.3650793650793651
 40
0.3650793650793651
 40
0.3809523809523805
 40
0.3809523809523805
 40
0.3968253968253967
 40
0.3968253968253967
 40
0.4126984126984127
 40
0.4126984126984127
 40
0.4285714285714282
 40
0.4285714285714282
 40
0.444444444444444
 40
0.444444444444444
 40
0.46031746031746
 40
0.46031746031746
 40
0.4761904761904762
 40
0.4761904761904762
 40
0.4920634920634917
 40
0.4920634920634917
 40
0.5079365079365079
 40
0.5079365079365079
 40
0.5238095238095238
 40
0.5238095238095238
 40
0.5396825396825396
 40
0.5396825396825396
 40
0.5555555555555554
 40
0.5555555555555554
 40
0.5714285714285713
 40
0.5714285714285713
 40
0.5873015873015872
 40
0.5873015873015872
 40
0.6031746031746028
 40
0.6031746031746028
 40
0.6190476190476188
 40
0.6190476190476188
 40
0.6349206349206349
 40
0.6349206349206349
 40
0.6507936507936504
 40
0.6507936507936504
 40
0.6666666666666665
 40
0.6666666666666665
 40
0.6825396825396823
 40
0.6825396825396823
 40
0.6984126984126982
 40
0.6984126984126982
 40
0.714285714285714
 40
0.714285714285714
 40
0.7301587301587303
 40
0.7301587301587303
 40
0.7460317460317457
 40
0.7460317460317457
 40
0.7619047619047619
 40
0.7619047619047619
 40
0.7777777777777777
 40
0.7777777777777777
 40
0.7936507936507934
 40
0.7936507936507934
 40
0.8095238095238091
 40
0.8095238095238091
 40
0.8253968253968253
 40
0.8253968253968253
 40
0.8412698412698411
 40
0.8412698412698411
 40
0.8571428571428571
 40
0.8571428571428571
 40
0.8730158730158727
 40
0.8730158730158727
 40
0.8888888888888887
 40
0.8888888888888887
 40
0.9047619047619047
 40
0.9047619047619047
 40
0.9206349206349205
 40
0.9206349206349205
 40
0.9365079365079365
 40
0.9365079365079365
 40
0.9523809523809523
 40
0.9523809523809523
 40
0.9682539682539681
 40
0.9682539682539681
 40
0.984126984126984
 40
0.984126984126984
 40
1.0
 40
1.0
 40
1.0
 10
2.283033135283161
 20
1.505927057890008
 30
0.0
 10
2.283033135283161
 20
1.498921482772637
 30
0.0
 10
2.280972102419311
 20
1.493456400613013
 30
0.0
 10
2.278911069555461
 20
1.487991318453389
 30
0.0
 10
2.275249684578935
 20
1.484180432303154
 30
0.0
 10
2.271588299602409
 20
1.480369546152919
 30
0.0
 10
2.266635834813677
 20
1.478445397091886
 30
0.0
 10
2.261683370024945
 20
1.476521248030853
 30
0.0
 10
2.255960365330109
 20
1.476521248030853
 30
0.0
 10
2.251961539039029
 20
1.476521248030853
 30
0.0
 10
2.248546632935743
 20
1.477360449908787
 30
0.0
 10
2.245131726832457
 20
1.478199651786722
 30
0.0
 10
2.242455083639968
 20
1.479420309063717
 30
0.0
 10
2.23977844044748
 20
1.480640966340712
 30
0.0
 10
2.23796329960241
 20
1.48193791469752
 30
0.0
 10
2.236148158757339
 20
1.483234863054327
 30
0.0
 10
2.235440999132926
 20
1.484150356012074
 30
0.0
 10
2.234733839508513
 20
1.485065848969821
 30
0.0
 10
2.234395224485039
 20
1.486488971035548
 30
0.0
 10
2.234056609461565
 20
1.487912093101276
 30
0.0
 10
2.234056609461565
 20
1.490297656481557
 30
0.0
 10
2.234056609461565
 20
1.491990731598929
 30
0.0
 10
2.234179848898184
 20
1.493106488641182
 30
0.0
 10
2.234303088334804
 20
1.494222245683435
 30
0.0
 10
2.234549567208043
 20
1.494914733946346
 30
0.0
 10
2.234796046081283
 20
1.495607222209257
 30
0.0
 10
2.235165177536682
 20
1.495876441692825
 30
0.0
 10
2.235534308992081
 20
1.496145661176393
 30
0.0
 10
2.23602726673856
 20
1.496145661176393
 30
0.0
 10
2.236889942794898
 20
1.496145661176393
 30
0.0
 10
2.238459778475649
 20
1.494842110706909
 30
0.0
 10
2.2400296141564
 20
1.493538560237426
 30
0.0
 10
2.242493229179875
 20
1.492005402960431
 30
0.0
 10
2.244956844203348
 20
1.490472245683435
 30
0.0
 10
2.248436304297245
 20
1.489130549674046
 30
0.0
 10
2.251915764391142
 20
1.487788853664656
 30
0.0
 10
2.256472102419311
 20
1.487788853664656
 30
0.0
 10
2.259920459226822
 20
1.487788853664656
 30
0.0
 10
2.262784308992081
 20
1.488947157655267
 30
0.0
 10
2.265648158757339
 20
1.490105461645876
 30
0.0
 10
2.267710952184569
 20
1.492228407655267
 30
0.0
 10
2.269773745611799
 20
1.494351353664656
 30
0.0
 10
2.270882313686917
 20
1.497438941692825
 30
0.0
 10
2.271990881762034
 20
1.500526529720994
 30
0.0
 10
2.271990881762034
 20
1.504464323148224
 30
0.0
 10
2.271990881762034
 20
1.508698478077801
 30
0.0
 10
2.270450388804287
 20
1.511700238641182
 30
0.0
 10
2.268909895846541
 20
1.514701999204562
 30
0.0
 10
2.266384074250297
 20
1.516973125965125
 30
0.0
 10
2.263858252654053
 20
1.519244252725689
 30
0.0
 10
2.260623510870015
 20
1.521130256246816
 30
0.0
 10
2.257388769085978
 20
1.523016259767943
 30
0.0
 10
2.254000271433396
 20
1.524979287936956
 30
0.0
 10
2.250611773780813
 20
1.52694231610597
 30
0.0
 10
2.247408135283161
 20
1.529328613054327
 30
0.0
 10
2.244204496785508
 20
1.531714910002684
 30
0.0
 10
2.241678088334804
 20
1.534947744509726
 30
0.0
 10
2.2391516798841
 20
1.538180579016769
 30
0.0
 10
2.237580670494429
 20
1.54252990413414
 30
0.0
 10
2.236009661104757
 20
1.54687922925151
 30
0.0
 10
2.236009661104757
 20
1.552960508594233
 30
0.0
 10
2.236009661104757
 20
1.559195837232731
 30
0.0
 10
2.237824801949828
 20
1.564084334885314
 30
0.0
 10
2.239639942794898
 20
1.568972832537895
 30
0.0
 10
2.242869989743255
 20
1.572282691692825
 30
0.0
 10
2.246100036691611
 20
1.575592550847755
 30
0.0
 10
2.250561304297245
 20
1.577324505073107
 30
0.0
 10
2.255022571902879
 20
1.579056459298459
 30
0.0
 10
2.260190412278466
 20
1.579056459298459
 30
0.0
 10
2.262835952184569
 20
1.579056459298459
 30
0.0
 10
2.265512595377058
 20
1.578485009767943
 30
0.0
 10
2.268189238569546
 20
1.577913560237426
 30
0.0
 10
2.270558370024945
 20
1.576962122443999
 30
0.0
 10
2.272927501480344
 20
1.576010684650571
 30
0.0
 10
2.274773158757339
 20
1.574829640049632
 30
0.0
 10
2.276618816034335
 20
1.573648595448694
 30
0.0
 10
2.277203323076588
 20
1.572925297326628
 30
0.0
 10
2.277787830118842
 20
1.572201999204563
 30
0.0
 10
2.277972102419311
 20
1.571777996857145
 30
0.0
 10
2.278156374719781
 20
1.571353994509726
 30
0.0
 10
2.2782796141564
 20
1.570698918218647
 30
0.0
 10
2.27840285359302
 20
1.570043841927567
 30
0.0
 10
2.27846447331133
 20
1.569119546152919
 30
0.0
 10
2.27852609302964
 20
1.568195250378271
 30
0.0
 10
2.27852609302964
 20
1.566731048500337
 30
0.0
 10
2.27852609302964
 20
1.565343137702215
 30
0.0
 10
2.278433956879405
 20
1.564264792631792
 30
0.0
 10
2.27834182072917
 20
1.56318644756137
 30
0.0
 10
2.278156961574241
 20
1.562454346622402
 30
0.0
 10
2.277972102419311
 20
1.561722245683435
 30
0.0
 10
2.277633487395837
 20
1.561375267983905
 30
0.0
 10
2.277294872372363
 20
1.561028290284374
 30
0.0
 10
2.276862947489733
 20
1.561028290284374
 30
0.0
 10
2.276185717442785
 20
1.561028290284374
 30
0.0
 10
2.274738534344193
 20
1.562100033242121
 30
0.0
 10
2.273291351245602
 20
1.563171776199868
 30
0.0
 10
2.271198041386447
 20
1.564511271505032
 30
0.0
 10
2.269104731527292
 20
1.565850766810196
 30
0.0
 10
2.266241468616494
 20
1.566960655307848
 30
0.0
 10
2.263378205705696
 20
1.568070543805501
 30
0.0
 10
2.259806609461564
 20
1.568070543805501
 30
0.0
 10
2.256480318381753
 20
1.568070543805501
 30
0.0
 10
2.254017290212738
 20
1.566952586059022
 30
0.0
 10
2.251554262043724
 20
1.565834628312544
 30
0.0
 10
2.249953323076588
 20
1.563984569627097
 30
0.0
 10
2.248352384109452
 20
1.562134510941651
 30
0.0
 10
2.247551914625883
 20
1.559589763289069
 30
0.0
 10
2.246751445142316
 20
1.557045015636487
 30
0.0
 10
2.246751445142316
 20
1.554192902960431
 30
0.0
 10
2.246751445142316
 20
1.550036506246816
 30
0.0
 10
2.248291351245602
 20
1.54703401211536
 30
0.0
 10
2.249831257348889
 20
1.544031517983905
 30
0.0
 10
2.252387595377058
 20
1.541722245683435
 30
0.0
 10
2.254943933405227
 20
1.539412973382966
 30
0.0
 10
2.258208604766729
 20
1.537488824321933
 30
0.0
 10
2.261473276128231
 20
1.5355646752609
 30
0.0
 10
2.264861186926353
 20
1.533601647091886
 30
0.0
 10
2.268249097724476
 20
1.531638618922872
 30
0.0
 10
2.271513769085978
 20
1.529290467514421
 30
0.0
 10
2.27477844044748
 20
1.52694231610597
 30
0.0
 10
2.277334778475649
 20
1.523747627138834
 30
0.0
 10
2.279891116503819
 20
1.520552938171698
 30
0.0
 10
2.28146212589349
 20
1.516203613054327
 30
0.0
 10
2.283033135283161
 20
1.511854287936956
 30
0.0
 10
2.283033135283161
 20
1.505927057890008
 30
0.0
 10
2.283033135283161
 20
1.505927057890008
 30
0.0
 10
2.283033135283161
 20
1.505927057890008
 30
0.0
  0
SPLINE
  5
2CDA
330
2E99
100
AcDbEntity
  8
Level 8
  6
Continuous
 62
     7
370
    13
100
AcDbSpline
210
0.0
220
0.0
230
1.0
 70
     9
 71
     2
 72
   106
 73
   103
 74
     0
 42
0.000000001
 43
0.0000000001
 40
0.0
 40
0.0
 40
0.0
 40
0.02
 40
0.02
 40
0.04
 40
0.04
 40
0.06
 40
0.06
 40
0.08
 40
0.08
 40
0.1
 40
0.1
 40
0.1199999999999999
 40
0.1199999999999999
 40
0.1399999999999999
 40
0.1399999999999999
 40
0.16
 40
0.16
 40
0.18
 40
0.18
 40
0.1999999999999999
 40
0.1999999999999999
 40
0.2199999999999999
 40
0.2199999999999999
 40
0.2399999999999999
 40
0.2399999999999999
 40
0.26
 40
0.26
 40
0.2799999999999998
 40
0.2799999999999998
 40
0.3
 40
0.3
 40
0.3199999999999999
 40
0.3199999999999999
 40
0.3399999999999999
 40
0.3399999999999999
 40
0.36
 40
0.36
 40
0.3799999999999999
 40
0.3799999999999999
 40
0.3999999999999999
 40
0.3999999999999999
 40
0.4199999999999999
 40
0.4199999999999999
 40
0.4399999999999999
 40
0.4399999999999999
 40
0.4600000000000001
 40
0.4600000000000001
 40
0.4799999999999998
 40
0.4799999999999998
 40
0.5
 40
0.5
 40
0.52
 40
0.52
 40
0.5399999999999997
 40
0.5399999999999997
 40
0.5599999999999996
 40
0.5599999999999996
 40
0.5799999999999997
 40
0.5799999999999997
 40
0.6
 40
0.6
 40
0.6199999999999998
 40
0.6199999999999998
 40
0.6399999999999999
 40
0.6399999999999999
 40
0.6600000000000001
 40
0.6600000000000001
 40
0.6799999999999998
 40
0.6799999999999998
 40
0.6999999999999999
 40
0.6999999999999999
 40
0.72
 40
0.72
 40
0.7400000000000001
 40
0.7400000000000001
 40
0.7599999999999998
 40
0.7599999999999998
 40
0.7799999999999999
 40
0.7799999999999999
 40
0.7999999999999999
 40
0.7999999999999999
 40
0.8200000000000001
 40
0.8200000000000001
 40
0.84
 40
0.84
 40
0.85
 40
0.85
 40
0.8599999999999999
 40
0.8599999999999999
 40
0.8799999999999998
 40
0.8799999999999998
 40
0.9
 40
0.9
 40
0.9200000000000001
 40
0.9200000000000001
 40
0.94
 40
0.94
 40
0.9599999999999999
 40
0.9599999999999999
 40
0.98
 40
0.98
 40
1.0
 40
1.0
 40
1.0
 10
2.471803088334804
 20
1.509976353664656
 30
0.0
 10
2.471803088334804
 20
1.501977527373576
 30
0.0
 10
2.46965050617518
 20
1.495748067279679
 30
0.0
 10
2.467497924015555
 20
1.489518607185783
 30
0.0
 10
2.463561304297245
 20
1.485249974556675
 30
0.0
 10
2.459624684578936
 20
1.480981341927567
 30
0.0
 10
2.454181022607105
 20
1.47875129497921
 30
0.0
 10
2.448737360635274
 20
1.476521248030853
 30
0.0
 10
2.442094168147011
 20
1.476521248030853
 30
0.0
 10
2.43840285359302
 20
1.476521248030853
 30
0.0
 10
2.435081257348889
 20
1.477175590753858
 30
0.0
 10
2.431759661104758
 20
1.477829933476862
 30
0.0
 10
2.429176327771424
 20
1.478792374791417
 30
0.0
 10
2.42659299443809
 20
1.479754816105971
 30
0.0
 10
2.424932196316024
 20
1.480678378312544
 30
0.0
 10
2.423271398193959
 20
1.481601940519116
 30
0.0
 10
2.422810130588325
 20
1.482140379486252
 30
0.0
 10
2.422348862982691
 20
1.482678818453388
 30
0.0
 10
2.422164590682222
 20
1.483140966340712
 30
0.0
 10
2.421980318381752
 20
1.483603114228036
 30
0.0
 10
2.421826562513208
 20
1.484257456951041
 30
0.0
 10
2.421672806644663
 20
1.484911799674046
 30
0.0
 10
2.421611186926353
 20
1.485912386528506
 30
0.0
 10
2.421549567208044
 20
1.486912973382966
 30
0.0
 10
2.421549567208044
 20
1.488299417044938
 30
0.0
 10
2.421549567208044
 20
1.489608102490947
 30
0.0
 10
2.421641703358278
 20
1.490646834885314
 30
0.0
 10
2.421733839508513
 20
1.49168556727968
 30
0.0
 10
2.421980318381752
 20
1.492339910002684
 30
0.0
 10
2.422226797254992
 20
1.492994252725689
 30
0.0
 10
2.422564825424006
 20
1.493302351317238
 30
0.0
 10
2.42290285359302
 20
1.493610449908788
 30
0.0
 10
2.423333604766729
 20
1.493610449908788
 30
0.0
 10
2.423948628240907
 20
1.493610449908788
 30
0.0
 10
2.425240294907574
 20
1.492642140049633
 30
0.0
 10
2.42653196157424
 20
1.491673830190478
 30
0.0
 10
2.42871564702025
 20
1.490550737467473
 30
0.0
 10
2.430899332466259
 20
1.489427644744468
 30
0.0
 10
2.434128792560156
 20
1.488420455777332
 30
0.0
 10
2.437358252654053
 20
1.487413266810196
 30
0.0
 10
2.441787830118841
 20
1.487413266810196
 30
0.0
 10
2.445908722137621
 20
1.487413266810196
 30
0.0
 10
2.449353557818372
 20
1.488645661176393
 30
0.0
 10
2.452798393499123
 20
1.489878055542591
 30
0.0
 10
2.455289590682222
 20
1.492495426434609
 30
0.0
 10
2.457780787865321
 20
1.495112797326628
 30
0.0
 10
2.459195693968607
 20
1.499078466340712
 30
0.0
 10
2.460610600071893
 20
1.503044135354797
 30
0.0
 10
2.460610600071893
 20
1.508742492162308
 30
0.0
 10
2.460610600071893
 20
1.513516553195172
 30
0.0
 10
2.459411069555461
 20
1.517174123617708
 30
0.0
 10
2.458211539039029
 20
1.520831694040243
 30
0.0
 10
2.45571975500147
 20
1.523257603664656
 30
0.0
 10
2.453227970963912
 20
1.525683513289069
 30
0.0
 10
2.449414003827762
 20
1.526877028547285
 30
0.0
 10
2.445600036691611
 20
1.528070543805501
 30
0.0
 10
2.440308956879405
 20
1.528070543805501
 30
0.0
 10
2.436556609461565
 20
1.528070543805501
 30
0.0
 10
2.433849449837151
 20
1.527609129486252
 30
0.0
 10
2.431142290212738
 20
1.527147715167004
 30
0.0
 10
2.428805435752645
 20
1.527147715167004
 30
0.0
 10
2.427082431057809
 20
1.527147715167004
 30
0.0
 10
2.426344168147011
 20
1.528147568453389
 30
0.0
 10
2.425605905236213
 20
1.529147421739773
 30
0.0
 10
2.425605905236213
 20
1.531995133007379
 30
0.0
 10
2.425605905236213
 20
1.552273155307849
 30
0.0
 10
2.425605905236213
 20
1.572551177608318
 30
0.0
 10
2.425605905236213
 20
1.575090790284374
 30
0.0
 10
2.426558370024945
 20
1.576322451082496
 30
0.0
 10
2.427510834813677
 20
1.577554111880618
 30
0.0
 10
2.429293698663443
 20
1.577554111880618
 30
0.0
 10
2.4469016798841
 20
1.577554111880618
 30
0.0
 10
2.464509661104757
 20
1.577554111880618
 30
0.0
 10
2.465001445142316
 20
1.577554111880618
 30
0.0
 10
2.46546271274795
 20
1.577207867749163
 30
0.0
 10
2.465923980353583
 20
1.576861623617708
 30
0.0
 10
2.466230905236213
 20
1.576168401786722
 30
0.0
 10
2.466537830118841
 20
1.575475179955736
 30
0.0
 10
2.466691585987386
 20
1.574397568453389
 30
0.0
 10
2.466845341855931
 20
1.573319956951041
 30
0.0
 10
2.466845341855931
 20
1.571855755073107
 30
0.0
 10
2.466845341855931
 20
1.569084334885314
 30
0.0
 10
2.466257313686917
 20
1.567544575495642
 30
0.0
 10
2.465669285517903
 20
1.56600481610597
 30
0.0
 10
2.464609426362973
 20
1.56600481610597
 30
0.0
 10
2.45040344044748
 20
1.56600481610597
 30
0.0
 10
2.436197454531987
 20
1.56600481610597
 30
0.0
 10
2.436197454531987
 20
1.552026676434609
 30
0.0
 10
2.436197454531987
 20
1.538048536763247
 30
0.0
 10
2.438271398193959
 20
1.538432926434609
 30
0.0
 10
2.440433370024945
 20
1.538509951082496
 30
0.0
 10
2.442595341855931
 20
1.538586975730384
 30
0.0
 10
2.445439238569546
 20
1.538586975730384
 30
0.0
 10
2.452015529649358
 20
1.538586975730384
 30
0.0
 10
2.456932783170485
 20
1.536549123617708
 30
0.0
 10
2.461850036691611
 20
1.534511271505031
 30
0.0
 10
2.465138182231518
 20
1.53078107784306
 30
0.0
 10
2.468426327771424
 20
1.527050884181088
 30
0.0
 10
2.470114708053114
 20
1.521744252725689
 30
0.0
 10
2.471803088334804
 20
1.51643762127029
 30
0.0
 10
2.471803088334804
 20
1.509976353664656
 30
0.0
 10
2.471803088334804
 20
1.509976353664656
 30
0.0
 10
2.471803088334804
 20
1.509976353664656
 30
0.0
  0
SPLINE
  5
2D69
330
2E99
100
AcDbEntity
  8
Level 8
  6
Continuous
 62
     7
370
    13
100
AcDbSpline
210
0.0
220
0.0
230
1.0
 70
     9
 71
     2
 72
    72
 73
    69
 74
     0
 42
0.000000001
 43
0.0000000001
 40
0.0
 40
0.0
 40
0.0
 40
0.032258064516129
 40
0.032258064516129
 40
0.0645161290322581
 40
0.0645161290322581
 40
0.096774193548387
 40
0.096774193548387
 40
0.1290322580645161
 40
0.1290322580645161
 40
0.1397849462365591
 40
0.1397849462365591
 40
0.1505376344086021
 40
0.1505376344086021
 40
0.1612903225806451
 40
0.1612903225806451
 40
0.193548387096774
 40
0.193548387096774
 40
0.2258064516129031
 40
0.2258064516129031
 40
0.2580645161290322
 40
0.2580645161290322
 40
0.2903225806451612
 40
0.2903225806451612
 40
0.3225806451612902
 40
0.3225806451612902
 40
0.3548387096774193
 40
0.3548387096774193
 40
0.387096774193548
 40
0.387096774193548
 40
0.4193548387096773
 40
0.4193548387096773
 40
0.4354838709677419
 40
0.4354838709677419
 40
0.4516129032258062
 40
0.4516129032258062
 40
0.4838709677419354
 40
0.4838709677419354
 40
0.5161290322580645
 40
0.5161290322580645
 40
0.5483870967741933
 40
0.5483870967741933
 40
0.5806451612903225
 40
0.5806451612903225
 40
0.6129032258064516
 40
0.6129032258064516
 40
0.6451612903225806
 40
0.6451612903225806
 40
0.6774193548387095
 40
0.6774193548387095
 40
0.7096774193548388
 40
0.7096774193548388
 40
0.7419354838709679
 40
0.7419354838709679
 40
0.7741935483870968
 40
0.7741935483870968
 40
0.8064516129032256
 40
0.8064516129032256
 40
0.8387096774193546
 40
0.8387096774193546
 40
0.8709677419354838
 40
0.8709677419354838
 40
0.9032258064516128
 40
0.9032258064516128
 40
0.9354838709677418
 40
0.9354838709677418
 40
0.9677419354838709
 40
0.9677419354838709
 40
1.0
 40
1.0
 40
1.0
 10
2.226019050776118
 20
1.571842550847755
 30
0.0
 10
2.226019050776118
 20
1.57037688183367
 30
0.0
 10
2.225895811339499
 20
1.569296336059022
 30
0.0
 10
2.225772571902879
 20
1.568215790284374
 30
0.0
 10
2.22546506016579
 20
1.567559980425219
 30
0.0
 10
2.225157548428701
 20
1.566904170566065
 30
0.0
 10
2.224757900541377
 20
1.56659533840644
 30
0.0
 10
2.224358252654053
 20
1.566286506246816
 30
0.0
 10
2.223927501480344
 20
1.566286506246816
 30
0.0
 10
2.209348862982691
 20
1.566286506246816
 30
0.0
 10
2.194770224485039
 20
1.566286506246816
 30
0.0
 10
2.194770224485039
 20
1.549385097796112
 30
0.0
 10
2.194770224485039
 20
1.532483689345407
 30
0.0
 10
2.208548980353584
 20
1.532483689345407
 30
0.0
 10
2.222327736222128
 20
1.532483689345407
 30
0.0
 10
2.222758487395837
 20
1.532483689345407
 30
0.0
 10
2.223158135283161
 20
1.532214469861839
 30
0.0
 10
2.223557783170485
 20
1.531945250378271
 30
0.0
 10
2.223865294907574
 20
1.531331253899398
 30
0.0
 10
2.224172806644663
 20
1.530717257420524
 30
0.0
 10
2.224296046081283
 20
1.529679992162308
 30
0.0
 10
2.224419285517903
 20
1.528642726904093
 30
0.0
 10
2.224419285517903
 20
1.527028877138834
 30
0.0
 10
2.224419285517903
 20
1.525569076669351
 30
0.0
 10
2.224296046081283
 20
1.524531811411135
 30
0.0
 10
2.224172806644663
 20
1.523494546152919
 30
0.0
 10
2.223865294907574
 20
1.522841670566065
 30
0.0
 10
2.223557783170485
 20
1.52218879497921
 30
0.0
 10
2.223158135283161
 20
1.52184328441583
 30
0.0
 10
2.222758487395837
 20
1.521497773852449
 30
0.0
 10
2.222327736222128
 20
1.521497773852449
 30
0.0
 10
2.208548980353584
 20
1.521497773852449
 30
0.0
 10
2.194770224485039
 20
1.521497773852449
 30
0.0
 10
2.194770224485039
 20
1.500757603664656
 30
0.0
 10
2.194770224485039
 20
1.480017433476863
 30
0.0
 10
2.194770224485039
 20
1.479477527373576
 30
0.0
 10
2.194523745611799
 20
1.478977233946346
 30
0.0
 10
2.19427726673856
 20
1.478476940519116
 30
0.0
 10
2.193661656409922
 20
1.478207721035548
 30
0.0
 10
2.193046046081283
 20
1.47793850155198
 30
0.0
 10
2.192060717442785
 20
1.477746306716299
 30
0.0
 10
2.191075388804287
 20
1.477554111880618
 30
0.0
 10
2.189474449837151
 20
1.477554111880618
 30
0.0
 10
2.187996750306635
 20
1.477554111880618
 30
0.0
 10
2.186949801949828
 20
1.477746306716299
 30
0.0
 10
2.18590285359302
 20
1.47793850155198
 30
0.0
 10
2.185287243264382
 20
1.478207721035548
 30
0.0
 10
2.184671632935743
 20
1.478476940519116
 30
0.0
 10
2.184425154062504
 20
1.478977233946346
 30
0.0
 10
2.184178675189264
 20
1.479477527373576
 30
0.0
 10
2.184178675189264
 20
1.480015966340713
 30
0.0
 10
2.184178675189264
 20
1.526092844274985
 30
0.0
 10
2.184178675189264
 20
1.572169722209257
 30
0.0
 10
2.184178675189264
 20
1.575170015636487
 30
0.0
 10
2.185439825424006
 20
1.576362063758552
 30
0.0
 10
2.186700975658748
 20
1.577554111880618
 30
0.0
 10
2.188116468616494
 20
1.577554111880618
 30
0.0
 10
2.206021985048419
 20
1.577554111880618
 30
0.0
 10
2.223927501480344
 20
1.577554111880618
 30
0.0
 10
2.224358252654053
 20
1.577554111880618
 30
0.0
 10
2.224757900541377
 20
1.577245279720994
 30
0.0
 10
2.225157548428701
 20
1.57693644756137
 30
0.0
 10
2.22546506016579
 20
1.576241758594233
 30
0.0
 10
2.225772571902879
 20
1.575547069627097
 30
0.0
 10
2.225895811339499
 20
1.574428378312544
 30
0.0
 10
2.226019050776118
 20
1.57330968699799
 30
0.0
 10
2.226019050776118
 20
1.571842550847755
 30
0.0
 10
2.226019050776118
 20
1.571842550847755
 30
0.0
 10
2.226019050776118
 20
1.571842550847755
 30
0.0
  0
SPLINE
  5
2DBD
330
2E99
100
AcDbEntity
  8
Level 8
  6
Continuous
 62
     7
370
    13
100
AcDbSpline
210
0.0
220
0.0
230
1.0
 70
     9
 71
     2
 72
    58
 73
    55
 74
     0
 42
0.000000001
 43
0.0000000001
 40
0.0
 40
0.0
 40
0.0
 40
0.0384615384615385
 40
0.0384615384615385
 40
0.0769230769230769
 40
0.0769230769230769
 40
0.1153846153846153
 40
0.1153846153846153
 40
0.1538461538461539
 40
0.1538461538461539
 40
0.1923076923076923
 40
0.1923076923076923
 40
0.2307692307692307
 40
0.2307692307692307
 40
0.2692307692307691
 40
0.2692307692307691
 40
0.3076923076923077
 40
0.3076923076923077
 40
0.3461538461538462
 40
0.3461538461538462
 40
0.3846153846153845
 40
0.3846153846153845
 40
0.423076923076923
 40
0.423076923076923
 40
0.4615384615384614
 40
0.4615384615384614
 40
0.5
 40
0.5
 40
0.5192307692307692
 40
0.5192307692307692
 40
0.5384615384615383
 40
0.5384615384615383
 40
0.5769230769230769
 40
0.5769230769230769
 40
0.6153846153846155
 40
0.6153846153846155
 40
0.6538461538461538
 40
0.6538461538461538
 40
0.6923076923076924
 40
0.6923076923076924
 40
0.7307692307692308
 40
0.7307692307692308
 40
0.7692307692307693
 40
0.7692307692307693
 40
0.8076923076923076
 40
0.8076923076923076
 40
0.8461538461538463
 40
0.8461538461538463
 40
0.8846153846153846
 40
0.8846153846153846
 40
0.9230769230769231
 40
0.9230769230769231
 40
0.9615384615384614
 40
0.9615384615384614
 40
1.0
 40
1.0
 40
1.0
 10
2.409530787865321
 20
1.571849886528506
 30
0.0
 10
2.409530787865321
 20
1.570463442866534
 30
0.0
 10
2.409438651715086
 20
1.569345485120055
 30
0.0
 10
2.409346515564851
 20
1.568227527373576
 30
0.0
 10
2.409192172841846
 20
1.56718732784306
 30
0.0
 10
2.409037830118842
 20
1.566147128312544
 30
0.0
 10
2.408760834813677
 20
1.565183219861839
 30
0.0
 10
2.408483839508513
 20
1.564219311411135
 30
0.0
 10
2.408114121198654
 20
1.563140966340712
 30
0.0
 10
2.393763769085978
 20
1.521846952256205
 30
0.0
 10
2.379413416973302
 20
1.480552938171698
 30
0.0
 10
2.379105905236213
 20
1.4796301095332
 30
0.0
 10
2.378644050776119
 20
1.479053525026158
 30
0.0
 10
2.378182196316025
 20
1.478476940519116
 30
0.0
 10
2.377473862982692
 20
1.478130696387661
 30
0.0
 10
2.376765529649358
 20
1.477784452256206
 30
0.0
 10
2.37565696157424
 20
1.477669282068412
 30
0.0
 10
2.374548393499123
 20
1.477554111880618
 30
0.0
 10
2.372946280823067
 20
1.477554111880618
 30
0.0
 10
2.370852384109452
 20
1.477554111880618
 30
0.0
 10
2.369682196316024
 20
1.477784452256206
 30
0.0
 10
2.368512008522598
 20
1.478014792631792
 30
0.0
 10
2.367988534344194
 20
1.478515086059022
 30
0.0
 10
2.36746506016579
 20
1.479015379486252
 30
0.0
 10
2.3675266798841
 20
1.479746013289069
 30
0.0
 10
2.36758829960241
 20
1.480476647091886
 30
0.0
 10
2.367958017912269
 20
1.481475766810196
 30
0.0
 10
2.383047219790203
 20
1.523693343101276
 30
0.0
 10
2.398136421668137
 20
1.565910919392355
 30
0.0
 10
2.379013182231518
 20
1.565910919392355
 30
0.0
 10
2.359889942794898
 20
1.565910919392355
 30
0.0
 10
2.35871975500147
 20
1.565910919392355
 30
0.0
 10
2.358134661104757
 20
1.567452879486253
 30
0.0
 10
2.357549567208044
 20
1.568994839580149
 30
0.0
 10
2.357549567208044
 20
1.571770661176393
 30
0.0
 10
2.357549567208044
 20
1.573236330190477
 30
0.0
 10
2.357703323076588
 20
1.574315408828975
 30
0.0
 10
2.357857078945133
 20
1.575394487467473
 30
0.0
 10
2.358165177536682
 20
1.576127321974515
 30
0.0
 10
2.358473276128231
 20
1.576860156481557
 30
0.0
 10
2.3589046141564
 20
1.577207134181088
 30
0.0
 10
2.35933595218457
 20
1.577554111880618
 30
0.0
 10
2.359889942794898
 20
1.577554111880618
 30
0.0
 10
2.383108839508513
 20
1.577554111880618
 30
0.0
 10
2.406327736222128
 20
1.577554111880618
 30
0.0
 10
2.407190412278466
 20
1.577554111880618
 30
0.0
 10
2.40783712589349
 20
1.577323037936956
 30
0.0
 10
2.408483839508513
 20
1.577091963993295
 30
0.0
 10
2.408822454531987
 20
1.576398008594233
 30
0.0
 10
2.409161069555461
 20
1.575704053195172
 30
0.0
 10
2.409345928710391
 20
1.574624974556675
 30
0.0
 10
2.409530787865321
 20
1.573545895918177
 30
0.0
 10
2.409530787865321
 20
1.571849886528506
 30
0.0
 10
2.409530787865321
 20
1.571849886528506
 30
0.0
 10
2.409530787865321
 20
1.571849886528506
 30
0.0
  0
SPLINE
  5
2E04
330
2E99
100
AcDbEntity
  8
Level 8
  6
Continuous
 62
     7
370
    13
100
AcDbSpline
210
0.0
220
0.0
230
1.0
 70
     9
 71
     2
 72
    84
 73
    81
 74
     0
 42
0.000000001
 43
0.0000000001
 40
0.0
 40
0.0
 40
0.0
 40
0.027027027027027
 40
0.027027027027027
 40
0.0540540540540541
 40
0.0540540540540541
 40
0.081081081081081
 40
0.081081081081081
 40
0.1081081081081081
 40
0.1081081081081081
 40
0.1351351351351351
 40
0.1351351351351351
 40
0.162162162162162
 40
0.162162162162162
 40
0.1891891891891891
 40
0.1891891891891891
 40
0.2162162162162162
 40
0.2162162162162162
 40
0.2432432432432432
 40
0.2432432432432432
 40
0.2702702702702702
 40
0.2702702702702702
 40
0.2972972972972972
 40
0.2972972972972972
 40
0.3243243243243241
 40
0.3243243243243241
 40
0.3513513513513512
 40
0.3513513513513512
 40
0.3603603603603603
 40
0.3603603603603603
 40
0.3693693693693691
 40
0.3693693693693691
 40
0.3783783783783781
 40
0.3783783783783781
 40
0.4054054054054053
 40
0.4054054054054053
 40
0.4324324324324325
 40
0.4324324324324325
 40
0.4594594594594593
 40
0.4594594594594593
 40
0.4864864864864865
 40
0.4864864864864865
 40
0.5135135135135134
 40
0.5135135135135134
 40
0.5405405405405405
 40
0.5405405405405405
 40
0.5675675675675675
 40
0.5675675675675675
 40
0.5945945945945947
 40
0.5945945945945947
 40
0.6216216216216218
 40
0.6216216216216218
 40
0.6486486486486485
 40
0.6486486486486485
 40
0.6756756756756756
 40
0.6756756756756756
 40
0.7027027027027026
 40
0.7027027027027026
 40
0.7297297297297297
 40
0.7297297297297297
 40
0.7567567567567566
 40
0.7567567567567566
 40
0.7837837837837837
 40
0.7837837837837837
 40
0.8108108108108108
 40
0.8108108108108108
 40
0.8378378378378378
 40
0.8378378378378378
 40
0.8513513513513514
 40
0.8513513513513514
 40
0.8648648648648649
 40
0.8648648648648649
 40
0.8918918918918919
 40
0.8918918918918919
 40
0.9189189189189189
 40
0.9189189189189189
 40
0.9459459459459459
 40
0.9459459459459459
 40
0.9729729729729729
 40
0.9729729729729729
 40
1.0
 40
1.0
 40
1.0
 10
2.344629379414616
 20
1.483252468688131
 30
0.0
 10
2.344629379414616
 20
1.481791201082496
 30
0.0
 10
2.344444520259687
 20
1.480791347796111
 30
0.0
 10
2.344259661104758
 20
1.479791494509726
 30
0.0
 10
2.343952149367668
 20
1.479176764462778
 30
0.0
 10
2.343644637630579
 20
1.47856203441583
 30
0.0
 10
2.343244402888795
 20
1.478292814932262
 30
0.0
 10
2.342844168147011
 20
1.478023595448694
 30
0.0
 10
2.342413416973302
 20
1.478023595448694
 30
0.0
 10
2.321605905236213
 20
1.478023595448694
 30
0.0
 10
2.300798393499123
 20
1.478023595448694
 30
0.0
 10
2.300367642325414
 20
1.478023595448694
 30
0.0
 10
2.299998510870016
 20
1.478292814932262
 30
0.0
 10
2.299629379414616
 20
1.47856203441583
 30
0.0
 10
2.299290764391142
 20
1.479176764462778
 30
0.0
 10
2.298952149367668
 20
1.479791494509726
 30
0.0
 10
2.298767290212738
 20
1.480791347796111
 30
0.0
 10
2.298582431057809
 20
1.481791201082496
 30
0.0
 10
2.298582431057809
 20
1.483252468688131
 30
0.0
 10
2.298582431057809
 20
1.484635978077801
 30
0.0
 10
2.298767290212738
 20
1.485635097796111
 30
0.0
 10
2.298952149367668
 20
1.486634217514421
 30
0.0
 10
2.299229144672832
 20
1.487287826669351
 30
0.0
 10
2.299506139977997
 20
1.48794143582428
 30
0.0
 10
2.299906961574241
 20
1.488287679955736
 30
0.0
 10
2.300307783170485
 20
1.488633924087191
 30
0.0
 10
2.300800740916963
 20
1.488633924087191
 30
0.0
 10
2.309118816034334
 20
1.488633924087191
 30
0.0
 10
2.317436891151705
 20
1.488633924087191
 30
0.0
 10
2.317436891151705
 20
1.526521248030853
 30
0.0
 10
2.317436891151705
 20
1.564408571974515
 30
0.0
 10
2.309737947489733
 20
1.558680872443999
 30
0.0
 10
2.302039003827761
 20
1.552953172913482
 30
0.0
 10
2.300868816034335
 20
1.552182926434609
 30
0.0
 10
2.300160482701001
 20
1.552029610706909
 30
0.0
 10
2.299452149367668
 20
1.55187629497921
 30
0.0
 10
2.299020811339499
 20
1.552375854838365
 30
0.0
 10
2.29858947331133
 20
1.55287541469752
 30
0.0
 10
2.298435717442785
 20
1.554028583711605
 30
0.0
 10
2.29828196157424
 20
1.555181752725689
 30
0.0
 10
2.29828196157424
 20
1.556948184650571
 30
0.0
 10
2.29828196157424
 20
1.55825393582428
 30
0.0
 10
2.298374097724475
 20
1.559176030894703
 30
0.0
 10
2.29846623387471
 20
1.560098125965125
 30
0.0
 10
2.29865109302964
 20
1.560712856012074
 30
0.0
 10
2.298835952184569
 20
1.561327586059022
 30
0.0
 10
2.299174567208043
 20
1.561788266810196
 30
0.0
 10
2.299513182231518
 20
1.56224894756137
 30
0.0
 10
2.300068346550766
 20
1.562709628312544
 30
0.0
 10
2.309244989743254
 20
1.570046776199867
 30
0.0
 10
2.318421632935743
 20
1.577383924087192
 30
0.0
 10
2.318668111808983
 20
1.577614264462778
 30
0.0
 10
2.319037243264381
 20
1.577767580190477
 30
0.0
 10
2.31940637471978
 20
1.577920895918177
 30
0.0
 10
2.319960952184569
 20
1.578074945213952
 30
0.0
 10
2.320515529649358
 20
1.578228994509726
 30
0.0
 10
2.321254379414616
 20
1.578267140049632
 30
0.0
 10
2.321993229179875
 20
1.578305285589539
 30
0.0
 10
2.323102384109452
 20
1.578305285589539
 30
0.0
 10
2.324580083639968
 20
1.578305285589539
 30
0.0
 10
2.325565412278466
 20
1.578151236293764
 30
0.0
 10
2.326550740916964
 20
1.57799718699799
 30
0.0
 10
2.327104731527292
 20
1.577727967514421
 30
0.0
 10
2.327658722137621
 20
1.577458748030853
 30
0.0
 10
2.32784358129255
 20
1.57703547925151
 30
0.0
 10
2.32802844044748
 20
1.576612210472168
 30
0.0
 10
2.32802844044748
 20
1.576150062584844
 30
0.0
 10
2.32802844044748
 20
1.532391993336018
 30
0.0
 10
2.32802844044748
 20
1.488633924087191
 30
0.0
 10
2.335222102419311
 20
1.488633924087191
 30
0.0
 10
2.342415764391143
 20
1.488633924087191
 30
0.0
 10
2.342907548428701
 20
1.488633924087191
 30
0.0
 10
2.34333829960241
 20
1.488287679955736
 30
0.0
 10
2.343769050776119
 20
1.48794143582428
 30
0.0
 10
2.344045459226823
 20
1.487287826669351
 30
0.0
 10
2.344321867677527
 20
1.486634217514421
 30
0.0
 10
2.344475623546072
 20
1.485635097796111
 30
0.0
 10
2.344629379414616
 20
1.484635978077801
 30
0.0
 10
2.344629379414616
 20
1.483252468688131
 30
0.0
 10
2.344629379414616
 20
1.483252468688131
 30
0.0
 10
2.344629379414616
 20
1.483252468688131
 30
0.0
  0
ARC
  5
2E6A
330
2E99
100
AcDbEntity
  8
freestand3 - Level 27
  6
Continuous
 62
     7
370
    13
100
AcDbCircle
 10
-2.076478
 20
2.119322
 30
0.0
 40
0.12
210
0.0
220
0.0
230
-1.0
100
AcDbArc
 50
0.0
 51
26.899963
  0
ARC
  5
2E6B
330
2E99
100
AcDbEntity
  8
freestand3 - Level 27
  6
Continuous
 62
     7
370
    13
100
AcDbCircle
 10
-2.076478
 20
2.119322
 30
0.0
 40
0.12
210
0.0
220
0.0
230
-1.0
100
AcDbArc
 50
42.579908
 51
128.501405
  0
ARC
  5
2E6C
330
2E99
100
AcDbEntity
  8
freestand3 - Level 27
  6
Continuous
 62
     7
370
    13
100
AcDbCircle
 10
-2.076478
 20
2.119322
 30
0.0
 40
0.12
210
0.0
220
0.0
230
-1.0
100
AcDbArc
 50
151.432796
 51
161.080788
  0
ARC
  5
2E6D
330
2E99
100
AcDbEntity
  8
freestand3 - Level 27
  6
Continuous
 62
     7
370
    13
100
AcDbCircle
 10
-2.076478
 20
2.119322
 30
0.0
 40
0.12
210
0.0
220
0.0
230
-1.0
100
AcDbArc
 50
177.80677
 51
0.0
  0
ARC
  5
2E6E
330
2E99
100
AcDbEntity
  8
freestand3 - Level 27
  6
Continuous
 62
     7
370
    13
100
AcDbCircle
 10
-2.076478
 20
2.119322
 30
0.0
 40
0.085
210
0.0
220
0.0
230
-1.0
100
AcDbArc
 50
5.087644
 51
10.291155
  0
ARC
  5
2E6F
330
2E99
100
AcDbEntity
  8
freestand3 - Level 27
  6
Continuous
 62
     7
370
    13
100
AcDbCircle
 10
-2.076478
 20
2.119322
 30
0.0
 40
0.085
210
0.0
220
0.0
230
-1.0
100
AcDbArc
 50
34.595196
 51
45.552395
  0
ARC
  5
2E70
330
2E99
100
AcDbEntity
  8
freestand3 - Level 27
  6
Continuous
 62
     7
370
    13
100
AcDbCircle
 10
-2.076478
 20
2.119322
 30
0.0
 40
0.085
210
0.0
220
0.0
230
-1.0
100
AcDbArc
 50
72.188647
 51
77.797737
  0
ARC
  5
2E71
330
2E99
100
AcDbEntity
  8
freestand3 - Level 27
  6
Continuous
 62
     7
370
    13
100
AcDbCircle
 10
-2.076478
 20
2.119322
 30
0.0
 40
0.085
210
0.0
220
0.0
230
-1.0
100
AcDbArc
 50
102.202263
 51
108.535952
  0
ARC
  5
2E72
330
2E99
100
AcDbEntity
  8
freestand3 - Level 27
  6
Continuous
 62
     7
370
    13
100
AcDbCircle
 10
-2.076478
 20
2.119322
 30
0.0
 40
0.085
210
0.0
220
0.0
230
-1.0
100
AcDbArc
 50
134.998128
 51
183.530856
  0
ARC
  5
2E73
330
2E99
100
AcDbEntity
  8
freestand3 - Level 27
  6
Continuous
 62
     7
370
    13
100
AcDbCircle
 10
-2.076478
 20
2.119322
 30
0.0
 40
0.085
210
0.0
220
0.0
230
-1.0
100
AcDbArc
 50
210.372767
 51
237.987393
  0
ARC
  5
2E74
330
2E99
100
AcDbEntity
  8
freestand3 - Level 27
  6
Continuous
 62
     7
370
    13
100
AcDbCircle
 10
-2.076478
 20
2.119322
 30
0.0
 40
0.085
210
0.0
220
0.0
230
-1.0
100
AcDbArc
 50
259.004179
 51
277.905411
  0
ARC
  5
2E75
330
2E99
100
AcDbEntity
  8
freestand3 - Level 27
  6
Continuous
 62
     7
370
    13
100
AcDbCircle
 10
-2.076478
 20
2.119322
 30
0.0
 40
0.085
210
0.0
220
0.0
230
-1.0
100
AcDbArc
 50
295.811386
 51
302.515669
  0
ARC
  5
2E76
330
2E99
100
AcDbEntity
  8
freestand3 - Level 27
  6
Continuous
 62
     7
370
    13
100
AcDbCircle
 10
-2.076478
 20
2.119322
 30
0.0
 40
0.085
210
0.0
220
0.0
230
-1.0
100
AcDbArc
 50
326.492974
 51
342.020433
  0
ARC
  5
2E77
330
2E99
100
AcDbEntity
  8
freestand3 - Level 26
  6
Continuous
 62
     7
370
    13
100
AcDbCircle
 10
1.969347
 20
2.193614
 30
0.0
 40
0.02
100
AcDbArc
 50
0.0
 51
93.031302
  0
ARC
  5
2E78
330
2E99
100
AcDbEntity
  8
freestand3 - Level 26
  6
Continuous
 62
     7
370
    13
100
AcDbCircle
 10
1.969347
 20
2.193614
 30
0.0
 40
0.02
100
AcDbArc
 50
208.319289
 51
0.0
  0
ARC
  5
2E79
330
2E99
100
AcDbEntity
  8
freestand3 - Level 26
  6
Continuous
 62
     7
370
    13
100
AcDbCircle
 10
1.934134
 20
2.193614
 30
0.0
 40
0.02
100
AcDbArc
 50
0.0
 51
20.684438
  0
ARC
  5
2E7A
330
2E99
100
AcDbEntity
  8
freestand3 - Level 26
  6
Continuous
 62
     7
370
    13
100
AcDbCircle
 10
1.934134
 20
2.193614
 30
0.0
 40
0.02
100
AcDbArc
 50
284.193919
 51
0.0
  0
ARC
  5
2E7B
330
2E99
100
AcDbEntity
  8
freestand3 - Level 26
  6
Continuous
 62
     7
370
    13
100
AcDbCircle
 10
2.03161
 20
2.193614
 30
0.0
 40
0.02
100
AcDbArc
 50
0.0
 51
359.999994
  0
ARC
  5
2E7C
330
2E99
100
AcDbEntity
  8
freestand3 - Level 25
  6
Continuous
 62
     7
370
    13
100
AcDbCircle
 10
2.076478
 20
2.119322
 30
0.0
 40
0.1480000010391065
100
AcDbArc
 50
0.0
 51
359.999994
  0
ARC
  5
2E7D
330
2E99
100
AcDbEntity
  8
freestand3 - Level 25
  6
Continuous
 62
     7
370
    13
100
AcDbCircle
 10
2.076478
 20
2.119322
 30
0.0
 40
0.1979999999999998
100
AcDbArc
 50
0.0
 51
359.999994
  0
ARC
  5
2E7E
330
2E99
100
AcDbEntity
  8
freestand3 - Level 26
  6
Continuous
 62
     7
370
    13
100
AcDbCircle
 10
2.056478
 20
2.053322
 30
0.0
 40
0.02
100
AcDbArc
 50
0.0
 51
359.999994
  0
ARC
  5
2E7F
330
2E99
100
AcDbEntity
  8
freestand3 - Level 26
  6
Continuous
 62
     7
370
    13
100
AcDbCircle
 10
2.112701
 20
2.094258
 30
0.0
 40
0.02
100
AcDbArc
 50
0.0
 51
83.844901
  0
ARC
  5
2E80
330
2E99
100
AcDbEntity
  8
freestand3 - Level 26
  6
Continuous
 62
     7
370
    13
100
AcDbCircle
 10
2.112701
 20
2.094258
 30
0.0
 40
0.02
100
AcDbArc
 50
188.590723
 51
0.0
  0
ARC
  5
2E81
330
2E99
100
AcDbEntity
  8
freestand3 - Level 26
  6
Continuous
 62
     7
370
    13
100
AcDbCircle
 10
2.137588
 20
2.139283
 30
0.0
 40
0.02
100
AcDbArc
 50
0.0
 51
359.999994
  0
ARC
  5
2E82
330
2E99
100
AcDbEntity
  8
freestand3 - Level 26
  6
Continuous
 62
     7
370
    13
100
AcDbCircle
 10
2.049066
 20
2.111156
 30
0.0
 40
0.02
100
AcDbArc
 50
8.853157
 51
267.149448
  0
ARC
  5
2E83
330
2E99
100
AcDbEntity
  8
freestand3 - Level 26
  6
Continuous
 62
     7
370
    13
100
AcDbCircle
 10
2.19255
 20
2.193614
 30
0.0
 40
0.02
100
AcDbArc
 50
95.510786
 51
159.572141
  0
ARC
  5
2E84
330
2E99
100
AcDbEntity
  8
freestand3 - Level 26
  6
Continuous
 62
     7
370
    13
100
AcDbCircle
 10
2.19255
 20
2.193614
 30
0.0
 40
0.02
100
AcDbArc
 50
200.427859
 51
329.73176
  0
ARC
  5
2E85
330
2E99
100
AcDbEntity
  8
freestand3 - Level 26
  6
Continuous
 62
     7
370
    13
100
AcDbCircle
 10
2.155065
 20
2.193614
 30
0.0
 40
0.02
100
AcDbArc
 50
0.0
 51
144.546912
  0
ARC
  5
2E86
330
2E99
100
AcDbEntity
  8
freestand3 - Level 26
  6
Continuous
 62
     7
370
    13
100
AcDbCircle
 10
2.155065
 20
2.193614
 30
0.0
 40
0.02
100
AcDbArc
 50
215.453088
 51
0.0
  0
ARC
  5
2E87
330
2E99
100
AcDbEntity
  8
freestand3 - Level 26
  6
Continuous
 62
     7
370
    13
100
AcDbCircle
 10
2.102482
 20
2.053322
 30
0.0
 40
0.02
100
AcDbArc
 50
0.0
 51
359.999994
  0
ARC
  5
2E88
330
2E99
100
AcDbEntity
  8
freestand3 - Level 26
  6
Continuous
 62
     7
370
    13
100
AcDbCircle
 10
2.158704
 20
2.094258
 30
0.0
 40
0.02
100
AcDbArc
 50
0.0
 51
359.999994
  0
ARC
  5
2E89
330
2E99
100
AcDbEntity
  8
freestand3 - Level 26
  6
Continuous
 62
     7
370
    13
100
AcDbCircle
 10
2.183592
 20
2.139283
 30
0.0
 40
0.02
100
AcDbArc
 50
0.0
 51
359.999994
  0
ARC
  5
2E8A
330
2E99
100
AcDbEntity
  8
freestand3 - Level 26
  6
Continuous
 62
     7
370
    13
100
AcDbCircle
 10
2.122482
 20
2.193614
 30
0.0
 40
0.02
100
AcDbArc
 50
0.0
 51
359.999994
  0
ARC
  5
2E8B
330
2E99
100
AcDbEntity
  8
freestand3 - Level 26
  6
Continuous
 62
     7
370
    13
100
AcDbCircle
 10
2.095069
 20
2.111156
 30
0.0
 40
0.02
100
AcDbArc
 50
0.0
 51
359.999994
  0
ARC
  5
2E8C
330
2E99
100
AcDbEntity
  8
freestand3 - Level 26
  6
Continuous
 62
     7
370
    13
100
AcDbCircle
 10
2.08229
 20
2.154456
 30
0.0
 40
0.02
100
AcDbArc
 50
0.0
 51
359.999994
  0
ARC
  5
2E8D
330
2E99
100
AcDbEntity
  8
freestand3 - Level 26
  6
Continuous
 62
     7
370
    13
100
AcDbCircle
 10
2.036286
 20
2.154456
 30
0.0
 40
0.02
100
AcDbArc
 50
0.0
 51
87.172978
  0
ARC
  5
2E8E
330
2E99
100
AcDbEntity
  8
freestand3 - Level 26
  6
Continuous
 62
     7
370
    13
100
AcDbCircle
 10
2.036286
 20
2.154456
 30
0.0
 40
0.02
100
AcDbArc
 50
106.445007
 51
0.0
  0
ARC
  5
2E8F
330
2E99
100
AcDbEntity
  8
freestand3 - Level 26
  6
Continuous
 62
     7
370
    13
100
AcDbCircle
 10
2.076478
 20
2.193614
 30
0.0
 40
0.02
100
AcDbArc
 50
0.0
 51
270.194935
  0
ARC
  5
2E90
330
2E99
100
AcDbEntity
  8
freestand3 - Level 26
  6
Continuous
 62
     7
370
    13
100
AcDbCircle
 10
2.076478
 20
2.193614
 30
0.0
 40
0.02
100
AcDbArc
 50
286.688397
 51
0.0
  0
ELLIPSE
  5
2E91
330
2E99
100
AcDbEntity
  8
freestand3 - Level 27
  6
Continuous
 62
     7
370
    13
100
AcDbEllipse
 10
1.963693
 20
2.197534
 30
0.0
 11
0.0101253578989037
 21
0.0146011189470751
 31
0.0
210
0.0
220
0.0
230
-1.0
 40
0.662085034576246
 41
5.172873025626014
 42
5.809165224278415
  0
ENDSEC
  0
SECTION
  2
OBJECTS
  0
DICTIONARY
  5
2EA2
330
0
100
AcDbDictionary
281
     1
  3
ACAD_COLOR
350
2EF7
  3
ACAD_DETAILVIEWSTYLE
350
3099
  3
ACAD_GROUP
350
2EE4
  3
ACAD_LAYOUT
350
2EC5
  3
ACAD_MATERIAL
350
2EA4
  3
ACAD_MLEADERSTYLE
350
2EFA
  3
ACAD_MLINESTYLE
350
2EE5
  3
ACAD_PLOTSETTINGS
350
2EE6
  3
ACAD_PLOTSTYLENAME
350
2EA1
  3
ACAD_SCALELIST
350
2EF8
  3
ACAD_SECTIONVIEWSTYLE
350
3097
  3
ACAD_TABLESTYLE
350
2EF9
  3
ACAD_VISUALSTYLE
350
2EDE
  3
AcadDim
350
3075
  3
ACDB_RECOMPOSE_DATA
350
353C
  3
AcDbVariableDictionary
350
2EFB
  3
AcDsDecomposeData
350
3542
  3
MicroStation
350
3073
  0
DICTIONARY
  5
2ECE
330
2ECD
100
AcDbDictionary
280
     1
281
     1
  3
ACAD_LAYERFILTERS
360
2ECF
  3
ACAD_LAYERSTATES
360
2ED0
  3
ACLYDICTIONARY
360
2ED1
  0
DICTIONARY
  5
2E9E
330
2E9D
100
AcDbDictionary
280
     1
281
     1
  3
ADSK_XREC_LAYER_RECONCILED
360
2E9F
  0
DICTIONARY
  5
2E9A
330
2E99
100
AcDbDictionary
280
     1
281
     1
  3
ACAD_SORTENTS
360
3071
  0
DICTIONARY
  5
2EF7
102
{ACAD_REACTORS
330
2EA2
102
}
330
2EA2
100
AcDbDictionary
281
     1
  0
DICTIONARY
  5
3099
102
{ACAD_REACTORS
330
2EA2
102
}
330
2EA2
100
AcDbDictionary
281
     1
  3
Imperial24
350
309A
  0
DICTIONARY
  5
2EE4
102
{ACAD_REACTORS
330
2EA2
102
}
330
2EA2
100
AcDbDictionary
281
     1
  0
DICTIONARY
  5
2EC5
102
{ACAD_REACTORS
330
2EA2
102
}
330
2EA2
100
AcDbDictionary
281
     1
  3
Layout1
350
2ECA
  3
Model
350
2EC4
  0
DICTIONARY
  5
2EA4
102
{ACAD_REACTORS
330
2EA2
102
}
330
2EA2
100
AcDbDictionary
281
     1
  3
ByBlock
350
2EEF
  3
ByLayer
350
2EE7
  3
Global
350
2EA3
  0
DICTIONARY
  5
2EFA
102
{ACAD_REACTORS
330
2EA2
102
}
330
2EA2
100
AcDbDictionary
281
     1
  3
Standard
350
3076
  0
DICTIONARY
  5
2EE5
102
{ACAD_REACTORS
330
2EA2
102
}
330
2EA2
100
AcDbDictionary
281
     1
  3
Standard
350
2F0D
  0
DICTIONARY
  5
2EE6
102
{ACAD_REACTORS
330
2EA2
102
}
330
2EA2
100
AcDbDictionary
281
     1
  0
ACDBDICTIONARYWDFLT
  5
2EA1
102
{ACAD_REACTORS
330
2EA2
102
}
330
2EA2
100
AcDbDictionary
281
     1
  3
Normal
350
2EA0
100
AcDbDictionaryWithDefault
340
2EA0
  0
DICTIONARY
  5
2EF8
102
{ACAD_REACTORS
330
2EA2
102
}
330
2EA2
100
AcDbDictionary
281
     1
  3
A0
350
2F12
  3
A1
350
2F13
  3
A2
350
2F14
  3
A3
350
2F15
  3
A4
350
2F16
  3
A5
350
2F17
  3
A6
350
2F18
  3
A7
350
2F19
  3
A8
350
2F1A
  3
A9
350
2F1B
  3
B0
350
2F1C
  3
B1
350
2F1D
  3
B2
350
2F1E
  3
B3
350
2F1F
  3
B4
350
2F20
  3
B5
350
2F21
  3
B6
350
2F22
  3
B7
350
2F23
  3
B8
350
2F24
  3
B9
350
2F25
  3
C0
350
2F26
  3
C1
350
2F27
  3
C2
350
2F28
  3
C3
350
2F29
  3
C4
350
2F2A
  3
C5
350
2F2B
  3
C6
350
2F2C
  3
C7
350
2F2D
  3
C8
350
2F2E
  3
C9
350
2F2F
  3
D0
350
2F30
  3
D1
350
2F31
  3
D2
350
2F32
  0
DICTIONARY
  5
3097
102
{ACAD_REACTORS
330
2EA2
102
}
330
2EA2
100
AcDbDictionary
281
     1
  3
Imperial24
350
3098
  0
DICTIONARY
  5
2EF9
102
{ACAD_REACTORS
330
2EA2
102
}
330
2EA2
100
AcDbDictionary
281
     1
  3
Standard
350
2F0E
  0
DICTIONARY
  5
2EDE
102
{ACAD_REACTORS
330
2EA2
102
}
330
2EA2
100
AcDbDictionary
281
     1
  3
2dWireframe
350
2EDD
  3
Basic
350
3086
  3
Brighten
350
308A
  3
ColorChange
350
308E
  3
Conceptual
350
3088
  3
Dim
350
3089
  3
EdgeColorOff
350
3096
  3
Facepattern
350
308D
  3
Flat
350
3082
  3
FlatWithEdges
350
3083
  3
Gouraud
350
3084
  3
GouraudWithEdges
350
3085
  3
Hidden
350
3087
  3
JitterOff
350
3094
  3
Linepattern
350
308C
  3
OverhangOff
350
3095
  3
Realistic
350
2F10
  3
Shaded
350
3093
  3
Shaded with edges
350
3092
  3
Shades of Gray
350
308F
  3
Sketchy
350
3090
  3
Thicken
350
308B
  3
Wireframe
350
2F11
  3
X-Ray
350
3091
  0
XRECORD
  5
3075
102
{ACAD_REACTORS
330
2EA2
102
}
330
2EA2
100
AcDbXrecord
280
     1
 90
   990106
  3
 
 60
     0
 61
     0
 62
     1
 63
     1
 64
     0
 65
     0
 66
     0
 67
     3
 68
     1
 69
     1
 70
     0
 71
     0
 72
     0
 40
0.0
170
     0
  0
XRECORD
  5
353C
102
{ACAD_REACTORS
330
2EA2
102
}
330
2EA2
100
AcDbXrecord
280
     1
 90
        1
330
2F0E
  0
DICTIONARY
  5
2EFB
102
{ACAD_REACTORS
330
2EA2
102
}
330
2EA2
100
AcDbDictionary
281
     1
  3
CANNOSCALE
350
2EFC
  3
CMLEADERSTYLE
350
2EFD
  3
CTABLESTYLE
350
2EFE
  3
CVIEWDETAILSTYLE
350
2EFF
  3
CVIEWSECTIONSTYLE
350
2F00
  3
LAYEREVAL
350
2F01
  3
LAYERNOTIFY
350
2F02
  3
MSLTSCALE
350
2F03
  3
PDFFRAME
350
2F04
  0
DICTIONARY
  5
3542
102
{ACAD_REACTORS
330
2EA2
102
}
330
2EA2
100
AcDbDictionary
281
     1
  3
AcDsRecords
350
3544
  3
AcDsSchemas
350
3543
1001
ACAD
1070
     2
  0
DICTIONARY
  5
3073
102
{ACAD_REACTORS
330
2EA2
102
}
330
2EA2
100
AcDbDictionary
281
     1
  3
ModelApplicationElement 0 92 702
350
5C
  0
DICTIONARY
  5
2ECF
102
{ACAD_REACTORS
330
2ECE
102
}
330
2ECE
100
AcDbDictionary
281
     1
  0
DICTIONARY
  5
2ED0
102
{ACAD_REACTORS
330
2ECE
102
}
330
2ECE
100
AcDbDictionary
281
     1
  0
DICTIONARY
  5
2ED1
102
{ACAD_REACTORS
330
2ECE
102
}
330
2ECE
100
AcDbDictionary
281
     1
  0
XRECORD
  5
2E9F
102
{ACAD_REACTORS
330
2E9E
102
}
330
2E9E
100
AcDbXrecord
280
     1
290
     1
  0
SORTENTSTABLE
  5
3071
102
{ACAD_REACTORS
330
2E9A
102
}
330
2E9A
100
AcDbSortentsTable
330
2E99
  0
ACDBDETAILVIEWSTYLE
  5
309A
102
{ACAD_XDICTIONARY
360
3547
102
}
102
{ACAD_REACTORS
330
3099
102
}
330
3099
100
AcDbModelDocViewStyle
 70
     0
  3
Imperial24
290
     0
100
AcDbDetailViewStyle
 70
     0
 71
     0
 90
        3
 71
     1
340
2ED3
 62
   256
 40
0.24
340
0
 62
   256
 40
0.24
300

 40
0.36
280
     3
 71
     2
340
2EAC
 90
       25
 62
   256
 71
     3
340
2ED3
 62
   256
 40
0.24
 90
        1
 40
0.75
 90
        1
300
%<\AcVar ViewType \f "%tc1">% %<\AcVar ViewDetailId>%\PSCALE %<\AcVar ViewScale \f "%sn">%
 71
     4
340
2EAC
 90
       25
 62
   256
340
2EAC
 90
       25
 62
   256
280
     0
  0
LAYOUT
  5
2ECA
102
{ACAD_XDICTIONARY
360
2ECB
102
}
102
{ACAD_REACTORS
330
2EC5
102
}
330
2EC5
100
AcDbPlotSettings
  1

  2
none_device
  4
Letter_(8.50_x_11.00_Inches)
  6

 40
6.35
 41
6.35
 42
6.350006
 43
6.350006
 44
215.899994
 45
279.399994
 46
0.0
 47
0.0
 48
0.0
 49
0.0
140
0.0
141
0.0
142
1.0
143
1.0
 70
   688
 72
     0
 73
     1
 74
     5
  7

 75
    16
147
1.0
 76
     0
 77
     2
 78
   300
148
0.0
149
0.0
100
AcDbLayout
  1
Layout1
 70
     1
 71
     1
 10
-0.25
 20
-0.25
 11
10.75
 21
8.25
 12
0.0
 22
0.0
 32
0.0
 14
1.05
 24
0.8
 34
0.0
 15
9.45
 25
7.2
 35
0.0
146
0.0
 13
0.0
 23
0.0
 33
0.0
 16
1.0
 26
0.0
 36
0.0
 17
0.0
 27
1.0
 37
0.0
 76
     0
330
2EC7
1001
ACAD_PSEXT
1000
None
1000
None
1000
Not applicable
1000
The layout will not be plotted unless a new plotter configuration name is selected.
1070
     0
  0
LAYOUT
  5
2EC4
102
{ACAD_XDICTIONARY
360
2EC6
102
}
102
{ACAD_REACTORS
330
2EC5
102
}
330
2EC5
100
AcDbPlotSettings
  1

  2
none_device
  4
ANSI_A_(8.50_x_11.00_Inches)
  6

 40
6.35
 41
19.049999
 42
6.350006
 43
19.049988
 44
215.899994
 45
279.399994
 46
0.0
 47
0.0
 48
0.0
 49
0.0
140
0.0
141
0.0
142
1.0
143
2.584895
 70
 11952
 72
     0
 73
     1
 74
     0
  7

 75
     0
147
0.386863
 76
     0
 77
     2
 78
   300
148
0.0
149
0.0
100
AcDbLayout
  1
Model
 70
     1
 71
     0
 10
0.0
 20
0.0
 11
12.0
 21
9.0
 12
0.0
 22
0.0
 32
0.0
 14
0.0
 24
0.0
 34
0.0
 15
0.0
 25
0.0
 35
0.0
146
0.0
 13
0.0
 23
0.0
 33
0.0
 16
1.0
 26
0.0
 36
0.0
 17
0.0
 27
1.0
 37
0.0
 76
     0
330
2E99
  0
MATERIAL
  5
2EEF
102
{ACAD_XDICTIONARY
360
2EF0
102
}
102
{ACAD_REACTORS
330
2EA4
102
}
330
2EA4
100
AcDbMaterial
  1
ByBlock
 72
     0
 43
0.020833
 43
0.0
 43
0.0
 43
0.0
 43
0.0
 43
0.020833
 43
0.0
 43
0.0
 43
0.0
 43
0.0
 43
1.0
 43
0.0
 43
0.0
 43
0.0
 43
0.0
 43
1.0
 77
     0
 47
0.020833
 47
0.0
 47
0.0
 47
0.0
 47
0.0
 47
0.020833
 47
0.0
 47
0.0
 47
0.0
 47
0.0
 47
1.0
 47
0.0
 47
0.0
 47
0.0
 47
0.0
 47
1.0
171
     0
 49
0.020833
 49
0.0
 49
0.0
 49
0.0
 49
0.0
 49
0.020833
 49
0.0
 49
0.0
 49
0.0
 49
0.0
 49
1.0
 49
0.0
 49
0.0
 49
0.0
 49
0.0
 49
1.0
175
     0
142
0.020833
142
0.0
142
0.0
142
0.0
142
0.0
142
0.020833
142
0.0
142
0.0
142
0.0
142
0.0
142
1.0
142
0.0
142
0.0
142
0.0
142
0.0
142
1.0
179
     0
144
0.020833
144
0.0
144
0.0
144
0.0
144
0.0
144
0.020833
144
0.0
144
0.0
144
0.0
144
0.0
144
1.0
144
0.0
144
0.0
144
0.0
144
0.0
144
1.0
147
0.020833
147
0.0
147
0.0
147
0.0
147
0.0
147
0.020833
147
0.0
147
0.0
147
0.0
147
0.0
147
1.0
147
0.0
147
0.0
147
0.0
147
0.0
147
1.0
  0
MATERIAL
  5
2EE7
102
{ACAD_XDICTIONARY
360
2EE8
102
}
102
{ACAD_REACTORS
330
2EA4
102
}
330
2EA4
100
AcDbMaterial
  1
ByLayer
 72
     0
 43
0.020833
 43
0.0
 43
0.0
 43
0.0
 43
0.0
 43
0.020833
 43
0.0
 43
0.0
 43
0.0
 43
0.0
 43
1.0
 43
0.0
 43
0.0
 43
0.0
 43
0.0
 43
1.0
 77
     0
 47
0.020833
 47
0.0
 47
0.0
 47
0.0
 47
0.0
 47
0.020833
 47
0.0
 47
0.0
 47
0.0
 47
0.0
 47
1.0
 47
0.0
 47
0.0
 47
0.0
 47
0.0
 47
1.0
171
     0
 49
0.020833
 49
0.0
 49
0.0
 49
0.0
 49
0.0
 49
0.020833
 49
0.0
 49
0.0
 49
0.0
 49
0.0
 49
1.0
 49
0.0
 49
0.0
 49
0.0
 49
0.0
 49
1.0
175
     0
142
0.020833
142
0.0
142
0.0
142
0.0
142
0.0
142
0.020833
142
0.0
142
0.0
142
0.0
142
0.0
142
1.0
142
0.0
142
0.0
142
0.0
142
0.0
142
1.0
179
     0
144
0.020833
144
0.0
144
0.0
144
0.0
144
0.0
144
0.020833
144
0.0
144
0.0
144
0.0
144
0.0
144
1.0
144
0.0
144
0.0
144
0.0
144
0.0
144
1.0
147
0.020833
147
0.0
147
0.0
147
0.0
147
0.0
147
0.020833
147
0.0
147
0.0
147
0.0
147
0.0
147
1.0
147
0.0
147
0.0
147
0.0
147
0.0
147
1.0
  0
MATERIAL
  5
2EA3
102
{ACAD_XDICTIONARY
360
2EA5
102
}
102
{ACAD_REACTORS
330
2EA4
102
}
330
2EA4
100
AcDbMaterial
  1
Global
 72
     0
 43
0.020833
 43
0.0
 43
0.0
 43
0.0
 43
0.0
 43
0.020833
 43
0.0
 43
0.0
 43
0.0
 43
0.0
 43
1.0
 43
0.0
 43
0.0
 43
0.0
 43
0.0
 43
1.0
 77
     0
 47
0.020833
 47
0.0
 47
0.0
 47
0.0
 47
0.0
 47
0.020833
 47
0.0
 47
0.0
 47
0.0
 47
0.0
 47
1.0
 47
0.0
 47
0.0
 47
0.0
 47
0.0
 47
1.0
171
     0
 49
0.020833
 49
0.0
 49
0.0
 49
0.0
 49
0.0
 49
0.020833
 49
0.0
 49
0.0
 49
0.0
 49
0.0
 49
1.0
 49
0.0
 49
0.0
 49
0.0
 49
0.0
 49
1.0
175
     0
142
0.020833
142
0.0
142
0.0
142
0.0
142
0.0
142
0.020833
142
0.0
142
0.0
142
0.0
142
0.0
142
1.0
142
0.0
142
0.0
142
0.0
142
0.0
142
1.0
179
     0
144
0.020833
144
0.0
144
0.0
144
0.0
144
0.0
144
0.020833
144
0.0
144
0.0
144
0.0
144
0.0
144
1.0
144
0.0
144
0.0
144
0.0
144
0.0
144
1.0
147
0.020833
147
0.0
147
0.0
147
0.0
147
0.0
147
0.020833
147
0.0
147
0.0
147
0.0
147
0.0
147
1.0
147
0.0
147
0.0
147
0.0
147
0.0
147
1.0
  0
MLEADERSTYLE
  5
3076
102
{ACAD_REACTORS
330
2EFA
102
}
330
2EFA
100
AcDbMLeaderStyle
179
     2
170
     2
171
     1
172
     0
 90
        2
 40
0.0
 41
0.0
173
     1
 91
-1073741824
 92
       -2
290
     1
 42
0.125
291
     1
 43
0.5
  3

341
2F07
 44
0.25
300

342
3074
174
     1
178
     1
175
     1
176
     0
 93
-1073741824
 45
0.25
292
     0
297
     1
 46
5.0
 94
-1073741824
 47
1.0
 49
1.0
140
1.0
293
     1
141
0.0
294
     1
177
     0
142
1.0
295
     0
296
     1
143
0.125
271
     0
272
     9
273
     9
298
     0
  0
MLINESTYLE
  5
2F0D
102
{ACAD_REACTORS
330
2EE5
102
}
330
2EE5
100
AcDbMlineStyle
  2
STANDARD
 70
     0
  3

 62
   256
 51
90.0
 52
90.0
 71
     2
 49
0.5
 62
   256
  6
BYLAYER
 49
-0.5
 62
   256
  6
BYLAYER
  0
ACDBPLACEHOLDER
  5
2EA0
102
{ACAD_REACTORS
330
2EA1
102
}
330
2EA1
  0
SCALE
  5
2F12
102
{ACAD_REACTORS
330
2EF8
102
}
330
2EF8
100
AcDbScale
 70
     0
300
1:1
140
1.0
141
1.0
290
     1
  0
SCALE
  5
2F13
102
{ACAD_REACTORS
330
2EF8
102
}
330
2EF8
100
AcDbScale
 70
     0
300
1:2
140
1.0
141
2.0
290
     0
  0
SCALE
  5
2F14
102
{ACAD_REACTORS
330
2EF8
102
}
330
2EF8
100
AcDbScale
 70
     0
300
1:4
140
1.0
141
4.0
290
     0
  0
SCALE
  5
2F15
102
{ACAD_REACTORS
330
2EF8
102
}
330
2EF8
100
AcDbScale
 70
     0
300
1:5
140
1.0
141
5.0
290
     0
  0
SCALE
  5
2F16
102
{ACAD_REACTORS
330
2EF8
102
}
330
2EF8
100
AcDbScale
 70
     0
300
1:8
140
1.0
141
8.0
290
     0
  0
SCALE
  5
2F17
102
{ACAD_REACTORS
330
2EF8
102
}
330
2EF8
100
AcDbScale
 70
     0
300
1:10
140
1.0
141
10.0
290
     0
  0
SCALE
  5
2F18
102
{ACAD_REACTORS
330
2EF8
102
}
330
2EF8
100
AcDbScale
 70
     0
300
1:16
140
1.0
141
16.0
290
     0
  0
SCALE
  5
2F19
102
{ACAD_REACTORS
330
2EF8
102
}
330
2EF8
100
AcDbScale
 70
     0
300
1:20
140
1.0
141
20.0
290
     0
  0
SCALE
  5
2F1A
102
{ACAD_REACTORS
330
2EF8
102
}
330
2EF8
100
AcDbScale
 70
     0
300
1:30
140
1.0
141
30.0
290
     0
  0
SCALE
  5
2F1B
102
{ACAD_REACTORS
330
2EF8
102
}
330
2EF8
100
AcDbScale
 70
     0
300
1:40
140
1.0
141
40.0
290
     0
  0
SCALE
  5
2F1C
102
{ACAD_REACTORS
330
2EF8
102
}
330
2EF8
100
AcDbScale
 70
     0
300
1:50
140
1.0
141
50.0
290
     0
  0
SCALE
  5
2F1D
102
{ACAD_REACTORS
330
2EF8
102
}
330
2EF8
100
AcDbScale
 70
     0
300
1:100
140
1.0
141
100.0
290
     0
  0
SCALE
  5
2F1E
102
{ACAD_REACTORS
330
2EF8
102
}
330
2EF8
100
AcDbScale
 70
     0
300
2:1
140
2.0
141
1.0
290
     0
  0
SCALE
  5
2F1F
102
{ACAD_REACTORS
330
2EF8
102
}
330
2EF8
100
AcDbScale
 70
     0
300
4:1
140
4.0
141
1.0
290
     0
  0
SCALE
  5
2F20
102
{ACAD_REACTORS
330
2EF8
102
}
330
2EF8
100
AcDbScale
 70
     0
300
8:1
140
8.0
141
1.0
290
     0
  0
SCALE
  5
2F21
102
{ACAD_REACTORS
330
2EF8
102
}
330
2EF8
100
AcDbScale
 70
     0
300
10:1
140
10.0
141
1.0
290
     0
  0
SCALE
  5
2F22
102
{ACAD_REACTORS
330
2EF8
102
}
330
2EF8
100
AcDbScale
 70
     0
300
100:1
140
100.0
141
1.0
290
     0
  0
SCALE
  5
2F23
102
{ACAD_REACTORS
330
2EF8
102
}
330
2EF8
100
AcDbScale
 70
     0
300
1/128" = 1'-0"
140
0.007813
141
12.0
290
     0
  0
SCALE
  5
2F24
102
{ACAD_REACTORS
330
2EF8
102
}
330
2EF8
100
AcDbScale
 70
     0
300
1/64" = 1'-0"
140
0.015625
141
12.0
290
     0
  0
SCALE
  5
2F25
102
{ACAD_REACTORS
330
2EF8
102
}
330
2EF8
100
AcDbScale
 70
     0
300
1/32" = 1'-0"
140
0.03125
141
12.0
290
     0
  0
SCALE
  5
2F26
102
{ACAD_REACTORS
330
2EF8
102
}
330
2EF8
100
AcDbScale
 70
     0
300
1/16" = 1'-0"
140
0.0625
141
12.0
290
     0
  0
SCALE
  5
2F27
102
{ACAD_REACTORS
330
2EF8
102
}
330
2EF8
100
AcDbScale
 70
     0
300
3/32" = 1'-0"
140
0.09375
141
12.0
290
     0
  0
SCALE
  5
2F28
102
{ACAD_REACTORS
330
2EF8
102
}
330
2EF8
100
AcDbScale
 70
     0
300
1/8" = 1'-0"
140
0.125
141
12.0
290
     0
  0
SCALE
  5
2F29
102
{ACAD_REACTORS
330
2EF8
102
}
330
2EF8
100
AcDbScale
 70
     0
300
3/16" = 1'-0"
140
0.1875
141
12.0
290
     0
  0
SCALE
  5
2F2A
102
{ACAD_REACTORS
330
2EF8
102
}
330
2EF8
100
AcDbScale
 70
     0
300
1/4" = 1'-0"
140
0.25
141
12.0
290
     0
  0
SCALE
  5
2F2B
102
{ACAD_REACTORS
330
2EF8
102
}
330
2EF8
100
AcDbScale
 70
     0
300
3/8" = 1'-0"
140
0.375
141
12.0
290
     0
  0
SCALE
  5
2F2C
102
{ACAD_REACTORS
330
2EF8
102
}
330
2EF8
100
AcDbScale
 70
     0
300
1/2" = 1'-0"
140
0.5
141
12.0
290
     0
  0
SCALE
  5
2F2D
102
{ACAD_REACTORS
330
2EF8
102
}
330
2EF8
100
AcDbScale
 70
     0
300
3/4" = 1'-0"
140
0.75
141
12.0
290
     0
  0
SCALE
  5
2F2E
102
{ACAD_REACTORS
330
2EF8
102
}
330
2EF8
100
AcDbScale
 70
     0
300
1" = 1'-0"
140
1.0
141
12.0
290
     0
  0
SCALE
  5
2F2F
102
{ACAD_REACTORS
330
2EF8
102
}
330
2EF8
100
AcDbScale
 70
     0
300
1-1/2" = 1'-0"
140
1.5
141
12.0
290
     0
  0
SCALE
  5
2F30
102
{ACAD_REACTORS
330
2EF8
102
}
330
2EF8
100
AcDbScale
 70
     0
300
3" = 1'-0"
140
3.0
141
12.0
290
     0
  0
SCALE
  5
2F31
102
{ACAD_REACTORS
330
2EF8
102
}
330
2EF8
100
AcDbScale
 70
     0
300
6" = 1'-0"
140
6.0
141
12.0
290
     0
  0
SCALE
  5
2F32
102
{ACAD_REACTORS
330
2EF8
102
}
330
2EF8
100
AcDbScale
 70
     0
300
1'-0" = 1'-0"
140
12.0
141
12.0
290
     0
  0
ACDBSECTIONVIEWSTYLE
  5
3098
102
{ACAD_XDICTIONARY
360
3545
102
}
102
{ACAD_REACTORS
330
3097
102
}
330
3097
100
AcDbModelDocViewStyle
 70
     0
  3
Imperial24
290
     0
100
AcDbSectionViewStyle
 70
     0
 71
     0
 90
       78
 71
     1
340
2ED3
 62
   256
 40
0.24
340
0
340
0
 62
   256
 40
0.24
300
I, O, Q, S, X, Z
 40
0.48
 90
        3
 40
0.18
 90
        1
 71
     2
340
2EAC
 90
       25
 62
   256
340
2EAC
 90
       50
 62
   256
 40
0.24
 40
0.0
 40
0.24
 71
     3
340
2ED3
 62
   256
 40
0.24
 90
        1
 40
0.75
 90
        1
300
%<\AcVar ViewType \f "%tc1">% %<\AcVar ViewSectionStartId>%-%<\AcVar ViewSectionEndId>%\PSCALE %<\AcVar ViewScale \f "%sn">%
 71
     4
 62
   256
 62
   257
300
ANSI31
 40
1.0
 90
        0
290
     0
290
     0
 90
        6
 40
0.0
 40
1.570796
 40
0.261799
 40
1.308997
 40
-0.261799
 40
1.832596
  0
TABLESTYLE
  5
2F0E
102
{ACAD_XDICTIONARY
360
2F0F
102
}
102
{ACAD_REACTORS
330
2EF9
102
}
330
2EF9
100
AcDbTableStyle
280
     0
  3
Standard
 70
     0
 71
     0
 40
0.06
 41
0.06
280
     0
281
     0
  7
Standard
140
0.18
170
     2
 62
     0
 63
     7
283
     0
 90
        4
 91
        0
  1

274
    -2
284
     1
 64
     0
275
    -2
285
     1
 65
     0
276
    -2
286
     1
 66
     0
277
    -2
287
     1
 67
     0
278
    -2
288
     1
 68
     0
279
    -2
289
     1
 69
     0
  7
Standard
140
0.25
170
     5
 62
     0
 63
     7
283
     0
 90
        4
 91
        0
  1

274
    -2
284
     1
 64
     0
275
    -2
285
     1
 65
     0
276
    -2
286
     1
 66
     0
277
    -2
287
     1
 67
     0
278
    -2
288
     1
 68
     0
279
    -2
289
     1
 69
     0
  7
Standard
140
0.18
170
     5
 62
     0
 63
     7
283
     0
 90
        4
 91
        0
  1

274
    -2
284
     1
 64
     0
275
    -2
285
     1
 65
     0
276
    -2
286
     1
 66
     0
277
    -2
287
     1
 67
     0
278
    -2
288
     1
 68
     0
279
    -2
289
     1
 69
     0
  0
VISUALSTYLE
  5
2EDD
102
{ACAD_REACTORS
330
2EDE
102
}
330
2EDE
100
AcDbVisualStyle
  2
2dWireframe
 70
     4
177
     3
291
     0
 70
    58
 90
        0
176
     1
 90
        2
176
     1
 90
        0
176
     1
 90
        0
176
     1
 40
0.6
176
     1
 40
30.0
176
     1
 62
     7
420
 16777215
176
     1
 90
        1
176
     1
 90
        4
176
     1
 62
     7
176
     1
 62
   257
176
     1
 90
        1
176
     1
 90
        1
176
     1
 40
1.0
176
     1
 90
        0
176
     1
 62
   257
176
     1
 40
1.0
176
     1
 90
        1
176
     1
 90
        6
176
     1
 90
        2
176
     1
 62
     7
176
     1
 90
        5
176
     1
 90
        0
176
     1
 90
        0
176
     1
290
     0
176
     1
 90
        1
176
     1
 40
0.0
176
     1
 90
        0
176
     1
290
     1
176
     1
290
     1
176
     1
290
     0
176
     1
290
     0
176
     1
290
     0
176
     1
290
     0
176
     1
290
     0
176
     1
290
     0
176
     1
290
     0
176
     1
 90
       50
176
     1
 40
0.0
176
     1
 40
1.0
176
     1
 90
        0
176
     1
 62
    18
420
        0
176
     1
 90
       50
176
     1
 90
        3
176
     1
 62
     5
420
      255
176
     1
290
     0
176
     1
 90
       50
176
     1
 90
       50
176
     1
 90
       50
176
     1
290
     0
176
     1
 90
       50
176
     1
 62
   256
176
     0
 40
1.0
176
     0
 90
        2
176
     1
  1
strokes_ogs.tif
176
     1
290
     0
176
     1
 40
1.0
176
     1
 40
1.0
176
     1
1001
ACAD
1000
AcDbSavedByObjectVersion
1070
     0
  0
VISUALSTYLE
  5
3086
102
{ACAD_REACTORS
330
2EDE
102
}
330
2EDE
100
AcDbVisualStyle
  2
Basic
 70
     7
177
     3
291
     1
 70
    58
 90
        1
176
     1
 90
        0
176
     1
 90
        1
176
     1
 90
        0
176
     1
 40
0.6
176
     1
 40
30.0
176
     1
 62
     7
420
 16777215
176
     1
 90
        0
176
     1
 90
        4
176
     1
 62
     7
176
     1
 62
   257
176
     1
 90
        1
176
     1
 90
        1
176
     1
 40
1.0
176
     1
 90
        8
176
     1
 62
     7
176
     1
 40
1.0
176
     1
 90
        1
176
     1
 90
        6
176
     1
 90
        2
176
     1
 62
     7
176
     1
 90
        5
176
     1
 90
        0
176
     1
 90
        0
176
     1
290
     0
176
     1
 90
        1
176
     1
 40
0.0
176
     1
 90
        0
176
     1
290
     0
176
     1
290
     1
176
     1
290
     1
176
     1
290
     0
176
     1
290
     0
176
     1
290
     0
176
     1
290
     0
176
     1
290
     0
176
     1
290
     0
176
     1
 90
       50
176
     1
 40
0.0
176
     1
 40
1.0
176
     1
 90
        0
176
     1
 62
    18
420
        0
176
     1
 90
       50
176
     1
 90
        3
176
     1
 62
     5
420
      255
176
     1
290
     0
176
     1
 90
       50
176
     1
 90
       50
176
     1
 90
       50
176
     1
290
     0
176
     1
 90
       50
176
     1
 62
   256
176
     0
 40
1.0
176
     0
 90
        2
176
     1
  1
strokes_ogs.tif
176
     1
290
     0
176
     1
 40
1.0
176
     1
 40
1.0
176
     1
1001
ACAD
1000
AcDbSavedByObjectVersion
1070
     0
  0
VISUALSTYLE
  5
308A
102
{ACAD_REACTORS
330
2EDE
102
}
330
2EDE
100
AcDbVisualStyle
  2
Brighten
 70
    12
177
     3
291
     1
 70
    58
 90
        2
176
     1
 90
        2
176
     1
 90
        0
176
     1
 90
        0
176
     1
 40
0.6
176
     1
 40
30.0
176
     1
 62
     7
420
 16777215
176
     1
 90
        1
176
     1
 90
        4
176
     1
 62
     7
176
     1
 62
   257
176
     1
 90
        1
176
     1
 90
        1
176
     1
 40
1.0
176
     1
 90
        8
176
     1
 62
     7
176
     1
 40
1.0
176
     1
 90
        1
176
     1
 90
        6
176
     1
 90
        2
176
     1
 62
     7
176
     1
 90
        5
176
     1
 90
        0
176
     1
 90
        0
176
     1
290
     0
176
     1
 90
        1
176
     1
 40
50.0
176
     1
 90
        0
176
     1
290
     0
176
     1
290
     1
176
     1
290
     1
176
     1
290
     0
176
     1
290
     0
176
     1
290
     0
176
     1
290
     0
176
     1
290
     0
176
     1
290
     0
176
     1
 90
       50
176
     1
 40
0.0
176
     1
 40
1.0
176
     1
 90
        0
176
     1
 62
    18
420
        0
176
     1
 90
       50
176
     1
 90
        3
176
     1
 62
     5
420
      255
176
     1
290
     0
176
     1
 90
       50
176
     1
 90
       50
176
     1
 90
       50
176
     1
290
     0
176
     1
 90
       50
176
     1
 62
   256
176
     0
 40
1.0
176
     0
 90
        2
176
     1
  1
strokes_ogs.tif
176
     1
290
     0
176
     1
 40
1.0
176
     1
 40
1.0
176
     1
1001
ACAD
1000
AcDbSavedByObjectVersion
1070
     0
  0
VISUALSTYLE
  5
308E
102
{ACAD_REACTORS
330
2EDE
102
}
330
2EDE
100
AcDbVisualStyle
  2
ColorChange
 70
    16
177
     3
291
     1
 70
    58
 90
        2
176
     1
 90
        2
176
     1
 90
        3
176
     1
 90
        0
176
     1
 40
0.6
176
     1
 40
30.0
176
     1
 62
     8
420
  8421504
176
     1
 90
        1
176
     1
 90
        4
176
     1
 62
     7
176
     1
 62
   257
176
     1
 90
        1
176
     1
 90
        1
176
     1
 40
1.0
176
     1
 90
        8
176
     1
 62
     8
420
  8421504
176
     1
 40
1.0
176
     1
 90
        1
176
     1
 90
        6
176
     1
 90
        2
176
     1
 62
     7
176
     1
 90
        5
176
     1
 90
        0
176
     1
 90
        0
176
     1
290
     0
176
     1
 90
        1
176
     1
 40
0.0
176
     1
 90
        0
176
     1
290
     0
176
     1
290
     1
176
     1
290
     1
176
     1
290
     0
176
     1
290
     0
176
     1
290
     0
176
     1
290
     0
176
     1
290
     0
176
     1
290
     0
176
     1
 90
       50
176
     1
 40
0.0
176
     1
 40
1.0
176
     1
 90
        0
176
     1
 62
    18
420
        0
176
     1
 90
       50
176
     1
 90
        3
176
     1
 62
     5
420
      255
176
     1
290
     0
176
     1
 90
       50
176
     1
 90
       50
176
     1
 90
       50
176
     1
290
     0
176
     1
 90
       50
176
     1
 62
   256
176
     0
 40
1.0
176
     0
 90
        2
176
     1
  1
strokes_ogs.tif
176
     1
290
     0
176
     1
 40
1.0
176
     1
 40
1.0
176
     1
1001
ACAD
1000
AcDbSavedByObjectVersion
1070
     0
  0
VISUALSTYLE
  5
3088
102
{ACAD_REACTORS
330
2EDE
102
}
330
2EDE
100
AcDbVisualStyle
  2
Conceptual
 70
     9
177
     3
291
     0
 70
    58
 90
        3
176
     1
 90
        2
176
     1
 90
        0
176
     1
 90
        0
176
     1
 40
0.6
176
     1
 40
30.0
176
     1
 62
     7
420
 16777215
176
     1
 90
        2
176
     1
 90
        2
176
     1
 62
     7
176
     1
 62
   257
176
     1
 90
        1
176
     1
 90
        1
176
     1
 40
179.0
176
     1
 90
        8
176
     1
 62
     7
176
     1
 40
1.0
176
     1
 90
        1
176
     1
 90
        6
176
     1
 90
        2
176
     1
 62
     7
176
     1
 90
        3
176
     1
 90
        0
176
     1
 90
        0
176
     1
290
     0
176
     1
 90
        1
176
     1
 40
0.0
176
     1
 90
        0
176
     1
290
     0
176
     1
290
     1
176
     1
290
     1
176
     1
290
     0
176
     1
290
     0
176
     1
290
     0
176
     1
290
     0
176
     1
290
     0
176
     1
290
     0
176
     1
 90
       50
176
     1
 40
0.0
176
     1
 40
1.0
176
     1
 90
        0
176
     1
 62
    18
420
        0
176
     1
 90
       50
176
     1
 90
        3
176
     1
 62
     5
420
      255
176
     1
290
     0
176
     1
 90
       50
176
     1
 90
       50
176
     1
 90
       50
176
     1
290
     0
176
     1
 90
       50
176
     1
 62
   256
176
     0
 40
1.0
176
     0
 90
        2
176
     1
  1
strokes_ogs.tif
176
     1
290
     0
176
     1
 40
1.0
176
     1
 40
1.0
176
     1
1001
ACAD
1000
AcDbSavedByObjectVersion
1070
     0
  0
VISUALSTYLE
  5
3089
102
{ACAD_REACTORS
330
2EDE
102
}
330
2EDE
100
AcDbVisualStyle
  2
Dim
 70
    11
177
     3
291
     1
 70
    58
 90
        2
176
     1
 90
        2
176
     1
 90
        0
176
     1
 90
        0
176
     1
 40
0.6
176
     1
 40
30.0
176
     1
 62
     7
420
 16777215
176
     1
 90
        1
176
     1
 90
        4
176
     1
 62
     7
176
     1
 62
   257
176
     1
 90
        1
176
     1
 90
        1
176
     1
 40
1.0
176
     1
 90
        8
176
     1
 62
     7
176
     1
 40
1.0
176
     1
 90
        1
176
     1
 90
        6
176
     1
 90
        2
176
     1
 62
     7
176
     1
 90
        5
176
     1
 90
        0
176
     1
 90
        0
176
     1
290
     0
176
     1
 90
        1
176
     1
 40
-50.0
176
     1
 90
        0
176
     1
290
     0
176
     1
290
     1
176
     1
290
     1
176
     1
290
     0
176
     1
290
     0
176
     1
290
     0
176
     1
290
     0
176
     1
290
     0
176
     1
290
     0
176
     1
 90
       50
176
     1
 40
0.0
176
     1
 40
1.0
176
     1
 90
        0
176
     1
 62
    18
420
        0
176
     1
 90
       50
176
     1
 90
        3
176
     1
 62
     5
420
      255
176
     1
290
     0
176
     1
 90
       50
176
     1
 90
       50
176
     1
 90
       50
176
     1
290
     0
176
     1
 90
       50
176
     1
 62
   256
176
     0
 40
1.0
176
     0
 90
        2
176
     1
  1
strokes_ogs.tif
176
     1
290
     0
176
     1
 40
1.0
176
     1
 40
1.0
176
     1
1001
ACAD
1000
AcDbSavedByObjectVersion
1070
     0
  0
VISUALSTYLE
  5
3096
102
{ACAD_REACTORS
330
2EDE
102
}
330
2EDE
100
AcDbVisualStyle
  2
EdgeColorOff
 70
    22
177
     3
291
     1
 70
    58
 90
        2
176
     0
 90
        2
176
     0
 90
        0
176
     0
 90
        0
176
     0
 40
0.6
176
     0
 40
30.0
176
     0
 62
     7
420
 16777215
176
     0
 90
        1
176
     0
 90
        4
176
     0
 62
     7
176
     0
 62
   257
176
     0
 90
        1
176
     0
 90
        1
176
     0
 40
1.0
176
     0
 90
        8
176
     2
 62
     7
176
     0
 40
1.0
176
     0
 90
        1
176
     0
 90
        6
176
     0
 90
        2
176
     0
 62
     7
176
     0
 90
        5
176
     0
 90
        0
176
     0
 90
        0
176
     0
290
     0
176
     0
 90
        1
176
     0
 40
0.0
176
     0
 90
        0
176
     0
290
     0
176
     0
290
     1
176
     0
290
     1
176
     0
290
     0
176
     0
290
     0
176
     0
290
     0
176
     0
290
     0
176
     0
290
     0
176
     0
290
     0
176
     0
 90
       50
176
     0
 40
0.0
176
     0
 40
1.0
176
     0
 90
        0
176
     0
 62
    18
420
        0
176
     0
 90
       50
176
     0
 90
        3
176
     0
 62
     5
420
      255
176
     0
290
     0
176
     0
 90
       50
176
     0
 90
       50
176
     0
 90
       50
176
     0
290
     0
176
     0
 90
       50
176
     0
 62
   256
176
     0
 40
1.0
176
     0
 90
        2
176
     0
  1
strokes_ogs.tif
176
     0
290
     0
176
     0
 40
1.0
176
     0
 40
1.0
176
     0
1001
ACAD
1000
AcDbSavedByObjectVersion
1070
     0
  0
VISUALSTYLE
  5
308D
102
{ACAD_REACTORS
330
2EDE
102
}
330
2EDE
100
AcDbVisualStyle
  2
Facepattern
 70
    15
177
     3
291
     1
 70
    58
 90
        2
176
     1
 90
        2
176
     1
 90
        0
176
     1
 90
        0
176
     1
 40
0.6
176
     1
 40
30.0
176
     1
 62
     7
420
 16777215
176
     1
 90
        1
176
     1
 90
        4
176
     1
 62
     7
176
     1
 62
   257
176
     1
 90
        1
176
     1
 90
        1
176
     1
 40
1.0
176
     1
 90
        8
176
     1
 62
     7
176
     1
 40
1.0
176
     1
 90
        1
176
     1
 90
        6
176
     1
 90
        2
176
     1
 62
     7
176
     1
 90
        5
176
     1
 90
        0
176
     1
 90
        0
176
     1
290
     0
176
     1
 90
        1
176
     1
 40
0.0
176
     1
 90
        0
176
     1
290
     0
176
     1
290
     1
176
     1
290
     1
176
     1
290
     0
176
     1
290
     0
176
     1
290
     0
176
     1
290
     0
176
     1
290
     0
176
     1
290
     0
176
     1
 90
       50
176
     1
 40
0.0
176
     1
 40
1.0
176
     1
 90
        0
176
     1
 62
    18
420
        0
176
     1
 90
       50
176
     1
 90
        3
176
     1
 62
     5
420
      255
176
     1
290
     0
176
     1
 90
       50
176
     1
 90
       50
176
     1
 90
       50
176
     1
290
     0
176
     1
 90
       50
176
     1
 62
   256
176
     0
 40
1.0
176
     0
 90
        2
176
     1
  1
strokes_ogs.tif
176
     1
290
     0
176
     1
 40
1.0
176
     1
 40
1.0
176
     1
1001
ACAD
1000
AcDbSavedByObjectVersion
1070
     0
  0
VISUALSTYLE
  5
3082
102
{ACAD_REACTORS
330
2EDE
102
}
330
2EDE
100
AcDbVisualStyle
  2
Flat
 70
     0
177
     3
291
     1
 70
    58
 90
        2
176
     1
 90
        1
176
     1
 90
        1
176
     1
 90
        2
176
     1
 40
0.6
176
     1
 40
30.0
176
     1
 62
     7
420
 16777215
176
     1
 90
        0
176
     1
 90
        0
176
     1
 62
     7
176
     1
 62
   257
176
     1
 90
        1
176
     1
 90
        1
176
     1
 40
1.0
176
     1
 90
        8
176
     1
 62
     7
176
     1
 40
1.0
176
     1
 90
        1
176
     1
 90
        6
176
     1
 90
        2
176
     1
 62
     7
176
     1
 90
        5
176
     1
 90
        0
176
     1
 90
        0
176
     1
290
     0
176
     1
 90
       13
176
     1
 40
0.0
176
     1
 90
        0
176
     1
290
     0
176
     1
290
     1
176
     1
290
     1
176
     1
290
     0
176
     1
290
     0
176
     1
290
     0
176
     1
290
     0
176
     1
290
     0
176
     1
290
     0
176
     1
 90
       50
176
     1
 40
0.0
176
     1
 40
1.0
176
     1
 90
        0
176
     1
 62
    18
420
        0
176
     1
 90
       50
176
     1
 90
        3
176
     1
 62
     5
420
      255
176
     1
290
     0
176
     1
 90
       50
176
     1
 90
       50
176
     1
 90
       50
176
     1
290
     0
176
     1
 90
       50
176
     1
 62
   256
176
     0
 40
1.0
176
     0
 90
        2
176
     1
  1
strokes_ogs.tif
176
     1
290
     0
176
     1
 40
1.0
176
     1
 40
1.0
176
     1
1001
ACAD
1000
AcDbSavedByObjectVersion
1070
     0
  0
VISUALSTYLE
  5
3083
102
{ACAD_REACTORS
330
2EDE
102
}
330
2EDE
100
AcDbVisualStyle
  2
FlatWithEdges
 70
     1
177
     3
291
     1
 70
    58
 90
        2
176
     1
 90
        1
176
     1
 90
        1
176
     1
 90
        2
176
     1
 40
0.6
176
     1
 40
30.0
176
     1
 62
     7
420
 16777215
176
     1
 90
        1
176
     1
 90
        0
176
     1
 62
     7
176
     1
 62
   257
176
     1
 90
        1
176
     1
 90
        1
176
     1
 40
1.0
176
     1
 90
        0
176
     1
 62
   257
176
     1
 40
1.0
176
     1
 90
        1
176
     1
 90
        6
176
     1
 90
        2
176
     1
 62
     7
176
     1
 90
        5
176
     1
 90
        0
176
     1
 90
        0
176
     1
290
     0
176
     1
 90
       13
176
     1
 40
0.0
176
     1
 90
        0
176
     1
290
     0
176
     1
290
     1
176
     1
290
     1
176
     1
290
     0
176
     1
290
     0
176
     1
290
     0
176
     1
290
     0
176
     1
290
     0
176
     1
290
     0
176
     1
 90
       50
176
     1
 40
0.0
176
     1
 40
1.0
176
     1
 90
        0
176
     1
 62
    18
420
        0
176
     1
 90
       50
176
     1
 90
        3
176
     1
 62
     5
420
      255
176
     1
290
     0
176
     1
 90
       50
176
     1
 90
       50
176
     1
 90
       50
176
     1
290
     0
176
     1
 90
       50
176
     1
 62
   256
176
     0
 40
1.0
176
     0
 90
        2
176
     1
  1
strokes_ogs.tif
176
     1
290
     0
176
     1
 40
1.0
176
     1
 40
1.0
176
     1
1001
ACAD
1000
AcDbSavedByObjectVersion
1070
     0
  0
VISUALSTYLE
  5
3084
102
{ACAD_REACTORS
330
2EDE
102
}
330
2EDE
100
AcDbVisualStyle
  2
Gouraud
 70
     2
177
     3
291
     1
 70
    58
 90
        2
176
     1
 90
        2
176
     1
 90
        1
176
     1
 90
        2
176
     1
 40
0.6
176
     1
 40
30.0
176
     1
 62
     7
420
 16777215
176
     1
 90
        0
176
     1
 90
        0
176
     1
 62
     7
176
     1
 62
   257
176
     1
 90
        1
176
     1
 90
        1
176
     1
 40
1.0
176
     1
 90
        0
176
     1
 62
     7
176
     1
 40
1.0
176
     1
 90
        1
176
     1
 90
        6
176
     1
 90
        2
176
     1
 62
     7
176
     1
 90
        5
176
     1
 90
        0
176
     1
 90
        0
176
     1
290
     0
176
     1
 90
       13
176
     1
 40
0.0
176
     1
 90
        0
176
     1
290
     0
176
     1
290
     1
176
     1
290
     1
176
     1
290
     0
176
     1
290
     0
176
     1
290
     0
176
     1
290
     0
176
     1
290
     0
176
     1
290
     0
176
     1
 90
       50
176
     1
 40
0.0
176
     1
 40
1.0
176
     1
 90
        0
176
     1
 62
    18
420
        0
176
     1
 90
       50
176
     1
 90
        3
176
     1
 62
     5
420
      255
176
     1
290
     0
176
     1
 90
       50
176
     1
 90
       50
176
     1
 90
       50
176
     1
290
     0
176
     1
 90
       50
176
     1
 62
   256
176
     0
 40
1.0
176
     0
 90
        2
176
     1
  1
strokes_ogs.tif
176
     1
290
     0
176
     1
 40
1.0
176
     1
 40
1.0
176
     1
1001
ACAD
1000
AcDbSavedByObjectVersion
1070
     0
  0
VISUALSTYLE
  5
3085
102
{ACAD_REACTORS
330
2EDE
102
}
330
2EDE
100
AcDbVisualStyle
  2
GouraudWithEdges
 70
     3
177
     3
291
     1
 70
    58
 90
        2
176
     1
 90
        2
176
     1
 90
        1
176
     1
 90
        2
176
     1
 40
0.6
176
     1
 40
30.0
176
     1
 62
     7
420
 16777215
176
     1
 90
        1
176
     1
 90
        0
176
     1
 62
     7
176
     1
 62
   257
176
     1
 90
        1
176
     1
 90
        1
176
     1
 40
1.0
176
     1
 90
        0
176
     1
 62
   257
176
     1
 40
1.0
176
     1
 90
        1
176
     1
 90
        6
176
     1
 90
        2
176
     1
 62
     7
176
     1
 90
        5
176
     1
 90
        0
176
     1
 90
        0
176
     1
290
     0
176
     1
 90
       13
176
     1
 40
0.0
176
     1
 90
        0
176
     1
290
     0
176
     1
290
     1
176
     1
290
     1
176
     1
290
     0
176
     1
290
     0
176
     1
290
     0
176
     1
290
     0
176
     1
290
     0
176
     1
290
     0
176
     1
 90
       50
176
     1
 40
0.0
176
     1
 40
1.0
176
     1
 90
        0
176
     1
 62
    18
420
        0
176
     1
 90
       50
176
     1
 90
        3
176
     1
 62
     5
420
      255
176
     1
290
     0
176
     1
 90
       50
176
     1
 90
       50
176
     1
 90
       50
176
     1
290
     0
176
     1
 90
       50
176
     1
 62
   256
176
     0
 40
1.0
176
     0
 90
        2
176
     1
  1
strokes_ogs.tif
176
     1
290
     0
176
     1
 40
1.0
176
     1
 40
1.0
176
     1
1001
ACAD
1000
AcDbSavedByObjectVersion
1070
     0
  0
VISUALSTYLE
  5
3087
102
{ACAD_REACTORS
330
2EDE
102
}
330
2EDE
100
AcDbVisualStyle
  2
Hidden
 70
     6
177
     3
291
     0
 70
    58
 90
        1
176
     1
 90
        2
176
     1
 90
        2
176
     1
 90
        0
176
     1
 40
0.6
176
     1
 40
30.0
176
     1
 62
     7
420
 16777215
176
     1
 90
        2
176
     1
 90
        2
176
     1
 62
     7
176
     1
 62
   257
176
     1
 90
        2
176
     1
 90
        1
176
     1
 40
40.0
176
     1
 90
        0
176
     1
 62
   257
176
     1
 40
1.0
176
     1
 90
        1
176
     1
 90
        6
176
     1
 90
        2
176
     1
 62
     7
176
     1
 90
        3
176
     1
 90
        0
176
     1
 90
        0
176
     1
290
     0
176
     1
 90
        1
176
     1
 40
0.0
176
     1
 90
        0
176
     1
290
     0
176
     1
290
     1
176
     1
290
     1
176
     1
290
     0
176
     1
290
     0
176
     1
290
     0
176
     1
290
     0
176
     1
290
     0
176
     1
290
     0
176
     1
 90
       50
176
     1
 40
0.0
176
     1
 40
1.0
176
     1
 90
        0
176
     1
 62
    18
420
        0
176
     1
 90
       50
176
     1
 90
        3
176
     1
 62
     5
420
      255
176
     1
290
     0
176
     1
 90
       50
176
     1
 90
       50
176
     1
 90
       50
176
     1
290
     0
176
     1
 90
       50
176
     1
 62
   256
176
     0
 40
1.0
176
     0
 90
        2
176
     1
  1
strokes_ogs.tif
176
     1
290
     0
176
     1
 40
1.0
176
     1
 40
1.0
176
     1
1001
ACAD
1000
AcDbSavedByObjectVersion
1070
     0
  0
VISUALSTYLE
  5
3094
102
{ACAD_REACTORS
330
2EDE
102
}
330
2EDE
100
AcDbVisualStyle
  2
JitterOff
 70
    20
177
     3
291
     1
 70
    58
 90
        2
176
     0
 90
        2
176
     0
 90
        0
176
     0
 90
        0
176
     0
 40
0.6
176
     0
 40
30.0
176
     0
 62
     7
420
 16777215
176
     0
 90
        1
176
     0
 90
        4
176
     0
 62
     7
176
     0
 62
   257
176
     0
 90
        1
176
     0
 90
        1
176
     0
 40
1.0
176
     0
 90
       10
176
     2
 62
     7
176
     0
 40
1.0
176
     0
 90
        1
176
     0
 90
        6
176
     0
 90
        2
176
     0
 62
     7
176
     0
 90
        5
176
     0
 90
        0
176
     0
 90
        0
176
     0
290
     0
176
     0
 90
        1
176
     0
 40
0.0
176
     0
 90
        0
176
     0
290
     0
176
     0
290
     1
176
     0
290
     1
176
     0
290
     0
176
     0
290
     0
176
     0
290
     0
176
     0
290
     0
176
     0
290
     0
176
     0
290
     0
176
     0
 90
       50
176
     0
 40
0.0
176
     0
 40
1.0
176
     0
 90
        0
176
     0
 62
    18
420
        0
176
     0
 90
       50
176
     0
 90
        3
176
     0
 62
     5
420
      255
176
     0
290
     0
176
     0
 90
       50
176
     0
 90
       50
176
     0
 90
       50
176
     0
290
     0
176
     0
 90
       50
176
     0
 62
   256
176
     0
 40
1.0
176
     0
 90
        2
176
     0
  1
strokes_ogs.tif
176
     0
290
     0
176
     0
 40
1.0
176
     0
 40
1.0
176
     0
1001
ACAD
1000
AcDbSavedByObjectVersion
1070
     0
  0
VISUALSTYLE
  5
308C
102
{ACAD_REACTORS
330
2EDE
102
}
330
2EDE
100
AcDbVisualStyle
  2
Linepattern
 70
    14
177
     3
291
     1
 70
    58
 90
        2
176
     1
 90
        2
176
     1
 90
        0
176
     1
 90
        0
176
     1
 40
0.6
176
     1
 40
30.0
176
     1
 62
     7
420
 16777215
176
     1
 90
        1
176
     1
 90
        4
176
     1
 62
     7
176
     1
 62
   257
176
     1
 90
        7
176
     1
 90
        7
176
     1
 40
1.0
176
     1
 90
        8
176
     1
 62
     7
176
     1
 40
1.0
176
     1
 90
        1
176
     1
 90
        6
176
     1
 90
        2
176
     1
 62
     7
176
     1
 90
        5
176
     1
 90
        0
176
     1
 90
        0
176
     1
290
     0
176
     1
 90
        1
176
     1
 40
0.0
176
     1
 90
        0
176
     1
290
     0
176
     1
290
     1
176
     1
290
     1
176
     1
290
     0
176
     1
290
     0
176
     1
290
     0
176
     1
290
     0
176
     1
290
     0
176
     1
290
     0
176
     1
 90
       50
176
     1
 40
0.0
176
     1
 40
1.0
176
     1
 90
        0
176
     1
 62
    18
420
        0
176
     1
 90
       50
176
     1
 90
        3
176
     1
 62
     5
420
      255
176
     1
290
     0
176
     1
 90
       50
176
     1
 90
       50
176
     1
 90
       50
176
     1
290
     0
176
     1
 90
       50
176
     1
 62
   256
176
     0
 40
1.0
176
     0
 90
        2
176
     1
  1
strokes_ogs.tif
176
     1
290
     0
176
     1
 40
1.0
176
     1
 40
1.0
176
     1
1001
ACAD
1000
AcDbSavedByObjectVersion
1070
     0
  0
VISUALSTYLE
  5
3095
102
{ACAD_REACTORS
330
2EDE
102
}
330
2EDE
100
AcDbVisualStyle
  2
OverhangOff
 70
    21
177
     3
291
     1
 70
    58
 90
        2
176
     0
 90
        2
176
     0
 90
        0
176
     0
 90
        0
176
     0
 40
0.6
176
     0
 40
30.0
176
     0
 62
     7
420
 16777215
176
     0
 90
        1
176
     0
 90
        4
176
     0
 62
     7
176
     0
 62
   257
176
     0
 90
        1
176
     0
 90
        1
176
     0
 40
1.0
176
     0
 90
        9
176
     2
 62
     7
176
     0
 40
1.0
176
     0
 90
        1
176
     0
 90
        6
176
     0
 90
        2
176
     0
 62
     7
176
     0
 90
        5
176
     0
 90
        0
176
     0
 90
        0
176
     0
290
     0
176
     0
 90
        1
176
     0
 40
0.0
176
     0
 90
        0
176
     0
290
     0
176
     0
290
     1
176
     0
290
     1
176
     0
290
     0
176
     0
290
     0
176
     0
290
     0
176
     0
290
     0
176
     0
290
     0
176
     0
290
     0
176
     0
 90
       50
176
     0
 40
0.0
176
     0
 40
1.0
176
     0
 90
        0
176
     0
 62
    18
420
        0
176
     0
 90
       50
176
     0
 90
        3
176
     0
 62
     5
420
      255
176
     0
290
     0
176
     0
 90
       50
176
     0
 90
       50
176
     0
 90
       50
176
     0
290
     0
176
     0
 90
       50
176
     0
 62
   256
176
     0
 40
1.0
176
     0
 90
        2
176
     0
  1
strokes_ogs.tif
176
     0
290
     0
176
     0
 40
1.0
176
     0
 40
1.0
176
     0
1001
ACAD
1000
AcDbSavedByObjectVersion
1070
     0
  0
VISUALSTYLE
  5
2F10
102
{ACAD_REACTORS
330
2EDE
102
}
330
2EDE
100
AcDbVisualStyle
  2
Realistic
 70
     8
177
     3
291
     0
 70
    58
 90
        2
176
     1
 90
        2
176
     1
 90
        0
176
     1
 90
        0
176
     1
 40
0.6
176
     1
 40
30.0
176
     1
 62
     7
420
 16777215
176
     1
 90
        1
176
     1
 90
        0
176
     1
 62
     7
176
     1
 62
   257
176
     1
 90
        1
176
     1
 90
        1
176
     1
 40
1.0
176
     1
 90
        8
176
     1
 62
     8
420
  7895160
176
     1
 40
1.0
176
     1
 90
        1
176
     1
 90
        6
176
     1
 90
        2
176
     1
 62
     7
176
     1
 90
        5
176
     1
 90
        0
176
     1
 90
        0
176
     1
290
     0
176
     1
 90
       13
176
     1
 40
0.0
176
     1
 90
        0
176
     1
290
     0
176
     1
290
     1
176
     1
290
     1
176
     1
290
     0
176
     1
290
     0
176
     1
290
     0
176
     1
290
     0
176
     1
290
     0
176
     1
290
     0
176
     1
 90
       50
176
     1
 40
0.0
176
     1
 40
1.0
176
     1
 90
        0
176
     1
 62
    18
420
        0
176
     1
 90
       50
176
     1
 90
        3
176
     1
 62
     5
420
      255
176
     1
290
     0
176
     1
 90
       50
176
     1
 90
       50
176
     1
 90
       50
176
     1
290
     0
176
     1
 90
       50
176
     1
 62
   256
176
     0
 40
1.0
176
     0
 90
        2
176
     1
  1
strokes_ogs.tif
176
     1
290
     0
176
     1
 40
1.0
176
     1
 40
1.0
176
     1
1001
ACAD
1000
AcDbSavedByObjectVersion
1070
     0
  0
VISUALSTYLE
  5
3093
102
{ACAD_REACTORS
330
2EDE
102
}
330
2EDE
100
AcDbVisualStyle
  2
Shaded
 70
    27
177
     3
291
     0
 70
    58
 90
        2
176
     1
 90
        2
176
     1
 90
        1
176
     1
 90
        2
176
     1
 40
0.6
176
     1
 40
30.0
176
     1
 62
     7
420
 16777215
176
     1
 90
        0
176
     1
 90
        4
176
     1
 62
     7
176
     1
 62
   257
176
     1
 90
        1
176
     1
 90
        1
176
     1
 40
1.0
176
     1
 90
        8
176
     1
 62
   257
176
     1
 40
1.0
176
     1
 90
        1
176
     1
 90
        6
176
     1
 90
        2
176
     1
 62
     8
420
  7895160
176
     1
 90
        3
176
     1
 90
        0
176
     1
 90
        0
176
     1
290
     0
176
     1
 90
        5
176
     1
 40
0.0
176
     1
 90
        0
176
     1
290
     0
176
     1
290
     1
176
     1
290
     1
176
     1
290
     0
176
     1
290
     0
176
     1
290
     0
176
     1
290
     0
176
     1
290
     0
176
     1
290
     0
176
     1
 90
       50
176
     1
 40
0.0
176
     1
 40
1.0
176
     1
 90
        0
176
     1
 62
    18
420
        0
176
     1
 90
       50
176
     1
 90
        3
176
     1
 62
     5
420
      255
176
     1
290
     0
176
     1
 90
       50
176
     1
 90
       50
176
     1
 90
       50
176
     1
290
     0
176
     1
 90
       50
176
     1
 62
   256
176
     0
 40
1.0
176
     0
 90
        2
176
     1
  1
strokes_ogs.tif
176
     1
290
     0
176
     1
 40
1.0
176
     1
 40
1.0
176
     1
1001
ACAD
1000
AcDbSavedByObjectVersion
1070
     0
  0
VISUALSTYLE
  5
3092
102
{ACAD_REACTORS
330
2EDE
102
}
330
2EDE
100
AcDbVisualStyle
  2
Shaded with edges
 70
    26
177
     3
291
     0
 70
    58
 90
        2
176
     1
 90
        2
176
     1
 90
        1
176
     1
 90
        2
176
     1
 40
0.6
176
     1
 40
30.0
176
     1
 62
     7
420
 16777215
176
     1
 90
        1
176
     1
 90
        2
176
     1
 62
     7
176
     1
 62
   257
176
     1
 90
        2
176
     1
 90
        1
176
     1
 40
1.0
176
     1
 90
        8
176
     1
 62
   257
176
     1
 40
1.0
176
     1
 90
        1
176
     1
 90
        6
176
     1
 90
        2
176
     1
 62
     7
176
     1
 90
        3
176
     1
 90
        0
176
     1
 90
        0
176
     1
290
     0
176
     1
 90
        5
176
     1
 40
0.0
176
     1
 90
        0
176
     1
290
     0
176
     1
290
     1
176
     1
290
     1
176
     1
290
     0
176
     1
290
     0
176
     1
290
     0
176
     1
290
     0
176
     1
290
     0
176
     1
290
     0
176
     1
 90
       50
176
     1
 40
0.0
176
     1
 40
1.0
176
     1
 90
        0
176
     1
 62
    18
420
        0
176
     1
 90
       50
176
     1
 90
        3
176
     1
 62
     5
420
      255
176
     1
290
     0
176
     1
 90
       50
176
     1
 90
       50
176
     1
 90
       50
176
     1
290
     0
176
     1
 90
       50
176
     1
 62
   256
176
     0
 40
1.0
176
     0
 90
        2
176
     1
  1
strokes_ogs.tif
176
     1
290
     0
176
     1
 40
1.0
176
     1
 40
1.0
176
     1
1001
ACAD
1000
AcDbSavedByObjectVersion
1070
     0
  0
VISUALSTYLE
  5
308F
102
{ACAD_REACTORS
330
2EDE
102
}
330
2EDE
100
AcDbVisualStyle
  2
Shades of Gray
 70
    23
177
     3
291
     0
 70
    58
 90
        2
176
     1
 90
        2
176
     1
 90
        3
176
     1
 90
        0
176
     1
 40
0.6
176
     1
 40
30.0
176
     1
 62
     7
420
 16777215
176
     1
 90
        2
176
     1
 90
        2
176
     1
 62
     7
176
     1
 62
     7
176
     1
 90
        1
176
     1
 90
        1
176
     1
 40
40.0
176
     1
 90
        8
176
     1
 62
     7
176
     1
 40
1.0
176
     1
 90
        1
176
     1
 90
        6
176
     1
 90
        2
176
     1
 62
     7
176
     1
 90
        3
176
     1
 90
        0
176
     1
 90
        0
176
     1
290
     0
176
     1
 90
        1
176
     1
 40
0.0
176
     1
 90
        0
176
     1
290
     0
176
     1
290
     1
176
     1
290
     1
176
     1
290
     0
176
     1
290
     0
176
     1
290
     0
176
     1
290
     0
176
     1
290
     0
176
     1
290
     0
176
     1
 90
       50
176
     1
 40
0.0
176
     1
 40
1.0
176
     1
 90
        0
176
     1
 62
    18
420
        0
176
     1
 90
       50
176
     1
 90
        3
176
     1
 62
     5
420
      255
176
     1
290
     0
176
     1
 90
       50
176
     1
 90
       50
176
     1
 90
       50
176
     1
290
     0
176
     1
 90
       50
176
     1
 62
   256
176
     0
 40
1.0
176
     0
 90
        2
176
     1
  1
strokes_ogs.tif
176
     1
290
     0
176
     1
 40
1.0
176
     1
 40
1.0
176
     1
1001
ACAD
1000
AcDbSavedByObjectVersion
1070
     0
  0
VISUALSTYLE
  5
3090
102
{ACAD_REACTORS
330
2EDE
102
}
330
2EDE
100
AcDbVisualStyle
  2
Sketchy
 70
    24
177
     3
291
     0
 70
    58
 90
        1
176
     1
 90
        2
176
     1
 90
        2
176
     1
 90
        0
176
     1
 40
0.6
176
     1
 40
30.0
176
     1
 62
     7
420
 16777215
176
     1
 90
        2
176
     1
 90
        2
176
     1
 62
     7
176
     1
 62
     7
176
     1
 90
        1
176
     1
 90
        1
176
     1
 40
40.0
176
     1
 90
       11
176
     1
 62
     7
176
     1
 40
1.0
176
     1
 90
        1
176
     1
 90
        6
176
     1
 90
        2
176
     1
 62
     7
176
     1
 90
        6
176
     1
 90
        0
176
     1
 90
        0
176
     1
290
     0
176
     1
 90
        1
176
     1
 40
0.0
176
     1
 90
        0
176
     1
290
     0
176
     1
290
     1
176
     1
290
     1
176
     1
290
     0
176
     1
290
     0
176
     1
290
     0
176
     1
290
     0
176
     1
290
     0
176
     1
290
     0
176
     1
 90
       50
176
     1
 40
0.0
176
     1
 40
1.0
176
     1
 90
        0
176
     1
 62
    18
420
        0
176
     1
 90
       50
176
     1
 90
        3
176
     1
 62
     5
420
      255
176
     1
290
     0
176
     1
 90
       50
176
     1
 90
       50
176
     1
 90
       50
176
     1
290
     0
176
     1
 90
       50
176
     1
 62
   256
176
     0
 40
1.0
176
     0
 90
        2
176
     1
  1
strokes_ogs.tif
176
     1
290
     0
176
     1
 40
1.0
176
     1
 40
1.0
176
     1
1001
ACAD
1000
AcDbSavedByObjectVersion
1070
     0
  0
VISUALSTYLE
  5
308B
102
{ACAD_REACTORS
330
2EDE
102
}
330
2EDE
100
AcDbVisualStyle
  2
Thicken
 70
    13
177
     3
291
     1
 70
    58
 90
        2
176
     1
 90
        2
176
     1
 90
        0
176
     1
 90
        0
176
     1
 40
0.6
176
     1
 40
30.0
176
     1
 62
     7
420
 16777215
176
     1
 90
        1
176
     1
 90
        4
176
     1
 62
     7
176
     1
 62
   257
176
     1
 90
        1
176
     1
 90
        1
176
     1
 40
1.0
176
     1
 90
       12
176
     1
 62
     7
176
     1
 40
1.0
176
     1
 90
        1
176
     1
 90
        6
176
     1
 90
        2
176
     1
 62
     7
176
     1
 90
        5
176
     1
 90
        0
176
     1
 90
        0
176
     1
290
     0
176
     1
 90
        1
176
     1
 40
0.0
176
     1
 90
        0
176
     1
290
     0
176
     1
290
     1
176
     1
290
     1
176
     1
290
     0
176
     1
290
     0
176
     1
290
     0
176
     1
290
     0
176
     1
290
     0
176
     1
290
     0
176
     1
 90
       50
176
     1
 40
0.0
176
     1
 40
1.0
176
     1
 90
        0
176
     1
 62
    18
420
        0
176
     1
 90
       50
176
     1
 90
        3
176
     1
 62
     5
420
      255
176
     1
290
     0
176
     1
 90
       50
176
     1
 90
       50
176
     1
 90
       50
176
     1
290
     0
176
     1
 90
       50
176
     1
 62
   256
176
     0
 40
1.0
176
     0
 90
        2
176
     1
  1
strokes_ogs.tif
176
     1
290
     0
176
     1
 40
1.0
176
     1
 40
1.0
176
     1
1001
ACAD
1000
AcDbSavedByObjectVersion
1070
     0
  0
VISUALSTYLE
  5
2F11
102
{ACAD_REACTORS
330
2EDE
102
}
330
2EDE
100
AcDbVisualStyle
  2
Wireframe
 70
     5
177
     3
291
     0
 70
    58
 90
        0
176
     1
 90
        2
176
     1
 90
        0
176
     1
 90
        0
176
     1
 40
0.6
176
     1
 40
30.0
176
     1
 62
     7
420
 16777215
176
     1
 90
        1
176
     1
 90
        4
176
     1
 62
     7
176
     1
 62
   257
176
     1
 90
        1
176
     1
 90
        1
176
     1
 40
1.0
176
     1
 90
        0
176
     1
 62
   257
176
     1
 40
1.0
176
     1
 90
        1
176
     1
 90
        6
176
     1
 90
        2
176
     1
 62
     7
176
     1
 90
        3
176
     1
 90
        0
176
     1
 90
        0
176
     1
290
     0
176
     1
 90
        1
176
     1
 40
0.0
176
     1
 90
        0
176
     1
290
     0
176
     1
290
     1
176
     1
290
     1
176
     1
290
     0
176
     1
290
     0
176
     1
290
     0
176
     1
290
     0
176
     1
290
     0
176
     1
290
     0
176
     1
 90
       50
176
     1
 40
0.0
176
     1
 40
1.0
176
     1
 90
        0
176
     1
 62
    18
420
        0
176
     1
 90
       50
176
     1
 90
        3
176
     1
 62
     5
420
      255
176
     1
290
     0
176
     1
 90
       50
176
     1
 90
       50
176
     1
 90
       50
176
     1
290
     0
176
     1
 90
       50
176
     1
 62
   256
176
     0
 40
1.0
176
     0
 90
        2
176
     1
  1
strokes_ogs.tif
176
     1
290
     0
176
     1
 40
1.0
176
     1
 40
1.0
176
     1
1001
ACAD
1000
AcDbSavedByObjectVersion
1070
     0
  0
VISUALSTYLE
  5
3091
102
{ACAD_REACTORS
330
2EDE
102
}
330
2EDE
100
AcDbVisualStyle
  2
X-Ray
 70
    25
177
     3
291
     0
 70
    58
 90
        2
176
     1
 90
        2
176
     1
 90
        1
176
     1
 90
        1
176
     1
 40
0.5
176
     1
 40
30.0
176
     1
 62
     7
420
 16777215
176
     1
 90
        1
176
     1
 90
        0
176
     1
 62
     7
176
     1
 62
   257
176
     1
 90
        1
176
     1
 90
        1
176
     1
 40
1.0
176
     1
 90
        8
176
     1
 62
     7
176
     1
 40
1.0
176
     1
 90
        1
176
     1
 90
        6
176
     1
 90
        2
176
     1
 62
     7
176
     1
 90
        3
176
     1
 90
        0
176
     1
 90
        0
176
     1
290
     0
176
     1
 90
       13
176
     1
 40
0.0
176
     1
 90
        0
176
     1
290
     0
176
     1
290
     1
176
     1
290
     1
176
     1
290
     0
176
     1
290
     0
176
     1
290
     0
176
     1
290
     0
176
     1
290
     0
176
     1
290
     0
176
     1
 90
       50
176
     1
 40
0.0
176
     1
 40
1.0
176
     1
 90
        0
176
     1
 62
    18
420
        0
176
     1
 90
       50
176
     1
 90
        3
176
     1
 62
     5
420
      255
176
     1
290
     0
176
     1
 90
       50
176
     1
 90
       50
176
     1
 90
       50
176
     1
290
     0
176
     1
 90
       50
176
     1
 62
   256
176
     0
 40
1.0
176
     0
 90
        2
176
     1
  1
strokes_ogs.tif
176
     1
290
     0
176
     1
 40
1.0
176
     1
 40
1.0
176
     1
1001
ACAD
1000
AcDbSavedByObjectVersion
1070
     0
  0
DICTIONARYVAR
  5
2EFC
102
{ACAD_REACTORS
330
2EFB
102
}
330
2EFB
100
DictionaryVariables
280
     0
  1
1:1
  0
DICTIONARYVAR
  5
2EFD
102
{ACAD_REACTORS
330
2EFB
102
}
330
2EFB
100
DictionaryVariables
280
     0
  1
STANDARD
  0
DICTIONARYVAR
  5
2EFE
102
{ACAD_REACTORS
330
2EFB
102
}
330
2EFB
100
DictionaryVariables
280
     0
  1
STANDARD
  0
DICTIONARYVAR
  5
2EFF
102
{ACAD_REACTORS
330
2EFB
102
}
330
2EFB
100
DictionaryVariables
280
     0
  1
Imperial24
  0
DICTIONARYVAR
  5
2F00
102
{ACAD_REACTORS
330
2EFB
102
}
330
2EFB
100
DictionaryVariables
280
     0
  1
Imperial24
  0
DICTIONARYVAR
  5
2F01
102
{ACAD_REACTORS
330
2EFB
102
}
330
2EFB
100
DictionaryVariables
280
     0
  1
1
  0
DICTIONARYVAR
  5
2F02
102
{ACAD_REACTORS
330
2EFB
102
}
330
2EFB
100
DictionaryVariables
280
     0
  1
15
  0
DICTIONARYVAR
  5
2F03
102
{ACAD_REACTORS
330
2EFB
102
}
330
2EFB
100
DictionaryVariables
280
     0
  1
0
  0
DICTIONARYVAR
  5
2F04
102
{ACAD_REACTORS
330
2EFB
102
}
330
2EFB
100
DictionaryVariables
280
     0
  1
0
  0
DICTIONARY
  5
3544
102
{ACAD_REACTORS
330
3542
102
}
330
3542
100
AcDbDictionary
281
     1
  0
DICTIONARY
  5
3543
102
{ACAD_REACTORS
330
3542
102
}
330
3542
100
AcDbDictionary
281
     1
  3
2561734428880
350
353D
  3
2561734428896
350
353E
  3
2561734428912
350
353F
  3
2561734428928
350
3540
  3
2561734428944
350
3541
  0
XRECORD
  5
5C
102
{ACAD_REACTORS
330
3073
102
}
330
3073
100
AcDbXrecord
280
     1
310
0000AC02000400000013000000000000000000000000000000000000000000000000000000000000000000000000000000000000000000000000000000000000000000000000000000000000000000000000000000000000000000000000000000000000000000000000000000000000000000000000000000000000000000
310
00000000000000000000000000000000000000000000000000000000000000000000000000000000000000000000000000000000000000000000000000000000000000000000000000000000000000000000000000000000000000000000000000000000000000000000000000000000000000000000000000000000000000
310
00000000000000000000000000000000000000000000000000000000000000000000000000000000000000000000000000000000000000000000000000000000000000000000000000000000000000000000000000000000000000000000000000000000000000000000000000000000000000000000000000000000000000
310
00000000000000000000000000000000000000000000000000000000000000000000000000000000000000000000000000000000000000000000000000000000000000000000000000000000000000000000000000000000000000000000000000000000000000000000000000000000000000000000000000000000000000
310
00000000000000000000000000000000000000000000000000000000000000000000000000000000000000000000000000000000000000000000000000000000000000000000000000000000000000000000000000000000000000000000000000000000000000000000000000000000000000000000000000000000000000
310
00000000000000000000000000000000000000000000000000000000000000000000000000000000000000000000000000000000000000000000000000000000000000000000000000000000000000000000000000000000000000000000000000000000000000000000000000000000000000000000000000000000000000
310
00000000000000000000000000000000000000000000000000000000000000000000000000000000000000000000000000000000000000000000000000000000000000000000000000000000000000000000000000000000000000000000000000000000000000000000000000000000000000000000000000000000000000
310
00000000000000000000000000000000000000000000000000000000000000000000000000000000000000000000000000000000000000000000000000000000000000000000000000000000000000000000000000000000000000000000000000000000000000000000000000000000000000000000000000000000000000
310
00000000000000000000000000000000000000000000000000000000000000000000000000000000000000000000000000000000000000000000000000000000000000000000000000000000000000000000000000000000000000000000000000000000000000000000000000000000000000000000000000000000000000
310
00000000000000000000000000000000000000000000000000000000000000000000000000000000000000000000000000000000000000000000000000000000000000000000000000000000000000000000000000000000000000000000000000000000000000000000000000000000000000000000000000000000000000
310
000000000000000000000000000000000000000000000000000000000000000000000000000000000000000000000000000000000000000000000000000000000000000000000000000000000000000000000000000000000000000000000000000000000000
  0
DICTIONARY
  5
3547
330
309A
100
AcDbDictionary
280
     1
281
     1
  3
ACAD_XREC_ROUNDTRIP
360
3548
  0
DICTIONARY
  5
2ECB
330
2ECA
100
AcDbDictionary
280
     1
281
     1
  0
DICTIONARY
  5
2EC6
330
2EC4
100
AcDbDictionary
280
     1
281
     1
  0
DICTIONARY
  5
2EF0
330
2EEF
100
AcDbDictionary
280
     1
281
     1
  3
BUMPTILE
360
2EF1
  3
DIFFUSETILE
360
2EF2
  3
OPACITYTILE
360
2EF3
  3
REFLECTIONTILE
360
2EF4
  3
REFRACTIONTILE
360
2EF5
  3
SPECULARTILE
360
2EF6
  0
DICTIONARY
  5
2EE8
330
2EE7
100
AcDbDictionary
280
     1
281
     1
  3
BUMPTILE
360
2EE9
  3
DIFFUSETILE
360
2EEA
  3
OPACITYTILE
360
2EEB
  3
REFLECTIONTILE
360
2EEC
  3
REFRACTIONTILE
360
2EED
  3
SPECULARTILE
360
2EEE
  0
DICTIONARY
  5
2EA5
330
2EA3
100
AcDbDictionary
280
     1
281
     1
  3
BUMPTILE
360
2EA6
  3
DIFFUSETILE
360
2EA7
  3
OPACITYTILE
360
2EA8
  3
REFLECTIONTILE
360
2EA9
  3
REFRACTIONTILE
360
2EAA
  3
SPECULARTILE
360
2EAB
  0
DICTIONARY
  5
3545
330
3098
100
AcDbDictionary
280
     1
281
     1
  3
ACAD_XREC_ROUNDTRIP
360
3546
  0
DICTIONARY
  5
2F0F
330
2F0E
100
AcDbDictionary
280
     1
281
     1
  3
ACAD_ROUNDTRIP_2008_TABLESTYLE_CELLSTYLEMAP
360
353B
  0
XRECORD
  5
353D
102
{ACAD_REACTORS
330
3543
102
}
330
3543
100
AcDbXrecord
280
     1
  1
AcDb_Thumbnail_Schema
102
{ATTRRECORD
341
353E
  2
AcDbDs::TreatedAsObjectData
280
     1
291
     1
102
ATTRRECORD}
102
{ATTRRECORD
341
353F
  2
AcDbDs::Legacy
280
     1
291
     1
102
ATTRRECORD}
  2
AcDbDs::ID
280
    10
 91
        8
102
{ATTRRECORD
341
3540
  2
AcDs:Indexable
280
     1
291
     1
102
ATTRRECORD}
102
{ATTRRECORD
341
3541
  2
AcDbDs::HandleAttribute
280
     7
282
     1
102
ATTRRECORD}
  2
Thumbnail_Data
280
    15
 91
        0
  0
XRECORD
  5
353E
102
{ACAD_REACTORS
330
3543
102
}
330
3543
100
AcDbXrecord
280
     1
  1
AcDbDs::TreatedAsObjectDataSchema
  2
AcDbDs::TreatedAsObjectData
280
     1
 91
        0
  0
XRECORD
  5
353F
102
{ACAD_REACTORS
330
3543
102
}
330
3543
100
AcDbXrecord
280
     1
  1
AcDbDs::LegacySchema
  2
AcDbDs::Legacy
280
     1
 91
        0
  0
XRECORD
  5
3540
102
{ACAD_REACTORS
330
3543
102
}
330
3543
100
AcDbXrecord
280
     1
  1
AcDbDs::IndexedPropertySchema
  2
AcDs:Indexable
280
     1
 91
        0
  0
XRECORD
  5
3541
102
{ACAD_REACTORS
330
3543
102
}
330
3543
100
AcDbXrecord
280
     1
  1
AcDbDs::HandleAttributeSchema
  2
AcDbDs::HandleAttribute
280
     7
 91
        1
284
     1
  0
XRECORD
  5
3548
102
{ACAD_REACTORS
330
3547
102
}
330
3547
100
AcDbXrecord
280
     1
102
DISPLAYNAME
  1
Imperial24
102
FLAGS
 90
        0
  0
XRECORD
  5
2EF1
102
{ACAD_REACTORS
330
2EF0
102
}
330
2EF0
100
AcDbXrecord
280
     1
270
     1
271
     1
  0
XRECORD
  5
2EF2
102
{ACAD_REACTORS
330
2EF0
102
}
330
2EF0
100
AcDbXrecord
280
     1
270
     1
271
     1
  0
XRECORD
  5
2EF3
102
{ACAD_REACTORS
330
2EF0
102
}
330
2EF0
100
AcDbXrecord
280
     1
270
     1
271
     1
  0
XRECORD
  5
2EF4
102
{ACAD_REACTORS
330
2EF0
102
}
330
2EF0
100
AcDbXrecord
280
     1
270
     1
271
     1
  0
XRECORD
  5
2EF5
102
{ACAD_REACTORS
330
2EF0
102
}
330
2EF0
100
AcDbXrecord
280
     1
270
     1
271
     1
  0
XRECORD
  5
2EF6
102
{ACAD_REACTORS
330
2EF0
102
}
330
2EF0
100
AcDbXrecord
280
     1
270
     1
271
     1
  0
XRECORD
  5
2EE9
102
{ACAD_REACTORS
330
2EE8
102
}
330
2EE8
100
AcDbXrecord
280
     1
270
     1
271
     1
  0
XRECORD
  5
2EEA
102
{ACAD_REACTORS
330
2EE8
102
}
330
2EE8
100
AcDbXrecord
280
     1
270
     1
271
     1
  0
XRECORD
  5
2EEB
102
{ACAD_REACTORS
330
2EE8
102
}
330
2EE8
100
AcDbXrecord
280
     1
270
     1
271
     1
  0
XRECORD
  5
2EEC
102
{ACAD_REACTORS
330
2EE8
102
}
330
2EE8
100
AcDbXrecord
280
     1
270
     1
271
     1
  0
XRECORD
  5
2EED
102
{ACAD_REACTORS
330
2EE8
102
}
330
2EE8
100
AcDbXrecord
280
     1
270
     1
271
     1
  0
XRECORD
  5
2EEE
102
{ACAD_REACTORS
330
2EE8
102
}
330
2EE8
100
AcDbXrecord
280
     1
270
     1
271
     1
  0
XRECORD
  5
2EA6
102
{ACAD_REACTORS
330
2EA5
102
}
330
2EA5
100
AcDbXrecord
280
     1
270
     1
271
     1
  0
XRECORD
  5
2EA7
102
{ACAD_REACTORS
330
2EA5
102
}
330
2EA5
100
AcDbXrecord
280
     1
270
     1
271
     1
  0
XRECORD
  5
2EA8
102
{ACAD_REACTORS
330
2EA5
102
}
330
2EA5
100
AcDbXrecord
280
     1
270
     1
271
     1
  0
XRECORD
  5
2EA9
102
{ACAD_REACTORS
330
2EA5
102
}
330
2EA5
100
AcDbXrecord
280
     1
270
     1
271
     1
  0
XRECORD
  5
2EAA
102
{ACAD_REACTORS
330
2EA5
102
}
330
2EA5
100
AcDbXrecord
280
     1
270
     1
271
     1
  0
XRECORD
  5
2EAB
102
{ACAD_REACTORS
330
2EA5
102
}
330
2EA5
100
AcDbXrecord
280
     1
270
     1
271
     1
  0
XRECORD
  5
3546
102
{ACAD_REACTORS
330
3545
102
}
330
3545
100
AcDbXrecord
280
     1
102
DISPLAYNAME
  1
Imperial24
102
FLAGS
 90
        0
  0
CELLSTYLEMAP
  5
353B
102
{ACAD_REACTORS
330
2F0F
102
}
330
2F0F
100
AcDbCellStyleMap
 90
        3
300
CELLSTYLE
  1
TABLEFORMAT_BEGIN
 90
        5
170
     1
 91
        0
 92
    32768
 62
   257
 93
        1
300
CONTENTFORMAT
  1
CONTENTFORMAT_BEGIN
 90
        0
 91
        0
 92
        4
 93
        0
300

 40
0.0
140
1.0
 94
        5
 62
     0
340
2ED3
144
0.25
309
CONTENTFORMAT_END
171
     0
 94
        6
 95
        1
302
GRIDFORMAT
  1
GRIDFORMAT_BEGIN
 90
        0
 91
        1
 62
     0
 92
       -2
340
0
 93
        0
 40
0.045
309
GRIDFORMAT_END
 95
        2
302
GRIDFORMAT
  1
GRIDFORMAT_BEGIN
 90
        0
 91
        1
 62
     0
 92
       -2
340
0
 93
        0
 40
0.045
309
GRIDFORMAT_END
 95
        4
302
GRIDFORMAT
  1
GRIDFORMAT_BEGIN
 90
        0
 91
        1
 62
     0
 92
       -2
340
0
 93
        0
 40
0.045
309
GRIDFORMAT_END
 95
        8
302
GRIDFORMAT
  1
GRIDFORMAT_BEGIN
 90
        0
 91
        1
 62
     0
 92
       -2
340
0
 93
        0
 40
0.045
309
GRIDFORMAT_END
 95
       16
302
GRIDFORMAT
  1
GRIDFORMAT_BEGIN
 90
        0
 91
        1
 62
     0
 92
       -2
340
0
 93
        0
 40
0.045
309
GRIDFORMAT_END
 95
       32
302
GRIDFORMAT
  1
GRIDFORMAT_BEGIN
 90
        0
 91
        1
 62
     0
 92
       -2
340
0
 93
        0
 40
0.045
309
GRIDFORMAT_END
309
TABLEFORMAT_END
  1
CELLSTYLE_BEGIN
 90
        1
 91
        1
300
_TITLE
309
CELLSTYLE_END
300
CELLSTYLE
  1
TABLEFORMAT_BEGIN
 90
        5
170
     1
 91
        0
 92
        0
 62
   257
 93
        1
300
CONTENTFORMAT
  1
CONTENTFORMAT_BEGIN
 90
        0
 91
        0
 92
        4
 93
        0
300

 40
0.0
140
1.0
 94
        5
 62
     0
340
2ED3
144
0.18
309
CONTENTFORMAT_END
171
     0
 94
        6
 95
        1
302
GRIDFORMAT
  1
GRIDFORMAT_BEGIN
 90
        0
 91
        1
 62
     0
 92
       -2
340
0
 93
        0
 40
0.045
309
GRIDFORMAT_END
 95
        2
302
GRIDFORMAT
  1
GRIDFORMAT_BEGIN
 90
        0
 91
        1
 62
     0
 92
       -2
340
0
 93
        0
 40
0.045
309
GRIDFORMAT_END
 95
        4
302
GRIDFORMAT
  1
GRIDFORMAT_BEGIN
 90
        0
 91
        1
 62
     0
 92
       -2
340
0
 93
        0
 40
0.045
309
GRIDFORMAT_END
 95
        8
302
GRIDFORMAT
  1
GRIDFORMAT_BEGIN
 90
        0
 91
        1
 62
     0
 92
       -2
340
0
 93
        0
 40
0.045
309
GRIDFORMAT_END
 95
       16
302
GRIDFORMAT
  1
GRIDFORMAT_BEGIN
 90
        0
 91
        1
 62
     0
 92
       -2
340
0
 93
        0
 40
0.045
309
GRIDFORMAT_END
 95
       32
302
GRIDFORMAT
  1
GRIDFORMAT_BEGIN
 90
        0
 91
        1
 62
     0
 92
       -2
340
0
 93
        0
 40
0.045
309
GRIDFORMAT_END
309
TABLEFORMAT_END
  1
CELLSTYLE_BEGIN
 90
        2
 91
        1
300
_HEADER
309
CELLSTYLE_END
300
CELLSTYLE
  1
TABLEFORMAT_BEGIN
 90
        5
170
     1
 91
        0
 92
        0
 62
   257
 93
        1
300
CONTENTFORMAT
  1
CONTENTFORMAT_BEGIN
 90
        0
 91
        0
 92
        4
 93
        0
300

 40
0.0
140
1.0
 94
        2
 62
     0
340
2ED3
144
0.18
309
CONTENTFORMAT_END
171
     0
 94
        6
 95
        1
302
GRIDFORMAT
  1
GRIDFORMAT_BEGIN
 90
        0
 91
        1
 62
     0
 92
       -2
340
0
 93
        0
 40
0.045
309
GRIDFORMAT_END
 95
        2
302
GRIDFORMAT
  1
GRIDFORMAT_BEGIN
 90
        0
 91
        1
 62
     0
 92
       -2
340
0
 93
        0
 40
0.045
309
GRIDFORMAT_END
 95
        4
302
GRIDFORMAT
  1
GRIDFORMAT_BEGIN
 90
        0
 91
        1
 62
     0
 92
       -2
340
0
 93
        0
 40
0.045
309
GRIDFORMAT_END
 95
        8
302
GRIDFORMAT
  1
GRIDFORMAT_BEGIN
 90
        0
 91
        1
 62
     0
 92
       -2
340
0
 93
        0
 40
0.045
309
GRIDFORMAT_END
 95
       16
302
GRIDFORMAT
  1
GRIDFORMAT_BEGIN
 90
        0
 91
        1
 62
     0
 92
       -2
340
0
 93
        0
 40
0.045
309
GRIDFORMAT_END
 95
       32
302
GRIDFORMAT
  1
GRIDFORMAT_BEGIN
 90
        0
 91
        1
 62
     0
 92
       -2
340
0
 93
        0
 40
0.045
309
GRIDFORMAT_END
309
TABLEFORMAT_END
  1
CELLSTYLE_BEGIN
 90
        3
 91
        2
300
_DATA
309
CELLSTYLE_END
  0
ENDSEC
  0
SECTION
  2
ACDSDATA
 70
     2
 71
     8
  0
ACDSSCHEMA
 90
        0
  1
AcDb_Thumbnail_Schema
  2
AcDbDs::ID
280
    10
 91
        8
  2
Thumbnail_Data
280
    15
 91
        0
101
ACDSRECORD
 95
        0
 90
        1
  2
AcDbDs::TreatedAsObjectData
280
     1
291
     1
101
ACDSRECORD
 95
        0
 90
        2
  2
AcDbDs::Legacy
280
     1
291
     1
101
ACDSRECORD
  1
AcDbDs::ID
 90
        3
  2
AcDs:Indexable
280
     1
291
     1
101
ACDSRECORD
  1
AcDbDs::ID
 90
        4
  2
AcDbDs::HandleAttribute
280
     7
282
     1
  0
ACDSSCHEMA
 90
        1
  1
AcDbDs::TreatedAsObjectDataSchema
  2
AcDbDs::TreatedAsObjectData
280
     1
 91
        0
  0
ACDSSCHEMA
 90
        2
  1
AcDbDs::LegacySchema
  2
AcDbDs::Legacy
280
     1
 91
        0
  0
ACDSSCHEMA
 90
        3
  1
AcDbDs::IndexedPropertySchema
  2
AcDs:Indexable
280
     1
 91
        0
  0
ACDSSCHEMA
 90
        4
  1
AcDbDs::HandleAttributeSchema
  2
AcDbDs::HandleAttribute
280
     7
 91
        1
284
     1
  0
ACDSRECORD
 90
        0
  2
AcDbDs::ID
280
    10
320
2ECA
  2
Thumbnail_Data
280
    15
 94
     1183
310
89504E470D0A1A0A0000000D4948445200000100000000C508030000008CFEDCE700000300504C5445FFFFFF000000FFFFFF0000000000000000000000000000000000000000000000000000330000660000990000CC0000FF0033000033330033660033990033CC0033FF0066000066330066660066990066CC0066FF0099
310
000099330099660099990099CC0099FF00CC0000CC3300CC6600CC9900CCCC00CCFF00FF0000FF3300FF6600FF9900FFCC00FFFF3300003300333300663300993300CC3300FF3333003333333333663333993333CC3333FF3366003366333366663366993366CC3366FF3399003399333399663399993399CC3399FF33CC00
310
33CC3333CC6633CC9933CCCC33CCFF33FF0033FF3333FF6633FF9933FFCC33FFFF6600006600336600666600996600CC6600FF6633006633336633666633996633CC6633FF6666006666336666666666996666CC6666FF6699006699336699666699996699CC6699FF66CC0066CC3366CC6666CC9966CCCC66CCFF66FF0066
310
FF3366FF6666FF9966FFCC66FFFF9900009900339900669900999900CC9900FF9933009933339933669933999933CC9933FF9966009966339966669966999966CC9966FF9999009999339999669999999999CC9999FF99CC0099CC3399CC6699CC9999CCCC99CCFF99FF0099FF3399FF6699FF9999FFCC99FFFFCC0000CC00
310
33CC0066CC0099CC00CCCC00FFCC3300CC3333CC3366CC3399CC33CCCC33FFCC6600CC6633CC6666CC6699CC66CCCC66FFCC9900CC9933CC9966CC9999CC99CCCC99FFCCCC00CCCC33CCCC66CCCC99CCCCCCCCCCFFCCFF00CCFF33CCFF66CCFF99CCFFCCCCFFFFFF0000FF0033FF0066FF0099FF00CCFF00FFFF3300FF3333
310
FF3366FF3399FF33CCFF33FFFF6600FF6633FF6666FF6699FF66CCFF66FFFF9900FF9933FF9966FF9999FF99CCFF99FFFFCC00FFCC33FFCC66FFCC99FFCCCCFFCCFFFFFF00FFFF33FFFF66FFFF99FFFFCCFFFFFF0000000D0D0D1A1A1A2828283535354343435050505D5D5D6B6B6B787878868686939393A1A1A1AEAEAEBB
310
BBBBC9C9C9D6D6D6E4E4E4F1F1F1FFFFFF000000000000000000000000000000000000000000000000000000000000790CAC0F0000015A4944415478DAEDD8410A8340100440FFFFCCF9C09EE61E104224896014844D579F64F420A587DE592A3A632CD5C101100F500500C0F36ACDF6D636BFCEEBAEF9E9177D0788FBF600
310
000000000000004D1000000000000000100F50FB4F4C9E8B5578FAFF0300000000000000000000000000000000B00BD069000D0000000000000000A009020000000000000000000000000000000052013A0DA001000000000000000000A8C2000000000000000000000000000000402A40FC420400000000000000002016C0
310
5900000000000000000000000000000000C803885F88000000000000000000C402380B0000000000000000000000000000000000E2003A0DA0010000000000000000344100000000000000000000000000000000C0E7C660F21C04080D0000000000000000C01F54DE73151900000000000000D0AFCDCFB6227CDDAB1C9CD7
310
5DF3D32FAA0902000000C00A109E658C110DF0000E6CC6FBCCF8EC2E0000000049454E44AE426082
  0
ACDSRECORD
 90
        0
  2
AcDbDs::ID
280
    10
320
2EC4
  2
Thumbnail_Data
280
    15
 94
     1017
310
89504E470D0A1A0A0000000D4948445200000100000000890803000000F46416F000000300504C5445FEFCF0000000FFFFFF0000000000000000000000000000000000000000000000000000330000660000990000CC0000FF0033000033330033660033990033CC0033FF0066000066330066660066990066CC0066FF0099
310
000099330099660099990099CC0099FF00CC0000CC3300CC6600CC9900CCCC00CCFF00FF0000FF3300FF6600FF9900FFCC00FFFF3300003300333300663300993300CC3300FF3333003333333333663333993333CC3333FF3366003366333366663366993366CC3366FF3399003399333399663399993399CC3399FF33CC00
310
33CC3333CC6633CC9933CCCC33CCFF33FF0033FF3333FF6633FF9933FFCC33FFFF6600006600336600666600996600CC6600FF6633006633336633666633996633CC6633FF6666006666336666666666996666CC6666FF6699006699336699666699996699CC6699FF66CC0066CC3366CC6666CC9966CCCC66CCFF66FF0066
310
FF3366FF6666FF9966FFCC66FFFF9900009900339900669900999900CC9900FF9933009933339933669933999933CC9933FF9966009966339966669966999966CC9966FF9999009999339999669999999999CC9999FF99CC0099CC3399CC6699CC9999CCCC99CCFF99FF0099FF3399FF6699FF9999FFCC99FFFFCC0000CC00
310
33CC0066CC0099CC00CCCC00FFCC3300CC3333CC3366CC3399CC33CCCC33FFCC6600CC6633CC6666CC6699CC66CCCC66FFCC9900CC9933CC9966CC9999CC99CCCC99FFCCCC00CCCC33CCCC66CCCC99CCCCCCCCCCFFCCFF00CCFF33CCFF66CCFF99CCFFCCCCFFFFFF0000FF0033FF0066FF0099FF00CCFF00FFFF3300FF3333
310
FF3366FF3399FF33CCFF33FFFF6600FF6633FF6666FF6699FF66CCFF66FFFF9900FF9933FF9966FF9999FF99CCFF99FFFFCC00FFCC33FFCC66FFCC99FFCCCCFFCCFFFFFF00FFFF33FFFF66FFFF99FFFFCCFFFFFF0000000D0D0D1A1A1A2828283535354343435050505D5D5D6B6B6B787878868686939393A1A1A1AEAEAEBB
310
BBBBC9C9C9D6D6D6E4E4E4F1F1F1FFFFFF0000000000000000000000000000000000000000000000000000000000007C77BAA7000000B44944415478DAEDD0310100000C0220FBB7B48931760C22903E1701020408102040800001020408102040800001020408102040800001020408102040800001020408102040800001
310
020408102040800001020408102040800001020408102040800001020408102040800001020408102040800001020408102040800001020408102040800001020408102040800001020408102040800001020408102040800001020408102040800001020408102040C099016B33700943E05F3C0000000049454E44AE4260
310
82
  0
ENDSEC
  0
SECTION
  2
THUMBNAILIMAGE
 90
    14496
310
28000000B80000004900000001000800000000007834000001000000010000000001000000000000FFFFFF003030303FF8F8F8FFF0F0F0FF888888FF808080FF505050FF909090FFE8E8E8FF484848FFD8D8D8FF606060FF404040FF787878FFB8B8B8FF707070FFC0C0C0FF989898FFC8C8C8FFA8A8A8FFB0B0B0FFFFFFFF
310
FFFFFFFFFFFFFFFFFFFFFFFFFFFFFFFFFFFFFFFFFFFFFFFFFFFFFFFFFFFFFFFFFFFFFFFFFFFFFFFFFFFFFFFFFFFFFFFFFFFFFFFFFFFFFFFFFFFFFFFFFFFFFFFFFFFFFFFFFFFFFFFFFFFFFFFFFFFFFFFFFFFFFFFFFFFFFFFFFFFFFFFFFFFFFFFFFFFFFFFFFFFFFFFFFFFFFFFFFFFFFFFFFFFFFFFFFFFFFFFFFFFFFFFFFFFFFF
310
FFFFFFFFFFFFFFFFFFFFFFFFFFFFFFFFFFFFFFFFFFFFFFFFFFFFFFFFFFFFFFFFFFFFFFFFFFFFFFFFFFFFFFFFFFFFFFFFFFFFFFFFFFFFFFFFFFFFFFFFFFFFFFFFFFFFFFFFFFFFFFFFFFFFFFFFFFFFFFFFFFFFFFFFFFFFFFFFFFFFFFFFFFFFFFFFFFFFFFFFFFFFFFFFFFFFFFFFFFFFFFFFFFFFFFFFFFFFFFFFFFFFFFFFFFFFFF
310
FFFFFFFFFFFFFFFFFFFFFFFFFFFFFFFFFFFFFFFFFFFFFFFFFFFFFFFFFFFFFFFFFFFFFFFFFFFFFFFFFFFFFFFFFFFFFFFFFFFFFFFFFFFFFFFFFFFFFFFFFFFFFFFFFFFFFFFFFFFFFFFFFFFFFFFFFFFFFFFFFFFFFFFFFFFFFFFFFFFFFFFFFFFFFFFFFFFFFFFFFFFFFFFFFFFFFFFFFFFFFFFFFFFFFFFFFFFFFFFFFFFFFFFFFFFFFF
310
FFFFFFFFFFFFFFFFFFFFFFFFFFFFFFFFFFFFFFFFFFFFFFFFFFFFFFFFFFFFFFFFFFFFFFFFFFFFFFFFFFFFFFFFFFFFFFFFFFFFFFFFFFFFFFFFFFFFFFFFFFFFFFFFFFFFFFFFFFFFFFFFFFFFFFFFFFFFFFFFFFFFFFFFFFFFFFFFFFFFFFFFFFFFFFFFFFFFFFFFFFFFFFFFFFFFFFFFFFFFFFFFFFFFFFFFFFFFFFFFFFFFFFFFFFFFFF
310
FFFFFFFFFFFFFFFFFFFFFFFFFFFFFFFFFFFFFFFFFFFFFFFFFFFFFFFFFFFFFFFFFFFFFFFFFFFFFFFFFFFFFFFFFFFFFFFFFFFFFFFFFFFFFFFFFFFFFFFFFFFFFFFFFFFFFFFFFFFFFFFFFFFFFFFFFFFFFFFFFFFFFFFFFFFFFFFFFFFFFFFFFFFFFFFFFFFFFFFFFFFFFFFFFFFFFFFFFFFFFFFFFFFFFFFFFFFFFFFFFFFFFFFFFFFFFF
310
FFFFFFFFFFFFFFFFFFFFFFFFFFFFFFFFFFFFFFFFFFFFFFFFFFFFFFFFFFFFFFFFFFFFFFFFFFFFFFFFFFFFFFFFFFFFFFFFFFFFFFFFFFFFFFFFFFFFFFFFFFFFFFFFFFFFFFFFFFFFFFFFFFFFFFFFFFFFFFFFFFFFFFFFFFFFFFFFFFFFFFFFFFFFFFFFFFFFFFFFFFFFFFFFFFFFFFFFFFFFFFFFFFFFFFFFFFFFFFFFFFFFFFFFFFFFFF
310
FFFFFFFFFFFFFFFFFFFFFFFFFFFFFFFFFFFFFFFFFFFFFFFFFFFFFFFFFFFFFFFFFFFFFFFFFFFFFFFFFFFFFFFFFFFFFFFFFFFFFFFFFFFFFFFFFFFFFFFFFFFFFFFFFFFFFFFFFFFFFFFFFFFFFFFFFFFFFFFFFFFFFFFFFFFFFFFFFFFFFFFFFFFFFFFFFFFFFFFFFFFFFFFFFFFFFFFFFFFFFFFFFFFFFFFFFFFFFFFFFFFFFFFFFFFFFF
310
FFFFFFFFFFFFFFFFFFFFFFFFFFFFFFFFFFFFFFFFFFFFFFFFFFFFFFFFFFFFFFFFFFFFFFFFFFFFFFFFFFFFFFFFFFFFFFFF00000000000000000000000000000000000000000000000000000000000000000000000000000000000000000000000000000000000000000000000000000000000000000000000000000000000000
310
00000000000000000000000000000000000000000000000000000000000000000000000000000000000000000000000000000000000000000000000000000000000000000000000000000000000000000000000000000000000000000000000000000000000000000000000000000000000000000000000000000000000000
310
00000000000000000000000000000000000000000000000000000000000000000000000000000000000000000000000000000000000000000000000000000000000000000000000000000000000000000000000000000000000000000000000000000000000000000000000000000000000000000000000000000000000000
310
00000000000000000000000000000000000000000000000000000000000000000000000000000000000000000000000000000000000000000000000000000000000000000000000000000000000000000000000000000000000000000000000000000000000000000000000000000000000000000000000000000000000000
310
00000000000000000000000000000000000000000000000000000000000000000000000000000000000000000000000000000000000000000000000000000000000000000000000000000000000000000000000000000000000000000000000000000000000000000000000000000000000000000000000000000000000000
310
00000000000000000000000000000000000000000000000000000000000000000000000000000000000000000000000000000000000000000000000000000000000000000000000000000000000000000000000000000000000000000000000000000000000000000000000000000000000000000000000000000000000000
310
00000000000000000000000000000000000000000000000000000000000000000000000000000000000000000000000000000000000000000000000000000000000000000000000000000000000000000000000000000000000000000000000000000000000000000000000000000000000000000000000000000000000000
310
00000000000000000000000000000000000000000000000000000000000000000000000000000000000000000000000000000000000000000000000000000000000000000000000000000000000000000000000000000000000000000000000000000000000000000000000000000000000000000000000000000000000000
310
00000000000000000000000000000000000000000000000000000000000000000000000000000000000000000000000000000000000000000000000000000000000000000000000000000000000000000000000000000000000000000000000000000000000000000000000000000000000000000000000000000000000000
310
00000000000000000000000000000000000000000000000000000000000000000000000000000000000000000000000000000000000000000000000000000000000000000000000000000000000000000000000000000000000000000000000000000000000000000000000000000000000000000000000000000000000000
310
00000000000000000000000000000000000000000000000000000000000000000000000000000000000000000000000000000000000000000000000000000000000000000000000000000000000000000000000000000000000000000000000000000000000000000000000000000000000000000000000000000000000000
310
00000000000000000000000000000000000000000000000000000000000000000000000000000000000000000000000000000000000000000000000000000000000000000000000000000000000000000000000000000000000000000000000000000000000000000000000000000000000000000000000000000000000000
310
00000000000000000000000000000000000000000000000000000000000000000000000000000000000000000000000000000000000000000000000000000000000000000000000000000000000000000000000000000000000000000000000000000000000000000000000000000000000000000000000000000000000000
310
00000000000000000000000000000000000000000000000000000000000000000000000000000000000000000000000000000000000000000000000000000000000000000000000000000000000000000000000000000000000000000000000000000000000000000000000000000000000000000000000000000000000000
310
00000000000000000000000000000000000000000000000000000000000000000000000000000000000000000000000000000000000000000000000000000000000000000000000000000000000000000000000000000000000000000000000000000000000000000000000000000000000000000000000000000000000000
310
00000000000000000000000000000000000000000000000000000000000000000000000000000000000000000000000000000000000000000000000000000000000000000000000000000000000000000000000000000000000000000000000000000000000000000000000000000000000000000000000000000000000000
310
00000000000000000000000000000000000000000000000000000000000000000000000000000000000000000000000000000000000000000000000000000000000000000000000000000000000000000000000000000000000000000000000000000000000000000000000000000000000000000000000000000000000000
310
00000000000000000000000000000000000000000000000000000000000000000000000000000000000000000000000000000000000000000000000000000000000000000000000000000000000000000000000000000000000000000000000000000000000000000000000000000000000000000000000000000000000000
310
00000000000000000000000000000000000000000000000000000000000000000000000000000000000000000000000000000000000000000000000000000000000000000000000000000000000000000000000000000000000000000000000000000000000000000000000000000000000000000000000000000000000000
310
00000000000000000000000000000000000000000000000000000000000000000000000000000000000000000000000000000000000000000000000000000000000000000000000000000000000000000000000000000000000000000000000000000000000000000000000000000000000000000000000000000000000000
310
00000000000000000000000000000000000000000000000000000000000000000000000000000000000000000000000000000000000000000000000000000000000000000000000000000000000000000000000000000000000000000000000000000000000000000000000000000000000000000000000000000000000000
310
00000000000000000000000000000000000000000000000000000000000000000000000000000000000000000000000000000000000000000000000000000000000000000000000000000000000000000000000000000000000000000000000000000000000000000000000000000000000000000000000000000000000000
310
00000000000000000000000000000000000000000000000000000000000000000000000000000000000000000000000000000000000000000000000000000000000000000000000000000000000000000000000000000000000000000000000000000000000000000000000000000000000000000000000000000000000000
310
00000000000000000000000000000000000000000000000000000000000000000000000000000000000000000000000000000000000000000000000000000000000000000000000000000000000000000000000000000000000000000000000000000000000000000000000000000000000000000000000000000000000000
310
00000000000000000000000000000000000000000000000000000000000000000000000000000000000000000000000000000000000000000000000000000000000000000000000000000000000000000000000000000000000000000000000000000000000000000000000000000000000000000000000000000000000000
310
00000000000000000000000000000000000000000000000000000000000000000000000000000000000000000000000000000000000000000000000000000000000000000000000000000000000000000000000000000000000000000000000000000000000000000000000000000000000000000000000000000000000000
310
00000000000000000000000000000000000000000000000000000000000000000000000000000000000000000000000000000000000000000000000000000000000000000000000000000000000000000000000000000000000000000000000000000000000000000000000000000000000000000000000000000000000000
310
00000000000000000000000000000000000000000000000000000000000000000000000000000000000000000000000000000000000000000000000000000000000000000000000000000000000000000000000000000000000000000000000000000000000000000000000000000000000000000000000000000000000000
310
00000000000000000000000000000000000000000000000000000000000000000000000000000000000000000000000000000000000000000000000000000000000000000000000000000000000000000000000000000000000000000000000000000000000000000000000000000000000000000000000000000000000000
310
00000000000000000000000000000000000000000000000000000000000000000000000000000000000000000000000000000000000000000000000000000000000000000000000000000000000000000000000000000000000000000000000000000000000000000000000000000000000000000000000000000000000000
310
00000000000000000000000000000000000000000000000000000000000000000000000000000000000000000000000000000000000000000000000000000000000000000000000000000000000000000000000000000000000000000000000000000000000000000000000000000000000000000000000000000000000000
310
00000000000000000000000000000000000000000000000000000000000000000000000000000000000000000000000006000000000000000000000000000000000000000000000000000000000000000000000000000000000000000000000000000000000000000000000000000000000000000000000000000000000000
310
00000000000000000000000000000000000000000000000000000000000000000000000000000000000000000000000000000000000000000000000000000000000000000000000000000000000000000000000000000000000000000000000600000202020202020202100600000000000000000000000000000000000000
310
00000000000000000000000000000000000000000000000000000000000000000000000000000000000000000000000000000000000000000000000000000000000000000000000000000000000000000000000000000000000000000000000000000000000000000000000000000000000000000000000000000000000000
310
00000000000000000000000000000000000000000000000000020202020000000000000610020202040000000000000000000000000000000000000000000000000000000000000000000000000000000000000000000000000000000000000000000000000000000000000000000000000000000000000000000000000000
310
00000000000000000000000000000000000000000000000000000000000000000000000000000000000000000000000000000000000000000000000000000000000000000000000000000000000000060202060000000000000000000000060004020000000000000000000000000000000000000000000000000000000000
310
00000000000000000000000000000000000000000000000000000000000000000000000000000000000000000000000000000000000000000000000000000000000000000000000000000000000000000000000000000000000000000000000000000000000000000000000000000000000000000000000000000000000000
310
00000000000000040202000000000000000000000000000000000000000202000000000000000000000000000000000000000000000000000000000000000000000000000000000000000000000000000000000000000000000000000000000000000000000000000000000000000000000000000000000000000000000000
310
00000000000000000000000000000000000000000000000000000000000000000000000000000000000000000000000000000000000000000000000000000000020406000000000000000000000000000000000000000000000000000000000000000000000000000000000000000000000000000000000000000000000000
310
00000000000000000000000000000000000000000000000000000000000000000000000000000000000000000000000000000000000000000000000000000000000000000000000000000000000000000000000000000000000000000000000000000000000000000000000000000000000000000000000002000000000000
310
00000000000000000000000000000000000000020400000000000000000000000000000000000000000000000000000000000000000000000000000000000000000000000000000000000000000000000000000000000000000000000000000000000000000000000000000000000000000000000000000000000000000000
310
00000000000000000000000000000000000000000000000000000000000000000000000000000000000000000000000000000000000000000000000000000000000000000000000000000000040204000000000000000000000000000000000000000000000000000000000000000000000000000000000000000000000000
310
00000000000000000000000000000000000000000000000000000000000000000000000000000000000000000000000000000000000000000000000000000000000000000000000000000000000000000000000000000000000000000000000000000000000000000002000000000000000000000000000000000000000000
310
00000000000000040204000000000000000000000000000000000000000000000000000000000000000000000000000000000000000000000000000000000000000000000000000000000000000000000000000000000000000000000000000000000000000000000000000000000000000000000000000000000000000000
310
00000000000000000000000000000000000000000000000000000000000000000000020200000000000000000000000000000000000000000000000000000000000402000000000000000000000000000000000000000000000000000000000000000000000000000000000000000000000000000000000000000000000000
310
00000000000000000000000000000000000000000000000000000000000000000000000000000000000000000000000000000000000000000000000000000000000000000000000000000000000000000000000000000000000000020000000000000000000000000000000000000000000000000000000000000006020600
310
00000000000000000000000000000000000000000000000000000000000000000000000000000000000000000000000000000000000000000000000000000000000000000000000000000000000000000000000000000000000000000000000000000000000000000000000000000000000000000000000000000000000000
310
00000000000000000000000000000000000000000000000000000000000000000000000000000200000000020000000000000000000002040000000000000000000000000000000000000000000000000000000000000000000000000000000000000000000000000000000000000000000000000000000000000000000000
310
00000000000000000000000000000000000000000000000000000000000000000000000000000000000000000000000000000000000000000000000000000000000000000000000000000000020209000000000000000000000202020202020202020202020000000000000000000004020000000000000000000000000000
310
00000000000000000000000000000000000000000000000000000000000000000000000000000000000000000000000000000000000000000000000000000000000000000000000000000000000000000000000000000000000000000000000000000000000000000000000000000000000000000000000000000000000000
310
00000000000002000000000000000000000000020202020202020202020202000000000000000000000D020D0000000000000000000000000000000000000000000000000000000000000000000000000000000000000000000000000000000000000000000000000000000000000000000000000000000000000000000000
310
00000000000000000000000000000000000000000000000000000000000000000000000000000000000000000000000000000000000000000000000000000402000000000000000000000000000000000000000000000000000000000000000000000000000000000000000000000000000000000000000000000000000000
310
00000000000000000000000000000000000000000000000000000000000000000000000000000000000000000000000000000000000000000000000000000000000000000000000000000000000000000000000000000000000000000000000000000000000000000000000000000000000000000000000204000000000000
310
00000000000000000000000000000000000000000000000000000000000002000000000000000000000000000000000000000000000000000000000000000000000000000000000000000000000000000000000000000000000000000000000000000000000000000000000000000000000000000000000000000000000000
310
00000000000000000000000000000000000000000000000000000000000000000000000000000000000000000000000000020000000000000000000000000000000000000000000000000000000000000000000000000102010000000000000000000000000000000000000000000000000000000000000000000000000000
310
00000000000000000000000000000000000000000000000000000000000000000000000000000000000000000000000000000000000000000000000000000000000000000000000000000000000000000000000000000000000000000000000000000000000000000000020000000000000000000000000000000000000000
310
00000000000000000000000000000000000200000000000000000000000000000000000000000000000000000000000000000000000000000000000000000000000000000000000000000000000000000000000000000000000000000000000000000000000000000000000000000000000000000000000000000000000000
310
00000000000000000000000000000000000000000000000000000000000000000000000002000000000000000000000000000000000602020802000000000000000000000000000000000002000000000000000000000000000000000000000000000000000000000000000000000000000000000000000000000000000000
310
000000000000000000000000000000000000000000000000000000000000000000000000000000000000000000000000000000000000000000000000000000000000000000000000000000000000000000000000000000000000000000020000000000000000000000000000001202020202020F0000000000000000000000
310
00000000000200000000000000000000000000000000000000000000000000000000000000000000000000000000000000000000000000000000000000000000000000000000000000000000000000000000000000000000000000000000000000000000000000000000000000000000000000000000000000000000000000
310
00000000000000000000000000000000000000000000000200000000000000000000000000000011020202020212000000000000000000000000000000000200000000000000000000000000000000000000000000000000000000000000000000000000000000000000000000000000000000000000000000000000000000
310
00000000000000000000000000000000000000000000000000000000000000000000000000000000000000000000000000000000000000000000000000000000000000000000000000000000000000000200000000000000000000000000000011020202020202090000000000000000000000000000000200000000000000
310
00000000000000000000000000000000000000000000000000000000000000000000000000000000000000000000000000000000000000000000000000000000000000000000000000000000000000000000000000000000000000000000000000000000000000000000000000000000000000000000000000000000000000
310
00000000000000000000020000000000000000000000000000000A02020202021400000000000000000000000000000000020000000000000000000000000000000000000000000000000000000000000000000000000000000000000000000000000000000000000000000000000000000000000000000000000000000000
310
00000000000000000000000000000000000000000000000000000000000000000000000000000000000000000000000000000000000000000000000000000000000000020000000000000000000000000000000007020202020000000000000000000000000000000000020000000000000000000000000000000000000000
310
00000000000000000000000000000000000000000000000000000000000000000000000000000000000000000000000000000000000000000000000000000000000000000000000000000000000000000000000000000000000000000000000000000000000000000000000000000000000000000000000000000000020000
310
0000000000000000000000000000000B050000000000000000000000000000000000010201000000000000000000000000000000000000000000000000000000000000000000000000000000000000000000000000000000000000000000000000000000000000000000000000000000000000000000000000000000000000
310
00000000000000000000000000000000000000000000000000000000000000000000000000000000000000000000000000000000000002000000000000000000000000000000000000000000000000000000000000000000000000000000000000000000000000000000000000000000000000000000000000000000000000
310
00000000000000000000000000000000000000000000000000000000000000000000000000000000000000000000000000000000000000000000000000000000000000000000000000000000000000000000000000000000000000000000000000000000000000000000000000000002040000000000000000000000000000
310
00000000000000000000000000000000000000000000020000000000000000000000000000000000000000000000000000000000000000000000000000000000000000000000000000000000000000000000000000000000000000000000000000000000000000000000000000000000000000000000000000000000000000
310
00000000000000000000000000000000000000000000000000000000000000000000000000000000000402000000000000000000000000000000000000000000000000000000000000000000000001020100000000000000000000000000000000000000000000000000000000000000000000000000000000000000000000
310
00000000000000000000000000000000000000000000000000000000000000000000000000000000000000000000000000000000000000000000000000000000000000000000000000000000000000000000000000000000000000000000000000000002000000000000000000000000000000000000000000000000000000
310
00000000000000060206000000000000000000000000000000000000000000000000000000000000000000000000000000000000000000000000000000000000000000000000000000000000000000000000000000000000000000000000000000000000000000000000000000000000000000000000000000000000000000
310
00000000000000000000000000000000000000000000000000000000000200000000000000000000000000000000000000000000000000000000000000000000040200000000000000000000000000000000000000000000000000000000000000000000000000000000000000000000000000000000000000000000000000
310
00000000000000000000000000000000000000000000000000000000000000000000000000000000000000000000000000000000000000000000000000000000000000000000000000000000000000000000000000000902090000000000000000000000000000000000000000000000000000000000000000020400000000
310
00000000000000000000000000000000000000000000000000000000000000000000000000000000000000000000000000000000000000000000000000000000000000000000000000000000000000000000000000000000000000000000000000000000000000000000000000000000000000000000000000000000000000
310
00000000000000000000000000000000000002000000000000000000000000000000000000000000000000000000000000000602060000000000000000000000000000000000000000000000000000000000000000000000000000000000000000000000000000000000000000000000000000000000000000000000000000
310
00000000000000000000000000000000000000000000000000000000000000000000000000000000000000000000000000000000000000000000000000000000000000000000000000000002000000000000000000000000000000000000000000000000000000000000040200000000000000000000000000000000000000
310
00000000000000000000000000000000000000000000000000000000000000000000000000000000000000000000000000000000000000000000000000000000000000000000000000000000000000000000000000000000000000000000000000000000000000000000000000000000000000000000000000000000000000
310
00000000000002000000000000000000000000000000000000000000000000000000000402040000000000000000000000000000000000000000000000000000000000000000000000000000000000000000000000000000000000000000000000000000000000000000000000000000000000000000000000000000000000
310
00000000000000000000000000000000000000000000000000000000000000000000000000000000000000000000000000000000000000000000000000000000020000000000000000000000000000000000000000000000000000000204000000000000000000000000000000000000000000000000000000000000000000
310
00000000000000000000000000000000000000000000000000000000000000000000000000000000000000000000000000000000000000000000000000000000000000000000000000000000000000000000000000000000000000000000000000000000000000000000000000000000000000000000000000020200000000
310
00000000000000000000000000000000000000000002020000000000000000000000000000000000000000000000000000000000000000000000000000000000000000000000000000000000000000000000000000000000000000000000000000000000000000000000000000000000000000000000000000000000000000
310
00000000000000000000000000000000000000000000000000000000000000000000000000000000000000000000000000000000000204000000000000000000000000000000000000000000000200000000000000000000000000000000000000000000000000000000000000000000000000000000000000000000000000
310
00000000000000000000000000000000000000000000000000000000000000000000000000000000000000000000000000000000000000000000000000000000000000000000000000000000000000000000000000000000000000000000000000000000000000000000000000000402000600000000000000000000000000
310
00000000000202020000000000000000000000000000000000000000000000000000000000000000000000000000000000000000000000000000000000000000000000000000000000000000000000000000000000000000000000000000000000000000000000000000000000000000000000000000000000000000000000
310
00000000000000000000000000000000000000000000000000000000000000000000000000000000000002020400060000000000000000000000000000000000000000000000000000000000000000000000000000000000000000000000000000000000000000000000000000000000000000000000000000000000000000
310
00000000000000000000000000000000000000000000000000000000000000000000000000000000000000000000000000000000000000000000000000000000000000000000000000000000000000000000000000000000000000000000000000000000140200020204000000000000000004020202000000000000000000
310
00000000000000000000000000000000000000000000000000000000000000000000000000000000000000000000000000000000000000000000000000000000000000000000000000000000000000000000000000000000000000000000000000000000000000000000000000000000000000000000000000000000000000
310
00000000000000000000000000000000000000000000000000000000000000000006040202020202020202020204000000000000000000000000000000000000000000000000000000000000000000000000000000000000000000000000000000000000000000000000000000000000000000000000000000000000000000
310
00000000000000000000000000000000000000000000000000000000000000000000000000000000000000000000000000000000000000000000000000000000000000000000000000000000000000000000000000000000000000000000000000000000000000000000000000000000000000000000000000000000000000
310
00000000000000000000000000000000000000000000000000000000000000000000000000000000000000000000000000000000000000000000000000000000000000000000000000000000000000000000000000000000000000000000000000000000000000000000000000000000000000000000000000000000000000
310
00000000000000000000000000000000000000000000000000000000000000000000000000000000000000000000000000000000000000000000000000000000000000000000000000000000000000000000000000000000000000000000000000000000000000000000000000000000000000000000000000000000000000
310
00000000000000000000000000000000000000000000000000000000000000000000000000000000000000000000000000000000000000000000000000000000000000000000000000000000000000000000000000000000000000000000000000000000000000000000000000000000000000000000000000000000000000
310
00000000000000000000000000000000000000000000000000000000000000000000000000000000000000000000000000000000000000000000000000000000000000000000000000000000000000000000000000000000000000000000000000000000000000000000000000000000000000000000000000000000000000
310
00000000000000000000000000000000000000000000000000000000000000000000000000000000000000000000000000000000000000000000000000000000000000000000000000000000000000000000000000000000000000000000000000000000000000000000000000000000000000000000000000000000000000
310
00000000000000000000000000000000000000000000000000000000000000000000000000000000000000000000000000000000000000000000000000000000000000000000000000000000000000000000000000000000000000000000000000000000000000000000000000000000000000000000000000000000000000
310
00000000000000000000000000000000000000000000000000000000000000000000000000000000000000000000000000000000000000000000000000000000000000000000000000000000000000000000000000000000000000000000000000000000000000000000000000000000000000000000000000000000000000
310
00000000000000000000000000000000000000000000000000000000000000000000000000000000000000000000000000000000000000000000000000000000000000000000000000000000000000000000000000000000000000000000000000000000000000000000000000000000000000000000000000000000000000
310
00000000000000000000000000000000000000000000000000000000000000000000000000000000000000000000000000000000000000000000000000000000000000000000000000000000000000000000000000000000000000000000000000000000000000000000000000000000000000000000000000000000000000
310
00000000000000000000000000000000000000000000000000000000000000000000000000000000000000000000000000000000000000000000000000000000000000000000000000000000000000000000000000000000000000000000000000000000000000000000000000000000000000000000000000000000000000
310
00000000000000000000000000000000000000000000000000000000000000000000000000000000000000000000000000000000000000000000000000000000000000000000000000000000000000000000000000000000000000000000000000000000000000000000000000000000000000000000000000000000000000
310
00000000000000000000000000000000000000000000000000000000000000000000000000000000000000000000000000000000000000000000000000000000000000000000000000000000000000000000000000000000000000000000000000000000000000000000000000000000000000000000000000000000000000
310
00000000000000000000000000000000000000000000000000000000000000000000000000000000000000000000000000000000000000000000000000000000000000000000000000000000000000000000000000000000000000000000000000000000000000000000000000000000000000000000000000000000000000
310
00000000000000000000000000000000000000000000000000000000000000000000000000000000000000000000000000000000000000000000000000000000000000000000000000000000000000000000000000000000000000000000000000000000000000000000000000000000000000000000000000000000000000
310
00000000000000000000000000000000000000000000000000000000000000000000000000000000000000000000000000000000000000000000000000000000000000000000000000000000000000000000000000000000000000000000000000000000000000000000000000000000000000000000000000000000000000
310
000000000000000000000000000000000000
  0
ENDSEC
  0
EOF
