  0
SECTION
  2
HEADER
  9
$ACADVER
  1
AC1027
  9
$ACADMAINTVER
 70
   125
  9
$DWGCODEPAGE
  3
ANSI_1252
  9
$SUBJECT
  1
MicroStation
  9
$AUTHOR
  1
WAEngineering2
  9
$LASTSAVEDBY
  1
WAEngineering2
  9
$CUSTOMPROPERTYTAG
  1
BentleyWorkSetProperties
  9
$CUSTOMPROPERTY
  1
02050000000C000000860200000000000000000200000057006F0072006B005300650074004E0061006D00650000000000000001000109040000000200000000000000000000000100000057006F0072006B005300650074004400650073006300720069007000740069006F006E0000000000000001000109080000000000000000000000000000000200000043006F006E006E00650063007400500072006F006A006500630074004700550049004400000000000000010001090C00000000000000000000000000000004000000500072006F006A00650063007400410073007300650074005400790070006500000000000000010001091000000000000000000000000000000008000000500072006F006A0065006300740049006E00640075007300740072007900000000000000010001091400000000000000000000000000000010000000500072006F006A006500630074004C006F0063006100740069006F006E00000000000000010001091800000000000000000000000000000020000000500072006F006A006500630074004E0075006D00620065007200000000000000010001091C00000000000000000000000000000040000000500072006F006A00650063007400530074006100740075007300000000000000010001092000000000000000000000000000000080000000500072006F006A006500630074004E0061006D00650000000000000001000109240000000000000000000000000000000001000057006F0072006B00530070006100630065004E0061006D00650000000000000001000109280000000000000090010000000000000002000043006F006E006600690067004E0061006D006500000000000000010001092C000000000000002C010000000000000004000063010000000000050002F8FFFF340000004E0000004E00000098000000C6000000E8000000EA000000F80000000601000020010000300100005E0100004D006500740072006F00530074006100740069006F006E000000350039003800370063003200620065002D0066003000660064002D0034003300660038002D0039006100610031002D00620039003100360035006200350030003400650032003300000050006C006100740066006F0072006D007300200061006E0064002000530074006100740069006F006E00730000005200610069006C00200061006E00640020005400720061006E0073006900740000000000310030003000310030003000000041006300740069007600650000004D006500740072006F00530074006100740069006F006E0000004500780061006D0070006C00650000004500780061006D0070006C0065007300200043006F006E00660069006700750072006100740069006F006E000000
  9
$REQUIREDVERSIONS
160
                 0
  9
$INSBASE
 10
0.0
 20
0.0
 30
0.0
  9
$EXTMIN
 10
376.9
 20
255.6
 30
0.0
  9
$EXTMAX
 10
1766.0
 20
1555.9
 30
0.0
  9
$LIMMIN
 10
-2734.008658
 20
-2899.708658
  9
$LIMMAX
 10
4876.908658
 20
4711.208658
  9
$ORTHOMODE
 70
     0
  9
$REGENMODE
 70
     1
  9
$FILLMODE
 70
     1
  9
$QTEXTMODE
 70
     0
  9
$MIRRTEXT
 70
     0
  9
$LTSCALE
 40
1.0
  9
$ATTMODE
 70
     1
  9
$TEXTSIZE
 40
3.0
  9
$TRACEWID
 40
0.05
  9
$TEXTSTYLE
  7
Standard
  9
$CLAYER
  8
0
  9
$CELTYPE
  6
Continuous
  9
$CECOLOR
 62
     3
  9
$CELTSCALE
 40
1.0
  9
$DISPSILH
 70
     0
  9
$DIMSCALE
 40
1.0
  9
$DIMASZ
 40
3.0
  9
$DIMEXO
 40
1.5
  9
$DIMDLI
 40
0.0
  9
$DIMRND
 40
0.0
  9
$DIMDLE
 40
0.0
  9
$DIMEXE
 40
1.5
  9
$DIMTP
 40
0.0
  9
$DIMTM
 40
0.0
  9
$DIMTXT
 40
3.0
  9
$DIMCEN
 40
2.0
  9
$DIMTSZ
 40
0.0
  9
$DIMTOL
 70
     0
  9
$DIMLIM
 70
     0
  9
$DIMTIH
 70
     0
  9
$DIMTOH
 70
     0
  9
$DIMSE1
 70
     0
  9
$DIMSE2
 70
     0
  9
$DIMTAD
 70
     1
  9
$DIMZIN
 70
     8
  9
$DIMBLK
  1

  9
$DIMASO
 70
     1
  9
$DIMSHO
 70
     1
  9
$DIMPOST
  1

  9
$DIMAPOST
  1

  9
$DIMALT
 70
     0
  9
$DIMALTD
 70
     4
  9
$DIMALTF
 40
0.000001
  9
$DIMLFAC
 40
1.0
  9
$DIMTOFL
 70
     0
  9
$DIMTVP
 40
0.0
  9
$DIMTIX
 70
     0
  9
$DIMSOXD
 70
     0
  9
$DIMSAH
 70
     0
  9
$DIMBLK1
  1

  9
$DIMBLK2
  1

  9
$DIMSTYLE
  2
Standard
  9
$DIMCLRD
 70
     0
  9
$DIMCLRE
 70
     0
  9
$DIMCLRT
 70
     0
  9
$DIMTFAC
 40
1.0
  9
$DIMGAP
 40
1.5
  9
$DIMJUST
 70
     0
  9
$DIMSD1
 70
     0
  9
$DIMSD2
 70
     0
  9
$DIMTOLJ
 70
     1
  9
$DIMTZIN
 70
     8
  9
$DIMALTZ
 70
    12
  9
$DIMALTTZ
 70
    12
  9
$DIMUPT
 70
     0
  9
$DIMDEC
 70
     1
  9
$DIMTDEC
 70
     0
  9
$DIMALTU
 70
     2
  9
$DIMALTTD
 70
     0
  9
$DIMTXSTY
  7
Style-INTL_ISO
  9
$DIMAUNIT
 70
     0
  9
$DIMADEC
 70
     0
  9
$DIMALTRND
 40
0.0
  9
$DIMAZIN
 70
     3
  9
$DIMDSEP
 70
     0
  9
$DIMATFIT
 70
     1
  9
$DIMFRAC
 70
     2
  9
$DIMLDRBLK
  1

  9
$DIMLUNIT
 70
     2
  9
$DIMLWD
 70
    -2
  9
$DIMLWE
 70
    -2
  9
$DIMTMOVE
 70
     0
  9
$DIMFXL
 40
1.0
  9
$DIMFXLON
 70
     0
  9
$DIMJOGANG
 40
0.785398
  9
$DIMTFILL
 70
     0
  9
$DIMTFILLCLR
 70
     0
  9
$DIMARCSYM
 70
     0
  9
$DIMLTYPE
  6
ByBlock
  9
$DIMLTEX1
  6
ByBlock
  9
$DIMLTEX2
  6
ByBlock
  9
$DIMTXTDIRECTION
 70
     0
  9
$LUNITS
 70
     2
  9
$LUPREC
 70
     1
  9
$SKETCHINC
 40
0.1
  9
$FILLETRAD
 40
0.0
  9
$AUNITS
 70
     0
  9
$AUPREC
 70
     0
  9
$MENU
  1
.
  9
$ELEVATION
 40
0.0
  9
$PELEVATION
 40
0.0
  9
$THICKNESS
 40
0.0
  9
$LIMCHECK
 70
     0
  9
$CHAMFERA
 40
0.0
  9
$CHAMFERB
 40
0.0
  9
$CHAMFERC
 40
0.0
  9
$CHAMFERD
 40
0.0
  9
$SKPOLY
 70
     0
  9
$TDCREATE
 40
2454145.111354167
  9
$TDUCREATE
 40
2454144.778024017
  9
$TDUPDATE
 40
2460263.572349537
  9
$TDUUPDATE
 40
2460263.239016204
  9
$TDINDWG
 40
0.0060473958
  9
$TDUSRTIMER
 40
0.0060472106
  9
$USRTIMER
 70
     1
  9
$ANGBASE
 50
0.0
  9
$ANGDIR
 70
     0
  9
$PDMODE
 70
     0
  9
$PDSIZE
 40
0.0
  9
$PLINEWID
 40
0.0
  9
$SPLFRAME
 70
     0
  9
$SPLINETYPE
 70
     6
  9
$SPLINESEGS
 70
     8
  9
$HANDSEED
  5
19B8
  9
$SURFTAB1
 70
     6
  9
$SURFTAB2
 70
     6
  9
$SURFTYPE
 70
     6
  9
$SURFU
 70
     6
  9
$SURFV
 70
     6
  9
$UCSBASE
  2

  9
$UCSNAME
  2

  9
$UCSORG
 10
0.0
 20
0.0
 30
0.0
  9
$UCSXDIR
 10
1.0
 20
0.0
 30
0.0
  9
$UCSYDIR
 10
0.0
 20
1.0
 30
0.0
  9
$UCSORTHOREF
  2

  9
$UCSORTHOVIEW
 70
     0
  9
$UCSORGTOP
 10
0.0
 20
0.0
 30
0.0
  9
$UCSORGBOTTOM
 10
0.0
 20
0.0
 30
0.0
  9
$UCSORGLEFT
 10
0.0
 20
0.0
 30
0.0
  9
$UCSORGRIGHT
 10
0.0
 20
0.0
 30
0.0
  9
$UCSORGFRONT
 10
0.0
 20
0.0
 30
0.0
  9
$UCSORGBACK
 10
0.0
 20
0.0
 30
0.0
  9
$PUCSBASE
  2

  9
$PUCSNAME
  2

  9
$PUCSORG
 10
0.0
 20
0.0
 30
0.0
  9
$PUCSXDIR
 10
1.0
 20
0.0
 30
0.0
  9
$PUCSYDIR
 10
0.0
 20
1.0
 30
0.0
  9
$PUCSORTHOREF
  2

  9
$PUCSORTHOVIEW
 70
     0
  9
$PUCSORGTOP
 10
0.0
 20
0.0
 30
0.0
  9
$PUCSORGBOTTOM
 10
0.0
 20
0.0
 30
0.0
  9
$PUCSORGLEFT
 10
0.0
 20
0.0
 30
0.0
  9
$PUCSORGRIGHT
 10
0.0
 20
0.0
 30
0.0
  9
$PUCSORGFRONT
 10
0.0
 20
0.0
 30
0.0
  9
$PUCSORGBACK
 10
0.0
 20
0.0
 30
0.0
  9
$USERI1
 70
     0
  9
$USERI2
 70
     0
  9
$USERI3
 70
     0
  9
$USERI4
 70
     0
  9
$USERI5
 70
     0
  9
$USERR1
 40
0.0
  9
$USERR2
 40
0.0
  9
$USERR3
 40
0.0
  9
$USERR4
 40
0.0
  9
$USERR5
 40
0.0
  9
$WORLDVIEW
 70
     1
  9
$SHADEDGE
 70
     3
  9
$SHADEDIF
 70
    70
  9
$TILEMODE
 70
     1
  9
$MAXACTVP
 70
    64
  9
$PINSBASE
 10
0.0
 20
0.0
 30
0.0
  9
$PLIMCHECK
 70
     0
  9
$PEXTMIN
 10
15.1
 20
14.1
 30
0.0
  9
$PEXTMAX
 10
281.4
 20
193.7
 30
0.0
  9
$PLIMMIN
 10
-494.157503
 20
-538.507503
  9
$PLIMMAX
 10
790.657503
 20
746.307503
  9
$UNITMODE
 70
     0
  9
$VISRETAIN
 70
     1
  9
$PLINEGEN
 70
     0
  9
$PSLTSCALE
 70
     0
  9
$TREEDEPTH
 70
  3020
  9
$CMLSTYLE
  2
Standard
  9
$CMLJUST
 70
     0
  9
$CMLSCALE
 40
1.0
  9
$PROXYGRAPHICS
 70
     1
  9
$MEASUREMENT
 70
     0
  9
$CELWEIGHT
370
     0
  9
$ENDCAPS
280
     0
  9
$JOINSTYLE
280
     0
  9
$LWDISPLAY
290
     1
  9
$INSUNITS
 70
     4
  9
$HYPERLINKBASE
  1

  9
$STYLESHEET
  1

  9
$XEDIT
290
     1
  9
$CEPSNTYPE
380
     0
  9
$PSTYLEMODE
290
     1
  9
$FINGERPRINTGUID
  2
{235C5E6E-8A7C-3F4C-8271-8C857D10A4FC}
  9
$VERSIONGUID
  2
{38E7CD85-556C-4D6E-9C4C-B935CE7E055D}
  9
$EXTNAMES
290
     1
  9
$PSVPSCALE
 40
0.0
  9
$OLESTARTUP
290
     0
  9
$SORTENTS
280
   127
  9
$INDEXCTL
280
     0
  9
$HIDETEXT
280
     1
  9
$XCLIPFRAME
280
     0
  9
$HALOGAP
280
     0
  9
$OBSCOLOR
 70
   257
  9
$OBSLTYPE
280
     0
  9
$INTERSECTIONDISPLAY
280
     0
  9
$INTERSECTIONCOLOR
 70
   257
  9
$DIMASSOC
280
     2
  9
$PROJECTNAME
  1

  9
$CAMERADISPLAY
290
     0
  9
$LENSLENGTH
 40
50.0
  9
$CAMERAHEIGHT
 40
0.0
  9
$STEPSPERSEC
 40
2.0
  9
$STEPSIZE
 40
6.0
  9
$3DDWFPREC
 40
2.0
  9
$PSOLWIDTH
 40
0.25
  9
$PSOLHEIGHT
 40
4.0
  9
$LOFTANG1
 40
1.570796
  9
$LOFTANG2
 40
1.570796
  9
$LOFTMAG1
 40
0.0
  9
$LOFTMAG2
 40
0.0
  9
$LOFTPARAM
 70
     7
  9
$LOFTNORMALS
280
     1
  9
$LATITUDE
 40
37.795
  9
$LONGITUDE
 40
-122.394
  9
$NORTHDIRECTION
 40
0.0
  9
$TIMEZONE
 70
 -8000
  9
$LIGHTGLYPHDISPLAY
280
     1
  9
$TILEMODELIGHTSYNCH
280
     1
  9
$CMATERIAL
347
133B
  9
$SOLIDHIST
280
     1
  9
$SHOWHIST
280
     1
  9
$DWFFRAME
280
     2
  9
$DGNFRAME
280
     0
  9
$REALWORLDSCALE
290
     1
  9
$INTERFERECOLOR
 62
     1
  9
$INTERFEREOBJVS
345
1364
  9
$INTERFEREVPVS
346
1365
  9
$CSHADOW
280
     0
  9
$SHADOWPLANELOCATION
 40
0.0
  0
ENDSEC
  0
SECTION
  2
CLASSES
  0
CLASS
  1
ACDBDICTIONARYWDFLT
  2
AcDbDictionaryWithDefault
  3
ObjectDBX Classes
 90
        0
 91
        1
280
     0
281
     0
  0
CLASS
  1
DICTIONARYVAR
  2
AcDbDictionaryVar
  3
ObjectDBX Classes
 90
        0
 91
        9
280
     0
281
     0
  0
CLASS
  1
TABLESTYLE
  2
AcDbTableStyle
  3
ObjectDBX Classes
 90
     4095
 91
        1
280
     0
281
     0
  0
CLASS
  1
MATERIAL
  2
AcDbMaterial
  3
ObjectDBX Classes
 90
     1153
 91
        3
280
     0
281
     0
  0
CLASS
  1
VISUALSTYLE
  2
AcDbVisualStyle
  3
ObjectDBX Classes
 90
     4095
 91
       24
280
     0
281
     0
  0
CLASS
  1
SCALE
  2
AcDbScale
  3
ObjectDBX Classes
 90
     1153
 91
       33
280
     0
281
     0
  0
CLASS
  1
MLEADERSTYLE
  2
AcDbMLeaderStyle
  3
ACDB_MLEADERSTYLE_CLASS
 90
     4095
 91
        1
280
     0
281
     0
  0
CLASS
  1
EXACXREFPANELOBJECT
  2
ExAcXREFPanelObject
  3
EXAC_ESW
 90
     1025
 91
        0
280
     1
281
     0
  0
CLASS
  1
NPOCOLLECTION
  2
AcDbImpNonPersistentObjectsCollection
  3
ObjectDBX Classes
 90
     1153
 91
        0
280
     0
281
     0
  0
CLASS
  1
CELLSTYLEMAP
  2
AcDbCellStyleMap
  3
ObjectDBX Classes
 90
     1152
 91
        1
280
     0
281
     0
  0
CLASS
  1
ACDBSECTIONVIEWSTYLE
  2
AcDbSectionViewStyle
  3
ObjectDBX Classes
 90
     1025
 91
        1
280
     0
281
     0
  0
CLASS
  1
ACDBDETAILVIEWSTYLE
  2
AcDbDetailViewStyle
  3
ObjectDBX Classes
 90
     1025
 91
        1
280
     0
281
     0
  0
CLASS
  1
SORTENTSTABLE
  2
AcDbSortentsTable
  3
ObjectDBX Classes
 90
        0
 91
        1
280
     0
281
     0
  0
ENDSEC
  0
SECTION
  2
TABLES
  0
TABLE
  2
VPORT
  5
132F
330
0
100
AcDbSymbolTable
 70
     1
1001
ACAD
1000
DbSaveVer
1071
      279
  0
VPORT
  5
4B
330
132F
100
AcDbSymbolTableRecord
100
AcDbViewportTableRecord
  2
*ACTIVE
 70
     0
 10
0.0
 20
0.0
 11
1.0
 21
1.0
 12
3203.04924
 22
817.158573
 13
0.0
 23
0.0
 14
100000.0
 24
100000.0
 15
100000.0
 25
100000.0
 16
0.0
 26
0.0
 36
1.0
 17
0.0
 27
0.0
 37
0.0
 40
3505.986844
 41
2.440986
 42
50.0
 43
0.0
 44
0.0
 50
0.0
 51
0.0
 71
     0
 72
 20000
 73
     1
 74
     1
 75
     0
 76
     0
 77
     0
 78
     1
281
     0
 65
     1
110
0.0
120
0.0
130
0.0
111
1.0
121
0.0
131
0.0
112
0.0
122
1.0
132
0.0
 79
     0
146
0.0
348
1331
 60
     3
 61
     1
292
     0
282
     1
141
0.0
142
0.0
 63
     7
421
 16777215
  0
ENDTAB
  0
TABLE
  2
LTYPE
  5
132A
330
0
100
AcDbSymbolTable
 70
     1
  0
LTYPE
  5
132B
330
132A
100
AcDbSymbolTableRecord
100
AcDbLinetypeTableRecord
  2
ByBlock
 70
     0
  3

 72
    65
 73
     0
 40
0.0
  0
LTYPE
  5
132C
330
132A
100
AcDbSymbolTableRecord
100
AcDbLinetypeTableRecord
  2
ByLayer
 70
     0
  3

 72
    65
 73
     0
 40
0.0
  0
LTYPE
  5
1300
330
132A
100
AcDbSymbolTableRecord
100
AcDbLinetypeTableRecord
  2
Continuous
 70
     0
  3
Solid line
 72
    65
 73
     0
 40
0.0
  0
ENDTAB
  0
TABLE
  2
LAYER
  5
1321
102
{ACAD_XDICTIONARY
360
1322
102
}
330
0
100
AcDbSymbolTable
 70
   321
  0
LAYER
  5
12F1
102
{ACAD_XDICTIONARY
360
12F2
102
}
330
1321
100
AcDbSymbolTableRecord
100
AcDbLayerTableRecord
  2
0
 70
     0
 62
     3
  6
Continuous
370
    -3
390
12F4
347
12F7
348
0
1001
AcCmTransparency
1071
 33554687
  0
LAYER
  5
1359
330
1321
100
AcDbSymbolTableRecord
100
AcDbLayerTableRecord
  2
Level 1
 70
     0
 62
     7
  6
Continuous
370
     0
390
12F4
347
12F7
348
0
1001
AcCmTransparency
1071
 33554687
  0
LAYER
  5
1387
330
1321
100
AcDbSymbolTableRecord
100
AcDbLayerTableRecord
  2
A!|Level 1
 70
    16
 62
     7
  6
Continuous
370
     0
390
12F4
347
12F7
348
0
1001
AcCmTransparency
1071
 33554687
  0
LAYER
  5
1388
330
1321
100
AcDbSymbolTableRecord
100
AcDbLayerTableRecord
  2
A!|Level 2
 70
    16
 62
     7
  6
Continuous
370
     0
390
12F4
347
12F7
348
0
1001
AcCmTransparency
1071
 33554687
  0
LAYER
  5
1389
330
1321
100
AcDbSymbolTableRecord
100
AcDbLayerTableRecord
  2
A!|Level 3
 70
    16
 62
     7
  6
Continuous
370
     0
390
12F4
347
12F7
348
0
1001
AcCmTransparency
1071
 33554687
  0
LAYER
  5
138A
330
1321
100
AcDbSymbolTableRecord
100
AcDbLayerTableRecord
  2
A!|Level 4
 70
    16
 62
     7
  6
Continuous
370
     0
390
12F4
347
12F7
348
0
1001
AcCmTransparency
1071
 33554687
  0
LAYER
  5
138B
330
1321
100
AcDbSymbolTableRecord
100
AcDbLayerTableRecord
  2
A!|Level 5
 70
    16
 62
     7
  6
Continuous
370
     0
390
12F4
347
12F7
348
0
1001
AcCmTransparency
1071
 33554687
  0
LAYER
  5
138C
330
1321
100
AcDbSymbolTableRecord
100
AcDbLayerTableRecord
  2
A!|Level 6
 70
    16
 62
     7
  6
Continuous
370
     0
390
12F4
347
12F7
348
0
1001
AcCmTransparency
1071
 33554687
  0
LAYER
  5
138D
330
1321
100
AcDbSymbolTableRecord
100
AcDbLayerTableRecord
  2
A!|Level 7
 70
    16
 62
     7
  6
Continuous
370
     0
390
12F4
347
12F7
348
0
1001
AcCmTransparency
1071
 33554687
  0
LAYER
  5
138E
330
1321
100
AcDbSymbolTableRecord
100
AcDbLayerTableRecord
  2
A!|Level 8
 70
    16
 62
     7
  6
Continuous
370
     0
390
12F4
347
12F7
348
0
1001
AcCmTransparency
1071
 33554687
  0
LAYER
  5
138F
330
1321
100
AcDbSymbolTableRecord
100
AcDbLayerTableRecord
  2
A!|Level 9
 70
    16
 62
     7
  6
Continuous
370
     0
390
12F4
347
12F7
348
0
1001
AcCmTransparency
1071
 33554687
  0
LAYER
  5
1390
330
1321
100
AcDbSymbolTableRecord
100
AcDbLayerTableRecord
  2
A!|Level 10
 70
    16
 62
     7
  6
Continuous
370
     0
390
12F4
347
12F7
348
0
1001
AcCmTransparency
1071
 33554687
  0
LAYER
  5
1391
330
1321
100
AcDbSymbolTableRecord
100
AcDbLayerTableRecord
  2
A!|Level 11
 70
    16
 62
     7
  6
Continuous
370
     0
390
12F4
347
12F7
348
0
1001
AcCmTransparency
1071
 33554687
  0
LAYER
  5
1392
330
1321
100
AcDbSymbolTableRecord
100
AcDbLayerTableRecord
  2
A!|Level 12
 70
    16
 62
     7
  6
Continuous
370
     0
390
12F4
347
12F7
348
0
1001
AcCmTransparency
1071
 33554687
  0
LAYER
  5
1393
330
1321
100
AcDbSymbolTableRecord
100
AcDbLayerTableRecord
  2
A!|Level 13
 70
    16
 62
     7
  6
Continuous
370
     0
390
12F4
347
12F7
348
0
1001
AcCmTransparency
1071
 33554687
  0
LAYER
  5
1394
330
1321
100
AcDbSymbolTableRecord
100
AcDbLayerTableRecord
  2
A!|Level 14
 70
    16
 62
     7
  6
Continuous
370
     0
390
12F4
347
12F7
348
0
1001
AcCmTransparency
1071
 33554687
  0
LAYER
  5
1395
330
1321
100
AcDbSymbolTableRecord
100
AcDbLayerTableRecord
  2
A!|Level 15
 70
    16
 62
     7
  6
Continuous
370
     0
390
12F4
347
12F7
348
0
1001
AcCmTransparency
1071
 33554687
  0
LAYER
  5
1396
330
1321
100
AcDbSymbolTableRecord
100
AcDbLayerTableRecord
  2
A!|Level 16
 70
    16
 62
     7
  6
Continuous
370
     0
390
12F4
347
12F7
348
0
1001
AcCmTransparency
1071
 33554687
  0
LAYER
  5
1397
330
1321
100
AcDbSymbolTableRecord
100
AcDbLayerTableRecord
  2
A!|Level 17
 70
    16
 62
     7
  6
Continuous
370
     0
390
12F4
347
12F7
348
0
1001
AcCmTransparency
1071
 33554687
  0
LAYER
  5
1398
330
1321
100
AcDbSymbolTableRecord
100
AcDbLayerTableRecord
  2
A!|Level 18
 70
    16
 62
     7
  6
Continuous
370
     0
390
12F4
347
12F7
348
0
1001
AcCmTransparency
1071
 33554687
  0
LAYER
  5
1399
330
1321
100
AcDbSymbolTableRecord
100
AcDbLayerTableRecord
  2
A!|Level 19
 70
    16
 62
     7
  6
Continuous
370
     0
390
12F4
347
12F7
348
0
1001
AcCmTransparency
1071
 33554687
  0
LAYER
  5
139A
330
1321
100
AcDbSymbolTableRecord
100
AcDbLayerTableRecord
  2
A!|Level 20
 70
    16
 62
     7
  6
Continuous
370
     0
390
12F4
347
12F7
348
0
1001
AcCmTransparency
1071
 33554687
  0
LAYER
  5
139B
330
1321
100
AcDbSymbolTableRecord
100
AcDbLayerTableRecord
  2
A!|Level 21
 70
    16
 62
     7
  6
Continuous
370
     0
390
12F4
347
12F7
348
0
1001
AcCmTransparency
1071
 33554687
  0
LAYER
  5
139C
330
1321
100
AcDbSymbolTableRecord
100
AcDbLayerTableRecord
  2
A!|Level 22
 70
    16
 62
     7
  6
Continuous
370
     0
390
12F4
347
12F7
348
0
1001
AcCmTransparency
1071
 33554687
  0
LAYER
  5
139D
330
1321
100
AcDbSymbolTableRecord
100
AcDbLayerTableRecord
  2
A!|Level 23
 70
    16
 62
     7
  6
Continuous
370
     0
390
12F4
347
12F7
348
0
1001
AcCmTransparency
1071
 33554687
  0
LAYER
  5
139E
330
1321
100
AcDbSymbolTableRecord
100
AcDbLayerTableRecord
  2
A!|Level 24
 70
    16
 62
     7
  6
Continuous
370
     0
390
12F4
347
12F7
348
0
1001
AcCmTransparency
1071
 33554687
  0
LAYER
  5
139F
330
1321
100
AcDbSymbolTableRecord
100
AcDbLayerTableRecord
  2
A!|Level 25
 70
    16
 62
     7
  6
Continuous
370
     0
390
12F4
347
12F7
348
0
1001
AcCmTransparency
1071
 33554687
  0
LAYER
  5
13A0
330
1321
100
AcDbSymbolTableRecord
100
AcDbLayerTableRecord
  2
A!|Level 26
 70
    16
 62
     7
  6
Continuous
370
     0
390
12F4
347
12F7
348
0
1001
AcCmTransparency
1071
 33554687
  0
LAYER
  5
13A1
330
1321
100
AcDbSymbolTableRecord
100
AcDbLayerTableRecord
  2
A!|Level 27
 70
    16
 62
     7
  6
Continuous
370
     0
390
12F4
347
12F7
348
0
1001
AcCmTransparency
1071
 33554687
  0
LAYER
  5
13A2
330
1321
100
AcDbSymbolTableRecord
100
AcDbLayerTableRecord
  2
A!|Level 28
 70
    16
 62
     7
  6
Continuous
370
     0
390
12F4
347
12F7
348
0
1001
AcCmTransparency
1071
 33554687
  0
LAYER
  5
13A3
330
1321
100
AcDbSymbolTableRecord
100
AcDbLayerTableRecord
  2
A!|Level 29
 70
    16
 62
     7
  6
Continuous
370
     0
390
12F4
347
12F7
348
0
1001
AcCmTransparency
1071
 33554687
  0
LAYER
  5
13A4
330
1321
100
AcDbSymbolTableRecord
100
AcDbLayerTableRecord
  2
A!|Level 30
 70
    16
 62
     7
  6
Continuous
370
     0
390
12F4
347
12F7
348
0
1001
AcCmTransparency
1071
 33554687
  0
LAYER
  5
13A5
330
1321
100
AcDbSymbolTableRecord
100
AcDbLayerTableRecord
  2
A!|Level 31
 70
    16
 62
     7
  6
Continuous
370
     0
390
12F4
347
12F7
348
0
1001
AcCmTransparency
1071
 33554687
  0
LAYER
  5
13A6
330
1321
100
AcDbSymbolTableRecord
100
AcDbLayerTableRecord
  2
A!|Level 32
 70
    16
 62
     7
  6
Continuous
370
     0
390
12F4
347
12F7
348
0
1001
AcCmTransparency
1071
 33554687
  0
LAYER
  5
13A7
330
1321
100
AcDbSymbolTableRecord
100
AcDbLayerTableRecord
  2
A!|Level 33
 70
    16
 62
     7
  6
Continuous
370
     0
390
12F4
347
12F7
348
0
1001
AcCmTransparency
1071
 33554687
  0
LAYER
  5
13A8
330
1321
100
AcDbSymbolTableRecord
100
AcDbLayerTableRecord
  2
A!|Level 34
 70
    16
 62
     7
  6
Continuous
370
     0
390
12F4
347
12F7
348
0
1001
AcCmTransparency
1071
 33554687
  0
LAYER
  5
13A9
330
1321
100
AcDbSymbolTableRecord
100
AcDbLayerTableRecord
  2
A!|Level 35
 70
    16
 62
     7
  6
Continuous
370
     0
390
12F4
347
12F7
348
0
1001
AcCmTransparency
1071
 33554687
  0
LAYER
  5
13AA
330
1321
100
AcDbSymbolTableRecord
100
AcDbLayerTableRecord
  2
A!|Level 36
 70
    16
 62
     7
  6
Continuous
370
     0
390
12F4
347
12F7
348
0
1001
AcCmTransparency
1071
 33554687
  0
LAYER
  5
13AB
330
1321
100
AcDbSymbolTableRecord
100
AcDbLayerTableRecord
  2
A!|Level 37
 70
    16
 62
     7
  6
Continuous
370
     0
390
12F4
347
12F7
348
0
1001
AcCmTransparency
1071
 33554687
  0
LAYER
  5
13AC
330
1321
100
AcDbSymbolTableRecord
100
AcDbLayerTableRecord
  2
A!|Level 38
 70
    16
 62
     7
  6
Continuous
370
     0
390
12F4
347
12F7
348
0
1001
AcCmTransparency
1071
 33554687
  0
LAYER
  5
13AD
330
1321
100
AcDbSymbolTableRecord
100
AcDbLayerTableRecord
  2
A!|Level 39
 70
    16
 62
     7
  6
Continuous
370
     0
390
12F4
347
12F7
348
0
1001
AcCmTransparency
1071
 33554687
  0
LAYER
  5
13AE
330
1321
100
AcDbSymbolTableRecord
100
AcDbLayerTableRecord
  2
A!|Level 40
 70
    16
 62
     7
  6
Continuous
370
     0
390
12F4
347
12F7
348
0
1001
AcCmTransparency
1071
 33554687
  0
LAYER
  5
13AF
330
1321
100
AcDbSymbolTableRecord
100
AcDbLayerTableRecord
  2
A!|Level 41
 70
    16
 62
     7
  6
Continuous
370
     0
390
12F4
347
12F7
348
0
1001
AcCmTransparency
1071
 33554687
  0
LAYER
  5
13B0
330
1321
100
AcDbSymbolTableRecord
100
AcDbLayerTableRecord
  2
A!|Level 42
 70
    16
 62
     7
  6
Continuous
370
     0
390
12F4
347
12F7
348
0
1001
AcCmTransparency
1071
 33554687
  0
LAYER
  5
13B1
330
1321
100
AcDbSymbolTableRecord
100
AcDbLayerTableRecord
  2
A!|Level 43
 70
    16
 62
     7
  6
Continuous
370
     0
390
12F4
347
12F7
348
0
1001
AcCmTransparency
1071
 33554687
  0
LAYER
  5
13B2
330
1321
100
AcDbSymbolTableRecord
100
AcDbLayerTableRecord
  2
A!|Level 44
 70
    16
 62
     7
  6
Continuous
370
     0
390
12F4
347
12F7
348
0
1001
AcCmTransparency
1071
 33554687
  0
LAYER
  5
13B3
330
1321
100
AcDbSymbolTableRecord
100
AcDbLayerTableRecord
  2
A!|Level 45
 70
    16
 62
     7
  6
Continuous
370
     0
390
12F4
347
12F7
348
0
1001
AcCmTransparency
1071
 33554687
  0
LAYER
  5
13B4
330
1321
100
AcDbSymbolTableRecord
100
AcDbLayerTableRecord
  2
A!|Level 46
 70
    16
 62
     7
  6
Continuous
370
     0
390
12F4
347
12F7
348
0
1001
AcCmTransparency
1071
 33554687
  0
LAYER
  5
13B5
330
1321
100
AcDbSymbolTableRecord
100
AcDbLayerTableRecord
  2
A!|Level 47
 70
    16
 62
     7
  6
Continuous
370
     0
390
12F4
347
12F7
348
0
1001
AcCmTransparency
1071
 33554687
  0
LAYER
  5
13B6
330
1321
100
AcDbSymbolTableRecord
100
AcDbLayerTableRecord
  2
A!|Level 48
 70
    16
 62
     7
  6
Continuous
370
     0
390
12F4
347
12F7
348
0
1001
AcCmTransparency
1071
 33554687
  0
LAYER
  5
13B7
330
1321
100
AcDbSymbolTableRecord
100
AcDbLayerTableRecord
  2
A!|Level 49
 70
    16
 62
     7
  6
Continuous
370
     0
390
12F4
347
12F7
348
0
1001
AcCmTransparency
1071
 33554687
  0
LAYER
  5
13B8
330
1321
100
AcDbSymbolTableRecord
100
AcDbLayerTableRecord
  2
A!|Level 50
 70
    16
 62
     7
  6
Continuous
370
     0
390
12F4
347
12F7
348
0
1001
AcCmTransparency
1071
 33554687
  0
LAYER
  5
13B9
330
1321
100
AcDbSymbolTableRecord
100
AcDbLayerTableRecord
  2
A!|Level 51
 70
    16
 62
     7
  6
Continuous
370
     0
390
12F4
347
12F7
348
0
1001
AcCmTransparency
1071
 33554687
  0
LAYER
  5
13BA
330
1321
100
AcDbSymbolTableRecord
100
AcDbLayerTableRecord
  2
A!|Level 52
 70
    16
 62
     7
  6
Continuous
370
     0
390
12F4
347
12F7
348
0
1001
AcCmTransparency
1071
 33554687
  0
LAYER
  5
13BB
330
1321
100
AcDbSymbolTableRecord
100
AcDbLayerTableRecord
  2
A!|Level 53
 70
    16
 62
     7
  6
Continuous
370
     0
390
12F4
347
12F7
348
0
1001
AcCmTransparency
1071
 33554687
  0
LAYER
  5
13BC
330
1321
100
AcDbSymbolTableRecord
100
AcDbLayerTableRecord
  2
A!|Level 54
 70
    16
 62
     7
  6
Continuous
370
     0
390
12F4
347
12F7
348
0
1001
AcCmTransparency
1071
 33554687
  0
LAYER
  5
13BD
330
1321
100
AcDbSymbolTableRecord
100
AcDbLayerTableRecord
  2
A!|Level 55
 70
    16
 62
     7
  6
Continuous
370
     0
390
12F4
347
12F7
348
0
1001
AcCmTransparency
1071
 33554687
  0
LAYER
  5
13BE
330
1321
100
AcDbSymbolTableRecord
100
AcDbLayerTableRecord
  2
A!|Level 56
 70
    16
 62
     7
  6
Continuous
370
     0
390
12F4
347
12F7
348
0
1001
AcCmTransparency
1071
 33554687
  0
LAYER
  5
13BF
330
1321
100
AcDbSymbolTableRecord
100
AcDbLayerTableRecord
  2
A!|Level 57
 70
    16
 62
     7
  6
Continuous
370
     0
390
12F4
347
12F7
348
0
1001
AcCmTransparency
1071
 33554687
  0
LAYER
  5
13C0
330
1321
100
AcDbSymbolTableRecord
100
AcDbLayerTableRecord
  2
A!|Level 58
 70
    16
 62
     7
  6
Continuous
370
     0
390
12F4
347
12F7
348
0
1001
AcCmTransparency
1071
 33554687
  0
LAYER
  5
13C1
330
1321
100
AcDbSymbolTableRecord
100
AcDbLayerTableRecord
  2
A!|Level 59
 70
    16
 62
     7
  6
Continuous
370
     0
390
12F4
347
12F7
348
0
1001
AcCmTransparency
1071
 33554687
  0
LAYER
  5
13C2
330
1321
100
AcDbSymbolTableRecord
100
AcDbLayerTableRecord
  2
A!|Level 60
 70
    16
 62
     7
  6
Continuous
370
     0
390
12F4
347
12F7
348
0
1001
AcCmTransparency
1071
 33554687
  0
LAYER
  5
13C3
330
1321
100
AcDbSymbolTableRecord
100
AcDbLayerTableRecord
  2
A!|Level 61
 70
    16
 62
     7
  6
Continuous
370
     0
390
12F4
347
12F7
348
0
1001
AcCmTransparency
1071
 33554687
  0
LAYER
  5
13C4
330
1321
100
AcDbSymbolTableRecord
100
AcDbLayerTableRecord
  2
A!|Level 62
 70
    16
 62
     7
  6
Continuous
370
     0
390
12F4
347
12F7
348
0
1001
AcCmTransparency
1071
 33554687
  0
LAYER
  5
13C5
330
1321
100
AcDbSymbolTableRecord
100
AcDbLayerTableRecord
  2
A!|Level 63
 70
    16
 62
     7
  6
Continuous
370
     0
390
12F4
347
12F7
348
0
1001
AcCmTransparency
1071
 33554687
  0
LAYER
  5
13C6
330
1321
100
AcDbSymbolTableRecord
100
AcDbLayerTableRecord
  2
A!|5
 70
    16
 62
     1
  6
Continuous
370
     0
390
12F4
347
12F7
348
0
1001
AcCmTransparency
1071
 33554687
  0
LAYER
  5
13C7
330
1321
100
AcDbSymbolTableRecord
100
AcDbLayerTableRecord
  2
A!|4
 70
    16
 62
     7
  6
Continuous
370
     0
390
12F4
347
12F7
348
0
1001
AcCmTransparency
1071
 33554687
  0
LAYER
  5
13C8
330
1321
100
AcDbSymbolTableRecord
100
AcDbLayerTableRecord
  2
A!|3
 70
    16
 62
     7
  6
Continuous
370
     0
390
12F4
347
12F7
348
0
1001
AcCmTransparency
1071
 33554687
  0
LAYER
  5
13C9
330
1321
100
AcDbSymbolTableRecord
100
AcDbLayerTableRecord
  2
a2|Level 1
 70
    16
 62
     7
  6
Continuous
370
     0
390
12F4
347
12F7
348
0
1001
AcCmTransparency
1071
 33554687
  0
LAYER
  5
13CA
330
1321
100
AcDbSymbolTableRecord
100
AcDbLayerTableRecord
  2
a2|Level 2
 70
    16
 62
     7
  6
Continuous
370
     0
390
12F4
347
12F7
348
0
1001
AcCmTransparency
1071
 33554687
  0
LAYER
  5
13CB
330
1321
100
AcDbSymbolTableRecord
100
AcDbLayerTableRecord
  2
a2|Level 3
 70
    16
 62
     7
  6
Continuous
370
     0
390
12F4
347
12F7
348
0
1001
AcCmTransparency
1071
 33554687
  0
LAYER
  5
13CC
330
1321
100
AcDbSymbolTableRecord
100
AcDbLayerTableRecord
  2
a2|Level 4
 70
    16
 62
     7
  6
Continuous
370
     0
390
12F4
347
12F7
348
0
1001
AcCmTransparency
1071
 33554687
  0
LAYER
  5
13CD
330
1321
100
AcDbSymbolTableRecord
100
AcDbLayerTableRecord
  2
a2|Level 5
 70
    16
 62
     7
  6
Continuous
370
     0
390
12F4
347
12F7
348
0
1001
AcCmTransparency
1071
 33554687
  0
LAYER
  5
13CE
330
1321
100
AcDbSymbolTableRecord
100
AcDbLayerTableRecord
  2
a2|Level 6
 70
    16
 62
     7
  6
Continuous
370
     0
390
12F4
347
12F7
348
0
1001
AcCmTransparency
1071
 33554687
  0
LAYER
  5
13CF
330
1321
100
AcDbSymbolTableRecord
100
AcDbLayerTableRecord
  2
a2|Level 7
 70
    16
 62
     7
  6
Continuous
370
     0
390
12F4
347
12F7
348
0
1001
AcCmTransparency
1071
 33554687
  0
LAYER
  5
13D0
330
1321
100
AcDbSymbolTableRecord
100
AcDbLayerTableRecord
  2
a2|Level 8
 70
    16
 62
     7
  6
Continuous
370
     0
390
12F4
347
12F7
348
0
1001
AcCmTransparency
1071
 33554687
  0
LAYER
  5
13D1
330
1321
100
AcDbSymbolTableRecord
100
AcDbLayerTableRecord
  2
a2|Level 9
 70
    16
 62
     7
  6
Continuous
370
     0
390
12F4
347
12F7
348
0
1001
AcCmTransparency
1071
 33554687
  0
LAYER
  5
13D2
330
1321
100
AcDbSymbolTableRecord
100
AcDbLayerTableRecord
  2
a2|Level 10
 70
    16
 62
     7
  6
Continuous
370
     0
390
12F4
347
12F7
348
0
1001
AcCmTransparency
1071
 33554687
  0
LAYER
  5
13D3
330
1321
100
AcDbSymbolTableRecord
100
AcDbLayerTableRecord
  2
a2|Level 11
 70
    16
 62
     7
  6
Continuous
370
     0
390
12F4
347
12F7
348
0
1001
AcCmTransparency
1071
 33554687
  0
LAYER
  5
13D4
330
1321
100
AcDbSymbolTableRecord
100
AcDbLayerTableRecord
  2
a2|Level 12
 70
    16
 62
     7
  6
Continuous
370
     0
390
12F4
347
12F7
348
0
1001
AcCmTransparency
1071
 33554687
  0
LAYER
  5
13D5
330
1321
100
AcDbSymbolTableRecord
100
AcDbLayerTableRecord
  2
a2|Level 13
 70
    16
 62
     7
  6
Continuous
370
     0
390
12F4
347
12F7
348
0
1001
AcCmTransparency
1071
 33554687
  0
LAYER
  5
13D6
330
1321
100
AcDbSymbolTableRecord
100
AcDbLayerTableRecord
  2
a2|Level 14
 70
    16
 62
     7
  6
Continuous
370
     0
390
12F4
347
12F7
348
0
1001
AcCmTransparency
1071
 33554687
  0
LAYER
  5
13D7
330
1321
100
AcDbSymbolTableRecord
100
AcDbLayerTableRecord
  2
a2|Level 15
 70
    16
 62
     7
  6
Continuous
370
     0
390
12F4
347
12F7
348
0
1001
AcCmTransparency
1071
 33554687
  0
LAYER
  5
13D8
330
1321
100
AcDbSymbolTableRecord
100
AcDbLayerTableRecord
  2
a2|Level 16
 70
    16
 62
     7
  6
Continuous
370
     0
390
12F4
347
12F7
348
0
1001
AcCmTransparency
1071
 33554687
  0
LAYER
  5
13D9
330
1321
100
AcDbSymbolTableRecord
100
AcDbLayerTableRecord
  2
a2|Level 17
 70
    16
 62
     7
  6
Continuous
370
     0
390
12F4
347
12F7
348
0
1001
AcCmTransparency
1071
 33554687
  0
LAYER
  5
13DA
330
1321
100
AcDbSymbolTableRecord
100
AcDbLayerTableRecord
  2
a2|Level 18
 70
    16
 62
     7
  6
Continuous
370
     0
390
12F4
347
12F7
348
0
1001
AcCmTransparency
1071
 33554687
  0
LAYER
  5
13DB
330
1321
100
AcDbSymbolTableRecord
100
AcDbLayerTableRecord
  2
a2|Level 19
 70
    16
 62
     7
  6
Continuous
370
     0
390
12F4
347
12F7
348
0
1001
AcCmTransparency
1071
 33554687
  0
LAYER
  5
13DC
330
1321
100
AcDbSymbolTableRecord
100
AcDbLayerTableRecord
  2
a2|Level 20
 70
    16
 62
     7
  6
Continuous
370
     0
390
12F4
347
12F7
348
0
1001
AcCmTransparency
1071
 33554687
  0
LAYER
  5
13DD
330
1321
100
AcDbSymbolTableRecord
100
AcDbLayerTableRecord
  2
a2|Level 21
 70
    16
 62
     7
  6
Continuous
370
     0
390
12F4
347
12F7
348
0
1001
AcCmTransparency
1071
 33554687
  0
LAYER
  5
13DE
330
1321
100
AcDbSymbolTableRecord
100
AcDbLayerTableRecord
  2
a2|Level 22
 70
    16
 62
     7
  6
Continuous
370
     0
390
12F4
347
12F7
348
0
1001
AcCmTransparency
1071
 33554687
  0
LAYER
  5
13DF
330
1321
100
AcDbSymbolTableRecord
100
AcDbLayerTableRecord
  2
a2|Level 23
 70
    16
 62
     7
  6
Continuous
370
     0
390
12F4
347
12F7
348
0
1001
AcCmTransparency
1071
 33554687
  0
LAYER
  5
13E0
330
1321
100
AcDbSymbolTableRecord
100
AcDbLayerTableRecord
  2
a2|Level 24
 70
    16
 62
     7
  6
Continuous
370
     0
390
12F4
347
12F7
348
0
1001
AcCmTransparency
1071
 33554687
  0
LAYER
  5
13E1
330
1321
100
AcDbSymbolTableRecord
100
AcDbLayerTableRecord
  2
a2|Level 25
 70
    16
 62
     7
  6
Continuous
370
     0
390
12F4
347
12F7
348
0
1001
AcCmTransparency
1071
 33554687
  0
LAYER
  5
13E2
330
1321
100
AcDbSymbolTableRecord
100
AcDbLayerTableRecord
  2
a2|Level 26
 70
    16
 62
     7
  6
Continuous
370
     0
390
12F4
347
12F7
348
0
1001
AcCmTransparency
1071
 33554687
  0
LAYER
  5
13E3
330
1321
100
AcDbSymbolTableRecord
100
AcDbLayerTableRecord
  2
a2|Level 27
 70
    16
 62
     7
  6
Continuous
370
     0
390
12F4
347
12F7
348
0
1001
AcCmTransparency
1071
 33554687
  0
LAYER
  5
13E4
330
1321
100
AcDbSymbolTableRecord
100
AcDbLayerTableRecord
  2
a2|Level 28
 70
    16
 62
     7
  6
Continuous
370
     0
390
12F4
347
12F7
348
0
1001
AcCmTransparency
1071
 33554687
  0
LAYER
  5
13E5
330
1321
100
AcDbSymbolTableRecord
100
AcDbLayerTableRecord
  2
a2|Level 29
 70
    16
 62
     7
  6
Continuous
370
     0
390
12F4
347
12F7
348
0
1001
AcCmTransparency
1071
 33554687
  0
LAYER
  5
13E6
330
1321
100
AcDbSymbolTableRecord
100
AcDbLayerTableRecord
  2
a2|Level 30
 70
    16
 62
     7
  6
Continuous
370
     0
390
12F4
347
12F7
348
0
1001
AcCmTransparency
1071
 33554687
  0
LAYER
  5
13E7
330
1321
100
AcDbSymbolTableRecord
100
AcDbLayerTableRecord
  2
a2|Level 31
 70
    16
 62
     7
  6
Continuous
370
     0
390
12F4
347
12F7
348
0
1001
AcCmTransparency
1071
 33554687
  0
LAYER
  5
13E8
330
1321
100
AcDbSymbolTableRecord
100
AcDbLayerTableRecord
  2
a2|Level 32
 70
    16
 62
     7
  6
Continuous
370
     0
390
12F4
347
12F7
348
0
1001
AcCmTransparency
1071
 33554687
  0
LAYER
  5
13E9
330
1321
100
AcDbSymbolTableRecord
100
AcDbLayerTableRecord
  2
a2|Level 33
 70
    16
 62
     7
  6
Continuous
370
     0
390
12F4
347
12F7
348
0
1001
AcCmTransparency
1071
 33554687
  0
LAYER
  5
13EA
330
1321
100
AcDbSymbolTableRecord
100
AcDbLayerTableRecord
  2
a2|Level 34
 70
    16
 62
     7
  6
Continuous
370
     0
390
12F4
347
12F7
348
0
1001
AcCmTransparency
1071
 33554687
  0
LAYER
  5
13EB
330
1321
100
AcDbSymbolTableRecord
100
AcDbLayerTableRecord
  2
a2|Level 35
 70
    16
 62
     7
  6
Continuous
370
     0
390
12F4
347
12F7
348
0
1001
AcCmTransparency
1071
 33554687
  0
LAYER
  5
13EC
330
1321
100
AcDbSymbolTableRecord
100
AcDbLayerTableRecord
  2
a2|Level 36
 70
    16
 62
     7
  6
Continuous
370
     0
390
12F4
347
12F7
348
0
1001
AcCmTransparency
1071
 33554687
  0
LAYER
  5
13ED
330
1321
100
AcDbSymbolTableRecord
100
AcDbLayerTableRecord
  2
a2|Level 37
 70
    16
 62
     7
  6
Continuous
370
     0
390
12F4
347
12F7
348
0
1001
AcCmTransparency
1071
 33554687
  0
LAYER
  5
13EE
330
1321
100
AcDbSymbolTableRecord
100
AcDbLayerTableRecord
  2
a2|Level 38
 70
    16
 62
     7
  6
Continuous
370
     0
390
12F4
347
12F7
348
0
1001
AcCmTransparency
1071
 33554687
  0
LAYER
  5
13EF
330
1321
100
AcDbSymbolTableRecord
100
AcDbLayerTableRecord
  2
a2|Level 39
 70
    16
 62
     7
  6
Continuous
370
     0
390
12F4
347
12F7
348
0
1001
AcCmTransparency
1071
 33554687
  0
LAYER
  5
13F0
330
1321
100
AcDbSymbolTableRecord
100
AcDbLayerTableRecord
  2
a2|Level 40
 70
    16
 62
     7
  6
Continuous
370
     0
390
12F4
347
12F7
348
0
1001
AcCmTransparency
1071
 33554687
  0
LAYER
  5
13F1
330
1321
100
AcDbSymbolTableRecord
100
AcDbLayerTableRecord
  2
a2|Level 41
 70
    16
 62
     7
  6
Continuous
370
     0
390
12F4
347
12F7
348
0
1001
AcCmTransparency
1071
 33554687
  0
LAYER
  5
13F2
330
1321
100
AcDbSymbolTableRecord
100
AcDbLayerTableRecord
  2
a2|Level 42
 70
    16
 62
     7
  6
Continuous
370
     0
390
12F4
347
12F7
348
0
1001
AcCmTransparency
1071
 33554687
  0
LAYER
  5
13F3
330
1321
100
AcDbSymbolTableRecord
100
AcDbLayerTableRecord
  2
a2|Level 43
 70
    16
 62
     7
  6
Continuous
370
     0
390
12F4
347
12F7
348
0
1001
AcCmTransparency
1071
 33554687
  0
LAYER
  5
13F4
330
1321
100
AcDbSymbolTableRecord
100
AcDbLayerTableRecord
  2
a2|Level 44
 70
    16
 62
     7
  6
Continuous
370
     0
390
12F4
347
12F7
348
0
1001
AcCmTransparency
1071
 33554687
  0
LAYER
  5
13F5
330
1321
100
AcDbSymbolTableRecord
100
AcDbLayerTableRecord
  2
a2|Level 45
 70
    16
 62
     7
  6
Continuous
370
     0
390
12F4
347
12F7
348
0
1001
AcCmTransparency
1071
 33554687
  0
LAYER
  5
13F6
330
1321
100
AcDbSymbolTableRecord
100
AcDbLayerTableRecord
  2
a2|Level 46
 70
    16
 62
     7
  6
Continuous
370
     0
390
12F4
347
12F7
348
0
1001
AcCmTransparency
1071
 33554687
  0
LAYER
  5
13F7
330
1321
100
AcDbSymbolTableRecord
100
AcDbLayerTableRecord
  2
a2|Level 47
 70
    16
 62
     7
  6
Continuous
370
     0
390
12F4
347
12F7
348
0
1001
AcCmTransparency
1071
 33554687
  0
LAYER
  5
13F8
330
1321
100
AcDbSymbolTableRecord
100
AcDbLayerTableRecord
  2
a2|Level 48
 70
    16
 62
     7
  6
Continuous
370
     0
390
12F4
347
12F7
348
0
1001
AcCmTransparency
1071
 33554687
  0
LAYER
  5
13F9
330
1321
100
AcDbSymbolTableRecord
100
AcDbLayerTableRecord
  2
a2|Level 49
 70
    16
 62
     7
  6
Continuous
370
     0
390
12F4
347
12F7
348
0
1001
AcCmTransparency
1071
 33554687
  0
LAYER
  5
13FA
330
1321
100
AcDbSymbolTableRecord
100
AcDbLayerTableRecord
  2
a2|Level 50
 70
    16
 62
     7
  6
Continuous
370
     0
390
12F4
347
12F7
348
0
1001
AcCmTransparency
1071
 33554687
  0
LAYER
  5
13FB
330
1321
100
AcDbSymbolTableRecord
100
AcDbLayerTableRecord
  2
a2|Level 51
 70
    16
 62
     7
  6
Continuous
370
     0
390
12F4
347
12F7
348
0
1001
AcCmTransparency
1071
 33554687
  0
LAYER
  5
13FC
330
1321
100
AcDbSymbolTableRecord
100
AcDbLayerTableRecord
  2
a2|Level 52
 70
    16
 62
     7
  6
Continuous
370
     0
390
12F4
347
12F7
348
0
1001
AcCmTransparency
1071
 33554687
  0
LAYER
  5
13FD
330
1321
100
AcDbSymbolTableRecord
100
AcDbLayerTableRecord
  2
a2|Level 53
 70
    16
 62
     7
  6
Continuous
370
     0
390
12F4
347
12F7
348
0
1001
AcCmTransparency
1071
 33554687
  0
LAYER
  5
13FE
330
1321
100
AcDbSymbolTableRecord
100
AcDbLayerTableRecord
  2
a2|Level 54
 70
    16
 62
     7
  6
Continuous
370
     0
390
12F4
347
12F7
348
0
1001
AcCmTransparency
1071
 33554687
  0
LAYER
  5
13FF
330
1321
100
AcDbSymbolTableRecord
100
AcDbLayerTableRecord
  2
a2|Level 55
 70
    16
 62
     7
  6
Continuous
370
     0
390
12F4
347
12F7
348
0
1001
AcCmTransparency
1071
 33554687
  0
LAYER
  5
1400
330
1321
100
AcDbSymbolTableRecord
100
AcDbLayerTableRecord
  2
a2|Level 56
 70
    16
 62
     7
  6
Continuous
370
     0
390
12F4
347
12F7
348
0
1001
AcCmTransparency
1071
 33554687
  0
LAYER
  5
1401
330
1321
100
AcDbSymbolTableRecord
100
AcDbLayerTableRecord
  2
a2|Level 57
 70
    16
 62
     7
  6
Continuous
370
     0
390
12F4
347
12F7
348
0
1001
AcCmTransparency
1071
 33554687
  0
LAYER
  5
1402
330
1321
100
AcDbSymbolTableRecord
100
AcDbLayerTableRecord
  2
a2|Level 58
 70
    16
 62
     7
  6
Continuous
370
     0
390
12F4
347
12F7
348
0
1001
AcCmTransparency
1071
 33554687
  0
LAYER
  5
1403
330
1321
100
AcDbSymbolTableRecord
100
AcDbLayerTableRecord
  2
a2|Level 59
 70
    16
 62
     7
  6
Continuous
370
     0
390
12F4
347
12F7
348
0
1001
AcCmTransparency
1071
 33554687
  0
LAYER
  5
1404
330
1321
100
AcDbSymbolTableRecord
100
AcDbLayerTableRecord
  2
a2|Level 60
 70
    16
 62
     7
  6
Continuous
370
     0
390
12F4
347
12F7
348
0
1001
AcCmTransparency
1071
 33554687
  0
LAYER
  5
1405
330
1321
100
AcDbSymbolTableRecord
100
AcDbLayerTableRecord
  2
a2|Level 61
 70
    16
 62
     7
  6
Continuous
370
     0
390
12F4
347
12F7
348
0
1001
AcCmTransparency
1071
 33554687
  0
LAYER
  5
1406
330
1321
100
AcDbSymbolTableRecord
100
AcDbLayerTableRecord
  2
a2|Level 62
 70
    16
 62
     7
  6
Continuous
370
     0
390
12F4
347
12F7
348
0
1001
AcCmTransparency
1071
 33554687
  0
LAYER
  5
1407
330
1321
100
AcDbSymbolTableRecord
100
AcDbLayerTableRecord
  2
a2|Level 63
 70
    16
 62
     7
  6
Continuous
370
     0
390
12F4
347
12F7
348
0
1001
AcCmTransparency
1071
 33554687
  0
LAYER
  5
1408
330
1321
100
AcDbSymbolTableRecord
100
AcDbLayerTableRecord
  2
a3|Level 1
 70
    16
 62
     7
  6
Continuous
370
     0
390
12F4
347
12F7
348
0
1001
AcCmTransparency
1071
 33554687
  0
LAYER
  5
1409
330
1321
100
AcDbSymbolTableRecord
100
AcDbLayerTableRecord
  2
a3|Level 2
 70
    16
 62
     7
  6
Continuous
370
     0
390
12F4
347
12F7
348
0
1001
AcCmTransparency
1071
 33554687
  0
LAYER
  5
140A
330
1321
100
AcDbSymbolTableRecord
100
AcDbLayerTableRecord
  2
a3|Level 3
 70
    16
 62
     7
  6
Continuous
370
     0
390
12F4
347
12F7
348
0
1001
AcCmTransparency
1071
 33554687
  0
LAYER
  5
140B
330
1321
100
AcDbSymbolTableRecord
100
AcDbLayerTableRecord
  2
a3|Level 4
 70
    16
 62
     7
  6
Continuous
370
     0
390
12F4
347
12F7
348
0
1001
AcCmTransparency
1071
 33554687
  0
LAYER
  5
140C
330
1321
100
AcDbSymbolTableRecord
100
AcDbLayerTableRecord
  2
a3|Level 5
 70
    16
 62
     7
  6
Continuous
370
     0
390
12F4
347
12F7
348
0
1001
AcCmTransparency
1071
 33554687
  0
LAYER
  5
140D
330
1321
100
AcDbSymbolTableRecord
100
AcDbLayerTableRecord
  2
a3|Level 6
 70
    16
 62
     7
  6
Continuous
370
     0
390
12F4
347
12F7
348
0
1001
AcCmTransparency
1071
 33554687
  0
LAYER
  5
140E
330
1321
100
AcDbSymbolTableRecord
100
AcDbLayerTableRecord
  2
a3|Level 7
 70
    16
 62
     7
  6
Continuous
370
     0
390
12F4
347
12F7
348
0
1001
AcCmTransparency
1071
 33554687
  0
LAYER
  5
140F
330
1321
100
AcDbSymbolTableRecord
100
AcDbLayerTableRecord
  2
a3|Level 8
 70
    16
 62
     7
  6
Continuous
370
     0
390
12F4
347
12F7
348
0
1001
AcCmTransparency
1071
 33554687
  0
LAYER
  5
1410
330
1321
100
AcDbSymbolTableRecord
100
AcDbLayerTableRecord
  2
a3|Level 9
 70
    16
 62
     7
  6
Continuous
370
     0
390
12F4
347
12F7
348
0
1001
AcCmTransparency
1071
 33554687
  0
LAYER
  5
1411
330
1321
100
AcDbSymbolTableRecord
100
AcDbLayerTableRecord
  2
a3|Level 10
 70
    16
 62
     7
  6
Continuous
370
     0
390
12F4
347
12F7
348
0
1001
AcCmTransparency
1071
 33554687
  0
LAYER
  5
1412
330
1321
100
AcDbSymbolTableRecord
100
AcDbLayerTableRecord
  2
a3|Level 11
 70
    16
 62
     7
  6
Continuous
370
     0
390
12F4
347
12F7
348
0
1001
AcCmTransparency
1071
 33554687
  0
LAYER
  5
1413
330
1321
100
AcDbSymbolTableRecord
100
AcDbLayerTableRecord
  2
a3|Level 12
 70
    16
 62
     7
  6
Continuous
370
     0
390
12F4
347
12F7
348
0
1001
AcCmTransparency
1071
 33554687
  0
LAYER
  5
1414
330
1321
100
AcDbSymbolTableRecord
100
AcDbLayerTableRecord
  2
a3|Level 13
 70
    16
 62
     7
  6
Continuous
370
     0
390
12F4
347
12F7
348
0
1001
AcCmTransparency
1071
 33554687
  0
LAYER
  5
1415
330
1321
100
AcDbSymbolTableRecord
100
AcDbLayerTableRecord
  2
a3|Level 14
 70
    16
 62
     7
  6
Continuous
370
     0
390
12F4
347
12F7
348
0
1001
AcCmTransparency
1071
 33554687
  0
LAYER
  5
1416
330
1321
100
AcDbSymbolTableRecord
100
AcDbLayerTableRecord
  2
a3|Level 15
 70
    16
 62
     7
  6
Continuous
370
     0
390
12F4
347
12F7
348
0
1001
AcCmTransparency
1071
 33554687
  0
LAYER
  5
1417
330
1321
100
AcDbSymbolTableRecord
100
AcDbLayerTableRecord
  2
a3|Level 16
 70
    16
 62
     7
  6
Continuous
370
     0
390
12F4
347
12F7
348
0
1001
AcCmTransparency
1071
 33554687
  0
LAYER
  5
1418
330
1321
100
AcDbSymbolTableRecord
100
AcDbLayerTableRecord
  2
a3|Level 17
 70
    16
 62
     7
  6
Continuous
370
     0
390
12F4
347
12F7
348
0
1001
AcCmTransparency
1071
 33554687
  0
LAYER
  5
1419
330
1321
100
AcDbSymbolTableRecord
100
AcDbLayerTableRecord
  2
a3|Level 18
 70
    16
 62
     7
  6
Continuous
370
     0
390
12F4
347
12F7
348
0
1001
AcCmTransparency
1071
 33554687
  0
LAYER
  5
141A
330
1321
100
AcDbSymbolTableRecord
100
AcDbLayerTableRecord
  2
a3|Level 19
 70
    16
 62
     7
  6
Continuous
370
     0
390
12F4
347
12F7
348
0
1001
AcCmTransparency
1071
 33554687
  0
LAYER
  5
141B
330
1321
100
AcDbSymbolTableRecord
100
AcDbLayerTableRecord
  2
a3|Level 20
 70
    16
 62
     7
  6
Continuous
370
     0
390
12F4
347
12F7
348
0
1001
AcCmTransparency
1071
 33554687
  0
LAYER
  5
141C
330
1321
100
AcDbSymbolTableRecord
100
AcDbLayerTableRecord
  2
a3|Level 21
 70
    16
 62
     7
  6
Continuous
370
     0
390
12F4
347
12F7
348
0
1001
AcCmTransparency
1071
 33554687
  0
LAYER
  5
141D
330
1321
100
AcDbSymbolTableRecord
100
AcDbLayerTableRecord
  2
a3|Level 22
 70
    16
 62
     7
  6
Continuous
370
     0
390
12F4
347
12F7
348
0
1001
AcCmTransparency
1071
 33554687
  0
LAYER
  5
141E
330
1321
100
AcDbSymbolTableRecord
100
AcDbLayerTableRecord
  2
a3|Level 23
 70
    16
 62
     7
  6
Continuous
370
     0
390
12F4
347
12F7
348
0
1001
AcCmTransparency
1071
 33554687
  0
LAYER
  5
141F
330
1321
100
AcDbSymbolTableRecord
100
AcDbLayerTableRecord
  2
a3|Level 24
 70
    16
 62
     7
  6
Continuous
370
     0
390
12F4
347
12F7
348
0
1001
AcCmTransparency
1071
 33554687
  0
LAYER
  5
1420
330
1321
100
AcDbSymbolTableRecord
100
AcDbLayerTableRecord
  2
a3|Level 25
 70
    16
 62
     7
  6
Continuous
370
     0
390
12F4
347
12F7
348
0
1001
AcCmTransparency
1071
 33554687
  0
LAYER
  5
1421
330
1321
100
AcDbSymbolTableRecord
100
AcDbLayerTableRecord
  2
a3|Level 26
 70
    16
 62
     7
  6
Continuous
370
     0
390
12F4
347
12F7
348
0
1001
AcCmTransparency
1071
 33554687
  0
LAYER
  5
1422
330
1321
100
AcDbSymbolTableRecord
100
AcDbLayerTableRecord
  2
a3|Level 27
 70
    16
 62
     7
  6
Continuous
370
     0
390
12F4
347
12F7
348
0
1001
AcCmTransparency
1071
 33554687
  0
LAYER
  5
1423
330
1321
100
AcDbSymbolTableRecord
100
AcDbLayerTableRecord
  2
a3|Level 28
 70
    16
 62
     7
  6
Continuous
370
     0
390
12F4
347
12F7
348
0
1001
AcCmTransparency
1071
 33554687
  0
LAYER
  5
1424
330
1321
100
AcDbSymbolTableRecord
100
AcDbLayerTableRecord
  2
a3|Level 29
 70
    16
 62
     7
  6
Continuous
370
     0
390
12F4
347
12F7
348
0
1001
AcCmTransparency
1071
 33554687
  0
LAYER
  5
1425
330
1321
100
AcDbSymbolTableRecord
100
AcDbLayerTableRecord
  2
a3|Level 30
 70
    16
 62
     7
  6
Continuous
370
     0
390
12F4
347
12F7
348
0
1001
AcCmTransparency
1071
 33554687
  0
LAYER
  5
1426
330
1321
100
AcDbSymbolTableRecord
100
AcDbLayerTableRecord
  2
a3|Level 31
 70
    16
 62
     7
  6
Continuous
370
     0
390
12F4
347
12F7
348
0
1001
AcCmTransparency
1071
 33554687
  0
LAYER
  5
1427
330
1321
100
AcDbSymbolTableRecord
100
AcDbLayerTableRecord
  2
a3|Level 32
 70
    16
 62
     7
  6
Continuous
370
     0
390
12F4
347
12F7
348
0
1001
AcCmTransparency
1071
 33554687
  0
LAYER
  5
1428
330
1321
100
AcDbSymbolTableRecord
100
AcDbLayerTableRecord
  2
a3|Level 33
 70
    16
 62
     7
  6
Continuous
370
     0
390
12F4
347
12F7
348
0
1001
AcCmTransparency
1071
 33554687
  0
LAYER
  5
1429
330
1321
100
AcDbSymbolTableRecord
100
AcDbLayerTableRecord
  2
a3|Level 34
 70
    16
 62
     7
  6
Continuous
370
     0
390
12F4
347
12F7
348
0
1001
AcCmTransparency
1071
 33554687
  0
LAYER
  5
142A
330
1321
100
AcDbSymbolTableRecord
100
AcDbLayerTableRecord
  2
a3|Level 35
 70
    16
 62
     7
  6
Continuous
370
     0
390
12F4
347
12F7
348
0
1001
AcCmTransparency
1071
 33554687
  0
LAYER
  5
142B
330
1321
100
AcDbSymbolTableRecord
100
AcDbLayerTableRecord
  2
a3|Level 36
 70
    16
 62
     7
  6
Continuous
370
     0
390
12F4
347
12F7
348
0
1001
AcCmTransparency
1071
 33554687
  0
LAYER
  5
142C
330
1321
100
AcDbSymbolTableRecord
100
AcDbLayerTableRecord
  2
a3|Level 37
 70
    16
 62
     7
  6
Continuous
370
     0
390
12F4
347
12F7
348
0
1001
AcCmTransparency
1071
 33554687
  0
LAYER
  5
142D
330
1321
100
AcDbSymbolTableRecord
100
AcDbLayerTableRecord
  2
a3|Level 38
 70
    16
 62
     7
  6
Continuous
370
     0
390
12F4
347
12F7
348
0
1001
AcCmTransparency
1071
 33554687
  0
LAYER
  5
142E
330
1321
100
AcDbSymbolTableRecord
100
AcDbLayerTableRecord
  2
a3|Level 39
 70
    16
 62
     7
  6
Continuous
370
     0
390
12F4
347
12F7
348
0
1001
AcCmTransparency
1071
 33554687
  0
LAYER
  5
142F
330
1321
100
AcDbSymbolTableRecord
100
AcDbLayerTableRecord
  2
a3|Level 40
 70
    16
 62
     7
  6
Continuous
370
     0
390
12F4
347
12F7
348
0
1001
AcCmTransparency
1071
 33554687
  0
LAYER
  5
1430
330
1321
100
AcDbSymbolTableRecord
100
AcDbLayerTableRecord
  2
a3|Level 41
 70
    16
 62
     7
  6
Continuous
370
     0
390
12F4
347
12F7
348
0
1001
AcCmTransparency
1071
 33554687
  0
LAYER
  5
1431
330
1321
100
AcDbSymbolTableRecord
100
AcDbLayerTableRecord
  2
a3|Level 42
 70
    16
 62
     7
  6
Continuous
370
     0
390
12F4
347
12F7
348
0
1001
AcCmTransparency
1071
 33554687
  0
LAYER
  5
1432
330
1321
100
AcDbSymbolTableRecord
100
AcDbLayerTableRecord
  2
a3|Level 43
 70
    16
 62
     7
  6
Continuous
370
     0
390
12F4
347
12F7
348
0
1001
AcCmTransparency
1071
 33554687
  0
LAYER
  5
1433
330
1321
100
AcDbSymbolTableRecord
100
AcDbLayerTableRecord
  2
a3|Level 44
 70
    16
 62
     7
  6
Continuous
370
     0
390
12F4
347
12F7
348
0
1001
AcCmTransparency
1071
 33554687
  0
LAYER
  5
1434
330
1321
100
AcDbSymbolTableRecord
100
AcDbLayerTableRecord
  2
a3|Level 45
 70
    16
 62
     7
  6
Continuous
370
     0
390
12F4
347
12F7
348
0
1001
AcCmTransparency
1071
 33554687
  0
LAYER
  5
1435
330
1321
100
AcDbSymbolTableRecord
100
AcDbLayerTableRecord
  2
a3|Level 46
 70
    16
 62
     7
  6
Continuous
370
     0
390
12F4
347
12F7
348
0
1001
AcCmTransparency
1071
 33554687
  0
LAYER
  5
1436
330
1321
100
AcDbSymbolTableRecord
100
AcDbLayerTableRecord
  2
a3|Level 47
 70
    16
 62
     7
  6
Continuous
370
     0
390
12F4
347
12F7
348
0
1001
AcCmTransparency
1071
 33554687
  0
LAYER
  5
1437
330
1321
100
AcDbSymbolTableRecord
100
AcDbLayerTableRecord
  2
a3|Level 48
 70
    16
 62
     7
  6
Continuous
370
     0
390
12F4
347
12F7
348
0
1001
AcCmTransparency
1071
 33554687
  0
LAYER
  5
1438
330
1321
100
AcDbSymbolTableRecord
100
AcDbLayerTableRecord
  2
a3|Level 49
 70
    16
 62
     7
  6
Continuous
370
     0
390
12F4
347
12F7
348
0
1001
AcCmTransparency
1071
 33554687
  0
LAYER
  5
1439
330
1321
100
AcDbSymbolTableRecord
100
AcDbLayerTableRecord
  2
a3|Level 50
 70
    16
 62
     7
  6
Continuous
370
     0
390
12F4
347
12F7
348
0
1001
AcCmTransparency
1071
 33554687
  0
LAYER
  5
143A
330
1321
100
AcDbSymbolTableRecord
100
AcDbLayerTableRecord
  2
a3|Level 51
 70
    16
 62
     7
  6
Continuous
370
     0
390
12F4
347
12F7
348
0
1001
AcCmTransparency
1071
 33554687
  0
LAYER
  5
143B
330
1321
100
AcDbSymbolTableRecord
100
AcDbLayerTableRecord
  2
a3|Level 52
 70
    16
 62
     7
  6
Continuous
370
     0
390
12F4
347
12F7
348
0
1001
AcCmTransparency
1071
 33554687
  0
LAYER
  5
143C
330
1321
100
AcDbSymbolTableRecord
100
AcDbLayerTableRecord
  2
a3|Level 53
 70
    16
 62
     7
  6
Continuous
370
     0
390
12F4
347
12F7
348
0
1001
AcCmTransparency
1071
 33554687
  0
LAYER
  5
143D
330
1321
100
AcDbSymbolTableRecord
100
AcDbLayerTableRecord
  2
a3|Level 54
 70
    16
 62
     7
  6
Continuous
370
     0
390
12F4
347
12F7
348
0
1001
AcCmTransparency
1071
 33554687
  0
LAYER
  5
143E
330
1321
100
AcDbSymbolTableRecord
100
AcDbLayerTableRecord
  2
a3|Level 55
 70
    16
 62
     7
  6
Continuous
370
     0
390
12F4
347
12F7
348
0
1001
AcCmTransparency
1071
 33554687
  0
LAYER
  5
143F
330
1321
100
AcDbSymbolTableRecord
100
AcDbLayerTableRecord
  2
a3|Level 56
 70
    16
 62
     7
  6
Continuous
370
     0
390
12F4
347
12F7
348
0
1001
AcCmTransparency
1071
 33554687
  0
LAYER
  5
1440
330
1321
100
AcDbSymbolTableRecord
100
AcDbLayerTableRecord
  2
a3|Level 57
 70
    16
 62
     7
  6
Continuous
370
     0
390
12F4
347
12F7
348
0
1001
AcCmTransparency
1071
 33554687
  0
LAYER
  5
1441
330
1321
100
AcDbSymbolTableRecord
100
AcDbLayerTableRecord
  2
a3|Level 58
 70
    16
 62
     7
  6
Continuous
370
     0
390
12F4
347
12F7
348
0
1001
AcCmTransparency
1071
 33554687
  0
LAYER
  5
1442
330
1321
100
AcDbSymbolTableRecord
100
AcDbLayerTableRecord
  2
a3|Level 59
 70
    16
 62
     7
  6
Continuous
370
     0
390
12F4
347
12F7
348
0
1001
AcCmTransparency
1071
 33554687
  0
LAYER
  5
1443
330
1321
100
AcDbSymbolTableRecord
100
AcDbLayerTableRecord
  2
a3|Level 60
 70
    16
 62
     7
  6
Continuous
370
     0
390
12F4
347
12F7
348
0
1001
AcCmTransparency
1071
 33554687
  0
LAYER
  5
1444
330
1321
100
AcDbSymbolTableRecord
100
AcDbLayerTableRecord
  2
a3|Level 61
 70
    16
 62
     7
  6
Continuous
370
     0
390
12F4
347
12F7
348
0
1001
AcCmTransparency
1071
 33554687
  0
LAYER
  5
1445
330
1321
100
AcDbSymbolTableRecord
100
AcDbLayerTableRecord
  2
a3|Level 62
 70
    16
 62
     7
  6
Continuous
370
     0
390
12F4
347
12F7
348
0
1001
AcCmTransparency
1071
 33554687
  0
LAYER
  5
1446
330
1321
100
AcDbSymbolTableRecord
100
AcDbLayerTableRecord
  2
a3|Level 63
 70
    16
 62
     7
  6
Continuous
370
     0
390
12F4
347
12F7
348
0
1001
AcCmTransparency
1071
 33554687
  0
LAYER
  5
1447
330
1321
100
AcDbSymbolTableRecord
100
AcDbLayerTableRecord
  2
a4|Level 1
 70
    16
 62
     7
  6
Continuous
370
     0
390
12F4
347
12F7
348
0
1001
AcCmTransparency
1071
 33554687
  0
LAYER
  5
1448
330
1321
100
AcDbSymbolTableRecord
100
AcDbLayerTableRecord
  2
a4|Level 2
 70
    16
 62
     7
  6
Continuous
370
     0
390
12F4
347
12F7
348
0
1001
AcCmTransparency
1071
 33554687
  0
LAYER
  5
1449
330
1321
100
AcDbSymbolTableRecord
100
AcDbLayerTableRecord
  2
a4|Level 3
 70
    16
 62
     7
  6
Continuous
370
     0
390
12F4
347
12F7
348
0
1001
AcCmTransparency
1071
 33554687
  0
LAYER
  5
144A
330
1321
100
AcDbSymbolTableRecord
100
AcDbLayerTableRecord
  2
a4|Level 4
 70
    16
 62
     7
  6
Continuous
370
     0
390
12F4
347
12F7
348
0
1001
AcCmTransparency
1071
 33554687
  0
LAYER
  5
144B
330
1321
100
AcDbSymbolTableRecord
100
AcDbLayerTableRecord
  2
a4|Level 5
 70
    16
 62
     7
  6
Continuous
370
     0
390
12F4
347
12F7
348
0
1001
AcCmTransparency
1071
 33554687
  0
LAYER
  5
144C
330
1321
100
AcDbSymbolTableRecord
100
AcDbLayerTableRecord
  2
a4|Level 6
 70
    16
 62
     7
  6
Continuous
370
     0
390
12F4
347
12F7
348
0
1001
AcCmTransparency
1071
 33554687
  0
LAYER
  5
144D
330
1321
100
AcDbSymbolTableRecord
100
AcDbLayerTableRecord
  2
a4|Level 7
 70
    16
 62
     7
  6
Continuous
370
     0
390
12F4
347
12F7
348
0
1001
AcCmTransparency
1071
 33554687
  0
LAYER
  5
144E
330
1321
100
AcDbSymbolTableRecord
100
AcDbLayerTableRecord
  2
a4|Level 8
 70
    16
 62
     7
  6
Continuous
370
     0
390
12F4
347
12F7
348
0
1001
AcCmTransparency
1071
 33554687
  0
LAYER
  5
144F
330
1321
100
AcDbSymbolTableRecord
100
AcDbLayerTableRecord
  2
a4|Level 9
 70
    16
 62
     7
  6
Continuous
370
     0
390
12F4
347
12F7
348
0
1001
AcCmTransparency
1071
 33554687
  0
LAYER
  5
1450
330
1321
100
AcDbSymbolTableRecord
100
AcDbLayerTableRecord
  2
a4|Level 10
 70
    16
 62
     7
  6
Continuous
370
     0
390
12F4
347
12F7
348
0
1001
AcCmTransparency
1071
 33554687
  0
LAYER
  5
1451
330
1321
100
AcDbSymbolTableRecord
100
AcDbLayerTableRecord
  2
a4|Level 11
 70
    16
 62
     7
  6
Continuous
370
     0
390
12F4
347
12F7
348
0
1001
AcCmTransparency
1071
 33554687
  0
LAYER
  5
1452
330
1321
100
AcDbSymbolTableRecord
100
AcDbLayerTableRecord
  2
a4|Level 12
 70
    16
 62
     7
  6
Continuous
370
     0
390
12F4
347
12F7
348
0
1001
AcCmTransparency
1071
 33554687
  0
LAYER
  5
1453
330
1321
100
AcDbSymbolTableRecord
100
AcDbLayerTableRecord
  2
a4|Level 13
 70
    16
 62
     7
  6
Continuous
370
     0
390
12F4
347
12F7
348
0
1001
AcCmTransparency
1071
 33554687
  0
LAYER
  5
1454
330
1321
100
AcDbSymbolTableRecord
100
AcDbLayerTableRecord
  2
a4|Level 14
 70
    16
 62
     7
  6
Continuous
370
     0
390
12F4
347
12F7
348
0
1001
AcCmTransparency
1071
 33554687
  0
LAYER
  5
1455
330
1321
100
AcDbSymbolTableRecord
100
AcDbLayerTableRecord
  2
a4|Level 15
 70
    16
 62
     7
  6
Continuous
370
     0
390
12F4
347
12F7
348
0
1001
AcCmTransparency
1071
 33554687
  0
LAYER
  5
1456
330
1321
100
AcDbSymbolTableRecord
100
AcDbLayerTableRecord
  2
a4|Level 16
 70
    16
 62
     7
  6
Continuous
370
     0
390
12F4
347
12F7
348
0
1001
AcCmTransparency
1071
 33554687
  0
LAYER
  5
1457
330
1321
100
AcDbSymbolTableRecord
100
AcDbLayerTableRecord
  2
a4|Level 17
 70
    16
 62
     7
  6
Continuous
370
     0
390
12F4
347
12F7
348
0
1001
AcCmTransparency
1071
 33554687
  0
LAYER
  5
1458
330
1321
100
AcDbSymbolTableRecord
100
AcDbLayerTableRecord
  2
a4|Level 18
 70
    16
 62
     7
  6
Continuous
370
     0
390
12F4
347
12F7
348
0
1001
AcCmTransparency
1071
 33554687
  0
LAYER
  5
1459
330
1321
100
AcDbSymbolTableRecord
100
AcDbLayerTableRecord
  2
a4|Level 19
 70
    16
 62
     7
  6
Continuous
370
     0
390
12F4
347
12F7
348
0
1001
AcCmTransparency
1071
 33554687
  0
LAYER
  5
145A
330
1321
100
AcDbSymbolTableRecord
100
AcDbLayerTableRecord
  2
a4|Level 20
 70
    16
 62
     7
  6
Continuous
370
     0
390
12F4
347
12F7
348
0
1001
AcCmTransparency
1071
 33554687
  0
LAYER
  5
145B
330
1321
100
AcDbSymbolTableRecord
100
AcDbLayerTableRecord
  2
a4|Level 21
 70
    16
 62
     7
  6
Continuous
370
     0
390
12F4
347
12F7
348
0
1001
AcCmTransparency
1071
 33554687
  0
LAYER
  5
145C
330
1321
100
AcDbSymbolTableRecord
100
AcDbLayerTableRecord
  2
a4|Level 22
 70
    16
 62
     7
  6
Continuous
370
     0
390
12F4
347
12F7
348
0
1001
AcCmTransparency
1071
 33554687
  0
LAYER
  5
145D
330
1321
100
AcDbSymbolTableRecord
100
AcDbLayerTableRecord
  2
a4|Level 23
 70
    16
 62
     7
  6
Continuous
370
     0
390
12F4
347
12F7
348
0
1001
AcCmTransparency
1071
 33554687
  0
LAYER
  5
145E
330
1321
100
AcDbSymbolTableRecord
100
AcDbLayerTableRecord
  2
a4|Level 24
 70
    16
 62
     7
  6
Continuous
370
     0
390
12F4
347
12F7
348
0
1001
AcCmTransparency
1071
 33554687
  0
LAYER
  5
145F
330
1321
100
AcDbSymbolTableRecord
100
AcDbLayerTableRecord
  2
a4|Level 25
 70
    16
 62
     7
  6
Continuous
370
     0
390
12F4
347
12F7
348
0
1001
AcCmTransparency
1071
 33554687
  0
LAYER
  5
1460
330
1321
100
AcDbSymbolTableRecord
100
AcDbLayerTableRecord
  2
a4|Level 26
 70
    16
 62
     7
  6
Continuous
370
     0
390
12F4
347
12F7
348
0
1001
AcCmTransparency
1071
 33554687
  0
LAYER
  5
1461
330
1321
100
AcDbSymbolTableRecord
100
AcDbLayerTableRecord
  2
a4|Level 27
 70
    16
 62
     7
  6
Continuous
370
     0
390
12F4
347
12F7
348
0
1001
AcCmTransparency
1071
 33554687
  0
LAYER
  5
1462
330
1321
100
AcDbSymbolTableRecord
100
AcDbLayerTableRecord
  2
a4|Level 28
 70
    16
 62
     7
  6
Continuous
370
     0
390
12F4
347
12F7
348
0
1001
AcCmTransparency
1071
 33554687
  0
LAYER
  5
1463
330
1321
100
AcDbSymbolTableRecord
100
AcDbLayerTableRecord
  2
a4|Level 29
 70
    16
 62
     7
  6
Continuous
370
     0
390
12F4
347
12F7
348
0
1001
AcCmTransparency
1071
 33554687
  0
LAYER
  5
1464
330
1321
100
AcDbSymbolTableRecord
100
AcDbLayerTableRecord
  2
a4|Level 30
 70
    16
 62
     7
  6
Continuous
370
     0
390
12F4
347
12F7
348
0
1001
AcCmTransparency
1071
 33554687
  0
LAYER
  5
1465
330
1321
100
AcDbSymbolTableRecord
100
AcDbLayerTableRecord
  2
a4|Level 31
 70
    16
 62
     7
  6
Continuous
370
     0
390
12F4
347
12F7
348
0
1001
AcCmTransparency
1071
 33554687
  0
LAYER
  5
1466
330
1321
100
AcDbSymbolTableRecord
100
AcDbLayerTableRecord
  2
a4|Level 32
 70
    16
 62
     7
  6
Continuous
370
     0
390
12F4
347
12F7
348
0
1001
AcCmTransparency
1071
 33554687
  0
LAYER
  5
1467
330
1321
100
AcDbSymbolTableRecord
100
AcDbLayerTableRecord
  2
a4|Level 33
 70
    16
 62
     7
  6
Continuous
370
     0
390
12F4
347
12F7
348
0
1001
AcCmTransparency
1071
 33554687
  0
LAYER
  5
1468
330
1321
100
AcDbSymbolTableRecord
100
AcDbLayerTableRecord
  2
a4|Level 34
 70
    16
 62
     7
  6
Continuous
370
     0
390
12F4
347
12F7
348
0
1001
AcCmTransparency
1071
 33554687
  0
LAYER
  5
1469
330
1321
100
AcDbSymbolTableRecord
100
AcDbLayerTableRecord
  2
a4|Level 35
 70
    16
 62
     7
  6
Continuous
370
     0
390
12F4
347
12F7
348
0
1001
AcCmTransparency
1071
 33554687
  0
LAYER
  5
146A
330
1321
100
AcDbSymbolTableRecord
100
AcDbLayerTableRecord
  2
a4|Level 36
 70
    16
 62
     7
  6
Continuous
370
     0
390
12F4
347
12F7
348
0
1001
AcCmTransparency
1071
 33554687
  0
LAYER
  5
146B
330
1321
100
AcDbSymbolTableRecord
100
AcDbLayerTableRecord
  2
a4|Level 37
 70
    16
 62
     7
  6
Continuous
370
     0
390
12F4
347
12F7
348
0
1001
AcCmTransparency
1071
 33554687
  0
LAYER
  5
146C
330
1321
100
AcDbSymbolTableRecord
100
AcDbLayerTableRecord
  2
a4|Level 38
 70
    16
 62
     7
  6
Continuous
370
     0
390
12F4
347
12F7
348
0
1001
AcCmTransparency
1071
 33554687
  0
LAYER
  5
146D
330
1321
100
AcDbSymbolTableRecord
100
AcDbLayerTableRecord
  2
a4|Level 39
 70
    16
 62
     7
  6
Continuous
370
     0
390
12F4
347
12F7
348
0
1001
AcCmTransparency
1071
 33554687
  0
LAYER
  5
146E
330
1321
100
AcDbSymbolTableRecord
100
AcDbLayerTableRecord
  2
a4|Level 40
 70
    16
 62
     7
  6
Continuous
370
     0
390
12F4
347
12F7
348
0
1001
AcCmTransparency
1071
 33554687
  0
LAYER
  5
146F
330
1321
100
AcDbSymbolTableRecord
100
AcDbLayerTableRecord
  2
a4|Level 41
 70
    16
 62
     7
  6
Continuous
370
     0
390
12F4
347
12F7
348
0
1001
AcCmTransparency
1071
 33554687
  0
LAYER
  5
1470
330
1321
100
AcDbSymbolTableRecord
100
AcDbLayerTableRecord
  2
a4|Level 42
 70
    16
 62
     7
  6
Continuous
370
     0
390
12F4
347
12F7
348
0
1001
AcCmTransparency
1071
 33554687
  0
LAYER
  5
1471
330
1321
100
AcDbSymbolTableRecord
100
AcDbLayerTableRecord
  2
a4|Level 43
 70
    16
 62
     7
  6
Continuous
370
     0
390
12F4
347
12F7
348
0
1001
AcCmTransparency
1071
 33554687
  0
LAYER
  5
1472
330
1321
100
AcDbSymbolTableRecord
100
AcDbLayerTableRecord
  2
a4|Level 44
 70
    16
 62
     7
  6
Continuous
370
     0
390
12F4
347
12F7
348
0
1001
AcCmTransparency
1071
 33554687
  0
LAYER
  5
1473
330
1321
100
AcDbSymbolTableRecord
100
AcDbLayerTableRecord
  2
a4|Level 45
 70
    16
 62
     7
  6
Continuous
370
     0
390
12F4
347
12F7
348
0
1001
AcCmTransparency
1071
 33554687
  0
LAYER
  5
1474
330
1321
100
AcDbSymbolTableRecord
100
AcDbLayerTableRecord
  2
a4|Level 46
 70
    16
 62
     7
  6
Continuous
370
     0
390
12F4
347
12F7
348
0
1001
AcCmTransparency
1071
 33554687
  0
LAYER
  5
1475
330
1321
100
AcDbSymbolTableRecord
100
AcDbLayerTableRecord
  2
a4|Level 47
 70
    16
 62
     7
  6
Continuous
370
     0
390
12F4
347
12F7
348
0
1001
AcCmTransparency
1071
 33554687
  0
LAYER
  5
1476
330
1321
100
AcDbSymbolTableRecord
100
AcDbLayerTableRecord
  2
a4|Level 48
 70
    16
 62
     7
  6
Continuous
370
     0
390
12F4
347
12F7
348
0
1001
AcCmTransparency
1071
 33554687
  0
LAYER
  5
1477
330
1321
100
AcDbSymbolTableRecord
100
AcDbLayerTableRecord
  2
a4|Level 49
 70
    16
 62
     7
  6
Continuous
370
     0
390
12F4
347
12F7
348
0
1001
AcCmTransparency
1071
 33554687
  0
LAYER
  5
1478
330
1321
100
AcDbSymbolTableRecord
100
AcDbLayerTableRecord
  2
a4|Level 50
 70
    16
 62
     7
  6
Continuous
370
     0
390
12F4
347
12F7
348
0
1001
AcCmTransparency
1071
 33554687
  0
LAYER
  5
1479
330
1321
100
AcDbSymbolTableRecord
100
AcDbLayerTableRecord
  2
a4|Level 51
 70
    16
 62
     7
  6
Continuous
370
     0
390
12F4
347
12F7
348
0
1001
AcCmTransparency
1071
 33554687
  0
LAYER
  5
147A
330
1321
100
AcDbSymbolTableRecord
100
AcDbLayerTableRecord
  2
a4|Level 52
 70
    16
 62
     7
  6
Continuous
370
     0
390
12F4
347
12F7
348
0
1001
AcCmTransparency
1071
 33554687
  0
LAYER
  5
147B
330
1321
100
AcDbSymbolTableRecord
100
AcDbLayerTableRecord
  2
a4|Level 53
 70
    16
 62
     7
  6
Continuous
370
     0
390
12F4
347
12F7
348
0
1001
AcCmTransparency
1071
 33554687
  0
LAYER
  5
147C
330
1321
100
AcDbSymbolTableRecord
100
AcDbLayerTableRecord
  2
a4|Level 54
 70
    16
 62
     7
  6
Continuous
370
     0
390
12F4
347
12F7
348
0
1001
AcCmTransparency
1071
 33554687
  0
LAYER
  5
147D
330
1321
100
AcDbSymbolTableRecord
100
AcDbLayerTableRecord
  2
a4|Level 55
 70
    16
 62
     7
  6
Continuous
370
     0
390
12F4
347
12F7
348
0
1001
AcCmTransparency
1071
 33554687
  0
LAYER
  5
147E
330
1321
100
AcDbSymbolTableRecord
100
AcDbLayerTableRecord
  2
a4|Level 56
 70
    16
 62
     7
  6
Continuous
370
     0
390
12F4
347
12F7
348
0
1001
AcCmTransparency
1071
 33554687
  0
LAYER
  5
147F
330
1321
100
AcDbSymbolTableRecord
100
AcDbLayerTableRecord
  2
a4|Level 57
 70
    16
 62
     7
  6
Continuous
370
     0
390
12F4
347
12F7
348
0
1001
AcCmTransparency
1071
 33554687
  0
LAYER
  5
1480
330
1321
100
AcDbSymbolTableRecord
100
AcDbLayerTableRecord
  2
a4|Level 58
 70
    16
 62
     7
  6
Continuous
370
     0
390
12F4
347
12F7
348
0
1001
AcCmTransparency
1071
 33554687
  0
LAYER
  5
1481
330
1321
100
AcDbSymbolTableRecord
100
AcDbLayerTableRecord
  2
a4|Level 59
 70
    16
 62
     7
  6
Continuous
370
     0
390
12F4
347
12F7
348
0
1001
AcCmTransparency
1071
 33554687
  0
LAYER
  5
1482
330
1321
100
AcDbSymbolTableRecord
100
AcDbLayerTableRecord
  2
a4|Level 60
 70
    16
 62
     7
  6
Continuous
370
     0
390
12F4
347
12F7
348
0
1001
AcCmTransparency
1071
 33554687
  0
LAYER
  5
1483
330
1321
100
AcDbSymbolTableRecord
100
AcDbLayerTableRecord
  2
a4|Level 61
 70
    16
 62
     7
  6
Continuous
370
     0
390
12F4
347
12F7
348
0
1001
AcCmTransparency
1071
 33554687
  0
LAYER
  5
1484
330
1321
100
AcDbSymbolTableRecord
100
AcDbLayerTableRecord
  2
a4|Level 62
 70
    16
 62
     7
  6
Continuous
370
     0
390
12F4
347
12F7
348
0
1001
AcCmTransparency
1071
 33554687
  0
LAYER
  5
1485
330
1321
100
AcDbSymbolTableRecord
100
AcDbLayerTableRecord
  2
a4|Level 63
 70
    16
 62
     7
  6
Continuous
370
     0
390
12F4
347
12F7
348
0
1001
AcCmTransparency
1071
 33554687
  0
LAYER
  5
1486
330
1321
100
AcDbSymbolTableRecord
100
AcDbLayerTableRecord
  2
b1|Level 1
 70
    16
 62
     7
  6
Continuous
370
     0
390
12F4
347
12F7
348
0
1001
AcCmTransparency
1071
 33554687
  0
LAYER
  5
1487
330
1321
100
AcDbSymbolTableRecord
100
AcDbLayerTableRecord
  2
b1|Level 2
 70
    16
 62
     7
  6
Continuous
370
     0
390
12F4
347
12F7
348
0
1001
AcCmTransparency
1071
 33554687
  0
LAYER
  5
1488
330
1321
100
AcDbSymbolTableRecord
100
AcDbLayerTableRecord
  2
b1|Level 3
 70
    16
 62
     7
  6
Continuous
370
     0
390
12F4
347
12F7
348
0
1001
AcCmTransparency
1071
 33554687
  0
LAYER
  5
1489
330
1321
100
AcDbSymbolTableRecord
100
AcDbLayerTableRecord
  2
b1|Level 4
 70
    16
 62
     7
  6
Continuous
370
     0
390
12F4
347
12F7
348
0
1001
AcCmTransparency
1071
 33554687
  0
LAYER
  5
148A
330
1321
100
AcDbSymbolTableRecord
100
AcDbLayerTableRecord
  2
b1|Level 5
 70
    16
 62
     7
  6
Continuous
370
     0
390
12F4
347
12F7
348
0
1001
AcCmTransparency
1071
 33554687
  0
LAYER
  5
148B
330
1321
100
AcDbSymbolTableRecord
100
AcDbLayerTableRecord
  2
b1|Level 6
 70
    16
 62
     7
  6
Continuous
370
     0
390
12F4
347
12F7
348
0
1001
AcCmTransparency
1071
 33554687
  0
LAYER
  5
148C
330
1321
100
AcDbSymbolTableRecord
100
AcDbLayerTableRecord
  2
b1|Level 7
 70
    16
 62
     7
  6
Continuous
370
     0
390
12F4
347
12F7
348
0
1001
AcCmTransparency
1071
 33554687
  0
LAYER
  5
148D
330
1321
100
AcDbSymbolTableRecord
100
AcDbLayerTableRecord
  2
b1|Level 8
 70
    16
 62
     7
  6
Continuous
370
     0
390
12F4
347
12F7
348
0
1001
AcCmTransparency
1071
 33554687
  0
LAYER
  5
148E
330
1321
100
AcDbSymbolTableRecord
100
AcDbLayerTableRecord
  2
b1|Level 9
 70
    16
 62
     7
  6
Continuous
370
     0
390
12F4
347
12F7
348
0
1001
AcCmTransparency
1071
 33554687
  0
LAYER
  5
148F
330
1321
100
AcDbSymbolTableRecord
100
AcDbLayerTableRecord
  2
b1|Level 10
 70
    16
 62
     7
  6
Continuous
370
     0
390
12F4
347
12F7
348
0
1001
AcCmTransparency
1071
 33554687
  0
LAYER
  5
1490
330
1321
100
AcDbSymbolTableRecord
100
AcDbLayerTableRecord
  2
b1|Level 11
 70
    16
 62
     7
  6
Continuous
370
     0
390
12F4
347
12F7
348
0
1001
AcCmTransparency
1071
 33554687
  0
LAYER
  5
1491
330
1321
100
AcDbSymbolTableRecord
100
AcDbLayerTableRecord
  2
b1|Level 12
 70
    16
 62
     7
  6
Continuous
370
     0
390
12F4
347
12F7
348
0
1001
AcCmTransparency
1071
 33554687
  0
LAYER
  5
1492
330
1321
100
AcDbSymbolTableRecord
100
AcDbLayerTableRecord
  2
b1|Level 13
 70
    16
 62
     7
  6
Continuous
370
     0
390
12F4
347
12F7
348
0
1001
AcCmTransparency
1071
 33554687
  0
LAYER
  5
1493
330
1321
100
AcDbSymbolTableRecord
100
AcDbLayerTableRecord
  2
b1|Level 14
 70
    16
 62
     7
  6
Continuous
370
     0
390
12F4
347
12F7
348
0
1001
AcCmTransparency
1071
 33554687
  0
LAYER
  5
1494
330
1321
100
AcDbSymbolTableRecord
100
AcDbLayerTableRecord
  2
b1|Level 15
 70
    16
 62
     7
  6
Continuous
370
     0
390
12F4
347
12F7
348
0
1001
AcCmTransparency
1071
 33554687
  0
LAYER
  5
1495
330
1321
100
AcDbSymbolTableRecord
100
AcDbLayerTableRecord
  2
b1|Level 16
 70
    16
 62
     7
  6
Continuous
370
     0
390
12F4
347
12F7
348
0
1001
AcCmTransparency
1071
 33554687
  0
LAYER
  5
1496
330
1321
100
AcDbSymbolTableRecord
100
AcDbLayerTableRecord
  2
b1|Level 17
 70
    16
 62
     7
  6
Continuous
370
     0
390
12F4
347
12F7
348
0
1001
AcCmTransparency
1071
 33554687
  0
LAYER
  5
1497
330
1321
100
AcDbSymbolTableRecord
100
AcDbLayerTableRecord
  2
b1|Level 18
 70
    16
 62
     7
  6
Continuous
370
     0
390
12F4
347
12F7
348
0
1001
AcCmTransparency
1071
 33554687
  0
LAYER
  5
1498
330
1321
100
AcDbSymbolTableRecord
100
AcDbLayerTableRecord
  2
b1|Level 19
 70
    16
 62
     7
  6
Continuous
370
     0
390
12F4
347
12F7
348
0
1001
AcCmTransparency
1071
 33554687
  0
LAYER
  5
1499
330
1321
100
AcDbSymbolTableRecord
100
AcDbLayerTableRecord
  2
b1|Level 20
 70
    16
 62
     7
  6
Continuous
370
     0
390
12F4
347
12F7
348
0
1001
AcCmTransparency
1071
 33554687
  0
LAYER
  5
149A
330
1321
100
AcDbSymbolTableRecord
100
AcDbLayerTableRecord
  2
b1|Level 21
 70
    16
 62
     7
  6
Continuous
370
     0
390
12F4
347
12F7
348
0
1001
AcCmTransparency
1071
 33554687
  0
LAYER
  5
149B
330
1321
100
AcDbSymbolTableRecord
100
AcDbLayerTableRecord
  2
b1|Level 22
 70
    16
 62
     7
  6
Continuous
370
     0
390
12F4
347
12F7
348
0
1001
AcCmTransparency
1071
 33554687
  0
LAYER
  5
149C
330
1321
100
AcDbSymbolTableRecord
100
AcDbLayerTableRecord
  2
b1|Level 23
 70
    16
 62
     7
  6
Continuous
370
     0
390
12F4
347
12F7
348
0
1001
AcCmTransparency
1071
 33554687
  0
LAYER
  5
149D
330
1321
100
AcDbSymbolTableRecord
100
AcDbLayerTableRecord
  2
b1|Level 24
 70
    16
 62
     7
  6
Continuous
370
     0
390
12F4
347
12F7
348
0
1001
AcCmTransparency
1071
 33554687
  0
LAYER
  5
149E
330
1321
100
AcDbSymbolTableRecord
100
AcDbLayerTableRecord
  2
b1|Level 25
 70
    16
 62
     7
  6
Continuous
370
     0
390
12F4
347
12F7
348
0
1001
AcCmTransparency
1071
 33554687
  0
LAYER
  5
149F
330
1321
100
AcDbSymbolTableRecord
100
AcDbLayerTableRecord
  2
b1|Level 26
 70
    16
 62
     7
  6
Continuous
370
     0
390
12F4
347
12F7
348
0
1001
AcCmTransparency
1071
 33554687
  0
LAYER
  5
14A0
330
1321
100
AcDbSymbolTableRecord
100
AcDbLayerTableRecord
  2
b1|Level 27
 70
    16
 62
     7
  6
Continuous
370
     0
390
12F4
347
12F7
348
0
1001
AcCmTransparency
1071
 33554687
  0
LAYER
  5
14A1
330
1321
100
AcDbSymbolTableRecord
100
AcDbLayerTableRecord
  2
b1|Level 28
 70
    16
 62
     7
  6
Continuous
370
     0
390
12F4
347
12F7
348
0
1001
AcCmTransparency
1071
 33554687
  0
LAYER
  5
14A2
330
1321
100
AcDbSymbolTableRecord
100
AcDbLayerTableRecord
  2
b1|Level 29
 70
    16
 62
     7
  6
Continuous
370
     0
390
12F4
347
12F7
348
0
1001
AcCmTransparency
1071
 33554687
  0
LAYER
  5
14A3
330
1321
100
AcDbSymbolTableRecord
100
AcDbLayerTableRecord
  2
b1|Level 30
 70
    16
 62
     7
  6
Continuous
370
     0
390
12F4
347
12F7
348
0
1001
AcCmTransparency
1071
 33554687
  0
LAYER
  5
14A4
330
1321
100
AcDbSymbolTableRecord
100
AcDbLayerTableRecord
  2
b1|Level 31
 70
    16
 62
     7
  6
Continuous
370
     0
390
12F4
347
12F7
348
0
1001
AcCmTransparency
1071
 33554687
  0
LAYER
  5
14A5
330
1321
100
AcDbSymbolTableRecord
100
AcDbLayerTableRecord
  2
b1|Level 32
 70
    16
 62
     7
  6
Continuous
370
     0
390
12F4
347
12F7
348
0
1001
AcCmTransparency
1071
 33554687
  0
LAYER
  5
14A6
330
1321
100
AcDbSymbolTableRecord
100
AcDbLayerTableRecord
  2
b1|Level 33
 70
    16
 62
     7
  6
Continuous
370
     0
390
12F4
347
12F7
348
0
1001
AcCmTransparency
1071
 33554687
  0
LAYER
  5
14A7
330
1321
100
AcDbSymbolTableRecord
100
AcDbLayerTableRecord
  2
b1|Level 34
 70
    16
 62
     7
  6
Continuous
370
     0
390
12F4
347
12F7
348
0
1001
AcCmTransparency
1071
 33554687
  0
LAYER
  5
14A8
330
1321
100
AcDbSymbolTableRecord
100
AcDbLayerTableRecord
  2
b1|Level 35
 70
    16
 62
     7
  6
Continuous
370
     0
390
12F4
347
12F7
348
0
1001
AcCmTransparency
1071
 33554687
  0
LAYER
  5
14A9
330
1321
100
AcDbSymbolTableRecord
100
AcDbLayerTableRecord
  2
b1|Level 36
 70
    16
 62
     7
  6
Continuous
370
     0
390
12F4
347
12F7
348
0
1001
AcCmTransparency
1071
 33554687
  0
LAYER
  5
14AA
330
1321
100
AcDbSymbolTableRecord
100
AcDbLayerTableRecord
  2
b1|Level 37
 70
    16
 62
     7
  6
Continuous
370
     0
390
12F4
347
12F7
348
0
1001
AcCmTransparency
1071
 33554687
  0
LAYER
  5
14AB
330
1321
100
AcDbSymbolTableRecord
100
AcDbLayerTableRecord
  2
b1|Level 38
 70
    16
 62
     7
  6
Continuous
370
     0
390
12F4
347
12F7
348
0
1001
AcCmTransparency
1071
 33554687
  0
LAYER
  5
14AC
330
1321
100
AcDbSymbolTableRecord
100
AcDbLayerTableRecord
  2
b1|Level 39
 70
    16
 62
     7
  6
Continuous
370
     0
390
12F4
347
12F7
348
0
1001
AcCmTransparency
1071
 33554687
  0
LAYER
  5
14AD
330
1321
100
AcDbSymbolTableRecord
100
AcDbLayerTableRecord
  2
b1|Level 40
 70
    16
 62
     7
  6
Continuous
370
     0
390
12F4
347
12F7
348
0
1001
AcCmTransparency
1071
 33554687
  0
LAYER
  5
14AE
330
1321
100
AcDbSymbolTableRecord
100
AcDbLayerTableRecord
  2
b1|Level 41
 70
    16
 62
     7
  6
Continuous
370
     0
390
12F4
347
12F7
348
0
1001
AcCmTransparency
1071
 33554687
  0
LAYER
  5
14AF
330
1321
100
AcDbSymbolTableRecord
100
AcDbLayerTableRecord
  2
b1|Level 42
 70
    16
 62
     7
  6
Continuous
370
     0
390
12F4
347
12F7
348
0
1001
AcCmTransparency
1071
 33554687
  0
LAYER
  5
14B0
330
1321
100
AcDbSymbolTableRecord
100
AcDbLayerTableRecord
  2
b1|Level 43
 70
    16
 62
     7
  6
Continuous
370
     0
390
12F4
347
12F7
348
0
1001
AcCmTransparency
1071
 33554687
  0
LAYER
  5
14B1
330
1321
100
AcDbSymbolTableRecord
100
AcDbLayerTableRecord
  2
b1|Level 44
 70
    16
 62
     7
  6
Continuous
370
     0
390
12F4
347
12F7
348
0
1001
AcCmTransparency
1071
 33554687
  0
LAYER
  5
14B2
330
1321
100
AcDbSymbolTableRecord
100
AcDbLayerTableRecord
  2
b1|Level 45
 70
    16
 62
     7
  6
Continuous
370
     0
390
12F4
347
12F7
348
0
1001
AcCmTransparency
1071
 33554687
  0
LAYER
  5
14B3
330
1321
100
AcDbSymbolTableRecord
100
AcDbLayerTableRecord
  2
b1|Level 46
 70
    16
 62
     7
  6
Continuous
370
     0
390
12F4
347
12F7
348
0
1001
AcCmTransparency
1071
 33554687
  0
LAYER
  5
14B4
330
1321
100
AcDbSymbolTableRecord
100
AcDbLayerTableRecord
  2
b1|Level 47
 70
    16
 62
     7
  6
Continuous
370
     0
390
12F4
347
12F7
348
0
1001
AcCmTransparency
1071
 33554687
  0
LAYER
  5
14B5
330
1321
100
AcDbSymbolTableRecord
100
AcDbLayerTableRecord
  2
b1|Level 48
 70
    16
 62
     7
  6
Continuous
370
     0
390
12F4
347
12F7
348
0
1001
AcCmTransparency
1071
 33554687
  0
LAYER
  5
14B6
330
1321
100
AcDbSymbolTableRecord
100
AcDbLayerTableRecord
  2
b1|Level 49
 70
    16
 62
     7
  6
Continuous
370
     0
390
12F4
347
12F7
348
0
1001
AcCmTransparency
1071
 33554687
  0
LAYER
  5
14B7
330
1321
100
AcDbSymbolTableRecord
100
AcDbLayerTableRecord
  2
b1|Level 50
 70
    16
 62
     7
  6
Continuous
370
     0
390
12F4
347
12F7
348
0
1001
AcCmTransparency
1071
 33554687
  0
LAYER
  5
14B8
330
1321
100
AcDbSymbolTableRecord
100
AcDbLayerTableRecord
  2
b1|Level 51
 70
    16
 62
     7
  6
Continuous
370
     0
390
12F4
347
12F7
348
0
1001
AcCmTransparency
1071
 33554687
  0
LAYER
  5
14B9
330
1321
100
AcDbSymbolTableRecord
100
AcDbLayerTableRecord
  2
b1|Level 52
 70
    16
 62
     7
  6
Continuous
370
     0
390
12F4
347
12F7
348
0
1001
AcCmTransparency
1071
 33554687
  0
LAYER
  5
14BA
330
1321
100
AcDbSymbolTableRecord
100
AcDbLayerTableRecord
  2
b1|Level 53
 70
    16
 62
     7
  6
Continuous
370
     0
390
12F4
347
12F7
348
0
1001
AcCmTransparency
1071
 33554687
  0
LAYER
  5
14BB
330
1321
100
AcDbSymbolTableRecord
100
AcDbLayerTableRecord
  2
b1|Level 54
 70
    16
 62
     7
  6
Continuous
370
     0
390
12F4
347
12F7
348
0
1001
AcCmTransparency
1071
 33554687
  0
LAYER
  5
14BC
330
1321
100
AcDbSymbolTableRecord
100
AcDbLayerTableRecord
  2
b1|Level 55
 70
    16
 62
     7
  6
Continuous
370
     0
390
12F4
347
12F7
348
0
1001
AcCmTransparency
1071
 33554687
  0
LAYER
  5
14BD
330
1321
100
AcDbSymbolTableRecord
100
AcDbLayerTableRecord
  2
b1|Level 56
 70
    16
 62
     7
  6
Continuous
370
     0
390
12F4
347
12F7
348
0
1001
AcCmTransparency
1071
 33554687
  0
LAYER
  5
14BE
330
1321
100
AcDbSymbolTableRecord
100
AcDbLayerTableRecord
  2
b1|Level 57
 70
    16
 62
     7
  6
Continuous
370
     0
390
12F4
347
12F7
348
0
1001
AcCmTransparency
1071
 33554687
  0
LAYER
  5
14BF
330
1321
100
AcDbSymbolTableRecord
100
AcDbLayerTableRecord
  2
b1|Level 58
 70
    16
 62
     7
  6
Continuous
370
     0
390
12F4
347
12F7
348
0
1001
AcCmTransparency
1071
 33554687
  0
LAYER
  5
14C0
330
1321
100
AcDbSymbolTableRecord
100
AcDbLayerTableRecord
  2
b1|Level 59
 70
    16
 62
     7
  6
Continuous
370
     0
390
12F4
347
12F7
348
0
1001
AcCmTransparency
1071
 33554687
  0
LAYER
  5
14C1
330
1321
100
AcDbSymbolTableRecord
100
AcDbLayerTableRecord
  2
b1|Level 60
 70
    16
 62
     7
  6
Continuous
370
     0
390
12F4
347
12F7
348
0
1001
AcCmTransparency
1071
 33554687
  0
LAYER
  5
14C2
330
1321
100
AcDbSymbolTableRecord
100
AcDbLayerTableRecord
  2
b1|Level 61
 70
    16
 62
     7
  6
Continuous
370
     0
390
12F4
347
12F7
348
0
1001
AcCmTransparency
1071
 33554687
  0
LAYER
  5
14C3
330
1321
100
AcDbSymbolTableRecord
100
AcDbLayerTableRecord
  2
b1|Level 62
 70
    16
 62
     7
  6
Continuous
370
     0
390
12F4
347
12F7
348
0
1001
AcCmTransparency
1071
 33554687
  0
LAYER
  5
14C4
330
1321
100
AcDbSymbolTableRecord
100
AcDbLayerTableRecord
  2
b1|Level 63
 70
    16
 62
     7
  6
Continuous
370
     0
390
12F4
347
12F7
348
0
1001
AcCmTransparency
1071
 33554687
  0
LAYER
  5
1254
330
1321
100
AcDbSymbolTableRecord
100
AcDbLayerTableRecord
  2
toddler - Level 26
 70
     0
 62
     7
  6
Continuous
370
     0
390
12F4
347
12F7
348
0
1001
AcAecLayerStandard
1000

1000
Assemblies - Colour Locked
1001
AcCmTransparency
1071
 33554687
  0
ENDTAB
  0
TABLE
  2
STYLE
  5
1326
330
0
100
AcDbSymbolTable
 70
     5
  0
STYLE
  5
1327
330
1326
100
AcDbSymbolTableRecord
100
AcDbTextStyleTableRecord
  2
Standard
 70
     0
 40
3.0
 41
1.0
 50
0.0
 71
     0
 42
3.0
  3
INTL_ISO.shx
  4

1001
AcadAnnotative
1000
AnnotativeData
1002
{
1070
     1
1070
     0
1002
}
  0
STYLE
  5
135A
330
1326
100
AcDbSymbolTableRecord
100
AcDbTextStyleTableRecord
  2
Style-STANDARD
 70
     0
 40
0.0
 41
1.0
 50
0.0
 71
     0
 42
3.5
  3
STANDARD.shx
  4

1001
AcadAnnotative
1000
AnnotativeData
1002
{
1070
     1
1070
     1
1002
}
  0
STYLE
  5
313
330
1326
100
AcDbSymbolTableRecord
100
AcDbTextStyleTableRecord
  2
Style-INTL_ISO
 70
     0
 40
0.0
 41
1.0
 50
0.0
 71
     0
 42
3.5
  3
INTL_ISO.shx
  4

  0
STYLE
  5
14CB
330
1326
100
AcDbSymbolTableRecord
100
AcDbTextStyleTableRecord
  2
Style-ENGINEERING
 70
     0
 40
0.0
 41
1.0
 50
0.0
 71
     0
 42
3.5
  3
ENGINEERING.shx
  4

  0
STYLE
  5
14CD
330
1326
100
AcDbSymbolTableRecord
100
AcDbTextStyleTableRecord
  2
Style-FANCY
 70
     0
 40
0.0
 41
1.0
 50
0.0
 71
     0
 42
3.5
  3
FANCY.shx
  4

  0
ENDTAB
  0
TABLE
  2
VIEW
  5
132D
330
0
100
AcDbSymbolTable
 70
     0
  0
ENDTAB
  0
TABLE
  2
UCS
  5
132E
330
0
100
AcDbSymbolTable
 70
     0
  0
ENDTAB
  0
TABLE
  2
APPID
  5
1333
330
0
100
AcDbSymbolTable
 70
     7
  0
APPID
  5
1334
330
1333
100
AcDbSymbolTableRecord
100
AcDbRegAppTableRecord
  2
ACAD
 70
     0
  0
APPID
  5
1320
330
1333
100
AcDbSymbolTableRecord
100
AcDbRegAppTableRecord
  2
ACAD_PSEXT
 70
     0
  0
APPID
  5
1301
330
1333
100
AcDbSymbolTableRecord
100
AcDbRegAppTableRecord
  2
AcCmTransparency
 70
     0
  0
APPID
  5
1328
330
1333
100
AcDbSymbolTableRecord
100
AcDbRegAppTableRecord
  2
AcadAnnotative
 70
     0
  0
APPID
  5
1306
330
1333
100
AcDbSymbolTableRecord
100
AcDbRegAppTableRecord
  2
MStation
 70
     0
  0
APPID
  5
14C6
330
1333
100
AcDbSymbolTableRecord
100
AcDbRegAppTableRecord
  2
AcadAnnoAV
 70
     0
  0
APPID
  5
14C7
330
1333
100
AcDbSymbolTableRecord
100
AcDbRegAppTableRecord
  2
AcAecLayerStandard
 70
     0
  0
ENDTAB
  0
TABLE
  2
DIMSTYLE
  5
1335
330
0
100
AcDbSymbolTable
 70
     1
100
AcDbDimStyleTable
 71
     1
340
1336
  0
DIMSTYLE
105
1336
330
1335
100
AcDbSymbolTableRecord
100
AcDbDimStyleTableRecord
  2
Standard
 70
     0
 42
0.0625
 44
0.18
 78
     3
272
     0
274
     0
278
     0
284
     3
285
     3
286
     3
289
     1
340
1327
345
1300
346
1300
347
1300
  0
ENDTAB
  0
TABLE
  2
BLOCK_RECORD
  5
12EC
330
0
100
AcDbSymbolTable
 70
     7
  0
BLOCK_RECORD
  5
12ED
102
{ACAD_XDICTIONARY
360
12EE
102
}
330
12EC
100
AcDbSymbolTableRecord
100
AcDbBlockTableRecord
  2
*Model_Space
340
1318
 70
     0
280
     1
281
     0
  0
BLOCK_RECORD
  5
131B
330
12EC
100
AcDbSymbolTableRecord
100
AcDbBlockTableRecord
  2
*Paper_Space
340
131E
 70
     0
280
     1
281
     0
  0
BLOCK_RECORD
  5
1255
330
12EC
100
AcDbSymbolTableRecord
100
AcDbBlockTableRecord
  2
A4_title
340
0
102
{BLKREFS
331
12EB
102
}
 70
     0
280
     1
281
     0
  0
ENDTAB
  0
ENDSEC
  0
SECTION
  2
BLOCKS
  0
BLOCK
  5
12F0
330
12ED
100
AcDbEntity
  8
0
100
AcDbBlockBegin
  2
*Model_Space
 70
     0
 10
0.0
 20
0.0
 30
0.0
  3
*Model_Space
  1

  0
ENDBLK
  5
1317
330
12ED
100
AcDbEntity
  8
0
100
AcDbBlockEnd
  0
BLOCK
  5
131C
330
131B
100
AcDbEntity
 67
     1
  8
0
100
AcDbBlockBegin
  2
*Paper_Space
 70
     0
 10
0.0
 20
0.0
 30
0.0
  3
*Paper_Space
  1

  0
ENDBLK
  5
131D
330
131B
100
AcDbEntity
 67
     1
  8
0
100
AcDbBlockEnd
  0
BLOCK
  5
14C9
330
1255
100
AcDbEntity
  8
0
 62
     7
100
AcDbBlockBegin
  2
A4_title
 70
     0
 10
0.0
 20
0.0
 30
0.0
  3
A4_title
  1

  0
LINE
  5
1256
330
1255
100
AcDbEntity
  8
0
  6
Continuous
 62
     2
370
     0
100
AcDbLine
 10
66.599836
 20
14.154207
 30
0.0
 11
66.599836
 21
26.001722
 31
0.0
  0
TEXT
  5
1257
330
1255
100
AcDbEntity
  8
0
  6
Continuous
 62
     2
370
     0
100
AcDbText
 10
16.531691
 20
21.459765
 30
0.0
 40
2.74245
  1
DWG No:
 41
1.292786
  7
Style-ENGINEERING
100
AcDbText
  0
TEXT
  5
1258
330
1255
100
AcDbEntity
  8
0
  6
Continuous
 62
     2
370
     0
100
AcDbText
 10
16.531691
 20
15.850765
 30
0.0
 40
2.74245
  1
ISSUE:
 41
1.292786
  7
Style-ENGINEERING
100
AcDbText
  0
TEXT
  5
1259
330
1255
100
AcDbEntity
  8
0
  6
Continuous
 62
     2
370
     0
100
AcDbText
 10
67.250691
 20
16.857765
 30
0.0
 40
1.248774
  1
BY:
 41
1.292785
  7
Style-FANCY
100
AcDbText
  0
TEXT
  5
125A
330
1255
100
AcDbEntity
  8
0
  6
Continuous
 62
     2
370
     0
100
AcDbText
 10
67.414691
 20
24.373765
 30
0.0
 40
0.936582
  1
SCALE:
 41
1.292786
  7
Style-FANCY
100
AcDbText
  0
TEXT
  5
125B
330
1255
100
AcDbEntity
  8
0
  6
Continuous
 62
     2
370
     0
100
AcDbText
 10
16.429691
 20
28.611765
 30
0.0
 40
2.056842
  1
TITLE:
 41
1.292783
  7
Style-ENGINEERING
100
AcDbText
  0
LINE
  5
125C
330
1255
100
AcDbEntity
  8
0
  6
Continuous
 62
     2
370
     0
100
AcDbLine
 10
84.515051
 20
14.154207
 30
0.0
 11
84.515051
 21
26.001722
 31
0.0
  0
LINE
  5
125D
330
1255
100
AcDbEntity
  8
0
  6
Continuous
 62
     2
370
     0
100
AcDbLine
 10
91.171674
 20
24.908442
 30
0.0
 11
91.171674
 21
25.500812
 31
0.0
  0
ELLIPSE
  5
125E
330
1255
100
AcDbEntity
  8
0
  6
Continuous
 62
     2
370
     0
100
AcDbEllipse
 10
91.202098
 20
23.131648
 30
0.0
 11
0.6046759999999996
 21
0.0
 31
0.0
210
0.0
220
0.0
230
1.0
 40
0.9797990990216181
 41
0.0
 42
6.283185307179586
  0
ELLIPSE
  5
125F
330
1255
100
AcDbEntity
  8
0
  6
Continuous
 62
     2
370
     0
100
AcDbEllipse
 10
91.202098
 20
23.131648
 30
0.0
 11
1.813856000000006
 21
0.0
 31
0.0
210
0.0
220
0.0
230
1.0
 40
0.9797977347705622
 41
0.0
 42
6.283185307179586
  0
LINE
  5
1260
330
1255
100
AcDbEntity
  8
0
  6
Continuous
 62
     2
370
     0
100
AcDbLine
 10
91.232522
 20
21.354436
 30
0.0
 11
91.171674
 21
24.908442
 31
0.0
  0
LINE
  5
1261
330
1255
100
AcDbEntity
  8
0
  6
Continuous
 62
     2
370
     0
100
AcDbLine
 10
91.232522
 20
21.354436
 30
0.0
 11
91.232522
 21
20.762055
 31
0.0
  0
LINE
  5
1262
330
1255
100
AcDbEntity
  8
0
  6
Continuous
 62
     2
370
     0
100
AcDbLine
 10
93.859354
 20
23.131648
 30
0.0
 11
88.484686
 21
23.131648
 31
0.0
  0
LINE
  5
1263
330
1255
100
AcDbEntity
  8
0
  6
Continuous
 62
     2
370
     0
100
AcDbLine
 10
103.906174
 20
24.908781
 30
0.0
 11
103.906174
 21
21.354436
 31
0.0
  0
LINE
  5
1264
330
1255
100
AcDbEntity
  8
0
  6
Continuous
 62
     2
370
     0
100
AcDbLine
 10
97.189394
 20
22.539188
 30
0.0
 11
97.189394
 21
23.724018
 31
0.0
  0
LINE
  5
1265
330
1255
100
AcDbEntity
  8
0
  6
Continuous
 62
     2
370
     0
100
AcDbLine
 10
97.189394
 20
23.724018
 30
0.0
 11
103.906174
 21
24.908781
 31
0.0
  0
LINE
  5
1266
330
1255
100
AcDbEntity
  8
0
  6
Continuous
 62
     2
370
     0
100
AcDbLine
 10
103.906174
 20
21.354436
 30
0.0
 11
97.189394
 21
22.539188
 31
0.0
  0
LINE
  5
1267
330
1255
100
AcDbEntity
  8
0
  6
Continuous
 62
     2
370
     0
100
AcDbLine
 10
104.849317
 20
23.131648
 30
0.0
 11
96.070623
 21
23.131648
 31
0.0
  0
TEXT
  5
1268
330
1255
100
AcDbEntity
  8
0
  6
Continuous
 62
     2
370
     0
100
AcDbText
 10
88.670691
 20
17.715765
 30
0.0
 40
0.888552
  1
ALL DIMENSIONS IN
 41
1.292791
  7
Style-STANDARD
100
AcDbText
  0
TEXT
  5
1269
330
1255
100
AcDbEntity
  8
0
  6
Continuous
 62
     2
370
     0
100
AcDbText
 10
88.670691
 20
15.938765
 30
0.0
 40
0.888552
  1
   MILLIMETERS
 41
1.292791
  7
Style-STANDARD
100
AcDbText
  0
LINE
  5
126A
330
1255
100
AcDbEntity
  8
0
  6
Continuous
 62
     2
370
     0
100
AcDbLine
 10
118.169675
 20
14.154207
 30
0.0
 11
118.169675
 21
45.761722
 31
0.0
  0
LINE
  5
126B
330
1255
100
AcDbEntity
  8
0
  6
Continuous
 62
     2
370
     0
100
AcDbLine
 10
15.111434
 20
20.077976
 30
0.0
 11
118.169675
 21
20.077976
 31
0.0
  0
TEXT
  5
126C
330
1255
100
AcDbEntity
  8
0
  6
Continuous
 62
     2
370
     0
100
AcDbText
 10
34.604691
 20
41.078947
 30
0.0
 40
2.74245
  1
FORPARK AUSTRALIA
 41
1.292786
  7
Style-ENGINEERING
100
AcDbText
  0
TEXT
  5
126D
330
1255
100
AcDbEntity
  8
0
  6
Continuous
 62
     2
370
     0
100
AcDbText
 10
17.106691
 20
34.560947
 30
0.0
 40
1.727748
  1
NO UNAUTHORISED DUPLICATION OR USE IS PERMITTED.
 41
1.077317
  7
Style-ENGINEERING
100
AcDbText
  0
TEXT
  5
126E
330
1255
100
AcDbEntity
  8
0
  6
Continuous
 62
     2
370
     0
100
AcDbText
 10
16.844691
 20
37.147947
 30
0.0
 40
1.727748
  1
THIS DRAWING REMAINS THE PROPERTY OF FORPARK AUSTRALIA.
 41
1.077317
  7
Style-ENGINEERING
100
AcDbText
  0
LINE
  5
126F
330
1255
100
AcDbEntity
  8
0
  6
Continuous
 62
     2
370
     0
100
AcDbLine
 10
118.169675
 20
39.837965
 30
0.0
 11
15.111434
 21
39.837965
 31
0.0
  0
LINE
  5
1270
330
1255
100
AcDbEntity
  8
0
  6
Continuous
 62
     2
370
     0
100
AcDbLine
 10
118.169675
 20
45.761722
 30
0.0
 11
15.111434
 21
45.761722
 31
0.0
  0
LINE
  5
1271
330
1255
100
AcDbEntity
  8
0
  6
Continuous
 62
     2
370
     0
100
AcDbLine
 10
118.169675
 20
33.914297
 30
0.0
 11
15.111434
 21
33.914297
 31
0.0
  0
LINE
  5
1272
330
1255
100
AcDbEntity
  8
0
  6
Continuous
 62
     2
370
     0
100
AcDbLine
 10
118.169675
 20
26.001722
 30
0.0
 11
15.111434
 21
26.001722
 31
0.0
  0
LINE
  5
1273
330
1255
100
AcDbEntity
  8
0
  6
Continuous
 62
     2
370
     0
100
AcDbLine
 10
281.345948
 20
193.675323
 30
0.0
 11
15.111434
 21
193.675323
 31
0.0
  0
LINE
  5
1274
330
1255
100
AcDbEntity
  8
0
  6
Continuous
 62
     2
370
     0
100
AcDbLine
 10
15.111434
 20
14.154207
 30
0.0
 11
281.345948
 21
14.154207
 31
0.0
  0
LINE
  5
1275
330
1255
100
AcDbEntity
  8
0
  6
Continuous
 62
     2
370
     0
100
AcDbLine
 10
15.111434
 20
193.675323
 30
0.0
 11
15.111434
 21
14.154207
 31
0.0
  0
LINE
  5
1276
330
1255
100
AcDbEntity
  8
0
  6
Continuous
 62
     2
370
     0
100
AcDbLine
 10
281.345948
 20
14.154207
 30
0.0
 11
281.345948
 21
193.675323
 31
0.0
  0
TEXT
  5
1277
330
1255
100
AcDbEntity
  8
0
  6
Continuous
 62
     2
370
     0
100
AcDbText
 10
66.917691
 20
21.291765
 30
0.0
 40
1.983348
  1
A4- :
 41
1.292784
  7
Style-ENGINEERING
100
AcDbText
  0
LWPOLYLINE
  5
1278
330
1255
100
AcDbEntity
  8
0
  6
Continuous
 62
     2
370
     0
100
AcDbPolyline
 90
        3
 70
   128
 43
0.0
 10
118.169675
 20
26.001722
 10
169.024259
 20
26.001722
 10
169.024259
 20
14.154207
  0
LINE
  5
1279
330
1255
100
AcDbEntity
  8
0
  6
Continuous
 62
     2
370
     0
100
AcDbLine
 10
118.169675
 20
20.077976
 30
0.0
 11
169.024259
 21
20.077976
 31
0.0
  0
TEXT
  5
127A
330
1255
100
AcDbEntity
  8
0
  6
Continuous
 62
     2
370
     0
100
AcDbText
 10
134.976778
 20
21.504977
 30
0.0
 40
3.0
  1
MATERIAL
  7
Style-INTL_ISO
 72
     1
 11
145.40535
 21
23.004977
 31
0.0
100
AcDbText
 73
     2
  0
LWPOLYLINE
  5
127B
330
1255
100
AcDbEntity
  8
0
  6
Continuous
 62
     2
370
     0
100
AcDbPolyline
 90
        3
 70
   128
 43
0.0
 10
157.342501
 20
26.001722
 10
208.197085
 20
26.001722
 10
208.197085
 20
14.154207
  0
LINE
  5
127C
330
1255
100
AcDbEntity
  8
0
  6
Continuous
 62
     2
370
     0
100
AcDbLine
 10
157.342501
 20
20.077965
 30
0.0
 11
208.197085
 21
20.077965
 31
0.0
  0
TEXT
  5
127D
330
1255
100
AcDbEntity
  8
0
  6
Continuous
 62
     2
370
     0
100
AcDbText
 10
173.467815
 20
21.504977
 30
0.0
 40
3.0
  1
No / LENGTH
  7
Style-INTL_ISO
 72
     1
 11
188.610672
 21
23.004977
 31
0.0
100
AcDbText
 73
     2
  0
LINE
  5
127E
330
1255
100
AcDbEntity
  8
0
  6
Continuous
 62
     2
370
     0
100
AcDbLine
 10
208.197085
 20
26.001722
 30
0.0
 11
281.345948
 21
26.001722
 31
0.0
  0
LINE
  5
127F
330
1255
100
AcDbEntity
  8
0
  6
Continuous
 62
     2
370
     0
100
AcDbLine
 10
208.197085
 20
20.077965
 30
0.0
 11
281.345948
 21
20.077965
 31
0.0
  0
LWPOLYLINE
  5
1280
330
1255
100
AcDbEntity
  8
0
  6
Continuous
 62
     2
370
     0
100
AcDbPolyline
 90
        4
 70
   128
 43
0.0
 10
204.128584
 20
26.001722
 10
221.122677
 20
26.001722
 10
231.203919
 20
26.001722
 10
231.203919
 20
14.154207
  0
LWPOLYLINE
  5
1281
330
1255
100
AcDbEntity
  8
0
  6
Continuous
 62
     2
370
     0
100
AcDbPolyline
 90
        4
 70
   128
 43
0.0
 10
226.487338
 20
26.001722
 10
243.481432
 20
26.001722
 10
253.562674
 20
26.001722
 10
253.562674
 20
14.154207
  0
TEXT
  5
1282
330
1255
100
AcDbEntity
  8
0
  6
Continuous
 62
     2
370
     0
100
AcDbText
 10
212.140383
 20
21.651877
 30
0.0
 40
3.0
  1
APPR. 1
  7
Style-INTL_ISO
 72
     1
 11
220.640383
 21
23.151877
 31
0.0
100
AcDbText
 73
     2
  0
TEXT
  5
1283
330
1255
100
AcDbEntity
  8
0
  6
Continuous
 62
     2
370
     0
100
AcDbText
 10
232.934402
 20
21.651877
 30
0.0
 40
3.0
  1
APPR. 2
  7
Style-INTL_ISO
 72
     1
 11
242.077259
 21
23.151877
 31
0.0
100
AcDbText
 73
     2
  0
TEXT
  5
1284
330
1255
100
AcDbEntity
  8
0
  6
Continuous
 62
     2
370
     0
100
AcDbText
 10
261.850632
 20
21.651877
 30
0.0
 40
3.0
  1
DATE
  7
Style-INTL_ISO
 72
     1
 11
267.136346
 21
23.151877
 31
0.0
100
AcDbText
 73
     2
  0
LINE
  5
12E5
330
1255
100
AcDbEntity
  8
0
  6
Continuous
 62
     2
370
     0
100
AcDbLine
 10
168.169675
 20
45.761722
 30
0.0
 11
168.169675
 21
26.001722
 31
0.0
  0
LINE
  5
12E6
330
1255
100
AcDbEntity
  8
0
  6
Continuous
 62
     2
370
     0
100
AcDbLine
 10
118.169675
 20
45.761722
 30
0.0
 11
168.169675
 21
45.761722
 31
0.0
  0
MTEXT
  5
12E7
330
1255
100
AcDbEntity
  8
0
  6
Continuous
 62
     2
370
     0
100
AcDbMText
 10
141.027959
 20
27.765299
 30
0.0
 40
1.040002
 41
0.0
 46
0.0
 71
     5
 72
     1
  1
\H1x;\W0.961538;\T1.100;FOR AND ON BEHALF OF FORPARK AUSTRALIA.
  7
Style-ENGINEERING
 73
     2
 44
0.6
  0
MTEXT
  5
12E8
330
1255
100
AcDbEntity
  8
0
  6
Continuous
 62
     2
370
     0
100
AcDbMText
 10
141.639576
 20
44.16402
 30
0.0
 40
1.040002
 41
0.0
 46
0.0
 71
     5
 72
     1
  1
\H1x;\W0.961538;\T1.100;FORPARK AUSTRALIA CERTIFIES THIS DRAWING
  7
Style-ENGINEERING
 73
     2
 44
0.6
  0
MTEXT
  5
12E9
330
1255
100
AcDbEntity
  8
0
  6
Continuous
 62
     2
370
     0
100
AcDbMText
 10
141.639576
 20
42.344017
 30
0.0
 40
1.040002
 41
0.0
 46
0.0
 71
     5
 72
     1
  1
\H1x;\W0.961538;\T1.100;COMPLIES WITH THE SAFETY REQUIREMENTS OF
  7
Style-ENGINEERING
 73
     2
 44
0.6
  0
MTEXT
  5
12EA
330
1255
100
AcDbEntity
  8
0
  6
Continuous
 62
     2
370
     0
100
AcDbMText
 10
141.639576
 20
40.524015
 30
0.0
 40
1.040002
 41
0.0
 46
0.0
 71
     5
 72
     1
  1
\H1x;\W0.961538;\T1.100;AS 4685-2014 SIGNED BY:
  7
Style-ENGINEERING
 73
     2
 44
0.6
  0
ENDBLK
  5
14CA
330
1255
100
AcDbEntity
  8
0
 62
     7
100
AcDbBlockEnd
  0
ENDSEC
  0
SECTION
  2
ENTITIES
  0
LINE
  5
10A3
330
12ED
100
AcDbEntity
  8
toddler - Level 26
  6
Continuous
 62
     7
370
    13
100
AcDbLine
 10
1106.40065
 20
295.750237
 30
0.0
 11
1106.432693
 21
295.750237
 31
0.0
  0
LINE
  5
10A4
330
12ED
100
AcDbEntity
  8
toddler - Level 26
  6
Continuous
 62
     7
370
    13
100
AcDbLine
 10
1106.432693
 20
286.750237
 30
0.0
 11
1106.40065
 21
286.750237
 31
0.0
  0
LINE
  5
10A5
330
12ED
100
AcDbEntity
  8
toddler - Level 26
  6
Continuous
 62
     7
370
    13
100
AcDbLine
 10
1106.40065
 20
295.750237
 30
0.0
 11
1106.40065
 21
286.750237
 31
0.0
  0
LINE
  5
10A6
330
12ED
100
AcDbEntity
  8
toddler - Level 26
  6
Continuous
 62
     7
370
    13
100
AcDbLine
 10
1106.368607
 20
286.750237
 30
0.0
 11
1106.40065
 21
286.750237
 31
0.0
  0
LINE
  5
10A7
330
12ED
100
AcDbEntity
  8
toddler - Level 26
  6
Continuous
 62
     7
370
    13
100
AcDbLine
 10
1106.40065
 20
295.750237
 30
0.0
 11
1106.368607
 21
295.750237
 31
0.0
  0
LINE
  5
10A8
330
12ED
100
AcDbEntity
  8
toddler - Level 26
  6
Continuous
 62
     7
370
    13
100
AcDbLine
 10
1106.40065
 20
281.750237
 30
0.0
 11
1106.368607
 21
281.750237
 31
0.0
  0
LINE
  5
10A9
330
12ED
100
AcDbEntity
  8
toddler - Level 26
  6
Continuous
 62
     7
370
    13
100
AcDbLine
 10
1106.40065
 20
281.750237
 30
0.0
 11
1106.40065
 21
286.750237
 31
0.0
  0
LINE
  5
10AA
330
12ED
100
AcDbEntity
  8
toddler - Level 26
  6
Continuous
 62
     7
370
    13
100
AcDbLine
 10
1106.40065
 20
281.750237
 30
0.0
 11
1106.432693
 21
281.750237
 31
0.0
  0
LINE
  5
10AB
330
12ED
100
AcDbEntity
  8
toddler - Level 26
  6
Continuous
 62
     7
370
    13
100
AcDbLine
 10
1106.432693
 20
300.750237
 30
0.0
 11
1106.40065
 21
300.750237
 31
0.0
  0
LINE
  5
10AC
330
12ED
100
AcDbEntity
  8
toddler - Level 26
  6
Continuous
 62
     7
370
    13
100
AcDbLine
 10
1106.40065
 20
300.750237
 30
0.0
 11
1106.40065
 21
295.750237
 31
0.0
  0
LINE
  5
10AD
330
12ED
100
AcDbEntity
  8
toddler - Level 26
  6
Continuous
 62
     7
370
    13
100
AcDbLine
 10
1106.368607
 20
300.750237
 30
0.0
 11
1106.40065
 21
300.750237
 31
0.0
  0
LINE
  5
10AE
330
12ED
100
AcDbEntity
  8
toddler - Level 26
  6
Continuous
 62
     7
370
     0
100
AcDbLine
 10
1118.432693
 20
1545.750237
 30
0.0
 11
1118.432693
 21
265.750237
 31
0.0
  0
LINE
  5
10AF
330
12ED
100
AcDbEntity
  8
toddler - Level 26
  6
Continuous
 62
     7
370
     0
100
AcDbLine
 10
1111.602566
 20
265.750237
 30
0.0
 11
1118.432693
 21
265.750237
 31
0.0
  0
LINE
  5
10B0
330
12ED
100
AcDbEntity
  8
toddler - Level 26
  6
Continuous
 62
     7
370
     0
100
AcDbLine
 10
1111.602566
 20
265.750237
 30
0.0
 11
1111.602566
 21
1545.750237
 31
0.0
  0
LINE
  5
10B1
330
12ED
100
AcDbEntity
  8
toddler - Level 26
  6
Continuous
 62
     7
370
     0
100
AcDbLine
 10
1111.602566
 20
1545.750237
 30
0.0
 11
1118.432693
 21
1545.750237
 31
0.0
  0
ELLIPSE
  5
10B2
330
12ED
100
AcDbEntity
  8
toddler - Level 26
  6
Continuous
 62
     7
370
     0
100
AcDbEllipse
 10
1122.76282
 20
1545.750237
 30
0.0
 11
0.0
 21
4.999999999999996
 31
0.0
210
0.0
220
0.0
230
1.0
 40
0.866025403784439
 41
0.0000000000000001
 42
1.570796326794896
  0
ELLIPSE
  5
10B3
330
12ED
100
AcDbEntity
  8
toddler - Level 26
  6
Continuous
 62
     7
370
     0
100
AcDbEllipse
 10
1120.26282
 20
1545.750237
 30
0.0
 11
0.0
 21
-10.0
 31
0.0
210
0.0
220
0.0
230
-1.0
 40
0.8660254037844389
 41
1.570796326794896
 42
3.141592653589793
  0
ELLIPSE
  5
10B4
330
12ED
100
AcDbEntity
  8
toddler - Level 26
  6
Continuous
 62
     7
370
     0
100
AcDbEllipse
 10
1120.26282
 20
1550.750237
 30
0.0
 11
0.0
 21
-5.0
 31
0.0
210
0.0
220
0.0
230
1.0
 40
0.4999999999999991
 41
1.570796326794896
 42
3.141592653589793
  0
ELLIPSE
  5
10B5
330
12ED
100
AcDbEntity
  8
toddler - Level 26
  6
Continuous
 62
     7
370
     0
100
AcDbEllipse
 10
1122.76282
 20
265.750237
 30
0.0
 11
0.0
 21
5.000000000000001
 31
0.0
210
0.0
220
0.0
230
1.0
 40
0.866025403784439
 41
1.570796326794896
 42
3.141592653589793
  0
ELLIPSE
  5
10B6
330
12ED
100
AcDbEntity
  8
toddler - Level 26
  6
Continuous
 62
     7
370
     0
100
AcDbEllipse
 10
1120.26282
 20
260.750237
 30
0.0
 11
0.0
 21
5.0
 31
0.0
210
0.0
220
0.0
230
-1.0
 40
0.4999999999999996
 41
1.570796326794896
 42
3.141592653589793
  0
ELLIPSE
  5
10B7
330
12ED
100
AcDbEntity
  8
toddler - Level 26
  6
Continuous
 62
     7
370
     0
100
AcDbEllipse
 10
1120.26282
 20
265.750237
 30
0.0
 11
0.0
 21
-10.00000000000001
 31
0.0
210
0.0
220
0.0
230
-1.0
 40
0.8660254037844392
 41
0.0
 42
1.570796326794896
  0
LINE
  5
10B8
330
12ED
100
AcDbEntity
  8
toddler - Level 26
  6
Continuous
 62
     7
370
     0
100
AcDbLine
 10
1677.019078
 20
1550.750237
 30
0.0
 11
1122.76282
 21
1550.750237
 31
0.0
  0
ELLIPSE
  5
10B9
330
12ED
100
AcDbEntity
  8
toddler - Level 26
  6
Continuous
 62
     7
370
     0
100
AcDbEllipse
 10
1677.019078
 20
1455.750237
 30
0.0
 11
0.0
 21
95.0
 31
0.0
210
0.0
220
0.0
230
1.0
 40
0.8660254037844389
 41
4.712388980384689
 42
6.283185307179586
  0
LINE
  5
10BA
330
12ED
100
AcDbEntity
  8
toddler - Level 26
  6
Continuous
 62
     7
370
     0
100
AcDbLine
 10
1759.291492
 20
355.750237
 30
0.0
 11
1759.291492
 21
1455.750237
 31
0.0
  0
ELLIPSE
  5
10BB
330
12ED
100
AcDbEntity
  8
toddler - Level 26
  6
Continuous
 62
     7
370
     0
100
AcDbEllipse
 10
1677.019078
 20
355.750237
 30
0.0
 11
0.0
 21
95.0
 31
0.0
210
0.0
220
0.0
230
1.0
 40
0.8660254037844394
 41
3.141592653589793
 42
4.712388980384689
  0
LINE
  5
10BC
330
12ED
100
AcDbEntity
  8
toddler - Level 26
  6
Continuous
 62
     7
370
     0
100
AcDbLine
 10
1122.76282
 20
260.750237
 30
0.0
 11
1677.019078
 21
260.750237
 31
0.0
  0
ELLIPSE
  5
10BD
330
12ED
100
AcDbEntity
  8
toddler - Level 26
  6
Continuous
 62
     7
370
     0
100
AcDbEllipse
 10
1537.011638
 20
1405.750237
 30
0.0
 11
0.0
 21
-15.0
 31
0.0
210
0.0
220
0.0
230
-1.0
 40
0.866025403784439
 41
0.0
 42
3.141592653589793
  0
ELLIPSE
  5
10BE
330
12ED
100
AcDbEntity
  8
toddler - Level 26
  6
Continuous
 62
     7
370
     0
100
AcDbEllipse
 10
1537.011638
 20
1385.750237
 30
0.0
 11
0.0
 21
5.000000000000001
 31
0.0
210
0.0
220
0.0
230
1.0
 40
0.866025403784439
 41
4.712388980384689
 42
6.283185307179586
  0
LINE
  5
10BF
330
12ED
100
AcDbEntity
  8
toddler - Level 26
  6
Continuous
 62
     7
370
     0
100
AcDbLine
 10
1541.341765
 20
425.750237
 30
0.0
 11
1541.341765
 21
1385.750237
 31
0.0
  0
ELLIPSE
  5
10C0
330
12ED
100
AcDbEntity
  8
toddler - Level 26
  6
Continuous
 62
     7
370
     0
100
AcDbEllipse
 10
1537.011638
 20
425.750237
 30
0.0
 11
0.0
 21
5.000000000000001
 31
0.0
210
0.0
220
0.0
230
1.0
 40
0.866025403784439
 41
3.141592653589793
 42
4.712388980384689
  0
ELLIPSE
  5
10C1
330
12ED
100
AcDbEntity
  8
toddler - Level 26
  6
Continuous
 62
     7
370
     0
100
AcDbEllipse
 10
1537.011638
 20
405.750237
 30
0.0
 11
0.0
 21
-15.0
 31
0.0
210
0.0
220
0.0
230
-1.0
 40
0.866025403784439
 41
0.0
 42
3.141592653589793
  0
ELLIPSE
  5
10C2
330
12ED
100
AcDbEntity
  8
toddler - Level 26
  6
Continuous
 62
     7
370
     0
100
AcDbEllipse
 10
1537.011638
 20
425.750237
 30
0.0
 11
0.0
 21
-35.00000000000003
 31
0.0
210
0.0
220
0.0
230
-1.0
 40
0.8660254037844394
 41
4.712388980384689
 42
6.283185307179586
  0
LINE
  5
10C3
330
12ED
100
AcDbEntity
  8
toddler - Level 26
  6
Continuous
 62
     7
370
     0
100
AcDbLine
 10
1567.322527
 20
1385.750237
 30
0.0
 11
1567.322527
 21
425.750237
 31
0.0
  0
ELLIPSE
  5
10C4
330
12ED
100
AcDbEntity
  8
toddler - Level 26
  6
Continuous
 62
     7
370
     0
100
AcDbEllipse
 10
1537.011638
 20
1385.750237
 30
0.0
 11
0.0
 21
-35.00000000000003
 31
0.0
210
0.0
220
0.0
230
-1.0
 40
0.8660254037844394
 41
3.141592653589793
 42
4.712388980384689
  0
ELLIPSE
  5
10C5
330
12ED
100
AcDbEntity
  8
toddler - Level 26
  6
Continuous
 62
     7
370
     0
100
AcDbEllipse
 10
1306.07153
 20
1405.750237
 30
0.0
 11
0.0
 21
-15.0
 31
0.0
210
0.0
220
0.0
230
-1.0
 40
0.866025403784439
 41
0.0
 42
3.141592653589793
  0
ELLIPSE
  5
10C6
330
12ED
100
AcDbEntity
  8
toddler - Level 26
  6
Continuous
 62
     7
370
     0
100
AcDbEllipse
 10
1306.07153
 20
1385.750237
 30
0.0
 11
0.0
 21
5.000000000000001
 31
0.0
210
0.0
220
0.0
230
1.0
 40
0.866025403784439
 41
4.712388980384689
 42
6.283185307179586
  0
LINE
  5
10C7
330
12ED
100
AcDbEntity
  8
toddler - Level 26
  6
Continuous
 62
     7
370
     0
100
AcDbLine
 10
1310.401657
 20
425.750237
 30
0.0
 11
1310.401657
 21
1385.750237
 31
0.0
  0
ELLIPSE
  5
10C8
330
12ED
100
AcDbEntity
  8
toddler - Level 26
  6
Continuous
 62
     7
370
     0
100
AcDbEllipse
 10
1306.07153
 20
425.750237
 30
0.0
 11
0.0
 21
5.000000000000001
 31
0.0
210
0.0
220
0.0
230
1.0
 40
0.866025403784439
 41
3.141592653590144
 42
4.712388980384689
  0
ELLIPSE
  5
10C9
330
12ED
100
AcDbEntity
  8
toddler - Level 26
  6
Continuous
 62
     7
370
     0
100
AcDbEllipse
 10
1306.07153
 20
405.750237
 30
0.0
 11
0.0
 21
-15.0
 31
0.0
210
0.0
220
0.0
230
-1.0
 40
0.866025403784439
 41
-0.000000000000103
 42
3.141592653589793
  0
ELLIPSE
  5
10CA
330
12ED
100
AcDbEntity
  8
toddler - Level 26
  6
Continuous
 62
     7
370
     0
100
AcDbEllipse
 10
1306.07153
 20
425.750237
 30
0.0
 11
0.0
 21
-35.00000000000003
 31
0.0
210
0.0
220
0.0
230
-1.0
 40
0.8660254037844394
 41
4.712388980384689
 42
6.283185307179492
  0
LINE
  5
10CB
330
12ED
100
AcDbEntity
  8
toddler - Level 26
  6
Continuous
 62
     7
370
     0
100
AcDbLine
 10
1336.38242
 20
1385.750237
 30
0.0
 11
1336.38242
 21
425.750237
 31
0.0
  0
ELLIPSE
  5
10CC
330
12ED
100
AcDbEntity
  8
toddler - Level 26
  6
Continuous
 62
     7
370
     0
100
AcDbEllipse
 10
1306.07153
 20
1385.750237
 30
0.0
 11
0.0
 21
-35.00000000000003
 31
0.0
210
0.0
220
0.0
230
-1.0
 40
0.8660254037844394
 41
3.141592653589793
 42
4.712388980384692
  0
LINE
  5
10CD
330
12ED
100
AcDbEntity
  8
toddler - Level 26
  6
Continuous
 62
     7
370
     0
100
AcDbLine
 10
1111.602566
 20
1545.750237
 30
0.0
 11
1107.102566
 21
1545.750237
 31
0.0
  0
ELLIPSE
  5
10CE
330
12ED
100
AcDbEntity
  8
toddler - Level 26
  6
Continuous
 62
     7
370
     0
100
AcDbEllipse
 10
1115.76282
 20
1545.750237
 30
0.0
 11
0.0
 21
9.999999999999998
 31
0.0
210
0.0
220
0.0
230
1.0
 40
0.8660254037844387
 41
0.0000000000000001
 42
1.570796326794896
  0
LINE
  5
10CF
330
12ED
100
AcDbEntity
  8
toddler - Level 26
  6
Continuous
 62
     7
370
     0
100
AcDbLine
 10
1120.26282
 20
1555.750237
 30
0.0
 11
1115.76282
 21
1555.750237
 31
0.0
  0
LINE
  5
10D0
330
12ED
100
AcDbEntity
  8
toddler - Level 26
  6
Continuous
 62
     7
370
     0
100
AcDbLine
 10
1111.602566
 20
265.750237
 30
0.0
 11
1107.102566
 21
265.750237
 31
0.0
  0
LINE
  5
10D1
330
12ED
100
AcDbEntity
  8
toddler - Level 26
  6
Continuous
 62
     7
370
     0
100
AcDbLine
 10
1107.102566
 20
1545.750237
 30
0.0
 11
1107.102566
 21
265.750237
 31
0.0
  0
LINE
  5
10D2
330
12ED
100
AcDbEntity
  8
toddler - Level 26
  6
Continuous
 62
     7
370
     0
100
AcDbLine
 10
1120.26282
 20
255.750237
 30
0.0
 11
1115.76282
 21
255.750237
 31
0.0
  0
ELLIPSE
  5
10D3
330
12ED
100
AcDbEntity
  8
toddler - Level 26
  6
Continuous
 62
     7
370
     0
100
AcDbEllipse
 10
1115.76282
 20
265.750237
 30
0.0
 11
0.0
 21
10.0
 31
0.0
210
0.0
220
0.0
230
1.0
 40
0.866025403784439
 41
1.570796326794896
 42
3.141592653589793
  0
LINE
  5
10D4
330
12ED
100
AcDbEntity
  8
toddler - Level 26
  6
Continuous
 62
     7
370
     0
100
AcDbLine
 10
1120.26282
 20
1555.750237
 30
0.0
 11
1674.519078
 21
1555.750237
 31
0.0
  0
ELLIPSE
  5
10D5
330
12ED
100
AcDbEntity
  8
toddler - Level 26
  6
Continuous
 62
     7
370
     0
100
AcDbEllipse
 10
1674.519078
 20
1550.750237
 30
0.0
 11
0.0
 21
5.0
 31
0.0
210
0.0
220
0.0
230
-1.0
 40
0.4999999999999996
 41
0.0
 42
1.570796326794896
  0
LINE
  5
10D6
330
12ED
100
AcDbEntity
  8
toddler - Level 26
  6
Continuous
 62
     7
370
     0
100
AcDbLine
 10
1674.519078
 20
255.750237
 30
0.0
 11
1120.26282
 21
255.750237
 31
0.0
  0
ELLIPSE
  5
10D7
330
12ED
100
AcDbEntity
  8
toddler - Level 26
  6
Continuous
 62
     7
370
     0
100
AcDbEllipse
 10
1674.519078
 20
260.750237
 30
0.0
 11
0.0
 21
-5.0
 31
0.0
210
0.0
220
0.0
230
1.0
 40
0.4999999999999992
 41
0.0000000000000001
 42
1.570796326794936
  0
SPLINE
  5
10D8
330
12ED
100
AcDbEntity
  8
toddler - Level 26
  6
Continuous
 62
     7
370
     0
100
AcDbSpline
210
0.0
220
0.0
230
1.0
 70
     8
 71
     3
 72
     8
 73
     4
 74
     0
 42
0.000000001
 43
0.0000000001
 40
0.0
 40
0.0
 40
0.0
 40
0.0
 40
1.0
 40
1.0
 40
1.0
 40
1.0
 10
1115.762819965879
 20
1555.750237352851
 30
0.0
 10
1110.606436544852
 20
1555.872416872466
 30
0.0
 10
1106.275480842221
 20
1550.962995773399
 30
0.0
 10
1106.432692946957
 20
1545.750237352851
 30
0.0
  0
LINE
  5
10DB
330
12ED
100
AcDbEntity
  8
toddler - Level 26
  6
Continuous
 62
     7
370
     0
100
AcDbLine
 10
1106.432693
 20
1545.750237
 30
0.0
 11
1107.102566
 21
1545.750237
 31
0.0
  0
SPLINE
  5
10DC
330
12ED
100
AcDbEntity
  8
toddler - Level 26
  6
Continuous
 62
     7
370
     0
100
AcDbSpline
210
0.0
220
0.0
230
1.0
 70
     8
 71
     3
 72
     8
 73
     4
 74
     0
 42
0.000000001
 43
0.0000000001
 40
0.0
 40
0.0
 40
0.0
 40
0.0
 40
1.0
 40
1.0
 40
1.0
 40
1.0
 10
1106.432692946957
 20
265.7502373528511
 30
0.0
 10
1106.277303892637
 20
260.5380645202434
 30
0.0
 10
1110.605806131156
 20
255.6280782714413
 30
0.0
 10
1115.762819965879
 20
255.7502373528512
 30
0.0
  0
LINE
  5
10DF
330
12ED
100
AcDbEntity
  8
toddler - Level 26
  6
Continuous
 62
     7
370
     0
100
AcDbLine
 10
1106.432693
 20
265.750237
 30
0.0
 11
1107.102566
 21
265.750237
 31
0.0
  0
LINE
  5
10E0
330
12ED
100
AcDbEntity
  8
toddler - Level 26
  6
Continuous
 62
     7
370
     0
100
AcDbLine
 10
1106.432693
 20
1545.750237
 30
0.0
 11
1106.432693
 21
265.750237
 31
0.0
  0
SPLINE
  5
10E1
330
12ED
100
AcDbEntity
  8
toddler - Level 26
  6
Continuous
 62
     7
370
     0
100
AcDbSpline
210
0.0
220
0.0
230
1.0
 70
     8
 71
     3
 72
    36
 73
    32
 74
     0
 42
0.000000001
 43
0.0000000001
 40
0.0
 40
0.0
 40
0.0
 40
0.0
 40
0.0079230833455502
 40
0.0281221868638218
 40
0.0482762242804515
 40
0.12704203267775
 40
0.1461095192037274
 40
0.1649278517236704
 40
0.1835167450454811
 40
0.2018999796909516
 40
0.2201026023785779
 40
0.2381491351482504
 40
0.2738636117484127
 40
0.6916211121080437
 40
0.7090878170657926
 40
0.7266047361441068
 40
0.7441842300479428
 40
0.7618406525105033
 40
0.7795904642909757
 40
0.7974522767830294
 40
0.8154467793462091
 40
0.8335964820748005
 40
0.8519251751212996
 40
0.8704569672942426
 40
0.8892147262890944
 40
0.9082177191331052
 40
0.927478286804108
 40
0.9469975587951166
 40
0.9667606224234065
 40
0.986732252890826
 40
1.0
 40
1.0
 40
1.0
 40
1.0
 10
1303.571530433587
 20
1395.750237352851
 30
0.0
 10
1303.510971059827
 20
1395.750778396195
 30
0.0
 10
1303.296021658065
 20
1395.752698775087
 30
0.0
 10
1302.927012011121
 20
1395.777978942563
 30
0.0
 10
1302.018242989287
 20
1395.905532495361
 30
0.0
 10
1301.122363253216
 20
1396.198490068615
 30
0.0
 10
1300.261683091182
 20
1396.658126992424
 30
0.0
 10
1299.851722513627
 20
1396.912729455135
 30
0.0
 10
1299.45462767216
 20
1397.19547578933
 30
0.0
 10
1299.071383032073
 20
1397.505426056531
 30
0.0
 10
1298.697207012525
 20
1397.840444729378
 30
0.0
 10
1298.26681616424
 20
1398.328697083717
 30
0.0
 10
1295.186553779715
 20
1401.77965452284
 30
0.0
 10
1294.841004632977
 20
1408.23986670398
 30
0.0
 10
1297.436589333636
 20
1412.087870697212
 30
0.0
 10
1297.703901750032
 20
1412.513430373915
 30
0.0
 10
1298.018562443401
 20
1412.916742383077
 30
0.0
 10
1298.349834648401
 20
1413.29675538901
 30
0.0
 10
1298.696618822418
 20
1413.652507463648
 30
0.0
 10
1299.057846823219
 20
1413.983134501243
 30
0.0
 10
1299.432499934798
 20
1414.287857553286
 30
0.0
 10
1299.819624259798
 20
1414.56596493191
 30
0.0
 10
1300.218340873159
 20
1414.816788272696
 30
0.0
 10
1300.627847059728
 20
1415.039675054142
 30
0.0
 10
1301.047403689653
 20
1415.233951387925
 30
0.0
 10
1301.476303215008
 20
1415.398908894395
 30
0.0
 10
1301.913812171542
 20
1415.53370871373
 30
0.0
 10
1302.359089719778
 20
1415.637647073804
 30
0.0
 10
1302.811076664869
 20
1415.70914524188
 30
0.0
 10
1303.21604607391
 20
1415.745096363463
 30
0.0
 10
1303.470116368165
 20
1415.748770709889
 30
0.0
 10
1303.571530433587
 20
1415.750237352851
 30
0.0
  0
ELLIPSE
  5
10E4
330
12ED
100
AcDbEntity
  8
toddler - Level 26
  6
Continuous
 62
     7
370
     0
100
AcDbEllipse
 10
1303.57153
 20
1420.750237
 30
0.0
 11
0.0
 21
5.0
 31
0.0
210
0.0
220
0.0
230
-1.0
 40
0.4999999999999996
 41
1.570796326794896
 42
3.141592653589793
  0
ELLIPSE
  5
10E5
330
12ED
100
AcDbEntity
  8
toddler - Level 26
  6
Continuous
 62
     7
370
     0
100
AcDbEllipse
 10
1303.57153
 20
1390.750237
 30
0.0
 11
0.0
 21
-5.0
 31
0.0
210
0.0
220
0.0
230
1.0
 40
0.4999999999999992
 41
1.570796326794896
 42
3.141592653589793
  0
SPLINE
  5
10E6
330
12ED
100
AcDbEntity
  8
toddler - Level 26
  6
Continuous
 62
     7
370
     0
100
AcDbSpline
210
0.0
220
0.0
230
1.0
 70
     8
 71
     3
 72
    36
 73
    32
 74
     0
 42
0.000000001
 43
0.0000000001
 40
0.0
 40
0.0
 40
0.0
 40
0.0
 40
0.0079230833455498
 40
0.0281221868638291
 40
0.0482762242804415
 40
0.1270420326777742
 40
0.1461095192037356
 40
0.1649278517237131
 40
0.1835167450454244
 40
0.2018999796908884
 40
0.2201026023784618
 40
0.2381491351481411
 40
0.2738636117482916
 40
0.691621112107896
 40
0.7090878170655366
 40
0.7266047361439295
 40
0.7441842300476544
 40
0.7618406525102515
 40
0.7795904642908621
 40
0.7974522767828612
 40
0.8154467793461304
 40
0.8335964820746985
 40
0.85192517512118
 40
0.870456967294163
 40
0.8892147262890514
 40
0.9082177191329906
 40
0.9274782868039851
 40
0.9469975587949299
 40
0.9667606224232633
 40
0.9867322528907662
 40
1.0
 40
1.0
 40
1.0
 40
1.0
 10
1303.571530433589
 20
395.7502373528472
 30
0.0
 10
1303.510971059829
 20
395.7507783961911
 30
0.0
 10
1303.296021658068
 20
395.7526987750832
 30
0.0
 10
1302.927012011123
 20
395.7779789425581
 30
0.0
 10
1302.018242989288
 20
395.9055324953581
 30
0.0
 10
1301.122363253219
 20
396.1984900686104
 30
0.0
 10
1300.261683091184
 20
396.6581269924202
 30
0.0
 10
1299.851722513629
 20
396.91272945513
 30
0.0
 10
1299.454627672163
 20
397.195475789325
 30
0.0
 10
1299.071383032077
 20
397.5054260565252
 30
0.0
 10
1298.697207012528
 20
397.8404447293719
 30
0.0
 10
1298.266816164245
 20
398.3286970837102
 30
0.0
 10
1295.186553779715
 20
401.7796545228318
 30
0.0
 10
1294.841004632982
 20
408.2398667039664
 30
0.0
 10
1297.436589333634
 20
412.0878706972037
 30
0.0
 10
1297.703901750029
 20
412.5134303739054
 30
0.0
 10
1298.018562443398
 20
412.9167423830679
 30
0.0
 10
1298.349834648398
 20
413.2967553890016
 30
0.0
 10
1298.696618822416
 20
413.6525074636408
 30
0.0
 10
1299.057846823219
 20
413.9831345012374
 30
0.0
 10
1299.432499934797
 20
414.2878575532804
 30
0.0
 10
1299.819624259797
 20
414.565964931904
 30
0.0
 10
1300.218340873159
 20
414.816788272691
 30
0.0
 10
1300.627847059727
 20
415.0396750541374
 30
0.0
 10
1301.047403689653
 20
415.2339513879203
 30
0.0
 10
1301.476303215008
 20
415.3989088943902
 30
0.0
 10
1301.913812171541
 20
415.5337087137256
 30
0.0
 10
1302.359089719776
 20
415.6376470737998
 30
0.0
 10
1302.811076664868
 20
415.7091452418758
 30
0.0
 10
1303.21604607391
 20
415.7450963634587
 30
0.0
 10
1303.470116368167
 20
415.7487707098851
 30
0.0
 10
1303.571530433589
 20
415.7502373528469
 30
0.0
  0
ELLIPSE
  5
10E9
330
12ED
100
AcDbEntity
  8
toddler - Level 26
  6
Continuous
 62
     7
370
     0
100
AcDbEllipse
 10
1303.57153
 20
390.750237
 30
0.0
 11
0.0
 21
5.000000000000001
 31
0.0
210
0.0
220
0.0
230
-1.0
 40
0.4999999999999943
 41
0.0000000000000821
 42
1.570796326794954
  0
ELLIPSE
  5
10EA
330
12ED
100
AcDbEntity
  8
toddler - Level 26
  6
Continuous
 62
     7
370
     0
100
AcDbEllipse
 10
1303.57153
 20
420.750237
 30
0.0
 11
0.0
 21
-5.0
 31
0.0
210
0.0
220
0.0
230
1.0
 40
0.5000000000001535
 41
-0.0000000000000968
 42
1.570796326794834
  0
LINE
  5
10EB
330
12ED
100
AcDbEntity
  8
toddler - Level 26
  6
Continuous
 62
     7
370
     0
100
AcDbLine
 10
1329.552293
 20
425.750237
 30
0.0
 11
1329.552293
 21
1385.750237
 31
0.0
  0
ELLIPSE
  5
10EC
330
12ED
100
AcDbEntity
  8
toddler - Level 26
  6
Continuous
 62
     7
370
     0
100
AcDbEllipse
 10
1303.57153
 20
425.750237
 30
0.0
 11
0.0
 21
30.00000000000001
 31
0.0
210
0.0
220
0.0
230
1.0
 40
0.866025403784439
 41
3.141592653589881
 42
4.712388980384689
  0
ELLIPSE
  5
10ED
330
12ED
100
AcDbEntity
  8
toddler - Level 26
  6
Continuous
 62
     7
370
     0
100
AcDbEllipse
 10
1303.57153
 20
1385.750237
 30
0.0
 11
0.0
 21
30.00000000000001
 31
0.0
210
0.0
220
0.0
230
1.0
 40
0.866025403784439
 41
4.712388980384686
 42
6.283185307179586
  0
LINE
  5
10EE
330
12ED
100
AcDbEntity
  8
toddler - Level 26
  6
Continuous
 62
     7
370
     0
100
AcDbLine
 10
1329.552293
 20
1385.750237
 30
0.0
 11
1336.38242
 21
1385.750237
 31
0.0
  0
SPLINE
  5
10EF
330
12ED
100
AcDbEntity
  8
toddler - Level 26
  6
Continuous
 62
     7
370
     0
100
AcDbSpline
210
0.0
220
0.0
230
1.0
 70
     8
 71
     3
 72
     8
 73
     4
 74
     0
 42
0.000000001
 43
0.0000000001
 40
0.0
 40
0.0
 40
0.0
 40
0.0
 40
1.0
 40
1.0
 40
1.0
 40
1.0
 10
1312.901657452509
 20
1385.750237352851
 30
0.0
 10
1313.057046506831
 20
1390.962410185461
 30
0.0
 10
1308.72854426831
 20
1395.872396434259
 30
0.0
 10
1303.571530433587
 20
1395.750237352851
 30
0.0
  0
LINE
  5
10F2
330
12ED
100
AcDbEntity
  8
toddler - Level 26
  6
Continuous
 62
     7
370
     0
100
AcDbLine
 10
1312.901657
 20
1385.750237
 30
0.0
 11
1310.401657
 21
1385.750237
 31
0.0
  0
LINE
  5
10F3
330
12ED
100
AcDbEntity
  8
toddler - Level 26
  6
Continuous
 62
     7
370
     0
100
AcDbLine
 10
1310.401657
 20
425.750237
 30
0.0
 11
1312.901657
 21
425.750237
 31
0.0
  0
SPLINE
  5
10F4
330
12ED
100
AcDbEntity
  8
toddler - Level 26
  6
Continuous
 62
     7
370
     0
100
AcDbSpline
210
0.0
220
0.0
230
1.0
 70
     8
 71
     3
 72
     8
 73
     4
 74
     0
 42
0.000000001
 43
0.0000000001
 40
0.0
 40
0.0
 40
0.0
 40
0.0
 40
1.0
 40
1.0
 40
1.0
 40
1.0
 10
1303.571530433589
 20
415.7502373528469
 30
0.0
 10
1308.727913854614
 20
415.628057833234
 30
0.0
 10
1313.058869557246
 20
420.5374789322998
 30
0.0
 10
1312.901657452509
 20
425.750237352847
 30
0.0
  0
LINE
  5
10F7
330
12ED
100
AcDbEntity
  8
toddler - Level 26
  6
Continuous
 62
     7
370
     0
100
AcDbLine
 10
1336.38242
 20
425.750237
 30
0.0
 11
1329.552293
 21
425.750237
 31
0.0
  0
LINE
  5
10F8
330
12ED
100
AcDbEntity
  8
toddler - Level 26
  6
Continuous
 62
     7
370
     0
100
AcDbLine
 10
1312.901657
 20
425.750237
 30
0.0
 11
1312.901657
 21
1385.750237
 31
0.0
  0
SPLINE
  5
10F9
330
12ED
100
AcDbEntity
  8
toddler - Level 26
  6
Continuous
 62
     7
370
     0
100
AcDbSpline
210
0.0
220
0.0
230
1.0
 70
     8
 71
     3
 72
    36
 73
    32
 74
     0
 42
0.000000001
 43
0.0000000001
 40
0.0
 40
0.0
 40
0.0
 40
0.0
 40
0.0079230833455513
 40
0.0281221868638207
 40
0.0482762242804515
 40
0.1270420326776078
 40
0.146109519203647
 40
0.1649278517235333
 40
0.1835167450453331
 40
0.2018999796907423
 40
0.2201026023784913
 40
0.2381491351481862
 40
0.273863611748474
 40
0.6916211121080178
 40
0.7090878170657923
 40
0.72660473614408
 40
0.7441842300479054
 40
0.7618406525104198
 40
0.7795904642909831
 40
0.7974522767829873
 40
0.8154467793461332
 40
0.8335964820746646
 40
0.8519251751211537
 40
0.8704569672942065
 40
0.8892147262889292
 40
0.908217719132873
 40
0.9274782868038094
 40
0.9469975587948059
 40
0.9667606224231374
 40
0.9867322528905758
 40
1.0
 40
1.0
 40
1.0
 40
1.0
 10
1534.511638109438
 20
1395.750237352851
 30
0.0
 10
1534.451078735678
 20
1395.750778396195
 30
0.0
 10
1534.236129333916
 20
1395.752698775088
 30
0.0
 10
1533.867119686971
 20
1395.777978942563
 30
0.0
 10
1532.958350665138
 20
1395.905532495361
 30
0.0
 10
1532.062470929069
 20
1396.198490068614
 30
0.0
 10
1531.201790767036
 20
1396.658126992422
 30
0.0
 10
1530.79183018948
 20
1396.912729455133
 30
0.0
 10
1530.394735348014
 20
1397.195475789327
 30
0.0
 10
1530.011490707927
 20
1397.505426056528
 30
0.0
 10
1529.637314688378
 20
1397.840444729375
 30
0.0
 10
1529.206923840091
 20
1398.328697083717
 30
0.0
 10
1526.126661455564
 20
1401.779654522839
 30
0.0
 10
1525.781112308827
 20
1408.239866703979
 30
0.0
 10
1528.376697009486
 20
1412.087870697212
 30
0.0
 10
1528.644009425883
 20
1412.513430373915
 30
0.0
 10
1528.958670119251
 20
1412.916742383076
 30
0.0
 10
1529.289942324251
 20
1413.296755389009
 30
0.0
 10
1529.636726498267
 20
1413.652507463648
 30
0.0
 10
1529.997954499068
 20
1413.983134501243
 30
0.0
 10
1530.372607610647
 20
1414.287857553285
 30
0.0
 10
1530.759731935646
 20
1414.565964931907
 30
0.0
 10
1531.158448549007
 20
1414.816788272695
 30
0.0
 10
1531.567954735576
 20
1415.039675054141
 30
0.0
 10
1531.9875113655
 20
1415.233951387923
 30
0.0
 10
1532.416410890854
 20
1415.398908894393
 30
0.0
 10
1532.853919847386
 20
1415.533708713728
 30
0.0
 10
1533.299197395621
 20
1415.637647073803
 30
0.0
 10
1533.751184340714
 20
1415.709145241879
 30
0.0
 10
1534.156153749756
 20
1415.745096363462
 30
0.0
 10
1534.410224044014
 20
1415.748770709889
 30
0.0
 10
1534.511638109438
 20
1415.750237352851
 30
0.0
  0
ELLIPSE
  5
10FC
330
12ED
100
AcDbEntity
  8
toddler - Level 26
  6
Continuous
 62
     7
370
     0
100
AcDbEllipse
 10
1534.511638
 20
1420.750237
 30
0.0
 11
0.0
 21
5.0
 31
0.0
210
0.0
220
0.0
230
-1.0
 40
0.4999999999999996
 41
1.570796326794896
 42
3.141592653589782
  0
ELLIPSE
  5
10FD
330
12ED
100
AcDbEntity
  8
toddler - Level 26
  6
Continuous
 62
     7
370
     0
100
AcDbEllipse
 10
1534.511638
 20
1390.750237
 30
0.0
 11
0.0
 21
-5.0
 31
0.0
210
0.0
220
0.0
230
1.0
 40
0.4999999999999992
 41
1.570796326794896
 42
3.141592653589793
  0
SPLINE
  5
10FE
330
12ED
100
AcDbEntity
  8
toddler - Level 26
  6
Continuous
 62
     7
370
     0
100
AcDbSpline
210
0.0
220
0.0
230
1.0
 70
     8
 71
     3
 72
    36
 73
    32
 74
     0
 42
0.000000001
 43
0.0000000001
 40
0.0
 40
0.0
 40
0.0
 40
0.0
 40
0.0079230833455513
 40
0.0281221868642095
 40
0.0482762242807385
 40
0.1270420326780283
 40
0.146109519204055
 40
0.1649278517239915
 40
0.1835167450458443
 40
0.2018999796911826
 40
0.2201026023789154
 40
0.2381491351486168
 40
0.273863611748937
 40
0.6916211121090216
 40
0.70908781706665
 40
0.7266047361449092
 40
0.7441842300488126
 40
0.7618406525114713
 40
0.779590464291983
 40
0.797452276783948
 40
0.8154467793471066
 40
0.8335964820756791
 40
0.8519251751221814
 40
0.8704569672951642
 40
0.8892147262899957
 40
0.9082177191339365
 40
0.9274782868049769
 40
0.9469975587959737
 40
0.9667606224242451
 40
0.9867322528917405
 40
1.0
 40
1.0
 40
1.0
 40
1.0
 10
1534.511638109438
 20
395.7502373528512
 30
0.0
 10
1534.451078735678
 20
395.7507783961952
 30
0.0
 10
1534.236129333913
 20
395.7526987750878
 30
0.0
 10
1533.867119686965
 20
395.7779789425627
 30
0.0
 10
1532.95835066513
 20
395.9055324953638
 30
0.0
 10
1532.06247092906
 20
396.1984900686182
 30
0.0
 10
1531.201790767026
 20
396.658126992428
 30
0.0
 10
1530.79183018947
 20
396.9127294551396
 30
0.0
 10
1530.394735348005
 20
397.1954757893346
 30
0.0
 10
1530.011490707918
 20
397.5054260565364
 30
0.0
 10
1529.637314688369
 20
397.8404447293838
 30
0.0
 10
1529.206923840083
 20
398.328697083726
 30
0.0
 10
1526.126661455554
 20
401.7796545228588
 30
0.0
 10
1525.781112308836
 20
408.239866704011
 30
0.0
 10
1528.376697009501
 20
412.0878706972344
 30
0.0
 10
1528.644009425897
 20
412.5134303739347
 30
0.0
 10
1528.958670119268
 20
412.9167423830968
 30
0.0
 10
1529.289942324269
 20
413.2967553890297
 30
0.0
 10
1529.636726498288
 20
413.6525074636668
 30
0.0
 10
1529.997954499089
 20
413.98313450126
 30
0.0
 10
1530.372607610667
 20
414.2878575533006
 30
0.0
 10
1530.759731935668
 20
414.5659649319219
 30
0.0
 10
1531.158448549029
 20
414.816788272708
 30
0.0
 10
1531.567954735598
 20
415.0396750541522
 30
0.0
 10
1531.987511365523
 20
415.2339513879336
 30
0.0
 10
1532.416410890879
 20
415.3989088944012
 30
0.0
 10
1532.853919847412
 20
415.5337087137357
 30
0.0
 10
1533.299197395647
 20
415.6376470738083
 30
0.0
 10
1533.75118434074
 20
415.7091452418821
 30
0.0
 10
1534.156153749773
 20
415.7450963634633
 30
0.0
 10
1534.410224044022
 20
415.7487707098893
 30
0.0
 10
1534.511638109438
 20
415.750237352851
 30
0.0
  0
ELLIPSE
  5
1101
330
12ED
100
AcDbEntity
  8
toddler - Level 26
  6
Continuous
 62
     7
370
     0
100
AcDbEllipse
 10
1534.511638
 20
390.750237
 30
0.0
 11
0.0
 21
5.0
 31
0.0
210
0.0
220
0.0
230
-1.0
 40
0.4999999999999992
 41
0.0
 42
1.570796326794896
  0
ELLIPSE
  5
1102
330
12ED
100
AcDbEntity
  8
toddler - Level 26
  6
Continuous
 62
     7
370
     0
100
AcDbEllipse
 10
1534.511638
 20
420.750237
 30
0.0
 11
0.0
 21
-5.0
 31
0.0
210
0.0
220
0.0
230
1.0
 40
0.4999999999999992
 41
0.0000000000000001
 42
1.570796326794936
  0
LINE
  5
1103
330
12ED
100
AcDbEntity
  8
toddler - Level 26
  6
Continuous
 62
     7
370
     0
100
AcDbLine
 10
1560.4924
 20
425.750237
 30
0.0
 11
1560.4924
 21
1385.750237
 31
0.0
  0
ELLIPSE
  5
1104
330
12ED
100
AcDbEntity
  8
toddler - Level 26
  6
Continuous
 62
     7
370
     0
100
AcDbEllipse
 10
1534.511638
 20
425.750237
 30
0.0
 11
0.0
 21
30.00000000000001
 31
0.0
210
0.0
220
0.0
230
1.0
 40
0.866025403784439
 41
3.141592653589793
 42
4.712388980384689
  0
ELLIPSE
  5
1105
330
12ED
100
AcDbEntity
  8
toddler - Level 26
  6
Continuous
 62
     7
370
     0
100
AcDbEllipse
 10
1534.511638
 20
1385.750237
 30
0.0
 11
0.0
 21
30.00000000000001
 31
0.0
210
0.0
220
0.0
230
1.0
 40
0.866025403784439
 41
4.712388980384689
 42
6.283185307179583
  0
LINE
  5
1106
330
12ED
100
AcDbEntity
  8
toddler - Level 26
  6
Continuous
 62
     7
370
     0
100
AcDbLine
 10
1541.341765
 20
425.750237
 30
0.0
 11
1543.841765
 21
425.750237
 31
0.0
  0
SPLINE
  5
1107
330
12ED
100
AcDbEntity
  8
toddler - Level 26
  6
Continuous
 62
     7
370
     0
100
AcDbSpline
210
0.0
220
0.0
230
1.0
 70
     8
 71
     3
 72
     8
 73
     4
 74
     0
 42
0.000000001
 43
0.0000000001
 40
0.0
 40
0.0
 40
0.0
 40
0.0
 40
1.0
 40
1.0
 40
1.0
 40
1.0
 10
1534.511638109438
 20
415.750237352851
 30
0.0
 10
1539.668021530462
 20
415.6280578332375
 30
0.0
 10
1543.998977233097
 20
420.5374789323023
 30
0.0
 10
1543.84176512836
 20
425.750237352851
 30
0.0
  0
LINE
  5
110A
330
12ED
100
AcDbEntity
  8
toddler - Level 26
  6
Continuous
 62
     7
370
     0
100
AcDbLine
 10
1560.4924
 20
1385.750237
 30
0.0
 11
1567.322527
 21
1385.750237
 31
0.0
  0
LINE
  5
110B
330
12ED
100
AcDbEntity
  8
toddler - Level 26
  6
Continuous
 62
     7
370
     0
100
AcDbLine
 10
1567.322527
 20
425.750237
 30
0.0
 11
1560.4924
 21
425.750237
 31
0.0
  0
SPLINE
  5
110C
330
12ED
100
AcDbEntity
  8
toddler - Level 26
  6
Continuous
 62
     7
370
     0
100
AcDbSpline
210
0.0
220
0.0
230
1.0
 70
     8
 71
     3
 72
     8
 73
     4
 74
     0
 42
0.000000001
 43
0.0000000001
 40
0.0
 40
0.0
 40
0.0
 40
0.0
 40
1.0
 40
1.0
 40
1.0
 40
1.0
 10
1543.84176512836
 20
1385.750237352851
 30
0.0
 10
1543.997154182681
 20
1390.962410185462
 30
0.0
 10
1539.66865194416
 20
1395.872396434258
 30
0.0
 10
1534.511638109438
 20
1395.750237352851
 30
0.0
  0
LINE
  5
110F
330
12ED
100
AcDbEntity
  8
toddler - Level 26
  6
Continuous
 62
     7
370
     0
100
AcDbLine
 10
1543.841765
 20
1385.750237
 30
0.0
 11
1541.341765
 21
1385.750237
 31
0.0
  0
LINE
  5
1110
330
12ED
100
AcDbEntity
  8
toddler - Level 26
  6
Continuous
 62
     7
370
     0
100
AcDbLine
 10
1543.841765
 20
425.750237
 30
0.0
 11
1543.841765
 21
1385.750237
 31
0.0
  0
LINE
  5
1111
330
12ED
100
AcDbEntity
  8
toddler - Level 26
  6
Continuous
 62
     7
370
     0
100
AcDbLine
 10
1759.291492
 20
1455.750237
 30
0.0
 11
1761.791492
 21
1455.750237
 31
0.0
  0
SPLINE
  5
1112
330
12ED
100
AcDbEntity
  8
toddler - Level 26
  6
Continuous
 62
     7
370
     0
100
AcDbSpline
210
0.0
220
0.0
230
1.0
 70
     8
 71
     3
 72
    36
 73
    32
 74
     0
 42
0.000000001
 43
0.0000000001
 40
0.0
 40
0.0
 40
0.0
 40
0.0
 40
0.1486784089334257
 40
0.1605385306961376
 40
0.1723984344945305
 40
0.6578734565344013
 40
0.669675867290649
 40
0.681475555934131
 40
0.6932724959981382
 40
0.7050666682854207
 40
0.7168580613052607
 40
0.7286466716822464
 40
0.7404325045332176
 40
0.7522155738059768
 40
0.7639959025769662
 40
0.7757735233010168
 40
0.7875484780110574
 40
0.7993208184620838
 40
0.8110906062171229
 40
0.8228579126711029
 40
0.834622819010929
 40
0.8463854161090154
 40
0.8581458043497029
 40
0.8699040933875362
 40
0.8816604018370664
 40
0.9521643231087068
 40
0.9639107461664298
 40
0.9756564018261249
 40
0.9874014651642211
 40
0.9985277837106179
 40
1.0
 40
1.0
 40
1.0
 40
1.0
 10
1761.791491747443
 20
1455.750237352851
 30
0.0
 10
1761.783939351878
 20
1463.502606901423
 30
0.0
 10
1760.953282338917
 20
1471.897438254684
 30
0.0
 10
1759.043738413675
 20
1480.61339710201
 30
0.0
 10
1753.165902660389
 20
1506.36316561305
 30
0.0
 10
1738.140191352594
 20
1529.079661231448
 30
0.0
 10
1717.939151302153
 20
1542.491710140167
 30
0.0
 10
1716.540356068078
 20
1543.412656121481
 30
0.0
 10
1715.11263764441
 20
1544.29103762638
 30
0.0
 10
1713.671004063622
 20
1545.13883911949
 30
0.0
 10
1712.215958941323
 20
1545.955773441778
 30
0.0
 10
1710.748010139498
 20
1546.741564715668
 30
0.0
 10
1709.267669524469
 20
1547.495948412299
 30
0.0
 10
1707.775452725491
 20
1548.218671407685
 30
0.0
 10
1706.271878894985
 20
1548.909492027817
 30
0.0
 10
1704.757470471215
 20
1549.568180082965
 30
0.0
 10
1703.23275294441
 20
1550.194516891435
 30
0.0
 10
1701.698254627109
 20
1550.788295293246
 30
0.0
 10
1700.154506429613
 20
1551.34931965419
 30
0.0
 10
1698.602041641279
 20
1551.877405860954
 30
0.0
 10
1697.041395718374
 20
1552.372381307987
 30
0.0
 10
1695.473106079086
 20
1552.834084876861
 30
0.0
 10
1693.89771190621
 20
1553.262366909289
 30
0.0
 10
1692.315751768573
 20
1553.657077072392
 30
0.0
 10
1688.082608129573
 20
1554.619589607067
 30
0.0
 10
1683.796501792339
 20
1555.266858890207
 30
0.0
 10
1679.489068112436
 20
1555.593848449511
 30
0.0
 10
1677.872548867872
 20
1555.682222262129
 30
0.0
 10
1676.283312737996
 20
1555.735157790294
 30
0.0
 10
1675.165299024413
 20
1555.749683260344
 30
0.0
 10
1674.586692159149
 20
1555.750179378404
 30
0.0
 10
1674.519078387922
 20
1555.750237352851
 30
0.0
  0
LINE
  5
1115
330
12ED
100
AcDbEntity
  8
toddler - Level 26
  6
Continuous
 62
     7
370
     0
100
AcDbLine
 10
1759.291492
 20
355.750237
 30
0.0
 11
1761.791492
 21
355.750237
 31
0.0
  0
SPLINE
  5
1116
330
12ED
100
AcDbEntity
  8
toddler - Level 26
  6
Continuous
 62
     7
370
     0
100
AcDbSpline
210
0.0
220
0.0
230
1.0
 70
     8
 71
     3
 72
    18
 73
    14
 74
     0
 42
0.000000001
 43
0.0000000001
 40
0.0
 40
0.0
 40
0.0
 40
0.0
 40
0.3003640379318011
 40
0.3121511088342035
 40
0.323940902827459
 40
0.8328058829012674
 40
0.8565225541182186
 40
0.9514001702286542
 40
0.9632607231028663
 40
0.975121398401764
 40
0.9869821779973328
 40
0.9982189086919333
 40
1.0
 40
1.0
 40
1.0
 40
1.0
 10
1674.519078387922
 20
255.7502373528512
 30
0.0
 10
1688.30730539697
 20
255.740611229821
 30
0.0
 10
1702.656084616509
 20
259.6881381586456
 30
0.0
 10
1715.755721494889
 20
267.6232905102827
 30
0.0
 10
1737.249769809186
 20
280.9424391894335
 30
0.0
 10
1753.618174008137
 20
305.2156366980579
 30
0.0
 10
1760.373108002194
 20
337.0955708527899
 30
0.0
 10
1761.312982441127
 20
343.8109077580532
 30
0.0
 10
1761.646709865022
 20
350.0054196430714
 30
0.0
 10
1761.730403979496
 20
351.8561712517929
 30
0.0
 10
1761.777454948538
 20
353.6797262787106
 30
0.0
 10
1761.790890084474
 20
354.9779747033576
 30
0.0
 10
1761.791419335593
 20
355.6572933465125
 30
0.0
 10
1761.791491747443
 20
355.7502373528511
 30
0.0
  0
LINE
  5
1119
330
12ED
100
AcDbEntity
  8
toddler - Level 26
  6
Continuous
 62
     7
370
     0
100
AcDbLine
 10
1761.791492
 20
355.750237
 30
0.0
 11
1761.791492
 21
1455.750237
 31
0.0
  0
LINE
  5
111A
330
12ED
100
AcDbEntity
  8
toddler - Level 26
  6
Continuous
 62
     7
370
     0
100
AcDbLine
 10
1094.368607
 20
265.750237
 30
0.0
 11
1094.368607
 21
1545.750237
 31
0.0
  0
LINE
  5
111B
330
12ED
100
AcDbEntity
  8
toddler - Level 26
  6
Continuous
 62
     7
370
     0
100
AcDbLine
 10
1101.198734
 20
1545.750237
 30
0.0
 11
1094.368607
 21
1545.750237
 31
0.0
  0
LINE
  5
111C
330
12ED
100
AcDbEntity
  8
toddler - Level 26
  6
Continuous
 62
     7
370
     0
100
AcDbLine
 10
1101.198734
 20
1545.750237
 30
0.0
 11
1101.198734
 21
265.750237
 31
0.0
  0
LINE
  5
111D
330
12ED
100
AcDbEntity
  8
toddler - Level 26
  6
Continuous
 62
     7
370
     0
100
AcDbLine
 10
1101.198734
 20
265.750237
 30
0.0
 11
1094.368607
 21
265.750237
 31
0.0
  0
ELLIPSE
  5
111E
330
12ED
100
AcDbEntity
  8
toddler - Level 26
  6
Continuous
 62
     7
370
     0
100
AcDbEllipse
 10
1090.03848
 20
265.750237
 30
0.0
 11
0.0
 21
-4.999999999999996
 31
0.0
210
0.0
220
0.0
230
1.0
 40
0.866025403784439
 41
0.0
 42
1.570796326794896
  0
ELLIPSE
  5
111F
330
12ED
100
AcDbEntity
  8
toddler - Level 26
  6
Continuous
 62
     7
370
     0
100
AcDbEllipse
 10
1092.53848
 20
265.750237
 30
0.0
 11
0.0
 21
10.0
 31
0.0
210
0.0
220
0.0
230
-1.0
 40
0.8660254037844389
 41
1.570796326794896
 42
3.141592653589793
  0
ELLIPSE
  5
1120
330
12ED
100
AcDbEntity
  8
toddler - Level 26
  6
Continuous
 62
     7
370
     0
100
AcDbEllipse
 10
1092.53848
 20
260.750237
 30
0.0
 11
0.0
 21
5.0
 31
0.0
210
0.0
220
0.0
230
1.0
 40
0.4999999999999992
 41
1.570796326794896
 42
3.141592653589793
  0
ELLIPSE
  5
1121
330
12ED
100
AcDbEntity
  8
toddler - Level 26
  6
Continuous
 62
     7
370
     0
100
AcDbEllipse
 10
1090.03848
 20
1545.750237
 30
0.0
 11
0.0
 21
-5.0
 31
0.0
210
0.0
220
0.0
230
1.0
 40
0.8660254037844392
 41
1.570796326794896
 42
3.141592653589793
  0
ELLIPSE
  5
1122
330
12ED
100
AcDbEntity
  8
toddler - Level 26
  6
Continuous
 62
     7
370
     0
100
AcDbEllipse
 10
1092.53848
 20
1550.750237
 30
0.0
 11
0.0
 21
-4.999999999999996
 31
0.0
210
0.0
220
0.0
230
-1.0
 40
0.4999999999999997
 41
1.570796326794896
 42
3.141592653589793
  0
ELLIPSE
  5
1123
330
12ED
100
AcDbEntity
  8
toddler - Level 26
  6
Continuous
 62
     7
370
     0
100
AcDbEllipse
 10
1092.53848
 20
1545.750237
 30
0.0
 11
0.0
 21
10.0
 31
0.0
210
0.0
220
0.0
230
-1.0
 40
0.866025403784439
 41
0.0
 42
1.570796326794896
  0
LINE
  5
1124
330
12ED
100
AcDbEntity
  8
toddler - Level 26
  6
Continuous
 62
     7
370
     0
100
AcDbLine
 10
535.782222
 20
260.750237
 30
0.0
 11
1090.03848
 21
260.750237
 31
0.0
  0
ELLIPSE
  5
1125
330
12ED
100
AcDbEntity
  8
toddler - Level 26
  6
Continuous
 62
     7
370
     0
100
AcDbEllipse
 10
535.782222
 20
355.750237
 30
0.0
 11
0.0
 21
-94.99999999999998
 31
0.0
210
0.0
220
0.0
230
1.0
 40
0.866025403784439
 41
4.712388980384689
 42
6.283185307179586
  0
LINE
  5
1126
330
12ED
100
AcDbEntity
  8
toddler - Level 26
  6
Continuous
 62
     7
370
     0
100
AcDbLine
 10
453.509808
 20
1455.750237
 30
0.0
 11
453.509808
 21
355.750237
 31
0.0
  0
ELLIPSE
  5
1127
330
12ED
100
AcDbEntity
  8
toddler - Level 26
  6
Continuous
 62
     7
370
     0
100
AcDbEllipse
 10
535.782222
 20
1455.750237
 30
0.0
 11
0.0
 21
-95.0
 31
0.0
210
0.0
220
0.0
230
1.0
 40
0.8660254037844389
 41
3.141592653589793
 42
4.712388980384689
  0
LINE
  5
1128
330
12ED
100
AcDbEntity
  8
toddler - Level 26
  6
Continuous
 62
     7
370
     0
100
AcDbLine
 10
1090.03848
 20
1550.750237
 30
0.0
 11
535.782222
 21
1550.750237
 31
0.0
  0
ELLIPSE
  5
1129
330
12ED
100
AcDbEntity
  8
toddler - Level 26
  6
Continuous
 62
     7
370
     0
100
AcDbEllipse
 10
675.789662
 20
405.750237
 30
0.0
 11
0.0
 21
15.00000000000001
 31
0.0
210
0.0
220
0.0
230
-1.0
 40
0.8660254037844392
 41
0.0
 42
3.141592653589793
  0
ELLIPSE
  5
112A
330
12ED
100
AcDbEntity
  8
toddler - Level 26
  6
Continuous
 62
     7
370
     0
100
AcDbEllipse
 10
675.789662
 20
425.750237
 30
0.0
 11
0.0
 21
-5.0
 31
0.0
210
0.0
220
0.0
230
1.0
 40
0.8660254037844392
 41
4.712388980384689
 42
6.283185307179586
  0
LINE
  5
112B
330
12ED
100
AcDbEntity
  8
toddler - Level 26
  6
Continuous
 62
     7
370
     0
100
AcDbLine
 10
671.459535
 20
1385.750237
 30
0.0
 11
671.459535
 21
425.750237
 31
0.0
  0
ELLIPSE
  5
112C
330
12ED
100
AcDbEntity
  8
toddler - Level 26
  6
Continuous
 62
     7
370
     0
100
AcDbEllipse
 10
675.789662
 20
1385.750237
 30
0.0
 11
0.0
 21
-5.0
 31
0.0
210
0.0
220
0.0
230
1.0
 40
0.8660254037844392
 41
3.141592653589793
 42
4.712388980384689
  0
ELLIPSE
  5
112D
330
12ED
100
AcDbEntity
  8
toddler - Level 26
  6
Continuous
 62
     7
370
     0
100
AcDbEllipse
 10
675.789662
 20
1405.750237
 30
0.0
 11
0.0
 21
15.00000000000001
 31
0.0
210
0.0
220
0.0
230
-1.0
 40
0.8660254037844392
 41
0.0
 42
3.141592653589793
  0
ELLIPSE
  5
112E
330
12ED
100
AcDbEntity
  8
toddler - Level 26
  6
Continuous
 62
     7
370
     0
100
AcDbEllipse
 10
675.789662
 20
1385.750237
 30
0.0
 11
0.0
 21
35.00000000000001
 31
0.0
210
0.0
220
0.0
230
-1.0
 40
0.8660254037844394
 41
4.712388980384689
 42
6.283185307179586
  0
LINE
  5
112F
330
12ED
100
AcDbEntity
  8
toddler - Level 26
  6
Continuous
 62
     7
370
     0
100
AcDbLine
 10
645.478773
 20
425.750237
 30
0.0
 11
645.478773
 21
1385.750237
 31
0.0
  0
ELLIPSE
  5
1130
330
12ED
100
AcDbEntity
  8
toddler - Level 26
  6
Continuous
 62
     7
370
     0
100
AcDbEllipse
 10
675.789662
 20
425.750237
 30
0.0
 11
0.0
 21
35.00000000000001
 31
0.0
210
0.0
220
0.0
230
-1.0
 40
0.8660254037844394
 41
3.141592653589793
 42
4.712388980384689
  0
ELLIPSE
  5
1131
330
12ED
100
AcDbEntity
  8
toddler - Level 26
  6
Continuous
 62
     7
370
     0
100
AcDbEllipse
 10
906.72977
 20
405.750237
 30
0.0
 11
0.0
 21
15.00000000000001
 31
0.0
210
0.0
220
0.0
230
-1.0
 40
0.8660254037844392
 41
0.0
 42
3.141592653589793
  0
ELLIPSE
  5
1132
330
12ED
100
AcDbEntity
  8
toddler - Level 26
  6
Continuous
 62
     7
370
     0
100
AcDbEllipse
 10
906.72977
 20
425.750237
 30
0.0
 11
0.0
 21
-5.0
 31
0.0
210
0.0
220
0.0
230
1.0
 40
0.8660254037844392
 41
4.712388980384689
 42
6.283185307179586
  0
LINE
  5
1133
330
12ED
100
AcDbEntity
  8
toddler - Level 26
  6
Continuous
 62
     7
370
     0
100
AcDbLine
 10
902.399643
 20
1385.750237
 30
0.0
 11
902.399643
 21
425.750237
 31
0.0
  0
ELLIPSE
  5
1134
330
12ED
100
AcDbEntity
  8
toddler - Level 26
  6
Continuous
 62
     7
370
     0
100
AcDbEllipse
 10
906.72977
 20
1385.750237
 30
0.0
 11
0.0
 21
-5.0
 31
0.0
210
0.0
220
0.0
230
1.0
 40
0.8660254037844392
 41
3.141592653590139
 42
4.712388980384689
  0
ELLIPSE
  5
1135
330
12ED
100
AcDbEntity
  8
toddler - Level 26
  6
Continuous
 62
     7
370
     0
100
AcDbEllipse
 10
906.72977
 20
1405.750237
 30
0.0
 11
0.0
 21
15.00000000000001
 31
0.0
210
0.0
220
0.0
230
-1.0
 40
0.8660254037844392
 41
-0.0000000000001013
 42
3.141592653589793
  0
ELLIPSE
  5
1136
330
12ED
100
AcDbEntity
  8
toddler - Level 26
  6
Continuous
 62
     7
370
     0
100
AcDbEllipse
 10
906.72977
 20
1385.750237
 30
0.0
 11
0.0
 21
35.00000000000001
 31
0.0
210
0.0
220
0.0
230
-1.0
 40
0.8660254037844394
 41
4.712388980384689
 42
6.283185307179493
  0
LINE
  5
1137
330
12ED
100
AcDbEntity
  8
toddler - Level 26
  6
Continuous
 62
     7
370
     0
100
AcDbLine
 10
876.41888
 20
425.750237
 30
0.0
 11
876.41888
 21
1385.750237
 31
0.0
  0
ELLIPSE
  5
1138
330
12ED
100
AcDbEntity
  8
toddler - Level 26
  6
Continuous
 62
     7
370
     0
100
AcDbEllipse
 10
906.72977
 20
425.750237
 30
0.0
 11
0.0
 21
35.00000000000001
 31
0.0
210
0.0
220
0.0
230
-1.0
 40
0.8660254037844394
 41
3.141592653589793
 42
4.712388980384692
  0
LINE
  5
1139
330
12ED
100
AcDbEntity
  8
toddler - Level 26
  6
Continuous
 62
     7
370
     0
100
AcDbLine
 10
1101.198734
 20
265.750237
 30
0.0
 11
1105.698734
 21
265.750237
 31
0.0
  0
ELLIPSE
  5
113A
330
12ED
100
AcDbEntity
  8
toddler - Level 26
  6
Continuous
 62
     7
370
     0
100
AcDbEllipse
 10
1097.03848
 20
265.750237
 30
0.0
 11
0.0
 21
-9.999999999999998
 31
0.0
210
0.0
220
0.0
230
1.0
 40
0.8660254037844387
 41
0.0
 42
1.570796326794896
  0
LINE
  5
113B
330
12ED
100
AcDbEntity
  8
toddler - Level 26
  6
Continuous
 62
     7
370
     0
100
AcDbLine
 10
1092.53848
 20
255.750237
 30
0.0
 11
1097.03848
 21
255.750237
 31
0.0
  0
LINE
  5
113C
330
12ED
100
AcDbEntity
  8
toddler - Level 26
  6
Continuous
 62
     7
370
     0
100
AcDbLine
 10
1101.198734
 20
1545.750237
 30
0.0
 11
1105.698734
 21
1545.750237
 31
0.0
  0
LINE
  5
113D
330
12ED
100
AcDbEntity
  8
toddler - Level 26
  6
Continuous
 62
     7
370
     0
100
AcDbLine
 10
1105.698734
 20
265.750237
 30
0.0
 11
1105.698734
 21
1545.750237
 31
0.0
  0
LINE
  5
113E
330
12ED
100
AcDbEntity
  8
toddler - Level 26
  6
Continuous
 62
     7
370
     0
100
AcDbLine
 10
1092.53848
 20
1555.750237
 30
0.0
 11
1097.03848
 21
1555.750237
 31
0.0
  0
ELLIPSE
  5
113F
330
12ED
100
AcDbEntity
  8
toddler - Level 26
  6
Continuous
 62
     7
370
     0
100
AcDbEllipse
 10
1097.03848
 20
1545.750237
 30
0.0
 11
0.0
 21
-10.0
 31
0.0
210
0.0
220
0.0
230
1.0
 40
0.8660254037844392
 41
1.570796326794896
 42
3.141592653589793
  0
LINE
  5
1140
330
12ED
100
AcDbEntity
  8
toddler - Level 26
  6
Continuous
 62
     7
370
     0
100
AcDbLine
 10
1092.53848
 20
255.750237
 30
0.0
 11
538.282222
 21
255.750237
 31
0.0
  0
ELLIPSE
  5
1141
330
12ED
100
AcDbEntity
  8
toddler - Level 26
  6
Continuous
 62
     7
370
     0
100
AcDbEllipse
 10
538.282222
 20
260.750237
 30
0.0
 11
0.0
 21
-4.999999999999996
 31
0.0
210
0.0
220
0.0
230
-1.0
 40
0.4999999999999997
 41
0.0
 42
1.570796326794896
  0
LINE
  5
1142
330
12ED
100
AcDbEntity
  8
toddler - Level 26
  6
Continuous
 62
     7
370
     0
100
AcDbLine
 10
538.282222
 20
1555.750237
 30
0.0
 11
1092.53848
 21
1555.750237
 31
0.0
  0
ELLIPSE
  5
1143
330
12ED
100
AcDbEntity
  8
toddler - Level 26
  6
Continuous
 62
     7
370
     0
100
AcDbEllipse
 10
538.282222
 20
1550.750237
 30
0.0
 11
0.0
 21
5.0
 31
0.0
210
0.0
220
0.0
230
1.0
 40
0.4999999999999992
 41
0.0
 42
1.570796326794936
  0
SPLINE
  5
1144
330
12ED
100
AcDbEntity
  8
toddler - Level 26
  6
Continuous
 62
     7
370
     0
100
AcDbSpline
210
0.0
220
0.0
230
1.0
 70
     8
 71
     3
 72
     8
 73
     4
 74
     0
 42
0.000000001
 43
0.0000000001
 40
0.0
 40
0.0
 40
0.0
 40
0.0
 40
1.0
 40
1.0
 40
1.0
 40
1.0
 10
1097.03848002482
 20
255.7502373528512
 30
0.0
 10
1102.194863445847
 20
255.6280578332357
 30
0.0
 10
1106.525819148478
 20
260.5374789323034
 30
0.0
 10
1106.368607043743
 20
265.7502373528511
 30
0.0
  0
LINE
  5
1147
330
12ED
100
AcDbEntity
  8
toddler - Level 26
  6
Continuous
 62
     7
370
     0
100
AcDbLine
 10
1106.368607
 20
265.750237
 30
0.0
 11
1105.698734
 21
265.750237
 31
0.0
  0
SPLINE
  5
1148
330
12ED
100
AcDbEntity
  8
toddler - Level 26
  6
Continuous
 62
     7
370
     0
100
AcDbSpline
210
0.0
220
0.0
230
1.0
 70
     8
 71
     3
 72
     8
 73
     4
 74
     0
 42
0.000000001
 43
0.0000000001
 40
0.0
 40
0.0
 40
0.0
 40
0.0
 40
1.0
 40
1.0
 40
1.0
 40
1.0
 10
1106.368607043743
 20
1545.750237352851
 30
0.0
 10
1106.523996098062
 20
1550.962410185461
 30
0.0
 10
1102.195493859544
 20
1555.872396434259
 30
0.0
 10
1097.03848002482
 20
1555.750237352851
 30
0.0
  0
LINE
  5
114B
330
12ED
100
AcDbEntity
  8
toddler - Level 26
  6
Continuous
 62
     7
370
     0
100
AcDbLine
 10
1106.368607
 20
1545.750237
 30
0.0
 11
1105.698734
 21
1545.750237
 31
0.0
  0
LINE
  5
114C
330
12ED
100
AcDbEntity
  8
toddler - Level 26
  6
Continuous
 62
     7
370
     0
100
AcDbLine
 10
1106.368607
 20
265.750237
 30
0.0
 11
1106.368607
 21
1545.750237
 31
0.0
  0
SPLINE
  5
114D
330
12ED
100
AcDbEntity
  8
toddler - Level 26
  6
Continuous
 62
     7
370
     0
100
AcDbSpline
210
0.0
220
0.0
230
1.0
 70
     8
 71
     3
 72
    36
 73
    32
 74
     0
 42
0.000000001
 43
0.0000000001
 40
0.0
 40
0.0
 40
0.0
 40
0.0
 40
0.0079230833455502
 40
0.0281221868638218
 40
0.0482762242804514
 40
0.1270420326777355
 40
0.1461095192038411
 40
0.1649278517237341
 40
0.1835167450455433
 40
0.2018999796909592
 40
0.2201026023786695
 40
0.2381491351483786
 40
0.2738636117486235
 40
0.6916211121080736
 40
0.7090878170658064
 40
0.72660473614412
 40
0.7441842300479583
 40
0.7618406525104621
 40
0.7795904642909399
 40
0.7974522767830079
 40
0.8154467793462114
 40
0.8335964820747648
 40
0.8519251751212255
 40
0.8704569672941875
 40
0.8892147262891121
 40
0.9082177191330329
 40
0.9274782868040556
 40
0.9469975587950852
 40
0.9667606224233932
 40
0.9867322528908298
 40
1.0
 40
1.0
 40
1.0
 40
1.0
 10
909.2297695571122
 20
415.7502373528513
 30
0.0
 10
909.2903289308722
 20
415.7496963095073
 30
0.0
 10
909.5052783326343
 20
415.7477759306149
 30
0.0
 10
909.8742879795793
 20
415.7224957631403
 30
0.0
 10
910.7830570014122
 20
415.5949422103403
 30
0.0
 10
911.6789367374835
 20
415.301984637088
 30
0.0
 10
912.5396168995184
 20
414.8423477132773
 30
0.0
 10
912.949577477074
 20
414.5877452505667
 30
0.0
 10
913.3466723185398
 20
414.304998916372
 30
0.0
 10
913.7299169586276
 20
413.9950486491707
 30
0.0
 10
914.1040929781762
 20
413.6600299763235
 30
0.0
 10
914.5344838264618
 20
413.1717776219812
 30
0.0
 10
917.6147462109877
 20
409.7208201828595
 30
0.0
 10
917.9602953577212
 20
403.2606080017236
 30
0.0
 10
915.3647106570637
 20
399.4126040084903
 30
0.0
 10
915.0973982406673
 20
398.9870443317868
 30
0.0
 10
914.7827375472983
 20
398.5837323226253
 30
0.0
 10
914.4514653422989
 20
398.2037193166929
 30
0.0
 10
914.1046811682823
 20
397.8479672420547
 30
0.0
 10
913.7434531674809
 20
397.5173402044596
 30
0.0
 10
913.3688000559022
 20
397.2126171524167
 30
0.0
 10
912.981675730902
 20
396.9345097737938
 30
0.0
 10
912.5829591175412
 20
396.6836864330066
 30
0.0
 10
912.1734529309726
 20
396.4607996515606
 30
0.0
 10
911.7538963010471
 20
396.2665233177778
 30
0.0
 10
911.3249967756916
 20
396.1015658113081
 30
0.0
 10
910.8874878191587
 20
395.9667659919726
 30
0.0
 10
910.4422102709222
 20
395.8628276318979
 30
0.0
 10
909.9902233258307
 20
395.7913294638227
 30
0.0
 10
909.5852539167902
 20
395.7553783422396
 30
0.0
 10
909.3311836225346
 20
395.7517039958132
 30
0.0
 10
909.2297695571122
 20
395.7502373528515
 30
0.0
  0
ELLIPSE
  5
1150
330
12ED
100
AcDbEntity
  8
toddler - Level 26
  6
Continuous
 62
     7
370
     0
100
AcDbEllipse
 10
909.22977
 20
390.750237
 30
0.0
 11
0.0
 21
-4.999999999999996
 31
0.0
210
0.0
220
0.0
230
-1.0
 40
0.4999999999999997
 41
1.570796326794896
 42
3.141592653589793
  0
ELLIPSE
  5
1151
330
12ED
100
AcDbEntity
  8
toddler - Level 26
  6
Continuous
 62
     7
370
     0
100
AcDbEllipse
 10
909.22977
 20
420.750237
 30
0.0
 11
0.0
 21
5.0
 31
0.0
210
0.0
220
0.0
230
1.0
 40
0.4999999999999992
 41
1.570796326794896
 42
3.141592653589793
  0
SPLINE
  5
1152
330
12ED
100
AcDbEntity
  8
toddler - Level 26
  6
Continuous
 62
     7
370
     0
100
AcDbSpline
210
0.0
220
0.0
230
1.0
 70
     8
 71
     3
 72
    36
 73
    32
 74
     0
 42
0.000000001
 43
0.0000000001
 40
0.0
 40
0.0
 40
0.0
 40
0.0
 40
0.0079230833455505
 40
0.02812218686383
 40
0.0482762242804431
 40
0.1270420326777773
 40
0.1461095192037374
 40
0.1649278517237157
 40
0.1835167450454306
 40
0.2018999796909832
 40
0.2201026023786383
 40
0.2381491351481648
 40
0.2738636117485181
 40
0.6916211121078191
 40
0.7090878170654113
 40
0.7266047361437942
 40
0.7441842300478248
 40
0.7618406525103997
 40
0.779590464290867
 40
0.7974522767827843
 40
0.8154467793460689
 40
0.8335964820745228
 40
0.8519251751209944
 40
0.8704569672939626
 40
0.8892147262888384
 40
0.9082177191327653
 40
0.9274782868037927
 40
0.9469975587948262
 40
0.9667606224231358
 40
0.9867322528905196
 40
1.0
 40
1.0
 40
1.0
 40
1.0
 10
909.2297695571101
 20
1415.750237352855
 30
0.0
 10
909.2903289308701
 20
1415.749696309512
 30
0.0
 10
909.5052783326321
 20
1415.747775930619
 30
0.0
 10
909.8742879795771
 20
1415.722495763144
 30
0.0
 10
910.7830570014108
 20
1415.594942210345
 30
0.0
 10
911.6789367374806
 20
1415.301984637092
 30
0.0
 10
912.5396168995155
 20
1414.842347713283
 30
0.0
 10
912.9495774770703
 20
1414.587745250573
 30
0.0
 10
913.3466723185369
 20
1414.304998916377
 30
0.0
 10
913.7299169586245
 20
1413.995048649176
 30
0.0
 10
914.1040929781725
 20
1413.66002997633
 30
0.0
 10
914.5344838264575
 20
1413.171777621988
 30
0.0
 10
917.6147462109847
 20
1409.720820182872
 30
0.0
 10
917.9602953577168
 20
1403.260608001737
 30
0.0
 10
915.3647106570675
 20
1399.412604008503
 30
0.0
 10
915.0973982406709
 20
1398.987044331797
 30
0.0
 10
914.7827375473006
 20
1398.583732322633
 30
0.0
 10
914.4514653422989
 20
1398.203719316699
 30
0.0
 10
914.1046811682835
 20
1397.847967242061
 30
0.0
 10
913.7434531674825
 20
1397.517340204466
 30
0.0
 10
913.3688000559045
 20
1397.212617152424
 30
0.0
 10
912.9816757309056
 20
1396.934509773801
 30
0.0
 10
912.5829591175456
 20
1396.683686433014
 30
0.0
 10
912.1734529309762
 20
1396.460799651567
 30
0.0
 10
911.7538963010515
 20
1396.266523317784
 30
0.0
 10
911.3249967756967
 20
1396.101565811314
 30
0.0
 10
910.8874878191624
 20
1395.966765991978
 30
0.0
 10
910.4422102709266
 20
1395.862827631903
 30
0.0
 10
909.9902233258349
 20
1395.791329463827
 30
0.0
 10
909.5852539167923
 20
1395.755378342244
 30
0.0
 10
909.3311836225346
 20
1395.751703995817
 30
0.0
 10
909.2297695571108
 20
1395.750237352855
 30
0.0
  0
ELLIPSE
  5
1155
330
12ED
100
AcDbEntity
  8
toddler - Level 26
  6
Continuous
 62
     7
370
     0
100
AcDbEllipse
 10
909.22977
 20
1420.750237
 30
0.0
 11
0.0
 21
-5.000000000000001
 31
0.0
210
0.0
220
0.0
230
-1.0
 40
0.4999999999999941
 41
0.0000000000000847
 42
1.570796326794954
  0
ELLIPSE
  5
1156
330
12ED
100
AcDbEntity
  8
toddler - Level 26
  6
Continuous
 62
     7
370
     0
100
AcDbEllipse
 10
909.22977
 20
1390.750237
 30
0.0
 11
0.0
 21
5.0
 31
0.0
210
0.0
220
0.0
230
1.0
 40
0.5000000000001532
 41
-0.0000000000000941
 42
1.570796326794834
  0
LINE
  5
1157
330
12ED
100
AcDbEntity
  8
toddler - Level 26
  6
Continuous
 62
     7
370
     0
100
AcDbLine
 10
883.249007
 20
1385.750237
 30
0.0
 11
883.249007
 21
425.750237
 31
0.0
  0
ELLIPSE
  5
1158
330
12ED
100
AcDbEntity
  8
toddler - Level 26
  6
Continuous
 62
     7
370
     0
100
AcDbEllipse
 10
909.22977
 20
1385.750237
 30
0.0
 11
0.0
 21
-30.00000000000001
 31
0.0
210
0.0
220
0.0
230
1.0
 40
0.8660254037844389
 41
3.141592653589882
 42
4.712388980384689
  0
ELLIPSE
  5
1159
330
12ED
100
AcDbEntity
  8
toddler - Level 26
  6
Continuous
 62
     7
370
     0
100
AcDbEllipse
 10
909.22977
 20
425.750237
 30
0.0
 11
0.0
 21
-30.00000000000001
 31
0.0
210
0.0
220
0.0
230
1.0
 40
0.8660254037844389
 41
4.712388980384686
 42
6.283185307179586
  0
LINE
  5
115A
330
12ED
100
AcDbEntity
  8
toddler - Level 26
  6
Continuous
 62
     7
370
     0
100
AcDbLine
 10
883.249007
 20
425.750237
 30
0.0
 11
876.41888
 21
425.750237
 31
0.0
  0
SPLINE
  5
115B
330
12ED
100
AcDbEntity
  8
toddler - Level 26
  6
Continuous
 62
     7
370
     0
100
AcDbSpline
210
0.0
220
0.0
230
1.0
 70
     8
 71
     3
 72
     8
 73
     4
 74
     0
 42
0.000000001
 43
0.0000000001
 40
0.0
 40
0.0
 40
0.0
 40
0.0
 40
1.0
 40
1.0
 40
1.0
 40
1.0
 10
899.8996425381907
 20
425.7502373528514
 30
0.0
 10
899.7442534838704
 20
420.5380645202418
 30
0.0
 10
904.0727557223888
 20
415.6280782714439
 30
0.0
 10
909.2297695571122
 20
415.7502373528513
 30
0.0
  0
LINE
  5
115E
330
12ED
100
AcDbEntity
  8
toddler - Level 26
  6
Continuous
 62
     7
370
     0
100
AcDbLine
 10
899.899643
 20
425.750237
 30
0.0
 11
902.399643
 21
425.750237
 31
0.0
  0
LINE
  5
115F
330
12ED
100
AcDbEntity
  8
toddler - Level 26
  6
Continuous
 62
     7
370
     0
100
AcDbLine
 10
902.399643
 20
1385.750237
 30
0.0
 11
899.899643
 21
1385.750237
 31
0.0
  0
SPLINE
  5
1160
330
12ED
100
AcDbEntity
  8
toddler - Level 26
  6
Continuous
 62
     7
370
     0
100
AcDbSpline
210
0.0
220
0.0
230
1.0
 70
     8
 71
     3
 72
     8
 73
     4
 74
     0
 42
0.000000001
 43
0.0000000001
 40
0.0
 40
0.0
 40
0.0
 40
0.0
 40
1.0
 40
1.0
 40
1.0
 40
1.0
 10
909.2297695571101
 20
1395.750237352855
 30
0.0
 10
904.0733861360847
 20
1395.872416872469
 30
0.0
 10
899.7424304334536
 20
1390.962995773402
 30
0.0
 10
899.8996425381907
 20
1385.750237352855
 30
0.0
  0
LINE
  5
1163
330
12ED
100
AcDbEntity
  8
toddler - Level 26
  6
Continuous
 62
     7
370
     0
100
AcDbLine
 10
876.41888
 20
1385.750237
 30
0.0
 11
883.249007
 21
1385.750237
 31
0.0
  0
LINE
  5
1164
330
12ED
100
AcDbEntity
  8
toddler - Level 26
  6
Continuous
 62
     7
370
     0
100
AcDbLine
 10
899.899643
 20
1385.750237
 30
0.0
 11
899.899643
 21
425.750237
 31
0.0
  0
SPLINE
  5
1165
330
12ED
100
AcDbEntity
  8
toddler - Level 26
  6
Continuous
 62
     7
370
     0
100
AcDbSpline
210
0.0
220
0.0
230
1.0
 70
     8
 71
     3
 72
    36
 73
    32
 74
     0
 42
0.000000001
 43
0.0000000001
 40
0.0
 40
0.0
 40
0.0
 40
0.0
 40
0.0079230833455513
 40
0.0281221868638228
 40
0.0482762242804525
 40
0.1270420326778068
 40
0.1461095192037863
 40
0.1649278517237768
 40
0.1835167450456363
 40
0.2018999796908758
 40
0.2201026023787336
 40
0.238149135148348
 40
0.2738636117486278
 40
0.6916211121080144
 40
0.7090878170656065
 40
0.7266047361439046
 40
0.7441842300477364
 40
0.7618406525103697
 40
0.7795904642908836
 40
0.7974522767828404
 40
0.8154467793461087
 40
0.8335964820746834
 40
0.851925175121171
 40
0.8704569672941506
 40
0.8892147262889983
 40
0.908217719132878
 40
0.9274782868039819
 40
0.9469975587949811
 40
0.9667606224233191
 40
0.9867322528907259
 40
1.0
 40
1.0
 40
1.0
 40
1.0
 10
678.2896618812624
 20
415.7502373528513
 30
0.0
 10
678.3502212550216
 20
415.7496963095074
 30
0.0
 10
678.5651706567837
 20
415.7477759306149
 30
0.0
 10
678.9341803037286
 20
415.7224957631401
 30
0.0
 10
679.8429493255631
 20
415.5949422103409
 30
0.0
 10
680.7388290616336
 20
415.3019846370866
 30
0.0
 10
681.5995092236686
 20
414.8423477132773
 30
0.0
 10
682.009469801224
 20
414.5877452505662
 30
0.0
 10
682.40656464269
 20
414.3049989163719
 30
0.0
 10
682.7898092827776
 20
413.99504864917
 30
0.0
 10
683.1639853023257
 20
413.6600299763238
 30
0.0
 10
683.5943761506113
 20
413.1717776219811
 30
0.0
 10
686.6746385351371
 20
409.7208201828607
 30
0.0
 10
687.0201876818714
 20
403.2606080017241
 30
0.0
 10
684.4246029812161
 20
399.4126040084946
 30
0.0
 10
684.1572905648204
 20
398.9870443317921
 30
0.0
 10
683.8426298714507
 20
398.5837323226294
 30
0.0
 10
683.5113576664512
 20
398.2037193166954
 30
0.0
 10
683.1645734924345
 20
397.8479672420571
 30
0.0
 10
682.8033454916326
 20
397.5173402044613
 30
0.0
 10
682.4286923800546
 20
397.2126171524184
 30
0.0
 10
682.0415680550536
 20
396.934509773795
 30
0.0
 10
681.642851441692
 20
396.6836864330074
 30
0.0
 10
681.2333452551228
 20
396.4607996515614
 30
0.0
 10
680.8137886251987
 20
396.2665233177785
 30
0.0
 10
680.3848890998432
 20
396.1015658113091
 30
0.0
 10
679.9473801433103
 20
395.9667659919728
 30
0.0
 10
679.5021025950738
 20
395.8628276318983
 30
0.0
 10
679.0501156499829
 20
395.7913294638231
 30
0.0
 10
678.6451462409409
 20
395.7553783422396
 30
0.0
 10
678.3910759466849
 20
395.7517039958132
 30
0.0
 10
678.2896618812624
 20
395.7502373528515
 30
0.0
  0
ELLIPSE
  5
1168
330
12ED
100
AcDbEntity
  8
toddler - Level 26
  6
Continuous
 62
     7
370
     0
100
AcDbEllipse
 10
678.289662
 20
390.750237
 30
0.0
 11
0.0
 21
-4.999999999999996
 31
0.0
210
0.0
220
0.0
230
-1.0
 40
0.4999999999999997
 41
1.570796326794896
 42
3.141592653589788
  0
ELLIPSE
  5
1169
330
12ED
100
AcDbEntity
  8
toddler - Level 26
  6
Continuous
 62
     7
370
     0
100
AcDbEllipse
 10
678.289662
 20
420.750237
 30
0.0
 11
0.0
 21
5.0
 31
0.0
210
0.0
220
0.0
230
1.0
 40
0.4999999999999992
 41
1.570796326794896
 42
3.141592653589788
  0
SPLINE
  5
116A
330
12ED
100
AcDbEntity
  8
toddler - Level 26
  6
Continuous
 62
     7
370
     0
100
AcDbSpline
210
0.0
220
0.0
230
1.0
 70
     8
 71
     3
 72
    36
 73
    32
 74
     0
 42
0.000000001
 43
0.0000000001
 40
0.0
 40
0.0
 40
0.0
 40
0.0
 40
0.0079230833455502
 40
0.0281221868642106
 40
0.0482762242807934
 40
0.12704203267803
 40
0.146109519204017
 40
0.1649278517240244
 40
0.1835167450457235
 40
0.2018999796911304
 40
0.2201026023788204
 40
0.2381491351485337
 40
0.2738636117488029
 40
0.6916211121083215
 40
0.7090878170660133
 40
0.7266047361442914
 40
0.7441842300482101
 40
0.7618406525107599
 40
0.7795904642912203
 40
0.7974522767832672
 40
0.8154467793465913
 40
0.8335964820750348
 40
0.851925175121544
 40
0.8704569672944145
 40
0.8892147262893796
 40
0.9082177191332224
 40
0.927478286804172
 40
0.9469975587952367
 40
0.9667606224235248
 40
0.9867322528909447
 40
1.0
 40
1.0
 40
1.0
 40
1.0
 10
678.2896618812624
 20
1415.750237352851
 30
0.0
 10
678.3502212550216
 20
1415.749696309507
 30
0.0
 10
678.5651706567866
 20
1415.747775930615
 30
0.0
 10
678.9341803037346
 20
1415.72249576314
 30
0.0
 10
679.8429493255697
 20
1415.594942210338
 30
0.0
 10
680.7388290616387
 20
1415.301984637085
 30
0.0
 10
681.5995092236731
 20
1414.842347713274
 30
0.0
 10
682.0094698012277
 20
1414.587745250564
 30
0.0
 10
682.4065646426943
 20
1414.304998916368
 30
0.0
 10
682.7898092827813
 20
1413.995048649167
 30
0.0
 10
683.1639853023285
 20
1413.66002997632
 30
0.0
 10
683.5943761506134
 20
1413.171777621978
 30
0.0
 10
686.6746385351415
 20
1409.720820182852
 30
0.0
 10
687.0201876818655
 20
1403.260608001717
 30
0.0
 10
684.4246029812095
 20
1399.412604008485
 30
0.0
 10
684.1572905648123
 20
1398.987044331782
 30
0.0
 10
683.8426298714434
 20
1398.58373232262
 30
0.0
 10
683.5113576664424
 20
1398.203719316687
 30
0.0
 10
683.1645734924272
 20
1397.847967242049
 30
0.0
 10
682.8033454916238
 20
1397.517340204454
 30
0.0
 10
682.4286923800459
 20
1397.212617152411
 30
0.0
 10
682.0415680550455
 20
1396.934509773789
 30
0.0
 10
681.6428514416855
 20
1396.683686433003
 30
0.0
 10
681.2333452551155
 20
1396.460799651557
 30
0.0
 10
680.8137886251914
 20
1396.266523317776
 30
0.0
 10
680.3848890998381
 20
1396.101565811307
 30
0.0
 10
679.9473801433046
 20
1395.966765991971
 30
0.0
 10
679.5021025950688
 20
1395.862827631897
 30
0.0
 10
679.0501156499772
 20
1395.791329463822
 30
0.0
 10
678.6451462409381
 20
1395.755378342239
 30
0.0
 10
678.3910759466825
 20
1395.751703995813
 30
0.0
 10
678.2896618812624
 20
1395.750237352851
 30
0.0
  0
ELLIPSE
  5
116D
330
12ED
100
AcDbEntity
  8
toddler - Level 26
  6
Continuous
 62
     7
370
     0
100
AcDbEllipse
 10
678.289662
 20
1420.750237
 30
0.0
 11
0.0
 21
-5.0
 31
0.0
210
0.0
220
0.0
230
-1.0
 40
0.4999999999999992
 41
0.0
 42
1.570796326794896
  0
ELLIPSE
  5
116E
330
12ED
100
AcDbEntity
  8
toddler - Level 26
  6
Continuous
 62
     7
370
     0
100
AcDbEllipse
 10
678.289662
 20
1390.750237
 30
0.0
 11
0.0
 21
5.0
 31
0.0
210
0.0
220
0.0
230
1.0
 40
0.4999999999999992
 41
0.0
 42
1.570796326794936
  0
LINE
  5
116F
330
12ED
100
AcDbEntity
  8
toddler - Level 26
  6
Continuous
 62
     7
370
     0
100
AcDbLine
 10
652.3089
 20
1385.750237
 30
0.0
 11
652.3089
 21
425.750237
 31
0.0
  0
ELLIPSE
  5
1170
330
12ED
100
AcDbEntity
  8
toddler - Level 26
  6
Continuous
 62
     7
370
     0
100
AcDbEllipse
 10
678.289662
 20
1385.750237
 30
0.0
 11
0.0
 21
-30.00000000000001
 31
0.0
210
0.0
220
0.0
230
1.0
 40
0.8660254037844389
 41
3.141592653589793
 42
4.712388980384689
  0
ELLIPSE
  5
1171
330
12ED
100
AcDbEntity
  8
toddler - Level 26
  6
Continuous
 62
     7
370
     0
100
AcDbEllipse
 10
678.289662
 20
425.750237
 30
0.0
 11
0.0
 21
-30.00000000000001
 31
0.0
210
0.0
220
0.0
230
1.0
 40
0.8660254037844389
 41
4.712388980384689
 42
6.283185307179586
  0
LINE
  5
1172
330
12ED
100
AcDbEntity
  8
toddler - Level 26
  6
Continuous
 62
     7
370
     0
100
AcDbLine
 10
671.459535
 20
1385.750237
 30
0.0
 11
668.959535
 21
1385.750237
 31
0.0
  0
SPLINE
  5
1173
330
12ED
100
AcDbEntity
  8
toddler - Level 26
  6
Continuous
 62
     7
370
     0
100
AcDbSpline
210
0.0
220
0.0
230
1.0
 70
     8
 71
     3
 72
     8
 73
     4
 74
     0
 42
0.000000001
 43
0.0000000001
 40
0.0
 40
0.0
 40
0.0
 40
0.0
 40
1.0
 40
1.0
 40
1.0
 40
1.0
 10
678.2896618812624
 20
1395.750237352851
 30
0.0
 10
673.1332784602341
 20
1395.872416872465
 30
0.0
 10
668.8023227576037
 20
1390.9629957734
 30
0.0
 10
668.9595348623401
 20
1385.750237352851
 30
0.0
  0
LINE
  5
1176
330
12ED
100
AcDbEntity
  8
toddler - Level 26
  6
Continuous
 62
     7
370
     0
100
AcDbLine
 10
652.3089
 20
425.750237
 30
0.0
 11
645.478773
 21
425.750237
 31
0.0
  0
LINE
  5
1177
330
12ED
100
AcDbEntity
  8
toddler - Level 26
  6
Continuous
 62
     7
370
     0
100
AcDbLine
 10
645.478773
 20
1385.750237
 30
0.0
 11
652.3089
 21
1385.750237
 31
0.0
  0
SPLINE
  5
1178
330
12ED
100
AcDbEntity
  8
toddler - Level 26
  6
Continuous
 62
     7
370
     0
100
AcDbSpline
210
0.0
220
0.0
230
1.0
 70
     8
 71
     3
 72
     8
 73
     4
 74
     0
 42
0.000000001
 43
0.0000000001
 40
0.0
 40
0.0
 40
0.0
 40
0.0
 40
1.0
 40
1.0
 40
1.0
 40
1.0
 10
668.9595348623401
 20
425.7502373528514
 30
0.0
 10
668.8041458080205
 20
420.5380645202413
 30
0.0
 10
673.1326480465376
 20
415.6280782714441
 30
0.0
 10
678.2896618812624
 20
415.7502373528513
 30
0.0
  0
LINE
  5
117B
330
12ED
100
AcDbEntity
  8
toddler - Level 26
  6
Continuous
 62
     7
370
     0
100
AcDbLine
 10
668.959535
 20
425.750237
 30
0.0
 11
671.459535
 21
425.750237
 31
0.0
  0
LINE
  5
117C
330
12ED
100
AcDbEntity
  8
toddler - Level 26
  6
Continuous
 62
     7
370
     0
100
AcDbLine
 10
668.959535
 20
1385.750237
 30
0.0
 11
668.959535
 21
425.750237
 31
0.0
  0
LINE
  5
117D
330
12ED
100
AcDbEntity
  8
toddler - Level 26
  6
Continuous
 62
     7
370
     0
100
AcDbLine
 10
453.509808
 20
355.750237
 30
0.0
 11
451.009808
 21
355.750237
 31
0.0
  0
SPLINE
  5
117E
330
12ED
100
AcDbEntity
  8
toddler - Level 26
  6
Continuous
 62
     7
370
     0
100
AcDbSpline
210
0.0
220
0.0
230
1.0
 70
     8
 71
     3
 72
    36
 73
    32
 74
     0
 42
0.000000001
 43
0.0000000001
 40
0.0
 40
0.0
 40
0.0
 40
0.0
 40
0.1486784089334337
 40
0.1605385306961942
 40
0.1723984344946279
 40
0.657873456534551
 40
0.6696758672908086
 40
0.6814755559343296
 40
0.6932724959982548
 40
0.7050666682855307
 40
0.716858061305365
 40
0.728646671682389
 40
0.7404325045333172
 40
0.7522155738060976
 40
0.7639959025770649
 40
0.7757735233011476
 40
0.787548478011177
 40
0.7993208184622019
 40
0.8110906062172718
 40
0.8228579126712602
 40
0.8346228190110533
 40
0.8463854161091786
 40
0.8581458043499081
 40
0.8699040933876339
 40
0.8816604018371918
 40
0.952164323108805
 40
0.9639107461665169
 40
0.9756564018262359
 40
0.9874014651642847
 40
0.9985277837106821
 40
1.0
 40
1.0
 40
1.0
 40
1.0
 10
451.0098082432569
 20
355.7502373528512
 30
0.0
 10
451.0173606388222
 20
347.997867804282
 30
0.0
 10
451.84801765178
 20
339.6030364510124
 30
0.0
 10
453.7575615770287
 20
330.8870776036845
 30
0.0
 10
459.6353973303116
 20
305.1373090926372
 30
0.0
 10
474.6611086381317
 20
282.4208134742374
 30
0.0
 10
494.8621486885657
 20
269.0087645655223
 30
0.0
 10
496.26094392264
 20
268.0878185842098
 30
0.0
 10
497.6886623463064
 20
267.209437079312
 30
0.0
 10
499.1302959270909
 20
266.3616355862044
 30
0.0
 10
500.5853410493904
 20
265.5447012639159
 30
0.0
 10
502.0532898512154
 20
264.7589099900273
 30
0.0
 10
503.5336304662467
 20
264.0045262933954
 30
0.0
 10
505.0258472652219
 20
263.2818032980111
 30
0.0
 10
506.5294210957299
 20
262.5909826778786
 30
0.0
 10
508.0438295194997
 20
261.9322946227316
 30
0.0
 10
509.5685470463055
 20
261.3059578142606
 30
0.0
 10
511.1030453636073
 20
260.7121794124507
 30
0.0
 10
512.6467935611052
 20
260.1511550515064
 30
0.0
 10
514.1992583494396
 20
259.623068844741
 30
0.0
 10
515.7599042723452
 20
259.1280933977095
 30
0.0
 10
517.3281939116359
 20
258.6663898288354
 30
0.0
 10
518.9035880845107
 20
258.2381077964078
 30
0.0
 10
520.4855482221452
 20
257.8433976333059
 30
0.0
 10
524.7186918611422
 20
256.880885098633
 30
0.0
 10
529.0047981983737
 20
256.233615815494
 30
0.0
 10
533.3122318782772
 20
255.9066262561905
 30
0.0
 10
534.9287511228381
 20
255.8182524435728
 30
0.0
 10
536.5179872527145
 20
255.7653169154091
 30
0.0
 10
537.6360009662911
 20
255.7507914453579
 30
0.0
 10
538.2146078315529
 20
255.7502953272981
 30
0.0
 10
538.2822216027782
 20
255.7502373528512
 30
0.0
  0
LINE
  5
1181
330
12ED
100
AcDbEntity
  8
toddler - Level 26
  6
Continuous
 62
     7
370
     0
100
AcDbLine
 10
453.509808
 20
1455.750237
 30
0.0
 11
451.009808
 21
1455.750237
 31
0.0
  0
SPLINE
  5
1182
330
12ED
100
AcDbEntity
  8
toddler - Level 26
  6
Continuous
 62
     7
370
     0
100
AcDbSpline
210
0.0
220
0.0
230
1.0
 70
     8
 71
     3
 72
    18
 73
    14
 74
     0
 42
0.000000001
 43
0.0000000001
 40
0.0
 40
0.0
 40
0.0
 40
0.0
 40
0.3003640379317598
 40
0.312151108834159
 40
0.3239409028274274
 40
0.832805882901264
 40
0.8565225541181888
 40
0.951400170228673
 40
0.9632607231028483
 40
0.975121398401807
 40
0.9869821779974127
 40
0.9982189086919927
 40
1.0
 40
1.0
 40
1.0
 40
1.0
 10
538.2822216027782
 20
1555.750237352851
 30
0.0
 10
524.4939945937318
 20
1555.759863475879
 30
0.0
 10
510.1452153741995
 20
1551.812336547057
 30
0.0
 10
497.0455784958142
 20
1543.877184195421
 30
0.0
 10
475.5515301815155
 20
1530.558035516276
 30
0.0
 10
459.1831259825617
 20
1506.284838007647
 30
0.0
 10
452.4281919885043
 20
1474.404903852914
 30
0.0
 10
451.4883175495745
 20
1467.689566947648
 30
0.0
 10
451.1545901256767
 20
1461.495055062629
 30
0.0
 10
451.0708960112019
 20
1459.644303453904
 30
0.0
 10
451.0238450421605
 20
1457.820748426983
 30
0.0
 10
451.0104099062258
 20
1456.522500002338
 30
0.0
 10
451.0098806551055
 20
1455.843181359187
 30
0.0
 10
451.0098082432569
 20
1455.750237352851
 30
0.0
  0
LINE
  5
1185
330
12ED
100
AcDbEntity
  8
toddler - Level 26
  6
Continuous
 62
     7
370
     0
100
AcDbLine
 10
451.009808
 20
1455.750237
 30
0.0
 11
451.009808
 21
355.750237
 31
0.0
  0
ARC
  5
1186
330
12ED
100
AcDbEntity
  8
toddler - Level 26
  6
Continuous
 62
     7
370
    13
100
AcDbCircle
 10
600.734127
 20
360.750237
 30
0.0
 40
9.5
100
AcDbArc
 50
90.0
 51
270.0
  0
ARC
  5
1187
330
12ED
100
AcDbEntity
  8
toddler - Level 26
  6
Continuous
 62
     7
370
    13
100
AcDbCircle
 10
1612.067173
 20
360.750237
 30
0.0
 40
9.5
100
AcDbArc
 50
0.0
 51
90.0
  0
ARC
  5
1188
330
12ED
100
AcDbEntity
  8
toddler - Level 26
  6
Continuous
 62
     7
370
    13
100
AcDbCircle
 10
1612.067173
 20
360.750237
 30
0.0
 40
9.5
100
AcDbArc
 50
270.0
 51
0.0
  0
ARC
  5
1189
330
12ED
100
AcDbEntity
  8
toddler - Level 26
  6
Continuous
 62
     7
370
    13
100
AcDbCircle
 10
1612.067173
 20
724.083571
 30
0.0
 40
9.5
100
AcDbArc
 50
0.0
 51
90.0
  0
ARC
  5
118A
330
12ED
100
AcDbEntity
  8
toddler - Level 26
  6
Continuous
 62
     7
370
    13
100
AcDbCircle
 10
1612.067173
 20
724.083571
 30
0.0
 40
9.5
100
AcDbArc
 50
270.0
 51
0.0
  0
ARC
  5
118B
330
12ED
100
AcDbEntity
  8
toddler - Level 26
  6
Continuous
 62
     7
370
    13
100
AcDbCircle
 10
600.734127
 20
724.083571
 30
0.0
 40
9.5
100
AcDbArc
 50
90.0
 51
270.0
  0
LINE
  5
118C
330
12ED
100
AcDbEntity
  8
toddler - Level 26
  6
Continuous
 62
     7
370
    13
100
AcDbLine
 10
1106.432693
 20
1524.750237
 30
0.0
 11
1106.40065
 21
1524.750237
 31
0.0
  0
LINE
  5
118D
330
12ED
100
AcDbEntity
  8
toddler - Level 26
  6
Continuous
 62
     7
370
    13
100
AcDbLine
 10
1106.40065
 20
1515.750237
 30
0.0
 11
1106.432693
 21
1515.750237
 31
0.0
  0
LINE
  5
118E
330
12ED
100
AcDbEntity
  8
toddler - Level 26
  6
Continuous
 62
     7
370
    13
100
AcDbLine
 10
1106.40065
 20
1515.750237
 30
0.0
 11
1106.40065
 21
1524.750237
 31
0.0
  0
LINE
  5
118F
330
12ED
100
AcDbEntity
  8
toddler - Level 26
  6
Continuous
 62
     7
370
    13
100
AcDbLine
 10
1106.40065
 20
1515.750237
 30
0.0
 11
1106.368607
 21
1515.750237
 31
0.0
  0
LINE
  5
1190
330
12ED
100
AcDbEntity
  8
toddler - Level 26
  6
Continuous
 62
     7
370
    13
100
AcDbLine
 10
1106.368607
 20
1524.750237
 30
0.0
 11
1106.40065
 21
1524.750237
 31
0.0
  0
LINE
  5
1191
330
12ED
100
AcDbEntity
  8
toddler - Level 26
  6
Continuous
 62
     7
370
    13
100
AcDbLine
 10
1106.40065
 20
1529.750237
 30
0.0
 11
1106.368607
 21
1529.750237
 31
0.0
  0
LINE
  5
1192
330
12ED
100
AcDbEntity
  8
toddler - Level 26
  6
Continuous
 62
     7
370
    13
100
AcDbLine
 10
1106.40065
 20
1529.750237
 30
0.0
 11
1106.40065
 21
1524.750237
 31
0.0
  0
LINE
  5
1193
330
12ED
100
AcDbEntity
  8
toddler - Level 26
  6
Continuous
 62
     7
370
    13
100
AcDbLine
 10
1106.40065
 20
1529.750237
 30
0.0
 11
1106.432693
 21
1529.750237
 31
0.0
  0
LINE
  5
1194
330
12ED
100
AcDbEntity
  8
toddler - Level 26
  6
Continuous
 62
     7
370
    13
100
AcDbLine
 10
1106.432693
 20
1510.750237
 30
0.0
 11
1106.40065
 21
1510.750237
 31
0.0
  0
LINE
  5
1195
330
12ED
100
AcDbEntity
  8
toddler - Level 26
  6
Continuous
 62
     7
370
    13
100
AcDbLine
 10
1106.40065
 20
1510.750237
 30
0.0
 11
1106.40065
 21
1515.750237
 31
0.0
  0
LINE
  5
1196
330
12ED
100
AcDbEntity
  8
toddler - Level 26
  6
Continuous
 62
     7
370
    13
100
AcDbLine
 10
1106.368607
 20
1510.750237
 30
0.0
 11
1106.40065
 21
1510.750237
 31
0.0
  0
ARC
  5
1197
330
12ED
100
AcDbEntity
  8
toddler - Level 26
  6
Continuous
 62
     7
370
    13
100
AcDbCircle
 10
600.734127
 20
1087.416904
 30
0.0
 40
9.5
100
AcDbArc
 50
90.0
 51
270.0
  0
ARC
  5
1198
330
12ED
100
AcDbEntity
  8
toddler - Level 26
  6
Continuous
 62
     7
370
    13
100
AcDbCircle
 10
600.734127
 20
1450.750237
 30
0.0
 40
9.5
100
AcDbArc
 50
90.0
 51
270.0
  0
ARC
  5
1199
330
12ED
100
AcDbEntity
  8
toddler - Level 26
  6
Continuous
 62
     7
370
    13
100
AcDbCircle
 10
1274.317266
 20
360.750237
 30
0.0
 40
9.5
100
AcDbArc
 50
0.0
 51
90.0
  0
ARC
  5
119A
330
12ED
100
AcDbEntity
  8
toddler - Level 26
  6
Continuous
 62
     7
370
    13
100
AcDbCircle
 10
1274.317266
 20
360.750237
 30
0.0
 40
9.5
100
AcDbArc
 50
270.0
 51
0.0
  0
ARC
  5
119B
330
12ED
100
AcDbEntity
  8
toddler - Level 26
  6
Continuous
 62
     7
370
    13
100
AcDbCircle
 10
1274.317266
 20
724.083571
 30
0.0
 40
9.5
100
AcDbArc
 50
0.0
 51
90.0
  0
ARC
  5
119C
330
12ED
100
AcDbEntity
  8
toddler - Level 26
  6
Continuous
 62
     7
370
    13
100
AcDbCircle
 10
1274.317266
 20
724.083571
 30
0.0
 40
9.5
100
AcDbArc
 50
270.0
 51
0.0
  0
ARC
  5
119D
330
12ED
100
AcDbEntity
  8
toddler - Level 26
  6
Continuous
 62
     7
370
    13
100
AcDbCircle
 10
938.484034
 20
1087.416904
 30
0.0
 40
9.5
100
AcDbArc
 50
90.0
 51
270.0
  0
ARC
  5
119E
330
12ED
100
AcDbEntity
  8
toddler - Level 26
  6
Continuous
 62
     7
370
    13
100
AcDbCircle
 10
938.484034
 20
1450.750237
 30
0.0
 40
9.5
100
AcDbArc
 50
90.0
 51
270.0
  0
ARC
  5
119F
330
12ED
100
AcDbEntity
  8
toddler - Level 26
  6
Continuous
 62
     7
370
    13
100
AcDbCircle
 10
1274.317266
 20
1450.750237
 30
0.0
 40
9.5
100
AcDbArc
 50
0.0
 51
90.0
  0
ARC
  5
11A0
330
12ED
100
AcDbEntity
  8
toddler - Level 26
  6
Continuous
 62
     7
370
    13
100
AcDbCircle
 10
1274.317266
 20
1450.750237
 30
0.0
 40
9.5
100
AcDbArc
 50
270.0
 51
0.0
  0
ARC
  5
11A1
330
12ED
100
AcDbEntity
  8
toddler - Level 26
  6
Continuous
 62
     7
370
    13
100
AcDbCircle
 10
938.484034
 20
360.750237
 30
0.0
 40
9.5
100
AcDbArc
 50
90.0
 51
270.0
  0
ARC
  5
11A2
330
12ED
100
AcDbEntity
  8
toddler - Level 26
  6
Continuous
 62
     7
370
    13
100
AcDbCircle
 10
938.484034
 20
724.083571
 30
0.0
 40
9.5
100
AcDbArc
 50
90.0
 51
270.0
  0
ARC
  5
11A3
330
12ED
100
AcDbEntity
  8
toddler - Level 26
  6
Continuous
 62
     7
370
    13
100
AcDbCircle
 10
1066.395059
 20
655.750237
 30
0.0
 40
11.0
100
AcDbArc
 50
90.0
 51
270.0
  0
ARC
  5
11A4
330
12ED
100
AcDbEntity
  8
toddler - Level 26
  6
Continuous
 62
     7
370
    13
100
AcDbCircle
 10
1137.312974
 20
655.750237
 30
0.0
 40
11.0
100
AcDbArc
 50
0.0
 51
90.0
  0
ARC
  5
11A5
330
12ED
100
AcDbEntity
  8
toddler - Level 26
  6
Continuous
 62
     7
370
    13
100
AcDbCircle
 10
1137.312974
 20
655.750237
 30
0.0
 40
11.0
100
AcDbArc
 50
270.0
 51
0.0
  0
ARC
  5
11A6
330
12ED
100
AcDbEntity
  8
toddler - Level 26
  6
Continuous
 62
     7
370
    13
100
AcDbCircle
 10
1075.488326
 20
1155.750237
 30
0.0
 40
11.0
100
AcDbArc
 50
90.0
 51
270.0
  0
ARC
  5
11A7
330
12ED
100
AcDbEntity
  8
toddler - Level 26
  6
Continuous
 62
     7
370
    13
100
AcDbCircle
 10
1612.067173
 20
1087.416904
 30
0.0
 40
9.5
100
AcDbArc
 50
0.0
 51
90.0
  0
ARC
  5
11A8
330
12ED
100
AcDbEntity
  8
toddler - Level 26
  6
Continuous
 62
     7
370
    13
100
AcDbCircle
 10
1612.067173
 20
1087.416904
 30
0.0
 40
9.5
100
AcDbArc
 50
270.0
 51
0.0
  0
ARC
  5
11A9
330
12ED
100
AcDbEntity
  8
toddler - Level 26
  6
Continuous
 62
     7
370
    13
100
AcDbCircle
 10
1612.067173
 20
1450.750237
 30
0.0
 40
9.5
100
AcDbArc
 50
0.0
 51
90.0
  0
ARC
  5
11AA
330
12ED
100
AcDbEntity
  8
toddler - Level 26
  6
Continuous
 62
     7
370
    13
100
AcDbCircle
 10
1612.067173
 20
1450.750237
 30
0.0
 40
9.5
100
AcDbArc
 50
270.0
 51
0.0
  0
ARC
  5
11AB
330
12ED
100
AcDbEntity
  8
toddler - Level 26
  6
Continuous
 62
     7
370
    13
100
AcDbCircle
 10
1274.317266
 20
1087.416904
 30
0.0
 40
9.5
100
AcDbArc
 50
0.0
 51
90.0
  0
ARC
  5
11AC
330
12ED
100
AcDbEntity
  8
toddler - Level 26
  6
Continuous
 62
     7
370
    13
100
AcDbCircle
 10
1274.317266
 20
1087.416904
 30
0.0
 40
9.5
100
AcDbArc
 50
270.0
 51
0.0
  0
ARC
  5
11AD
330
12ED
100
AcDbEntity
  8
toddler - Level 26
  6
Continuous
 62
     7
370
    13
100
AcDbCircle
 10
1146.406241
 20
1155.750237
 30
0.0
 40
11.0
100
AcDbArc
 50
0.0
 51
90.0
  0
ARC
  5
11AE
330
12ED
100
AcDbEntity
  8
toddler - Level 26
  6
Continuous
 62
     7
370
    13
100
AcDbCircle
 10
1146.406241
 20
1155.750237
 30
0.0
 40
11.0
100
AcDbArc
 50
270.0
 51
0.0
  0
LINE
  5
11AF
330
12ED
100
AcDbEntity
  8
toddler - Level 26
  6
Continuous
 62
     7
370
    13
100
AcDbLine
 10
1765.90065
 20
420.750237
 30
0.0
 11
1761.791492
 21
420.750237
 31
0.0
  0
ARC
  5
11B0
330
12ED
100
AcDbEntity
  8
toddler - Level 26
  6
Continuous
 62
     7
370
    13
100
AcDbCircle
 10
1760.90065
 20
420.750237
 30
0.0
 40
5.0
100
AcDbArc
 50
280.26309
 51
0.0
  0
LINE
  5
11B1
330
12ED
100
AcDbEntity
  8
toddler - Level 26
  6
Continuous
 62
     7
370
    13
100
AcDbLine
 10
1761.791492
 20
425.750237
 30
0.0
 11
1765.90065
 21
425.750237
 31
0.0
  0
LINE
  5
11B2
330
12ED
100
AcDbEntity
  8
toddler - Level 26
  6
Continuous
 62
     7
370
    13
100
AcDbLine
 10
1765.90065
 20
420.750237
 30
0.0
 11
1765.90065
 21
425.750237
 31
0.0
  0
ARC
  5
11B3
330
12ED
100
AcDbEntity
  8
toddler - Level 26
  6
Continuous
 62
     7
370
    13
100
AcDbCircle
 10
1760.90065
 20
425.750237
 30
0.0
 40
5.0
100
AcDbArc
 50
0.0
 51
79.73691
  0
LINE
  5
11B4
330
12ED
100
AcDbEntity
  8
toddler - Level 26
  6
Continuous
 62
     7
370
    13
100
AcDbLine
 10
1765.90065
 20
440.750237
 30
0.0
 11
1761.791492
 21
440.750237
 31
0.0
  0
ARC
  5
11B5
330
12ED
100
AcDbEntity
  8
toddler - Level 26
  6
Continuous
 62
     7
370
    13
100
AcDbCircle
 10
1760.90065
 20
440.750237
 30
0.0
 40
5.0
100
AcDbArc
 50
280.26309
 51
0.0
  0
LINE
  5
11B6
330
12ED
100
AcDbEntity
  8
toddler - Level 26
  6
Continuous
 62
     7
370
    13
100
AcDbLine
 10
1761.791492
 20
445.750237
 30
0.0
 11
1765.90065
 21
445.750237
 31
0.0
  0
LINE
  5
11B7
330
12ED
100
AcDbEntity
  8
toddler - Level 26
  6
Continuous
 62
     7
370
    13
100
AcDbLine
 10
1765.90065
 20
440.750237
 30
0.0
 11
1765.90065
 21
445.750237
 31
0.0
  0
ARC
  5
11B8
330
12ED
100
AcDbEntity
  8
toddler - Level 26
  6
Continuous
 62
     7
370
    13
100
AcDbCircle
 10
1760.90065
 20
445.750237
 30
0.0
 40
5.0
100
AcDbArc
 50
0.0
 51
79.73691
  0
LINE
  5
11B9
330
12ED
100
AcDbEntity
  8
toddler - Level 26
  6
Continuous
 62
     7
370
    13
100
AcDbLine
 10
1765.90065
 20
485.750237
 30
0.0
 11
1761.791492
 21
485.750237
 31
0.0
  0
ARC
  5
11BA
330
12ED
100
AcDbEntity
  8
toddler - Level 26
  6
Continuous
 62
     7
370
    13
100
AcDbCircle
 10
1760.90065
 20
485.750237
 30
0.0
 40
5.0
100
AcDbArc
 50
280.26309
 51
0.0
  0
LINE
  5
11BB
330
12ED
100
AcDbEntity
  8
toddler - Level 26
  6
Continuous
 62
     7
370
    13
100
AcDbLine
 10
1761.791492
 20
490.750237
 30
0.0
 11
1765.90065
 21
490.750237
 31
0.0
  0
LINE
  5
11BC
330
12ED
100
AcDbEntity
  8
toddler - Level 26
  6
Continuous
 62
     7
370
    13
100
AcDbLine
 10
1765.90065
 20
485.750237
 30
0.0
 11
1765.90065
 21
490.750237
 31
0.0
  0
ARC
  5
11BD
330
12ED
100
AcDbEntity
  8
toddler - Level 26
  6
Continuous
 62
     7
370
    13
100
AcDbCircle
 10
1760.90065
 20
490.750237
 30
0.0
 40
5.0
100
AcDbArc
 50
0.0
 51
79.73691
  0
LINE
  5
11BE
330
12ED
100
AcDbEntity
  8
toddler - Level 26
  6
Continuous
 62
     7
370
    13
100
AcDbLine
 10
1765.90065
 20
520.750237
 30
0.0
 11
1761.791492
 21
520.750237
 31
0.0
  0
ARC
  5
11BF
330
12ED
100
AcDbEntity
  8
toddler - Level 26
  6
Continuous
 62
     7
370
    13
100
AcDbCircle
 10
1760.90065
 20
520.750237
 30
0.0
 40
5.0
100
AcDbArc
 50
280.26309
 51
0.0
  0
LINE
  5
11C0
330
12ED
100
AcDbEntity
  8
toddler - Level 26
  6
Continuous
 62
     7
370
    13
100
AcDbLine
 10
1761.791492
 20
525.750237
 30
0.0
 11
1765.90065
 21
525.750237
 31
0.0
  0
LINE
  5
11C1
330
12ED
100
AcDbEntity
  8
toddler - Level 26
  6
Continuous
 62
     7
370
    13
100
AcDbLine
 10
1765.90065
 20
520.750237
 30
0.0
 11
1765.90065
 21
525.750237
 31
0.0
  0
ARC
  5
11C2
330
12ED
100
AcDbEntity
  8
toddler - Level 26
  6
Continuous
 62
     7
370
    13
100
AcDbCircle
 10
1760.90065
 20
525.750237
 30
0.0
 40
5.0
100
AcDbArc
 50
0.0
 51
79.73691
  0
LINE
  5
11C3
330
12ED
100
AcDbEntity
  8
toddler - Level 26
  6
Continuous
 62
     7
370
    13
100
AcDbLine
 10
1765.90065
 20
593.750237
 30
0.0
 11
1761.791492
 21
593.750237
 31
0.0
  0
ARC
  5
11C4
330
12ED
100
AcDbEntity
  8
toddler - Level 26
  6
Continuous
 62
     7
370
    13
100
AcDbCircle
 10
1760.90065
 20
593.750237
 30
0.0
 40
5.0
100
AcDbArc
 50
280.26309
 51
0.0
  0
LINE
  5
11C5
330
12ED
100
AcDbEntity
  8
toddler - Level 26
  6
Continuous
 62
     7
370
    13
100
AcDbLine
 10
1761.791492
 20
598.750237
 30
0.0
 11
1765.90065
 21
598.750237
 31
0.0
  0
LINE
  5
11C6
330
12ED
100
AcDbEntity
  8
toddler - Level 26
  6
Continuous
 62
     7
370
    13
100
AcDbLine
 10
1765.90065
 20
593.750237
 30
0.0
 11
1765.90065
 21
598.750237
 31
0.0
  0
ARC
  5
11C7
330
12ED
100
AcDbEntity
  8
toddler - Level 26
  6
Continuous
 62
     7
370
    13
100
AcDbCircle
 10
1760.90065
 20
598.750237
 30
0.0
 40
5.0
100
AcDbArc
 50
0.0
 51
79.73691
  0
LINE
  5
11C8
330
12ED
100
AcDbEntity
  8
toddler - Level 26
  6
Continuous
 62
     7
370
    13
100
AcDbLine
 10
1765.90065
 20
623.750237
 30
0.0
 11
1761.791492
 21
623.750237
 31
0.0
  0
ARC
  5
11C9
330
12ED
100
AcDbEntity
  8
toddler - Level 26
  6
Continuous
 62
     7
370
    13
100
AcDbCircle
 10
1760.90065
 20
623.750237
 30
0.0
 40
5.0
100
AcDbArc
 50
280.26309
 51
0.0
  0
LINE
  5
11CA
330
12ED
100
AcDbEntity
  8
toddler - Level 26
  6
Continuous
 62
     7
370
    13
100
AcDbLine
 10
1761.791492
 20
628.750237
 30
0.0
 11
1765.90065
 21
628.750237
 31
0.0
  0
LINE
  5
11CB
330
12ED
100
AcDbEntity
  8
toddler - Level 26
  6
Continuous
 62
     7
370
    13
100
AcDbLine
 10
1765.90065
 20
623.750237
 30
0.0
 11
1765.90065
 21
628.750237
 31
0.0
  0
ARC
  5
11CC
330
12ED
100
AcDbEntity
  8
toddler - Level 26
  6
Continuous
 62
     7
370
    13
100
AcDbCircle
 10
1760.90065
 20
628.750237
 30
0.0
 40
5.0
100
AcDbArc
 50
0.0
 51
79.73691
  0
LINE
  5
11CD
330
12ED
100
AcDbEntity
  8
toddler - Level 26
  6
Continuous
 62
     7
370
    13
100
AcDbLine
 10
420.635408
 20
1098.479945
 30
0.0
 11
448.91968
 21
1070.195674
 31
0.0
  0
ARC
  5
11CE
330
12ED
100
AcDbEntity
  8
toddler - Level 26
  6
Continuous
 62
     7
370
    13
100
AcDbCircle
 10
450.687447
 20
1071.963441
 30
0.0
 40
2.5
100
AcDbArc
 50
225.0
 51
277.408613
  0
LINE
  5
11CF
330
12ED
100
AcDbEntity
  8
toddler - Level 26
  6
Continuous
 62
     7
370
    13
100
AcDbLine
 10
451.009808
 20
1075.176613
 30
0.0
 11
424.170942
 21
1102.015479
 31
0.0
  0
ARC
  5
11D0
330
12ED
100
AcDbEntity
  8
toddler - Level 26
  6
Continuous
 62
     7
370
    13
100
AcDbCircle
 10
422.403175
 20
1100.247712
 30
0.0
 40
2.5
100
AcDbArc
 50
45.0
 51
135.0
  0
ARC
  5
11D1
330
12ED
100
AcDbEntity
  8
toddler - Level 26
  6
Continuous
 62
     7
370
    13
100
AcDbCircle
 10
422.403175
 20
1100.247712
 30
0.0
 40
2.5
100
AcDbArc
 50
135.0
 51
225.0
  0
LINE
  5
11D2
330
12ED
100
AcDbEntity
  8
toddler - Level 26
  6
Continuous
 62
     7
370
    13
100
AcDbLine
 10
403.638795
 20
1066.452756
 30
0.0
 11
442.275828
 21
1056.099994
 31
0.0
  0
ARC
  5
11D3
330
12ED
100
AcDbEntity
  8
toddler - Level 26
  6
Continuous
 62
     7
370
    13
100
AcDbCircle
 10
442.922875
 20
1058.514809
 30
0.0
 40
2.5
100
AcDbArc
 50
255.0
 51
345.0
  0
ARC
  5
11D4
330
12ED
100
AcDbEntity
  8
toddler - Level 26
  6
Continuous
 62
     7
370
    13
100
AcDbCircle
 10
442.922875
 20
1058.514809
 30
0.0
 40
2.5
100
AcDbArc
 50
345.0
 51
75.0
  0
LINE
  5
11D5
330
12ED
100
AcDbEntity
  8
toddler - Level 26
  6
Continuous
 62
     7
370
    13
100
AcDbLine
 10
443.569923
 20
1060.929623
 30
0.0
 11
404.93289
 21
1071.282385
 31
0.0
  0
ARC
  5
11D6
330
12ED
100
AcDbEntity
  8
toddler - Level 26
  6
Continuous
 62
     7
370
    13
100
AcDbCircle
 10
404.285842
 20
1068.867571
 30
0.0
 40
2.5
100
AcDbArc
 50
75.0
 51
165.0
  0
ARC
  5
11D7
330
12ED
100
AcDbEntity
  8
toddler - Level 26
  6
Continuous
 62
     7
370
    13
100
AcDbCircle
 10
404.285842
 20
1068.867571
 30
0.0
 40
2.5
100
AcDbArc
 50
165.0
 51
255.0
  0
ARC
  5
11D8
330
12ED
100
AcDbEntity
  8
toddler - Level 26
  6
Continuous
 62
     7
370
    13
100
AcDbCircle
 10
404.285842
 20
1032.632904
 30
0.0
 40
2.5
100
AcDbArc
 50
195.0
 51
285.0
  0
LINE
  5
11D9
330
12ED
100
AcDbEntity
  8
toddler - Level 26
  6
Continuous
 62
     7
370
    13
100
AcDbLine
 10
443.569923
 20
1040.570851
 30
0.0
 11
404.93289
 21
1030.21809
 31
0.0
  0
ARC
  5
11DA
330
12ED
100
AcDbEntity
  8
toddler - Level 26
  6
Continuous
 62
     7
370
    13
100
AcDbCircle
 10
442.922875
 20
1042.985666
 30
0.0
 40
2.5
100
AcDbArc
 50
285.0
 51
15.0
  0
ARC
  5
11DB
330
12ED
100
AcDbEntity
  8
toddler - Level 26
  6
Continuous
 62
     7
370
    13
100
AcDbCircle
 10
442.922875
 20
1042.985666
 30
0.0
 40
2.5
100
AcDbArc
 50
15.0
 51
105.0
  0
LINE
  5
11DC
330
12ED
100
AcDbEntity
  8
toddler - Level 26
  6
Continuous
 62
     7
370
    13
100
AcDbLine
 10
403.638795
 20
1035.047719
 30
0.0
 11
442.275828
 21
1045.400481
 31
0.0
  0
ARC
  5
11DD
330
12ED
100
AcDbEntity
  8
toddler - Level 26
  6
Continuous
 62
     7
370
    13
100
AcDbCircle
 10
404.285842
 20
1032.632904
 30
0.0
 40
2.5
100
AcDbArc
 50
105.0
 51
195.0
  0
ARC
  5
11DE
330
12ED
100
AcDbEntity
  8
toddler - Level 26
  6
Continuous
 62
     7
370
    13
100
AcDbCircle
 10
422.403175
 20
1001.252763
 30
0.0
 40
2.5
100
AcDbArc
 50
225.0
 51
315.0
  0
LINE
  5
11DF
330
12ED
100
AcDbEntity
  8
toddler - Level 26
  6
Continuous
 62
     7
370
    13
100
AcDbLine
 10
451.009808
 20
1026.323862
 30
0.0
 11
424.170942
 21
999.484996
 31
0.0
  0
ARC
  5
11E0
330
12ED
100
AcDbEntity
  8
toddler - Level 26
  6
Continuous
 62
     7
370
    13
100
AcDbCircle
 10
450.687447
 20
1029.537034
 30
0.0
 40
2.5
100
AcDbArc
 50
82.591387
 51
135.0
  0
LINE
  5
11E1
330
12ED
100
AcDbEntity
  8
toddler - Level 26
  6
Continuous
 62
     7
370
    13
100
AcDbLine
 10
420.635408
 20
1003.02053
 30
0.0
 11
448.91968
 21
1031.304801
 31
0.0
  0
ARC
  5
11E2
330
12ED
100
AcDbEntity
  8
toddler - Level 26
  6
Continuous
 62
     7
370
    13
100
AcDbCircle
 10
422.403175
 20
1001.252763
 30
0.0
 40
2.5
100
AcDbArc
 50
135.0
 51
225.0
  0
LINE
  5
11E3
330
12ED
100
AcDbEntity
  8
toddler - Level 26
  6
Continuous
 62
     7
370
    13
100
AcDbLine
 10
426.90065
 20
620.750237
 30
0.0
 11
451.009808
 21
620.750237
 31
0.0
  0
ARC
  5
11E4
330
12ED
100
AcDbEntity
  8
toddler - Level 26
  6
Continuous
 62
     7
370
    13
100
AcDbCircle
 10
426.90065
 20
665.750237
 30
0.0
 40
45.0
100
AcDbArc
 50
180.0
 51
270.0
  0
LINE
  5
11E5
330
12ED
100
AcDbEntity
  8
toddler - Level 26
  6
Continuous
 62
     7
370
    13
100
AcDbLine
 10
381.90065
 20
1145.750237
 30
0.0
 11
381.90065
 21
665.750237
 31
0.0
  0
ARC
  5
11E6
330
12ED
100
AcDbEntity
  8
toddler - Level 26
  6
Continuous
 62
     7
370
    13
100
AcDbCircle
 10
426.90065
 20
1145.750237
 30
0.0
 40
45.0
100
AcDbArc
 50
90.0
 51
180.0
  0
LINE
  5
11E7
330
12ED
100
AcDbEntity
  8
toddler - Level 26
  6
Continuous
 62
     7
370
    13
100
AcDbLine
 10
451.009808
 20
1190.750237
 30
0.0
 11
426.90065
 21
1190.750237
 31
0.0
  0
LINE
  5
11E8
330
12ED
100
AcDbEntity
  8
toddler - Level 26
  6
Continuous
 62
     7
370
    13
100
AcDbLine
 10
376.90065
 20
665.750237
 30
0.0
 11
381.90065
 21
665.750237
 31
0.0
  0
LINE
  5
11E9
330
12ED
100
AcDbEntity
  8
toddler - Level 26
  6
Continuous
 62
     7
370
    13
100
AcDbLine
 10
376.90065
 20
665.750237
 30
0.0
 11
376.90065
 21
1145.750237
 31
0.0
  0
LINE
  5
11EA
330
12ED
100
AcDbEntity
  8
toddler - Level 26
  6
Continuous
 62
     7
370
    13
100
AcDbLine
 10
381.90065
 20
1145.750237
 30
0.0
 11
376.90065
 21
1145.750237
 31
0.0
  0
LINE
  5
11EB
330
12ED
100
AcDbEntity
  8
toddler - Level 26
  6
Continuous
 62
     7
370
    13
100
AcDbLine
 10
426.90065
 20
615.750237
 30
0.0
 11
426.90065
 21
620.750237
 31
0.0
  0
ARC
  5
11EC
330
12ED
100
AcDbEntity
  8
toddler - Level 26
  6
Continuous
 62
     7
370
    13
100
AcDbCircle
 10
-426.90065
 20
665.750237
 30
0.0
 40
50.0
210
0.0
220
0.0
230
-1.0
100
AcDbArc
 50
270.0
 51
0.0
  0
ARC
  5
11ED
330
12ED
100
AcDbEntity
  8
toddler - Level 26
  6
Continuous
 62
     7
370
    13
100
AcDbCircle
 10
-426.90065
 20
1145.750237
 30
0.0
 40
50.0
210
0.0
220
0.0
230
-1.0
100
AcDbArc
 50
0.0
 51
90.0
  0
LINE
  5
11EE
330
12ED
100
AcDbEntity
  8
toddler - Level 26
  6
Continuous
 62
     7
370
    13
100
AcDbLine
 10
426.90065
 20
1190.750237
 30
0.0
 11
426.90065
 21
1195.750237
 31
0.0
  0
LINE
  5
11EF
330
12ED
100
AcDbEntity
  8
toddler - Level 26
  6
Continuous
 62
     7
370
    13
100
AcDbLine
 10
451.009808
 20
615.750237
 30
0.0
 11
426.90065
 21
615.750237
 31
0.0
  0
LINE
  5
11F0
330
12ED
100
AcDbEntity
  8
toddler - Level 26
  6
Continuous
 62
     7
370
    13
100
AcDbLine
 10
426.90065
 20
1195.750237
 30
0.0
 11
451.009808
 21
1195.750237
 31
0.0
  0
ARC
  5
11F1
330
12ED
100
AcDbEntity
  8
toddler - Level 26
  6
Continuous
 62
     7
370
     0
100
AcDbCircle
 10
491.90065
 20
785.750237
 30
0.0
 40
102.4999999999999
100
AcDbArc
 50
113.51162
 51
246.48838
  0
ARC
  5
11F2
330
12ED
100
AcDbEntity
  8
toddler - Level 26
  6
Continuous
 62
     7
370
     0
100
AcDbCircle
 10
-491.90065
 20
785.750237
 30
0.0
 40
84.0713982279348
210
0.0
220
0.0
230
-1.0
100
AcDbArc
 50
0.0
 51
60.896922
  0
ARC
  5
11F3
330
12ED
100
AcDbEntity
  8
toddler - Level 26
  6
Continuous
 62
     7
370
     0
100
AcDbCircle
 10
-491.90065
 20
785.750237
 30
0.0
 40
84.0713982279348
210
0.0
220
0.0
230
-1.0
100
AcDbArc
 50
299.103078
 51
0.0
  0
ARC
  5
11F4
330
12ED
100
AcDbEntity
  8
toddler - Level 26
  6
Continuous
 62
     7
370
     0
100
AcDbCircle
 10
491.90065
 20
785.750237
 30
0.0
 40
78.33925743966652
100
AcDbArc
 50
121.464574
 51
238.535426
  0
ELLIPSE
  5
11F5
330
12ED
100
AcDbEntity
  8
toddler - Level 26
  6
Continuous
 62
     7
370
     0
100
AcDbEllipse
 10
600.734127
 20
724.083571
 30
0.0
 11
0.0
 21
9.500000000000001
 31
0.0
210
0.0
220
0.0
230
-1.0
 40
0.8660254037844394
 41
-0.0000000000001101
 42
3.141592653589903
  0
ELLIPSE
  5
11F6
330
12ED
100
AcDbEntity
  8
toddler - Level 26
  6
Continuous
 62
     7
370
     0
100
AcDbEllipse
 10
600.734127
 20
360.750237
 30
0.0
 11
0.0
 21
9.500000000000001
 31
0.0
210
0.0
220
0.0
230
-1.0
 40
0.8660254037844394
 41
-0.0000000000000737
 42
3.141592653589866
  0
ELLIPSE
  5
11F7
330
12ED
100
AcDbEntity
  8
toddler - Level 26
  6
Continuous
 62
     7
370
    13
100
AcDbEllipse
 10
600.734127
 20
1087.416904
 30
0.0
 11
0.0
 21
9.500000000000001
 31
0.0
210
0.0
220
0.0
230
-1.0
 40
0.8660254037844394
 41
-0.0000000000000737
 42
3.141592653589866
  0
ELLIPSE
  5
11F8
330
12ED
100
AcDbEntity
  8
toddler - Level 26
  6
Continuous
 62
     7
370
    13
100
AcDbEllipse
 10
1274.317266
 20
724.083571
 30
0.0
 11
0.0
 21
9.500000000000001
 31
0.0
210
0.0
220
0.0
230
-1.0
 40
0.8660254037844394
 41
4.712388980384689
 42
6.283185307179227
  0
ELLIPSE
  5
11F9
330
12ED
100
AcDbEntity
  8
toddler - Level 26
  6
Continuous
 62
     7
370
    13
100
AcDbEllipse
 10
1274.317266
 20
724.083571
 30
0.0
 11
0.0
 21
9.500000000000001
 31
0.0
210
0.0
220
0.0
230
-1.0
 40
0.8660254037844394
 41
3.141592653590151
 42
4.712388980384689
  0
ELLIPSE
  5
11FA
330
12ED
100
AcDbEntity
  8
toddler - Level 26
  6
Continuous
 62
     7
370
    13
100
AcDbEllipse
 10
1274.317266
 20
360.750237
 30
0.0
 11
0.0
 21
9.500000000000001
 31
0.0
210
0.0
220
0.0
230
-1.0
 40
0.8660254037844394
 41
4.712388980384689
 42
6.283185307179218
  0
ELLIPSE
  5
11FB
330
12ED
100
AcDbEntity
  8
toddler - Level 26
  6
Continuous
 62
     7
370
    13
100
AcDbEllipse
 10
1274.317266
 20
360.750237
 30
0.0
 11
0.0
 21
9.500000000000001
 31
0.0
210
0.0
220
0.0
230
-1.0
 40
0.8660254037844394
 41
3.14159265359016
 42
4.712388980384689
  0
ELLIPSE
  5
11FC
330
12ED
100
AcDbEntity
  8
toddler - Level 26
  6
Continuous
 62
     7
370
    13
100
AcDbEllipse
 10
600.734127
 20
1450.750237
 30
0.0
 11
0.0
 21
9.500000000000001
 31
0.0
210
0.0
220
0.0
230
-1.0
 40
0.8660254037844394
 41
-0.0000000000000737
 42
3.141592653589866
  0
ELLIPSE
  5
11FD
330
12ED
100
AcDbEntity
  8
toddler - Level 26
  6
Continuous
 62
     7
370
     0
100
AcDbEllipse
 10
1612.067173
 20
724.083571
 30
0.0
 11
0.0
 21
9.500000000000001
 31
0.0
210
0.0
220
0.0
230
-1.0
 40
0.8660254037844394
 41
4.712388980384689
 42
6.283185307179991
  0
ELLIPSE
  5
11FE
330
12ED
100
AcDbEntity
  8
toddler - Level 26
  6
Continuous
 62
     7
370
     0
100
AcDbEllipse
 10
1612.067173
 20
724.083571
 30
0.0
 11
0.0
 21
9.500000000000001
 31
0.0
210
0.0
220
0.0
230
-1.0
 40
0.8660254037844394
 41
3.141592653589388
 42
4.712388980384689
  0
ELLIPSE
  5
11FF
330
12ED
100
AcDbEntity
  8
toddler - Level 26
  6
Continuous
 62
     7
370
     0
100
AcDbEllipse
 10
1612.067173
 20
360.750237
 30
0.0
 11
0.0
 21
9.500000000000001
 31
0.0
210
0.0
220
0.0
230
-1.0
 40
0.8660254037844394
 41
4.712388980384689
 42
6.283185307179991
  0
ELLIPSE
  5
1200
330
12ED
100
AcDbEntity
  8
toddler - Level 26
  6
Continuous
 62
     7
370
     0
100
AcDbEllipse
 10
1612.067173
 20
360.750237
 30
0.0
 11
0.0
 21
9.500000000000001
 31
0.0
210
0.0
220
0.0
230
-1.0
 40
0.8660254037844394
 41
3.141592653589388
 42
4.712388980384689
  0
ELLIPSE
  5
1201
330
12ED
100
AcDbEntity
  8
toddler - Level 26
  6
Continuous
 62
     7
370
    13
100
AcDbEllipse
 10
1274.317266
 20
1087.416904
 30
0.0
 11
0.0
 21
9.500000000000001
 31
0.0
210
0.0
220
0.0
230
-1.0
 40
0.8660254037844394
 41
4.712388980384689
 42
6.283185307179227
  0
ELLIPSE
  5
1202
330
12ED
100
AcDbEntity
  8
toddler - Level 26
  6
Continuous
 62
     7
370
    13
100
AcDbEllipse
 10
1274.317266
 20
1087.416904
 30
0.0
 11
0.0
 21
9.500000000000001
 31
0.0
210
0.0
220
0.0
230
-1.0
 40
0.8660254037844394
 41
3.141592653590151
 42
4.712388980384689
  0
ELLIPSE
  5
1203
330
12ED
100
AcDbEntity
  8
toddler - Level 26
  6
Continuous
 62
     7
370
    13
100
AcDbEllipse
 10
1612.067173
 20
1087.416904
 30
0.0
 11
0.0
 21
9.500000000000001
 31
0.0
210
0.0
220
0.0
230
-1.0
 40
0.8660254037844394
 41
4.712388980384689
 42
6.283185307179991
  0
ELLIPSE
  5
1204
330
12ED
100
AcDbEntity
  8
toddler - Level 26
  6
Continuous
 62
     7
370
    13
100
AcDbEllipse
 10
1612.067173
 20
1087.416904
 30
0.0
 11
0.0
 21
9.500000000000001
 31
0.0
210
0.0
220
0.0
230
-1.0
 40
0.8660254037844394
 41
3.141592653589388
 42
4.712388980384689
  0
ELLIPSE
  5
1205
330
12ED
100
AcDbEntity
  8
toddler - Level 26
  6
Continuous
 62
     7
370
    13
100
AcDbEllipse
 10
1612.067173
 20
1450.750237
 30
0.0
 11
0.0
 21
9.500000000000001
 31
0.0
210
0.0
220
0.0
230
-1.0
 40
0.8660254037844394
 41
4.712388980384689
 42
6.283185307179991
  0
ELLIPSE
  5
1206
330
12ED
100
AcDbEntity
  8
toddler - Level 26
  6
Continuous
 62
     7
370
    13
100
AcDbEllipse
 10
1612.067173
 20
1450.750237
 30
0.0
 11
0.0
 21
9.500000000000001
 31
0.0
210
0.0
220
0.0
230
-1.0
 40
0.8660254037844394
 41
3.141592653589388
 42
4.712388980384689
  0
ELLIPSE
  5
1207
330
12ED
100
AcDbEntity
  8
toddler - Level 26
  6
Continuous
 62
     7
370
    13
100
AcDbEllipse
 10
1146.406241
 20
1155.750237
 30
0.0
 11
0.0
 21
11.0
 31
0.0
210
0.0
220
0.0
230
-1.0
 40
0.8660254037844394
 41
4.712388980384689
 42
6.283185307179523
  0
ELLIPSE
  5
1208
330
12ED
100
AcDbEntity
  8
toddler - Level 26
  6
Continuous
 62
     7
370
    13
100
AcDbEllipse
 10
1146.406241
 20
1155.750237
 30
0.0
 11
0.0
 21
11.0
 31
0.0
210
0.0
220
0.0
230
-1.0
 40
0.8660254037844394
 41
3.141592653589857
 42
4.712388980384689
  0
ARC
  5
1209
330
12ED
100
AcDbEntity
  8
toddler - Level 26
  6
Continuous
 62
     7
370
    13
100
AcDbCircle
 10
425.786166
 20
851.864721
 30
0.0
 40
5.656854249492335
100
AcDbArc
 50
0.0
 51
359.999994
  0
ARC
  5
120A
330
12ED
100
AcDbEntity
  8
toddler - Level 26
  6
Continuous
 62
     7
370
    13
100
AcDbCircle
 10
425.786166
 20
719.635753
 30
0.0
 40
5.656854249492335
100
AcDbArc
 50
0.0
 51
359.999994
  0
ELLIPSE
  5
120B
330
12ED
100
AcDbEntity
  8
toddler - Level 26
  6
Continuous
 62
     7
370
    13
100
AcDbEllipse
 10
938.484034
 20
360.750237
 30
0.0
 11
0.0
 21
9.500000000000001
 31
0.0
210
0.0
220
0.0
230
-1.0
 40
0.8660254037844394
 41
0.0000000000003491
 42
3.141592653589444
  0
ELLIPSE
  5
120C
330
12ED
100
AcDbEntity
  8
toddler - Level 26
  6
Continuous
 62
     7
370
    13
100
AcDbEllipse
 10
938.484034
 20
724.083571
 30
0.0
 11
0.0
 21
9.500000000000001
 31
0.0
210
0.0
220
0.0
230
-1.0
 40
0.8660254037844394
 41
0.0000000000003491
 42
3.141592653589444
  0
ELLIPSE
  5
120D
330
12ED
100
AcDbEntity
  8
toddler - Level 26
  6
Continuous
 62
     7
370
    13
100
AcDbEllipse
 10
1137.312974
 20
655.750237
 30
0.0
 11
0.0
 21
11.0
 31
0.0
210
0.0
220
0.0
230
-1.0
 40
0.8660254037844394
 41
4.712388980384689
 42
6.283185307178832
  0
ELLIPSE
  5
120E
330
12ED
100
AcDbEntity
  8
toddler - Level 26
  6
Continuous
 62
     7
370
    13
100
AcDbEllipse
 10
1137.312974
 20
655.750237
 30
0.0
 11
0.0
 21
11.0
 31
0.0
210
0.0
220
0.0
230
-1.0
 40
0.8660254037844394
 41
3.141592653590547
 42
4.712388980384689
  0
ELLIPSE
  5
120F
330
12ED
100
AcDbEntity
  8
toddler - Level 26
  6
Continuous
 62
     7
370
    13
100
AcDbEllipse
 10
1066.395059
 20
655.750237
 30
0.0
 11
0.0
 21
11.0
 31
0.0
210
0.0
220
0.0
230
-1.0
 40
0.8660254037844394
 41
0.000000000000016
 42
3.141592653589777
  0
ELLIPSE
  5
1210
330
12ED
100
AcDbEntity
  8
toddler - Level 26
  6
Continuous
 62
     7
370
    13
100
AcDbEllipse
 10
938.484034
 20
1087.416904
 30
0.0
 11
0.0
 21
9.500000000000001
 31
0.0
210
0.0
220
0.0
230
-1.0
 40
0.8660254037844394
 41
0.0000000000003491
 42
3.141592653589444
  0
ELLIPSE
  5
1211
330
12ED
100
AcDbEntity
  8
toddler - Level 26
  6
Continuous
 62
     7
370
    13
100
AcDbEllipse
 10
938.484034
 20
1450.750237
 30
0.0
 11
0.0
 21
9.500000000000001
 31
0.0
210
0.0
220
0.0
230
-1.0
 40
0.8660254037844394
 41
0.0000000000003491
 42
3.141592653589444
  0
ELLIPSE
  5
1212
330
12ED
100
AcDbEntity
  8
toddler - Level 26
  6
Continuous
 62
     7
370
    13
100
AcDbEllipse
 10
1274.317266
 20
1450.750237
 30
0.0
 11
0.0
 21
9.500000000000001
 31
0.0
210
0.0
220
0.0
230
-1.0
 40
0.8660254037844394
 41
4.712388980384689
 42
6.283185307179237
  0
ELLIPSE
  5
1213
330
12ED
100
AcDbEntity
  8
toddler - Level 26
  6
Continuous
 62
     7
370
    13
100
AcDbEllipse
 10
1274.317266
 20
1450.750237
 30
0.0
 11
0.0
 21
9.500000000000001
 31
0.0
210
0.0
220
0.0
230
-1.0
 40
0.8660254037844394
 41
3.141592653590142
 42
4.712388980384689
  0
ELLIPSE
  5
1214
330
12ED
100
AcDbEntity
  8
toddler - Level 26
  6
Continuous
 62
     7
370
    13
100
AcDbEllipse
 10
1075.488326
 20
1155.750237
 30
0.0
 11
0.0
 21
11.0
 31
0.0
210
0.0
220
0.0
230
-1.0
 40
0.8660254037844394
 41
0.0000000000008018
 42
3.141592653588991
  0
VIEWPORT
  5
846
330
131B
100
AcDbEntity
 67
     1
  8
0
  6
Continuous
 62
     3
370
     0
100
AcDbViewport
 10
153.028295
 20
114.762439
 30
0.0
 40
508.80726
 41
262.074878
 68
     1
 69
     1
 12
153.028295
 22
114.762439
 13
0.0
 23
0.0
 14
0.0
 24
0.0
 15
100000.0
 25
100000.0
 16
0.0
 26
0.0
 36
1.0
 17
0.0
 27
0.0
 37
0.0
 42
50.0
 43
0.0
 44
0.0
 45
262.074878
 50
0.0
 51
0.0
 72
   100
 90
    32800
  1

281
     0
 71
     1
 74
     1
110
0.0
120
0.0
130
0.0
111
1.0
121
0.0
131
0.0
112
0.0
122
1.0
132
0.0
 79
     0
146
0.0
170
     0
 61
     1
348
1331
292
     1
282
     1
141
0.0
142
0.0
 63
   250
421
  3355443
  0
INSERT
  5
12EB
330
131B
100
AcDbEntity
 67
     1
  8
0
  6
Continuous
 62
     7
370
     0
100
AcDbBlockReference
  2
A4_title
 10
0.0
 20
0.0
 30
0.0
  0
ENDSEC
  0
SECTION
  2
OBJECTS
  0
DICTIONARY
  5
12F6
330
0
100
AcDbDictionary
281
     1
  3
ACAD_COLOR
350
134B
  3
ACAD_DETAILVIEWSTYLE
350
14F8
  3
ACAD_GROUP
350
1338
  3
ACAD_LAYOUT
350
1319
  3
ACAD_MATERIAL
350
12F8
  3
ACAD_MLEADERSTYLE
350
134E
  3
ACAD_MLINESTYLE
350
1339
  3
ACAD_PLOTSETTINGS
350
133A
  3
ACAD_PLOTSTYLENAME
350
12F5
  3
ACAD_SCALELIST
350
134C
  3
ACAD_SECTIONVIEWSTYLE
350
14F6
  3
ACAD_TABLESTYLE
350
134D
  3
ACAD_VISUALSTYLE
350
1332
  3
AcadDim
350
14D1
  3
ACDB_RECOMPOSE_DATA
350
19AB
  3
AcDbVariableDictionary
350
134F
  3
AcDsDecomposeData
350
19B1
  3
MicroStation
350
14C8
  0
DICTIONARY
  5
1322
330
1321
100
AcDbDictionary
280
     1
281
     1
  3
ACAD_LAYERFILTERS
360
1323
  3
ACAD_LAYERSTATES
360
1324
  3
ACLYDICTIONARY
360
1325
  0
DICTIONARY
  5
12F2
330
12F1
100
AcDbDictionary
280
     1
281
     1
  3
ADSK_XREC_LAYER_RECONCILED
360
12F3
  0
DICTIONARY
  5
12EE
330
12ED
100
AcDbDictionary
280
     1
281
     1
  3
ACAD_SORTENTS
360
14C5
  0
DICTIONARY
  5
134B
102
{ACAD_REACTORS
330
12F6
102
}
330
12F6
100
AcDbDictionary
281
     1
  0
DICTIONARY
  5
14F8
102
{ACAD_REACTORS
330
12F6
102
}
330
12F6
100
AcDbDictionary
281
     1
  3
Imperial24
350
14F9
  0
DICTIONARY
  5
1338
102
{ACAD_REACTORS
330
12F6
102
}
330
12F6
100
AcDbDictionary
281
     1
  0
DICTIONARY
  5
1319
102
{ACAD_REACTORS
330
12F6
102
}
330
12F6
100
AcDbDictionary
281
     1
  3
Model
350
1318
  3
Untitled Sheet
350
131E
  0
DICTIONARY
  5
12F8
102
{ACAD_REACTORS
330
12F6
102
}
330
12F6
100
AcDbDictionary
281
     1
  3
ByBlock
350
1343
  3
ByLayer
350
133B
  3
Global
350
12F7
  0
DICTIONARY
  5
134E
102
{ACAD_REACTORS
330
12F6
102
}
330
12F6
100
AcDbDictionary
281
     1
  3
Standard
350
14D2
  0
DICTIONARY
  5
1339
102
{ACAD_REACTORS
330
12F6
102
}
330
12F6
100
AcDbDictionary
281
     1
  3
Standard
350
1361
  0
DICTIONARY
  5
133A
102
{ACAD_REACTORS
330
12F6
102
}
330
12F6
100
AcDbDictionary
281
     1
  0
ACDBDICTIONARYWDFLT
  5
12F5
102
{ACAD_REACTORS
330
12F6
102
}
330
12F6
100
AcDbDictionary
281
     1
  3
Normal
350
12F4
100
AcDbDictionaryWithDefault
340
12F4
  0
DICTIONARY
  5
134C
102
{ACAD_REACTORS
330
12F6
102
}
330
12F6
100
AcDbDictionary
281
     1
  3
A0
350
1366
  3
A1
350
1367
  3
A2
350
1368
  3
A3
350
1369
  3
A4
350
136A
  3
A5
350
136B
  3
A6
350
136C
  3
A7
350
136D
  3
A8
350
136E
  3
A9
350
136F
  3
B0
350
1370
  3
B1
350
1371
  3
B2
350
1372
  3
B3
350
1373
  3
B4
350
1374
  3
B5
350
1375
  3
B6
350
1376
  3
B7
350
1377
  3
B8
350
1378
  3
B9
350
1379
  3
C0
350
137A
  3
C1
350
137B
  3
C2
350
137C
  3
C3
350
137D
  3
C4
350
137E
  3
C5
350
137F
  3
C6
350
1380
  3
C7
350
1381
  3
C8
350
1382
  3
C9
350
1383
  3
D0
350
1384
  3
D1
350
1385
  3
D2
350
1386
  0
DICTIONARY
  5
14F6
102
{ACAD_REACTORS
330
12F6
102
}
330
12F6
100
AcDbDictionary
281
     1
  3
Imperial24
350
14F7
  0
DICTIONARY
  5
134D
102
{ACAD_REACTORS
330
12F6
102
}
330
12F6
100
AcDbDictionary
281
     1
  3
Standard
350
1362
  0
DICTIONARY
  5
1332
102
{ACAD_REACTORS
330
12F6
102
}
330
12F6
100
AcDbDictionary
281
     1
  3
2dWireframe
350
1331
  3
Basic
350
14E5
  3
Brighten
350
14E9
  3
ColorChange
350
14ED
  3
Conceptual
350
14E7
  3
Dim
350
14E8
  3
EdgeColorOff
350
14F5
  3
Facepattern
350
14EC
  3
Flat
350
14E1
  3
FlatWithEdges
350
14E2
  3
Gouraud
350
14E3
  3
GouraudWithEdges
350
14E4
  3
Hidden
350
14E6
  3
JitterOff
350
14F3
  3
Linepattern
350
14EB
  3
OverhangOff
350
14F4
  3
Realistic
350
1364
  3
Shaded
350
14F2
  3
Shaded with edges
350
14F1
  3
Shades of Gray
350
14EE
  3
Sketchy
350
14EF
  3
Thicken
350
14EA
  3
Wireframe
350
1365
  3
X-Ray
350
14F0
  0
XRECORD
  5
14D1
102
{ACAD_REACTORS
330
12F6
102
}
330
12F6
100
AcDbXrecord
280
     1
 90
   990106
  3
 
 60
     0
 61
     0
 62
     1
 63
     1
 64
     0
 65
     0
 66
     0
 67
     3
 68
     1
 69
     1
 70
     0
 71
     0
 72
     0
 40
0.0
170
     0
  0
XRECORD
  5
19AB
102
{ACAD_REACTORS
330
12F6
102
}
330
12F6
100
AcDbXrecord
280
     1
 90
        1
330
1362
  0
DICTIONARY
  5
134F
102
{ACAD_REACTORS
330
12F6
102
}
330
12F6
100
AcDbDictionary
281
     1
  3
CANNOSCALE
350
1350
  3
CMLEADERSTYLE
350
1351
  3
CTABLESTYLE
350
1352
  3
CVIEWDETAILSTYLE
350
1353
  3
CVIEWSECTIONSTYLE
350
1354
  3
LAYEREVAL
350
1355
  3
LAYERNOTIFY
350
1356
  3
MSLTSCALE
350
1357
  3
PDFFRAME
350
1358
  0
DICTIONARY
  5
19B1
102
{ACAD_REACTORS
330
12F6
102
}
330
12F6
100
AcDbDictionary
281
     1
  3
AcDsRecords
350
19B3
  3
AcDsSchemas
350
19B2
1001
ACAD
1070
     2
  0
DICTIONARY
  5
14C8
102
{ACAD_REACTORS
330
12F6
102
}
330
12F6
100
AcDbDictionary
281
     1
  0
DICTIONARY
  5
1323
102
{ACAD_REACTORS
330
1322
102
}
330
1322
100
AcDbDictionary
281
     1
  0
DICTIONARY
  5
1324
102
{ACAD_REACTORS
330
1322
102
}
330
1322
100
AcDbDictionary
281
     1
  0
DICTIONARY
  5
1325
102
{ACAD_REACTORS
330
1322
102
}
330
1322
100
AcDbDictionary
281
     1
  0
XRECORD
  5
12F3
102
{ACAD_REACTORS
330
12F2
102
}
330
12F2
100
AcDbXrecord
280
     1
290
     1
  0
SORTENTSTABLE
  5
14C5
102
{ACAD_REACTORS
330
12EE
102
}
330
12EE
100
AcDbSortentsTable
330
12ED
  0
ACDBDETAILVIEWSTYLE
  5
14F9
102
{ACAD_XDICTIONARY
360
19B6
102
}
102
{ACAD_REACTORS
330
14F8
102
}
330
14F8
100
AcDbModelDocViewStyle
 70
     0
  3
Imperial24
290
     0
100
AcDbDetailViewStyle
 70
     0
 71
     0
 90
        3
 71
     1
340
1327
 62
   256
 40
0.24
340
0
 62
   256
 40
0.24
300

 40
0.36
280
     3
 71
     2
340
1300
 90
       25
 62
   256
 71
     3
340
1327
 62
   256
 40
0.24
 90
        1
 40
0.75
 90
        1
300
%<\AcVar ViewType \f "%tc1">% %<\AcVar ViewDetailId>%\PSCALE %<\AcVar ViewScale \f "%sn">%
 71
     4
340
1300
 90
       25
 62
   256
340
1300
 90
       25
 62
   256
280
     0
  0
LAYOUT
  5
1318
102
{ACAD_XDICTIONARY
360
131A
102
}
102
{ACAD_REACTORS
330
1319
102
}
330
1319
100
AcDbPlotSettings
  1

  2
none_device
  4
ANSI_A_(8.50_x_11.00_Inches)
  6

 40
6.35
 41
19.049999
 42
6.350006
 43
19.049988
 44
215.899994
 45
279.399994
 46
0.0
 47
0.0
 48
0.0
 49
0.0
140
0.0
141
0.0
142
1.0
143
2.584895
 70
 11952
 72
     0
 73
     1
 74
     0
  7

 75
     0
147
0.386863
 76
     0
 77
     2
 78
   300
148
0.0
149
0.0
100
AcDbLayout
  1
Model
 70
     1
 71
     0
 10
0.0
 20
0.0
 11
12.0
 21
9.0
 12
0.0
 22
0.0
 32
0.0
 14
0.0
 24
0.0
 34
0.0
 15
0.0
 25
0.0
 35
0.0
146
0.0
 13
0.0
 23
0.0
 33
0.0
 16
1.0
 26
0.0
 36
0.0
 17
0.0
 27
1.0
 37
0.0
 76
     0
330
12ED
  0
LAYOUT
  5
131E
102
{ACAD_XDICTIONARY
360
131F
102
}
102
{ACAD_REACTORS
330
1319
102
}
330
1319
100
AcDbPlotSettings
  1

  2
none_device
  4
ISO_A4_(297.00_x_210.00_MM)
  6

 40
0.0
 41
0.0
 42
0.0
 43
0.0
 44
297.0
 45
210.0
 46
0.0
 47
0.0
 48
0.0
 49
0.0
140
0.0
141
0.0
142
1.0
143
1.0
 70
   688
 72
     1
 73
     0
 74
     5
  7

 75
    16
147
1.0
 76
     0
 77
     2
 78
   300
148
0.0
149
0.0
100
AcDbLayout
  1
Untitled Sheet
 70
     1
 71
     1
 10
-0.25
 20
-0.25
 11
10.75
 21
8.25
 12
0.0
 22
0.0
 32
0.0
 14
1.05
 24
0.8
 34
0.0
 15
9.45
 25
7.2
 35
0.0
146
0.0
 13
0.0
 23
0.0
 33
0.0
 16
1.0
 26
0.0
 36
0.0
 17
0.0
 27
1.0
 37
0.0
 76
     0
330
131B
331
846
1001
ACAD_PSEXT
1000
None
1000
None
1000
Not applicable
1000
The layout will not be plotted unless a new plotter configuration name is selected.
1070
     0
1001
AcadAnnoAV
1070
     1
  0
MATERIAL
  5
1343
102
{ACAD_XDICTIONARY
360
1344
102
}
102
{ACAD_REACTORS
330
12F8
102
}
330
12F8
100
AcDbMaterial
  1
ByBlock
 72
     0
 43
0.020833
 43
0.0
 43
0.0
 43
0.0
 43
0.0
 43
0.020833
 43
0.0
 43
0.0
 43
0.0
 43
0.0
 43
1.0
 43
0.0
 43
0.0
 43
0.0
 43
0.0
 43
1.0
 77
     0
 47
0.020833
 47
0.0
 47
0.0
 47
0.0
 47
0.0
 47
0.020833
 47
0.0
 47
0.0
 47
0.0
 47
0.0
 47
1.0
 47
0.0
 47
0.0
 47
0.0
 47
0.0
 47
1.0
171
     0
 49
0.020833
 49
0.0
 49
0.0
 49
0.0
 49
0.0
 49
0.020833
 49
0.0
 49
0.0
 49
0.0
 49
0.0
 49
1.0
 49
0.0
 49
0.0
 49
0.0
 49
0.0
 49
1.0
175
     0
142
0.020833
142
0.0
142
0.0
142
0.0
142
0.0
142
0.020833
142
0.0
142
0.0
142
0.0
142
0.0
142
1.0
142
0.0
142
0.0
142
0.0
142
0.0
142
1.0
179
     0
144
0.020833
144
0.0
144
0.0
144
0.0
144
0.0
144
0.020833
144
0.0
144
0.0
144
0.0
144
0.0
144
1.0
144
0.0
144
0.0
144
0.0
144
0.0
144
1.0
147
0.020833
147
0.0
147
0.0
147
0.0
147
0.0
147
0.020833
147
0.0
147
0.0
147
0.0
147
0.0
147
1.0
147
0.0
147
0.0
147
0.0
147
0.0
147
1.0
  0
MATERIAL
  5
133B
102
{ACAD_XDICTIONARY
360
133C
102
}
102
{ACAD_REACTORS
330
12F8
102
}
330
12F8
100
AcDbMaterial
  1
ByLayer
 72
     0
 43
0.020833
 43
0.0
 43
0.0
 43
0.0
 43
0.0
 43
0.020833
 43
0.0
 43
0.0
 43
0.0
 43
0.0
 43
1.0
 43
0.0
 43
0.0
 43
0.0
 43
0.0
 43
1.0
 77
     0
 47
0.020833
 47
0.0
 47
0.0
 47
0.0
 47
0.0
 47
0.020833
 47
0.0
 47
0.0
 47
0.0
 47
0.0
 47
1.0
 47
0.0
 47
0.0
 47
0.0
 47
0.0
 47
1.0
171
     0
 49
0.020833
 49
0.0
 49
0.0
 49
0.0
 49
0.0
 49
0.020833
 49
0.0
 49
0.0
 49
0.0
 49
0.0
 49
1.0
 49
0.0
 49
0.0
 49
0.0
 49
0.0
 49
1.0
175
     0
142
0.020833
142
0.0
142
0.0
142
0.0
142
0.0
142
0.020833
142
0.0
142
0.0
142
0.0
142
0.0
142
1.0
142
0.0
142
0.0
142
0.0
142
0.0
142
1.0
179
     0
144
0.020833
144
0.0
144
0.0
144
0.0
144
0.0
144
0.020833
144
0.0
144
0.0
144
0.0
144
0.0
144
1.0
144
0.0
144
0.0
144
0.0
144
0.0
144
1.0
147
0.020833
147
0.0
147
0.0
147
0.0
147
0.0
147
0.020833
147
0.0
147
0.0
147
0.0
147
0.0
147
1.0
147
0.0
147
0.0
147
0.0
147
0.0
147
1.0
  0
MATERIAL
  5
12F7
102
{ACAD_XDICTIONARY
360
12F9
102
}
102
{ACAD_REACTORS
330
12F8
102
}
330
12F8
100
AcDbMaterial
  1
Global
 72
     0
 43
0.020833
 43
0.0
 43
0.0
 43
0.0
 43
0.0
 43
0.020833
 43
0.0
 43
0.0
 43
0.0
 43
0.0
 43
1.0
 43
0.0
 43
0.0
 43
0.0
 43
0.0
 43
1.0
 77
     0
 47
0.020833
 47
0.0
 47
0.0
 47
0.0
 47
0.0
 47
0.020833
 47
0.0
 47
0.0
 47
0.0
 47
0.0
 47
1.0
 47
0.0
 47
0.0
 47
0.0
 47
0.0
 47
1.0
171
     0
 49
0.020833
 49
0.0
 49
0.0
 49
0.0
 49
0.0
 49
0.020833
 49
0.0
 49
0.0
 49
0.0
 49
0.0
 49
1.0
 49
0.0
 49
0.0
 49
0.0
 49
0.0
 49
1.0
175
     0
142
0.020833
142
0.0
142
0.0
142
0.0
142
0.0
142
0.020833
142
0.0
142
0.0
142
0.0
142
0.0
142
1.0
142
0.0
142
0.0
142
0.0
142
0.0
142
1.0
179
     0
144
0.020833
144
0.0
144
0.0
144
0.0
144
0.0
144
0.020833
144
0.0
144
0.0
144
0.0
144
0.0
144
1.0
144
0.0
144
0.0
144
0.0
144
0.0
144
1.0
147
0.020833
147
0.0
147
0.0
147
0.0
147
0.0
147
0.020833
147
0.0
147
0.0
147
0.0
147
0.0
147
1.0
147
0.0
147
0.0
147
0.0
147
0.0
147
1.0
  0
MLEADERSTYLE
  5
14D2
102
{ACAD_REACTORS
330
134E
102
}
330
134E
100
AcDbMLeaderStyle
179
     2
170
     2
171
     1
172
     0
 90
        2
 40
0.0
 41
0.0
173
     1
 91
-1073741824
 92
       -2
290
     1
 42
1.5
291
     1
 43
3.0
  3

 44
3.0
300

342
313
174
     1
178
     1
175
     1
176
     0
 93
-1073741824
 45
3.0
292
     0
297
     1
 46
5.0
 94
-1073741824
 47
1.0
 49
1.0
140
1.0
293
     1
141
0.0
294
     1
177
     0
142
1.0
295
     0
296
     0
143
0.125
271
     0
272
     9
273
     9
298
     0
  0
MLINESTYLE
  5
1361
102
{ACAD_REACTORS
330
1339
102
}
330
1339
100
AcDbMlineStyle
  2
STANDARD
 70
     0
  3

 62
   256
 51
90.0
 52
90.0
 71
     2
 49
0.5
 62
   256
  6
BYLAYER
 49
-0.5
 62
   256
  6
BYLAYER
  0
ACDBPLACEHOLDER
  5
12F4
102
{ACAD_REACTORS
330
12F5
102
}
330
12F5
  0
SCALE
  5
1366
102
{ACAD_REACTORS
330
134C
102
}
330
134C
100
AcDbScale
 70
     0
300
1:1
140
1.0
141
1.0
290
     1
  0
SCALE
  5
1367
102
{ACAD_REACTORS
330
134C
102
}
330
134C
100
AcDbScale
 70
     0
300
1:2
140
1.0
141
2.0
290
     0
  0
SCALE
  5
1368
102
{ACAD_REACTORS
330
134C
102
}
330
134C
100
AcDbScale
 70
     0
300
1:4
140
1.0
141
4.0
290
     0
  0
SCALE
  5
1369
102
{ACAD_REACTORS
330
134C
102
}
330
134C
100
AcDbScale
 70
     0
300
1:5
140
1.0
141
5.0
290
     0
  0
SCALE
  5
136A
102
{ACAD_REACTORS
330
134C
102
}
330
134C
100
AcDbScale
 70
     0
300
1:8
140
1.0
141
8.0
290
     0
  0
SCALE
  5
136B
102
{ACAD_REACTORS
330
134C
102
}
330
134C
100
AcDbScale
 70
     0
300
1:10
140
1.0
141
10.0
290
     0
  0
SCALE
  5
136C
102
{ACAD_REACTORS
330
134C
102
}
330
134C
100
AcDbScale
 70
     0
300
1:16
140
1.0
141
16.0
290
     0
  0
SCALE
  5
136D
102
{ACAD_REACTORS
330
134C
102
}
330
134C
100
AcDbScale
 70
     0
300
1:20
140
1.0
141
20.0
290
     0
  0
SCALE
  5
136E
102
{ACAD_REACTORS
330
134C
102
}
330
134C
100
AcDbScale
 70
     0
300
1:30
140
1.0
141
30.0
290
     0
  0
SCALE
  5
136F
102
{ACAD_REACTORS
330
134C
102
}
330
134C
100
AcDbScale
 70
     0
300
1:40
140
1.0
141
40.0
290
     0
  0
SCALE
  5
1370
102
{ACAD_REACTORS
330
134C
102
}
330
134C
100
AcDbScale
 70
     0
300
1:50
140
1.0
141
50.0
290
     0
  0
SCALE
  5
1371
102
{ACAD_REACTORS
330
134C
102
}
330
134C
100
AcDbScale
 70
     0
300
1:100
140
1.0
141
100.0
290
     0
  0
SCALE
  5
1372
102
{ACAD_REACTORS
330
134C
102
}
330
134C
100
AcDbScale
 70
     0
300
2:1
140
2.0
141
1.0
290
     0
  0
SCALE
  5
1373
102
{ACAD_REACTORS
330
134C
102
}
330
134C
100
AcDbScale
 70
     0
300
4:1
140
4.0
141
1.0
290
     0
  0
SCALE
  5
1374
102
{ACAD_REACTORS
330
134C
102
}
330
134C
100
AcDbScale
 70
     0
300
8:1
140
8.0
141
1.0
290
     0
  0
SCALE
  5
1375
102
{ACAD_REACTORS
330
134C
102
}
330
134C
100
AcDbScale
 70
     0
300
10:1
140
10.0
141
1.0
290
     0
  0
SCALE
  5
1376
102
{ACAD_REACTORS
330
134C
102
}
330
134C
100
AcDbScale
 70
     0
300
100:1
140
100.0
141
1.0
290
     0
  0
SCALE
  5
1377
102
{ACAD_REACTORS
330
134C
102
}
330
134C
100
AcDbScale
 70
     0
300
1/128" = 1'-0"
140
0.007813
141
12.0
290
     0
  0
SCALE
  5
1378
102
{ACAD_REACTORS
330
134C
102
}
330
134C
100
AcDbScale
 70
     0
300
1/64" = 1'-0"
140
0.015625
141
12.0
290
     0
  0
SCALE
  5
1379
102
{ACAD_REACTORS
330
134C
102
}
330
134C
100
AcDbScale
 70
     0
300
1/32" = 1'-0"
140
0.03125
141
12.0
290
     0
  0
SCALE
  5
137A
102
{ACAD_REACTORS
330
134C
102
}
330
134C
100
AcDbScale
 70
     0
300
1/16" = 1'-0"
140
0.0625
141
12.0
290
     0
  0
SCALE
  5
137B
102
{ACAD_REACTORS
330
134C
102
}
330
134C
100
AcDbScale
 70
     0
300
3/32" = 1'-0"
140
0.09375
141
12.0
290
     0
  0
SCALE
  5
137C
102
{ACAD_REACTORS
330
134C
102
}
330
134C
100
AcDbScale
 70
     0
300
1/8" = 1'-0"
140
0.125
141
12.0
290
     0
  0
SCALE
  5
137D
102
{ACAD_REACTORS
330
134C
102
}
330
134C
100
AcDbScale
 70
     0
300
3/16" = 1'-0"
140
0.1875
141
12.0
290
     0
  0
SCALE
  5
137E
102
{ACAD_REACTORS
330
134C
102
}
330
134C
100
AcDbScale
 70
     0
300
1/4" = 1'-0"
140
0.25
141
12.0
290
     0
  0
SCALE
  5
137F
102
{ACAD_REACTORS
330
134C
102
}
330
134C
100
AcDbScale
 70
     0
300
3/8" = 1'-0"
140
0.375
141
12.0
290
     0
  0
SCALE
  5
1380
102
{ACAD_REACTORS
330
134C
102
}
330
134C
100
AcDbScale
 70
     0
300
1/2" = 1'-0"
140
0.5
141
12.0
290
     0
  0
SCALE
  5
1381
102
{ACAD_REACTORS
330
134C
102
}
330
134C
100
AcDbScale
 70
     0
300
3/4" = 1'-0"
140
0.75
141
12.0
290
     0
  0
SCALE
  5
1382
102
{ACAD_REACTORS
330
134C
102
}
330
134C
100
AcDbScale
 70
     0
300
1" = 1'-0"
140
1.0
141
12.0
290
     0
  0
SCALE
  5
1383
102
{ACAD_REACTORS
330
134C
102
}
330
134C
100
AcDbScale
 70
     0
300
1-1/2" = 1'-0"
140
1.5
141
12.0
290
     0
  0
SCALE
  5
1384
102
{ACAD_REACTORS
330
134C
102
}
330
134C
100
AcDbScale
 70
     0
300
3" = 1'-0"
140
3.0
141
12.0
290
     0
  0
SCALE
  5
1385
102
{ACAD_REACTORS
330
134C
102
}
330
134C
100
AcDbScale
 70
     0
300
6" = 1'-0"
140
6.0
141
12.0
290
     0
  0
SCALE
  5
1386
102
{ACAD_REACTORS
330
134C
102
}
330
134C
100
AcDbScale
 70
     0
300
1'-0" = 1'-0"
140
12.0
141
12.0
290
     0
  0
ACDBSECTIONVIEWSTYLE
  5
14F7
102
{ACAD_XDICTIONARY
360
19B4
102
}
102
{ACAD_REACTORS
330
14F6
102
}
330
14F6
100
AcDbModelDocViewStyle
 70
     0
  3
Imperial24
290
     0
100
AcDbSectionViewStyle
 70
     0
 71
     0
 90
       78
 71
     1
340
1327
 62
   256
 40
0.24
340
0
340
0
 62
   256
 40
0.24
300
I, O, Q, S, X, Z
 40
0.48
 90
        3
 40
0.18
 90
        1
 71
     2
340
1300
 90
       25
 62
   256
340
1300
 90
       50
 62
   256
 40
0.24
 40
0.0
 40
0.24
 71
     3
340
1327
 62
   256
 40
0.24
 90
        1
 40
0.75
 90
        1
300
%<\AcVar ViewType \f "%tc1">% %<\AcVar ViewSectionStartId>%-%<\AcVar ViewSectionEndId>%\PSCALE %<\AcVar ViewScale \f "%sn">%
 71
     4
 62
   256
 62
   257
300
ANSI31
 40
1.0
 90
        0
290
     0
290
     0
 90
        6
 40
0.0
 40
1.570796
 40
0.261799
 40
1.308997
 40
-0.261799
 40
1.832596
  0
TABLESTYLE
  5
1362
102
{ACAD_XDICTIONARY
360
1363
102
}
102
{ACAD_REACTORS
330
134D
102
}
330
134D
100
AcDbTableStyle
280
     0
  3
Standard
 70
     0
 71
     0
 40
0.06
 41
0.06
280
     0
281
     0
  7
Standard
140
0.18
170
     2
 62
     0
 63
     7
283
     0
 90
        4
 91
        0
  1

274
    -2
284
     1
 64
     0
275
    -2
285
     1
 65
     0
276
    -2
286
     1
 66
     0
277
    -2
287
     1
 67
     0
278
    -2
288
     1
 68
     0
279
    -2
289
     1
 69
     0
  7
Standard
140
0.25
170
     5
 62
     0
 63
     7
283
     0
 90
        4
 91
        0
  1

274
    -2
284
     1
 64
     0
275
    -2
285
     1
 65
     0
276
    -2
286
     1
 66
     0
277
    -2
287
     1
 67
     0
278
    -2
288
     1
 68
     0
279
    -2
289
     1
 69
     0
  7
Standard
140
0.18
170
     5
 62
     0
 63
     7
283
     0
 90
        4
 91
        0
  1

274
    -2
284
     1
 64
     0
275
    -2
285
     1
 65
     0
276
    -2
286
     1
 66
     0
277
    -2
287
     1
 67
     0
278
    -2
288
     1
 68
     0
279
    -2
289
     1
 69
     0
  0
VISUALSTYLE
  5
1331
102
{ACAD_REACTORS
330
1332
102
}
330
1332
100
AcDbVisualStyle
  2
2dWireframe
 70
     4
177
     3
291
     0
 70
    58
 90
        0
176
     1
 90
        2
176
     1
 90
        0
176
     1
 90
        0
176
     1
 40
0.6
176
     1
 40
30.0
176
     1
 62
     7
420
 16777215
176
     1
 90
        1
176
     1
 90
        4
176
     1
 62
     7
176
     1
 62
   257
176
     1
 90
        1
176
     1
 90
        1
176
     1
 40
1.0
176
     1
 90
        0
176
     1
 62
   257
176
     1
 40
1.0
176
     1
 90
        1
176
     1
 90
        6
176
     1
 90
        2
176
     1
 62
     7
176
     1
 90
        5
176
     1
 90
        0
176
     1
 90
        0
176
     1
290
     0
176
     1
 90
        1
176
     1
 40
0.0
176
     1
 90
        0
176
     1
290
     1
176
     1
290
     1
176
     1
290
     0
176
     1
290
     0
176
     1
290
     0
176
     1
290
     0
176
     1
290
     0
176
     1
290
     0
176
     1
290
     0
176
     1
 90
       50
176
     1
 40
0.0
176
     1
 40
1.0
176
     1
 90
        0
176
     1
 62
    18
420
        0
176
     1
 90
       50
176
     1
 90
        3
176
     1
 62
     5
420
      255
176
     1
290
     0
176
     1
 90
       50
176
     1
 90
       50
176
     1
 90
       50
176
     1
290
     0
176
     1
 90
       50
176
     1
 62
   256
176
     0
 40
1.0
176
     0
 90
        2
176
     1
  1
strokes_ogs.tif
176
     1
290
     0
176
     1
 40
1.0
176
     1
 40
1.0
176
     1
1001
ACAD
1000
AcDbSavedByObjectVersion
1070
     0
  0
VISUALSTYLE
  5
14E5
102
{ACAD_REACTORS
330
1332
102
}
330
1332
100
AcDbVisualStyle
  2
Basic
 70
     7
177
     3
291
     1
 70
    58
 90
        1
176
     1
 90
        0
176
     1
 90
        1
176
     1
 90
        0
176
     1
 40
0.6
176
     1
 40
30.0
176
     1
 62
     7
420
 16777215
176
     1
 90
        0
176
     1
 90
        4
176
     1
 62
     7
176
     1
 62
   257
176
     1
 90
        1
176
     1
 90
        1
176
     1
 40
1.0
176
     1
 90
        8
176
     1
 62
     7
176
     1
 40
1.0
176
     1
 90
        1
176
     1
 90
        6
176
     1
 90
        2
176
     1
 62
     7
176
     1
 90
        5
176
     1
 90
        0
176
     1
 90
        0
176
     1
290
     0
176
     1
 90
        1
176
     1
 40
0.0
176
     1
 90
        0
176
     1
290
     0
176
     1
290
     1
176
     1
290
     1
176
     1
290
     0
176
     1
290
     0
176
     1
290
     0
176
     1
290
     0
176
     1
290
     0
176
     1
290
     0
176
     1
 90
       50
176
     1
 40
0.0
176
     1
 40
1.0
176
     1
 90
        0
176
     1
 62
    18
420
        0
176
     1
 90
       50
176
     1
 90
        3
176
     1
 62
     5
420
      255
176
     1
290
     0
176
     1
 90
       50
176
     1
 90
       50
176
     1
 90
       50
176
     1
290
     0
176
     1
 90
       50
176
     1
 62
   256
176
     0
 40
1.0
176
     0
 90
        2
176
     1
  1
strokes_ogs.tif
176
     1
290
     0
176
     1
 40
1.0
176
     1
 40
1.0
176
     1
1001
ACAD
1000
AcDbSavedByObjectVersion
1070
     0
  0
VISUALSTYLE
  5
14E9
102
{ACAD_REACTORS
330
1332
102
}
330
1332
100
AcDbVisualStyle
  2
Brighten
 70
    12
177
     3
291
     1
 70
    58
 90
        2
176
     1
 90
        2
176
     1
 90
        0
176
     1
 90
        0
176
     1
 40
0.6
176
     1
 40
30.0
176
     1
 62
     7
420
 16777215
176
     1
 90
        1
176
     1
 90
        4
176
     1
 62
     7
176
     1
 62
   257
176
     1
 90
        1
176
     1
 90
        1
176
     1
 40
1.0
176
     1
 90
        8
176
     1
 62
     7
176
     1
 40
1.0
176
     1
 90
        1
176
     1
 90
        6
176
     1
 90
        2
176
     1
 62
     7
176
     1
 90
        5
176
     1
 90
        0
176
     1
 90
        0
176
     1
290
     0
176
     1
 90
        1
176
     1
 40
50.0
176
     1
 90
        0
176
     1
290
     0
176
     1
290
     1
176
     1
290
     1
176
     1
290
     0
176
     1
290
     0
176
     1
290
     0
176
     1
290
     0
176
     1
290
     0
176
     1
290
     0
176
     1
 90
       50
176
     1
 40
0.0
176
     1
 40
1.0
176
     1
 90
        0
176
     1
 62
    18
420
        0
176
     1
 90
       50
176
     1
 90
        3
176
     1
 62
     5
420
      255
176
     1
290
     0
176
     1
 90
       50
176
     1
 90
       50
176
     1
 90
       50
176
     1
290
     0
176
     1
 90
       50
176
     1
 62
   256
176
     0
 40
1.0
176
     0
 90
        2
176
     1
  1
strokes_ogs.tif
176
     1
290
     0
176
     1
 40
1.0
176
     1
 40
1.0
176
     1
1001
ACAD
1000
AcDbSavedByObjectVersion
1070
     0
  0
VISUALSTYLE
  5
14ED
102
{ACAD_REACTORS
330
1332
102
}
330
1332
100
AcDbVisualStyle
  2
ColorChange
 70
    16
177
     3
291
     1
 70
    58
 90
        2
176
     1
 90
        2
176
     1
 90
        3
176
     1
 90
        0
176
     1
 40
0.6
176
     1
 40
30.0
176
     1
 62
     8
420
  8421504
176
     1
 90
        1
176
     1
 90
        4
176
     1
 62
     7
176
     1
 62
   257
176
     1
 90
        1
176
     1
 90
        1
176
     1
 40
1.0
176
     1
 90
        8
176
     1
 62
     8
420
  8421504
176
     1
 40
1.0
176
     1
 90
        1
176
     1
 90
        6
176
     1
 90
        2
176
     1
 62
     7
176
     1
 90
        5
176
     1
 90
        0
176
     1
 90
        0
176
     1
290
     0
176
     1
 90
        1
176
     1
 40
0.0
176
     1
 90
        0
176
     1
290
     0
176
     1
290
     1
176
     1
290
     1
176
     1
290
     0
176
     1
290
     0
176
     1
290
     0
176
     1
290
     0
176
     1
290
     0
176
     1
290
     0
176
     1
 90
       50
176
     1
 40
0.0
176
     1
 40
1.0
176
     1
 90
        0
176
     1
 62
    18
420
        0
176
     1
 90
       50
176
     1
 90
        3
176
     1
 62
     5
420
      255
176
     1
290
     0
176
     1
 90
       50
176
     1
 90
       50
176
     1
 90
       50
176
     1
290
     0
176
     1
 90
       50
176
     1
 62
   256
176
     0
 40
1.0
176
     0
 90
        2
176
     1
  1
strokes_ogs.tif
176
     1
290
     0
176
     1
 40
1.0
176
     1
 40
1.0
176
     1
1001
ACAD
1000
AcDbSavedByObjectVersion
1070
     0
  0
VISUALSTYLE
  5
14E7
102
{ACAD_REACTORS
330
1332
102
}
330
1332
100
AcDbVisualStyle
  2
Conceptual
 70
     9
177
     3
291
     0
 70
    58
 90
        3
176
     1
 90
        2
176
     1
 90
        0
176
     1
 90
        0
176
     1
 40
0.6
176
     1
 40
30.0
176
     1
 62
     7
420
 16777215
176
     1
 90
        2
176
     1
 90
        2
176
     1
 62
     7
176
     1
 62
   257
176
     1
 90
        1
176
     1
 90
        1
176
     1
 40
179.0
176
     1
 90
        8
176
     1
 62
     7
176
     1
 40
1.0
176
     1
 90
        1
176
     1
 90
        6
176
     1
 90
        2
176
     1
 62
     7
176
     1
 90
        3
176
     1
 90
        0
176
     1
 90
        0
176
     1
290
     0
176
     1
 90
        1
176
     1
 40
0.0
176
     1
 90
        0
176
     1
290
     0
176
     1
290
     1
176
     1
290
     1
176
     1
290
     0
176
     1
290
     0
176
     1
290
     0
176
     1
290
     0
176
     1
290
     0
176
     1
290
     0
176
     1
 90
       50
176
     1
 40
0.0
176
     1
 40
1.0
176
     1
 90
        0
176
     1
 62
    18
420
        0
176
     1
 90
       50
176
     1
 90
        3
176
     1
 62
     5
420
      255
176
     1
290
     0
176
     1
 90
       50
176
     1
 90
       50
176
     1
 90
       50
176
     1
290
     0
176
     1
 90
       50
176
     1
 62
   256
176
     0
 40
1.0
176
     0
 90
        2
176
     1
  1
strokes_ogs.tif
176
     1
290
     0
176
     1
 40
1.0
176
     1
 40
1.0
176
     1
1001
ACAD
1000
AcDbSavedByObjectVersion
1070
     0
  0
VISUALSTYLE
  5
14E8
102
{ACAD_REACTORS
330
1332
102
}
330
1332
100
AcDbVisualStyle
  2
Dim
 70
    11
177
     3
291
     1
 70
    58
 90
        2
176
     1
 90
        2
176
     1
 90
        0
176
     1
 90
        0
176
     1
 40
0.6
176
     1
 40
30.0
176
     1
 62
     7
420
 16777215
176
     1
 90
        1
176
     1
 90
        4
176
     1
 62
     7
176
     1
 62
   257
176
     1
 90
        1
176
     1
 90
        1
176
     1
 40
1.0
176
     1
 90
        8
176
     1
 62
     7
176
     1
 40
1.0
176
     1
 90
        1
176
     1
 90
        6
176
     1
 90
        2
176
     1
 62
     7
176
     1
 90
        5
176
     1
 90
        0
176
     1
 90
        0
176
     1
290
     0
176
     1
 90
        1
176
     1
 40
-50.0
176
     1
 90
        0
176
     1
290
     0
176
     1
290
     1
176
     1
290
     1
176
     1
290
     0
176
     1
290
     0
176
     1
290
     0
176
     1
290
     0
176
     1
290
     0
176
     1
290
     0
176
     1
 90
       50
176
     1
 40
0.0
176
     1
 40
1.0
176
     1
 90
        0
176
     1
 62
    18
420
        0
176
     1
 90
       50
176
     1
 90
        3
176
     1
 62
     5
420
      255
176
     1
290
     0
176
     1
 90
       50
176
     1
 90
       50
176
     1
 90
       50
176
     1
290
     0
176
     1
 90
       50
176
     1
 62
   256
176
     0
 40
1.0
176
     0
 90
        2
176
     1
  1
strokes_ogs.tif
176
     1
290
     0
176
     1
 40
1.0
176
     1
 40
1.0
176
     1
1001
ACAD
1000
AcDbSavedByObjectVersion
1070
     0
  0
VISUALSTYLE
  5
14F5
102
{ACAD_REACTORS
330
1332
102
}
330
1332
100
AcDbVisualStyle
  2
EdgeColorOff
 70
    22
177
     3
291
     1
 70
    58
 90
        2
176
     0
 90
        2
176
     0
 90
        0
176
     0
 90
        0
176
     0
 40
0.6
176
     0
 40
30.0
176
     0
 62
     7
420
 16777215
176
     0
 90
        1
176
     0
 90
        4
176
     0
 62
     7
176
     0
 62
   257
176
     0
 90
        1
176
     0
 90
        1
176
     0
 40
1.0
176
     0
 90
        8
176
     2
 62
     7
176
     0
 40
1.0
176
     0
 90
        1
176
     0
 90
        6
176
     0
 90
        2
176
     0
 62
     7
176
     0
 90
        5
176
     0
 90
        0
176
     0
 90
        0
176
     0
290
     0
176
     0
 90
        1
176
     0
 40
0.0
176
     0
 90
        0
176
     0
290
     0
176
     0
290
     1
176
     0
290
     1
176
     0
290
     0
176
     0
290
     0
176
     0
290
     0
176
     0
290
     0
176
     0
290
     0
176
     0
290
     0
176
     0
 90
       50
176
     0
 40
0.0
176
     0
 40
1.0
176
     0
 90
        0
176
     0
 62
    18
420
        0
176
     0
 90
       50
176
     0
 90
        3
176
     0
 62
     5
420
      255
176
     0
290
     0
176
     0
 90
       50
176
     0
 90
       50
176
     0
 90
       50
176
     0
290
     0
176
     0
 90
       50
176
     0
 62
   256
176
     0
 40
1.0
176
     0
 90
        2
176
     0
  1
strokes_ogs.tif
176
     0
290
     0
176
     0
 40
1.0
176
     0
 40
1.0
176
     0
1001
ACAD
1000
AcDbSavedByObjectVersion
1070
     0
  0
VISUALSTYLE
  5
14EC
102
{ACAD_REACTORS
330
1332
102
}
330
1332
100
AcDbVisualStyle
  2
Facepattern
 70
    15
177
     3
291
     1
 70
    58
 90
        2
176
     1
 90
        2
176
     1
 90
        0
176
     1
 90
        0
176
     1
 40
0.6
176
     1
 40
30.0
176
     1
 62
     7
420
 16777215
176
     1
 90
        1
176
     1
 90
        4
176
     1
 62
     7
176
     1
 62
   257
176
     1
 90
        1
176
     1
 90
        1
176
     1
 40
1.0
176
     1
 90
        8
176
     1
 62
     7
176
     1
 40
1.0
176
     1
 90
        1
176
     1
 90
        6
176
     1
 90
        2
176
     1
 62
     7
176
     1
 90
        5
176
     1
 90
        0
176
     1
 90
        0
176
     1
290
     0
176
     1
 90
        1
176
     1
 40
0.0
176
     1
 90
        0
176
     1
290
     0
176
     1
290
     1
176
     1
290
     1
176
     1
290
     0
176
     1
290
     0
176
     1
290
     0
176
     1
290
     0
176
     1
290
     0
176
     1
290
     0
176
     1
 90
       50
176
     1
 40
0.0
176
     1
 40
1.0
176
     1
 90
        0
176
     1
 62
    18
420
        0
176
     1
 90
       50
176
     1
 90
        3
176
     1
 62
     5
420
      255
176
     1
290
     0
176
     1
 90
       50
176
     1
 90
       50
176
     1
 90
       50
176
     1
290
     0
176
     1
 90
       50
176
     1
 62
   256
176
     0
 40
1.0
176
     0
 90
        2
176
     1
  1
strokes_ogs.tif
176
     1
290
     0
176
     1
 40
1.0
176
     1
 40
1.0
176
     1
1001
ACAD
1000
AcDbSavedByObjectVersion
1070
     0
  0
VISUALSTYLE
  5
14E1
102
{ACAD_REACTORS
330
1332
102
}
330
1332
100
AcDbVisualStyle
  2
Flat
 70
     0
177
     3
291
     1
 70
    58
 90
        2
176
     1
 90
        1
176
     1
 90
        1
176
     1
 90
        2
176
     1
 40
0.6
176
     1
 40
30.0
176
     1
 62
     7
420
 16777215
176
     1
 90
        0
176
     1
 90
        0
176
     1
 62
     7
176
     1
 62
   257
176
     1
 90
        1
176
     1
 90
        1
176
     1
 40
1.0
176
     1
 90
        8
176
     1
 62
     7
176
     1
 40
1.0
176
     1
 90
        1
176
     1
 90
        6
176
     1
 90
        2
176
     1
 62
     7
176
     1
 90
        5
176
     1
 90
        0
176
     1
 90
        0
176
     1
290
     0
176
     1
 90
       13
176
     1
 40
0.0
176
     1
 90
        0
176
     1
290
     0
176
     1
290
     1
176
     1
290
     1
176
     1
290
     0
176
     1
290
     0
176
     1
290
     0
176
     1
290
     0
176
     1
290
     0
176
     1
290
     0
176
     1
 90
       50
176
     1
 40
0.0
176
     1
 40
1.0
176
     1
 90
        0
176
     1
 62
    18
420
        0
176
     1
 90
       50
176
     1
 90
        3
176
     1
 62
     5
420
      255
176
     1
290
     0
176
     1
 90
       50
176
     1
 90
       50
176
     1
 90
       50
176
     1
290
     0
176
     1
 90
       50
176
     1
 62
   256
176
     0
 40
1.0
176
     0
 90
        2
176
     1
  1
strokes_ogs.tif
176
     1
290
     0
176
     1
 40
1.0
176
     1
 40
1.0
176
     1
1001
ACAD
1000
AcDbSavedByObjectVersion
1070
     0
  0
VISUALSTYLE
  5
14E2
102
{ACAD_REACTORS
330
1332
102
}
330
1332
100
AcDbVisualStyle
  2
FlatWithEdges
 70
     1
177
     3
291
     1
 70
    58
 90
        2
176
     1
 90
        1
176
     1
 90
        1
176
     1
 90
        2
176
     1
 40
0.6
176
     1
 40
30.0
176
     1
 62
     7
420
 16777215
176
     1
 90
        1
176
     1
 90
        0
176
     1
 62
     7
176
     1
 62
   257
176
     1
 90
        1
176
     1
 90
        1
176
     1
 40
1.0
176
     1
 90
        0
176
     1
 62
   257
176
     1
 40
1.0
176
     1
 90
        1
176
     1
 90
        6
176
     1
 90
        2
176
     1
 62
     7
176
     1
 90
        5
176
     1
 90
        0
176
     1
 90
        0
176
     1
290
     0
176
     1
 90
       13
176
     1
 40
0.0
176
     1
 90
        0
176
     1
290
     0
176
     1
290
     1
176
     1
290
     1
176
     1
290
     0
176
     1
290
     0
176
     1
290
     0
176
     1
290
     0
176
     1
290
     0
176
     1
290
     0
176
     1
 90
       50
176
     1
 40
0.0
176
     1
 40
1.0
176
     1
 90
        0
176
     1
 62
    18
420
        0
176
     1
 90
       50
176
     1
 90
        3
176
     1
 62
     5
420
      255
176
     1
290
     0
176
     1
 90
       50
176
     1
 90
       50
176
     1
 90
       50
176
     1
290
     0
176
     1
 90
       50
176
     1
 62
   256
176
     0
 40
1.0
176
     0
 90
        2
176
     1
  1
strokes_ogs.tif
176
     1
290
     0
176
     1
 40
1.0
176
     1
 40
1.0
176
     1
1001
ACAD
1000
AcDbSavedByObjectVersion
1070
     0
  0
VISUALSTYLE
  5
14E3
102
{ACAD_REACTORS
330
1332
102
}
330
1332
100
AcDbVisualStyle
  2
Gouraud
 70
     2
177
     3
291
     1
 70
    58
 90
        2
176
     1
 90
        2
176
     1
 90
        1
176
     1
 90
        2
176
     1
 40
0.6
176
     1
 40
30.0
176
     1
 62
     7
420
 16777215
176
     1
 90
        0
176
     1
 90
        0
176
     1
 62
     7
176
     1
 62
   257
176
     1
 90
        1
176
     1
 90
        1
176
     1
 40
1.0
176
     1
 90
        0
176
     1
 62
     7
176
     1
 40
1.0
176
     1
 90
        1
176
     1
 90
        6
176
     1
 90
        2
176
     1
 62
     7
176
     1
 90
        5
176
     1
 90
        0
176
     1
 90
        0
176
     1
290
     0
176
     1
 90
       13
176
     1
 40
0.0
176
     1
 90
        0
176
     1
290
     0
176
     1
290
     1
176
     1
290
     1
176
     1
290
     0
176
     1
290
     0
176
     1
290
     0
176
     1
290
     0
176
     1
290
     0
176
     1
290
     0
176
     1
 90
       50
176
     1
 40
0.0
176
     1
 40
1.0
176
     1
 90
        0
176
     1
 62
    18
420
        0
176
     1
 90
       50
176
     1
 90
        3
176
     1
 62
     5
420
      255
176
     1
290
     0
176
     1
 90
       50
176
     1
 90
       50
176
     1
 90
       50
176
     1
290
     0
176
     1
 90
       50
176
     1
 62
   256
176
     0
 40
1.0
176
     0
 90
        2
176
     1
  1
strokes_ogs.tif
176
     1
290
     0
176
     1
 40
1.0
176
     1
 40
1.0
176
     1
1001
ACAD
1000
AcDbSavedByObjectVersion
1070
     0
  0
VISUALSTYLE
  5
14E4
102
{ACAD_REACTORS
330
1332
102
}
330
1332
100
AcDbVisualStyle
  2
GouraudWithEdges
 70
     3
177
     3
291
     1
 70
    58
 90
        2
176
     1
 90
        2
176
     1
 90
        1
176
     1
 90
        2
176
     1
 40
0.6
176
     1
 40
30.0
176
     1
 62
     7
420
 16777215
176
     1
 90
        1
176
     1
 90
        0
176
     1
 62
     7
176
     1
 62
   257
176
     1
 90
        1
176
     1
 90
        1
176
     1
 40
1.0
176
     1
 90
        0
176
     1
 62
   257
176
     1
 40
1.0
176
     1
 90
        1
176
     1
 90
        6
176
     1
 90
        2
176
     1
 62
     7
176
     1
 90
        5
176
     1
 90
        0
176
     1
 90
        0
176
     1
290
     0
176
     1
 90
       13
176
     1
 40
0.0
176
     1
 90
        0
176
     1
290
     0
176
     1
290
     1
176
     1
290
     1
176
     1
290
     0
176
     1
290
     0
176
     1
290
     0
176
     1
290
     0
176
     1
290
     0
176
     1
290
     0
176
     1
 90
       50
176
     1
 40
0.0
176
     1
 40
1.0
176
     1
 90
        0
176
     1
 62
    18
420
        0
176
     1
 90
       50
176
     1
 90
        3
176
     1
 62
     5
420
      255
176
     1
290
     0
176
     1
 90
       50
176
     1
 90
       50
176
     1
 90
       50
176
     1
290
     0
176
     1
 90
       50
176
     1
 62
   256
176
     0
 40
1.0
176
     0
 90
        2
176
     1
  1
strokes_ogs.tif
176
     1
290
     0
176
     1
 40
1.0
176
     1
 40
1.0
176
     1
1001
ACAD
1000
AcDbSavedByObjectVersion
1070
     0
  0
VISUALSTYLE
  5
14E6
102
{ACAD_REACTORS
330
1332
102
}
330
1332
100
AcDbVisualStyle
  2
Hidden
 70
     6
177
     3
291
     0
 70
    58
 90
        1
176
     1
 90
        2
176
     1
 90
        2
176
     1
 90
        0
176
     1
 40
0.6
176
     1
 40
30.0
176
     1
 62
     7
420
 16777215
176
     1
 90
        2
176
     1
 90
        2
176
     1
 62
     7
176
     1
 62
   257
176
     1
 90
        2
176
     1
 90
        1
176
     1
 40
40.0
176
     1
 90
        0
176
     1
 62
   257
176
     1
 40
1.0
176
     1
 90
        1
176
     1
 90
        6
176
     1
 90
        2
176
     1
 62
     7
176
     1
 90
        3
176
     1
 90
        0
176
     1
 90
        0
176
     1
290
     0
176
     1
 90
        1
176
     1
 40
0.0
176
     1
 90
        0
176
     1
290
     0
176
     1
290
     1
176
     1
290
     1
176
     1
290
     0
176
     1
290
     0
176
     1
290
     0
176
     1
290
     0
176
     1
290
     0
176
     1
290
     0
176
     1
 90
       50
176
     1
 40
0.0
176
     1
 40
1.0
176
     1
 90
        0
176
     1
 62
    18
420
        0
176
     1
 90
       50
176
     1
 90
        3
176
     1
 62
     5
420
      255
176
     1
290
     0
176
     1
 90
       50
176
     1
 90
       50
176
     1
 90
       50
176
     1
290
     0
176
     1
 90
       50
176
     1
 62
   256
176
     0
 40
1.0
176
     0
 90
        2
176
     1
  1
strokes_ogs.tif
176
     1
290
     0
176
     1
 40
1.0
176
     1
 40
1.0
176
     1
1001
ACAD
1000
AcDbSavedByObjectVersion
1070
     0
  0
VISUALSTYLE
  5
14F3
102
{ACAD_REACTORS
330
1332
102
}
330
1332
100
AcDbVisualStyle
  2
JitterOff
 70
    20
177
     3
291
     1
 70
    58
 90
        2
176
     0
 90
        2
176
     0
 90
        0
176
     0
 90
        0
176
     0
 40
0.6
176
     0
 40
30.0
176
     0
 62
     7
420
 16777215
176
     0
 90
        1
176
     0
 90
        4
176
     0
 62
     7
176
     0
 62
   257
176
     0
 90
        1
176
     0
 90
        1
176
     0
 40
1.0
176
     0
 90
       10
176
     2
 62
     7
176
     0
 40
1.0
176
     0
 90
        1
176
     0
 90
        6
176
     0
 90
        2
176
     0
 62
     7
176
     0
 90
        5
176
     0
 90
        0
176
     0
 90
        0
176
     0
290
     0
176
     0
 90
        1
176
     0
 40
0.0
176
     0
 90
        0
176
     0
290
     0
176
     0
290
     1
176
     0
290
     1
176
     0
290
     0
176
     0
290
     0
176
     0
290
     0
176
     0
290
     0
176
     0
290
     0
176
     0
290
     0
176
     0
 90
       50
176
     0
 40
0.0
176
     0
 40
1.0
176
     0
 90
        0
176
     0
 62
    18
420
        0
176
     0
 90
       50
176
     0
 90
        3
176
     0
 62
     5
420
      255
176
     0
290
     0
176
     0
 90
       50
176
     0
 90
       50
176
     0
 90
       50
176
     0
290
     0
176
     0
 90
       50
176
     0
 62
   256
176
     0
 40
1.0
176
     0
 90
        2
176
     0
  1
strokes_ogs.tif
176
     0
290
     0
176
     0
 40
1.0
176
     0
 40
1.0
176
     0
1001
ACAD
1000
AcDbSavedByObjectVersion
1070
     0
  0
VISUALSTYLE
  5
14EB
102
{ACAD_REACTORS
330
1332
102
}
330
1332
100
AcDbVisualStyle
  2
Linepattern
 70
    14
177
     3
291
     1
 70
    58
 90
        2
176
     1
 90
        2
176
     1
 90
        0
176
     1
 90
        0
176
     1
 40
0.6
176
     1
 40
30.0
176
     1
 62
     7
420
 16777215
176
     1
 90
        1
176
     1
 90
        4
176
     1
 62
     7
176
     1
 62
   257
176
     1
 90
        7
176
     1
 90
        7
176
     1
 40
1.0
176
     1
 90
        8
176
     1
 62
     7
176
     1
 40
1.0
176
     1
 90
        1
176
     1
 90
        6
176
     1
 90
        2
176
     1
 62
     7
176
     1
 90
        5
176
     1
 90
        0
176
     1
 90
        0
176
     1
290
     0
176
     1
 90
        1
176
     1
 40
0.0
176
     1
 90
        0
176
     1
290
     0
176
     1
290
     1
176
     1
290
     1
176
     1
290
     0
176
     1
290
     0
176
     1
290
     0
176
     1
290
     0
176
     1
290
     0
176
     1
290
     0
176
     1
 90
       50
176
     1
 40
0.0
176
     1
 40
1.0
176
     1
 90
        0
176
     1
 62
    18
420
        0
176
     1
 90
       50
176
     1
 90
        3
176
     1
 62
     5
420
      255
176
     1
290
     0
176
     1
 90
       50
176
     1
 90
       50
176
     1
 90
       50
176
     1
290
     0
176
     1
 90
       50
176
     1
 62
   256
176
     0
 40
1.0
176
     0
 90
        2
176
     1
  1
strokes_ogs.tif
176
     1
290
     0
176
     1
 40
1.0
176
     1
 40
1.0
176
     1
1001
ACAD
1000
AcDbSavedByObjectVersion
1070
     0
  0
VISUALSTYLE
  5
14F4
102
{ACAD_REACTORS
330
1332
102
}
330
1332
100
AcDbVisualStyle
  2
OverhangOff
 70
    21
177
     3
291
     1
 70
    58
 90
        2
176
     0
 90
        2
176
     0
 90
        0
176
     0
 90
        0
176
     0
 40
0.6
176
     0
 40
30.0
176
     0
 62
     7
420
 16777215
176
     0
 90
        1
176
     0
 90
        4
176
     0
 62
     7
176
     0
 62
   257
176
     0
 90
        1
176
     0
 90
        1
176
     0
 40
1.0
176
     0
 90
        9
176
     2
 62
     7
176
     0
 40
1.0
176
     0
 90
        1
176
     0
 90
        6
176
     0
 90
        2
176
     0
 62
     7
176
     0
 90
        5
176
     0
 90
        0
176
     0
 90
        0
176
     0
290
     0
176
     0
 90
        1
176
     0
 40
0.0
176
     0
 90
        0
176
     0
290
     0
176
     0
290
     1
176
     0
290
     1
176
     0
290
     0
176
     0
290
     0
176
     0
290
     0
176
     0
290
     0
176
     0
290
     0
176
     0
290
     0
176
     0
 90
       50
176
     0
 40
0.0
176
     0
 40
1.0
176
     0
 90
        0
176
     0
 62
    18
420
        0
176
     0
 90
       50
176
     0
 90
        3
176
     0
 62
     5
420
      255
176
     0
290
     0
176
     0
 90
       50
176
     0
 90
       50
176
     0
 90
       50
176
     0
290
     0
176
     0
 90
       50
176
     0
 62
   256
176
     0
 40
1.0
176
     0
 90
        2
176
     0
  1
strokes_ogs.tif
176
     0
290
     0
176
     0
 40
1.0
176
     0
 40
1.0
176
     0
1001
ACAD
1000
AcDbSavedByObjectVersion
1070
     0
  0
VISUALSTYLE
  5
1364
102
{ACAD_REACTORS
330
1332
102
}
330
1332
100
AcDbVisualStyle
  2
Realistic
 70
     8
177
     3
291
     0
 70
    58
 90
        2
176
     1
 90
        2
176
     1
 90
        0
176
     1
 90
        0
176
     1
 40
0.6
176
     1
 40
30.0
176
     1
 62
     7
420
 16777215
176
     1
 90
        1
176
     1
 90
        0
176
     1
 62
     7
176
     1
 62
   257
176
     1
 90
        1
176
     1
 90
        1
176
     1
 40
1.0
176
     1
 90
        8
176
     1
 62
     8
420
  7895160
176
     1
 40
1.0
176
     1
 90
        1
176
     1
 90
        6
176
     1
 90
        2
176
     1
 62
     7
176
     1
 90
        5
176
     1
 90
        0
176
     1
 90
        0
176
     1
290
     0
176
     1
 90
       13
176
     1
 40
0.0
176
     1
 90
        0
176
     1
290
     0
176
     1
290
     1
176
     1
290
     1
176
     1
290
     0
176
     1
290
     0
176
     1
290
     0
176
     1
290
     0
176
     1
290
     0
176
     1
290
     0
176
     1
 90
       50
176
     1
 40
0.0
176
     1
 40
1.0
176
     1
 90
        0
176
     1
 62
    18
420
        0
176
     1
 90
       50
176
     1
 90
        3
176
     1
 62
     5
420
      255
176
     1
290
     0
176
     1
 90
       50
176
     1
 90
       50
176
     1
 90
       50
176
     1
290
     0
176
     1
 90
       50
176
     1
 62
   256
176
     0
 40
1.0
176
     0
 90
        2
176
     1
  1
strokes_ogs.tif
176
     1
290
     0
176
     1
 40
1.0
176
     1
 40
1.0
176
     1
1001
ACAD
1000
AcDbSavedByObjectVersion
1070
     0
  0
VISUALSTYLE
  5
14F2
102
{ACAD_REACTORS
330
1332
102
}
330
1332
100
AcDbVisualStyle
  2
Shaded
 70
    27
177
     3
291
     0
 70
    58
 90
        2
176
     1
 90
        2
176
     1
 90
        1
176
     1
 90
        2
176
     1
 40
0.6
176
     1
 40
30.0
176
     1
 62
     7
420
 16777215
176
     1
 90
        0
176
     1
 90
        4
176
     1
 62
     7
176
     1
 62
   257
176
     1
 90
        1
176
     1
 90
        1
176
     1
 40
1.0
176
     1
 90
        8
176
     1
 62
   257
176
     1
 40
1.0
176
     1
 90
        1
176
     1
 90
        6
176
     1
 90
        2
176
     1
 62
     8
420
  7895160
176
     1
 90
        3
176
     1
 90
        0
176
     1
 90
        0
176
     1
290
     0
176
     1
 90
        5
176
     1
 40
0.0
176
     1
 90
        0
176
     1
290
     0
176
     1
290
     1
176
     1
290
     1
176
     1
290
     0
176
     1
290
     0
176
     1
290
     0
176
     1
290
     0
176
     1
290
     0
176
     1
290
     0
176
     1
 90
       50
176
     1
 40
0.0
176
     1
 40
1.0
176
     1
 90
        0
176
     1
 62
    18
420
        0
176
     1
 90
       50
176
     1
 90
        3
176
     1
 62
     5
420
      255
176
     1
290
     0
176
     1
 90
       50
176
     1
 90
       50
176
     1
 90
       50
176
     1
290
     0
176
     1
 90
       50
176
     1
 62
   256
176
     0
 40
1.0
176
     0
 90
        2
176
     1
  1
strokes_ogs.tif
176
     1
290
     0
176
     1
 40
1.0
176
     1
 40
1.0
176
     1
1001
ACAD
1000
AcDbSavedByObjectVersion
1070
     0
  0
VISUALSTYLE
  5
14F1
102
{ACAD_REACTORS
330
1332
102
}
330
1332
100
AcDbVisualStyle
  2
Shaded with edges
 70
    26
177
     3
291
     0
 70
    58
 90
        2
176
     1
 90
        2
176
     1
 90
        1
176
     1
 90
        2
176
     1
 40
0.6
176
     1
 40
30.0
176
     1
 62
     7
420
 16777215
176
     1
 90
        1
176
     1
 90
        2
176
     1
 62
     7
176
     1
 62
   257
176
     1
 90
        2
176
     1
 90
        1
176
     1
 40
1.0
176
     1
 90
        8
176
     1
 62
   257
176
     1
 40
1.0
176
     1
 90
        1
176
     1
 90
        6
176
     1
 90
        2
176
     1
 62
     7
176
     1
 90
        3
176
     1
 90
        0
176
     1
 90
        0
176
     1
290
     0
176
     1
 90
        5
176
     1
 40
0.0
176
     1
 90
        0
176
     1
290
     0
176
     1
290
     1
176
     1
290
     1
176
     1
290
     0
176
     1
290
     0
176
     1
290
     0
176
     1
290
     0
176
     1
290
     0
176
     1
290
     0
176
     1
 90
       50
176
     1
 40
0.0
176
     1
 40
1.0
176
     1
 90
        0
176
     1
 62
    18
420
        0
176
     1
 90
       50
176
     1
 90
        3
176
     1
 62
     5
420
      255
176
     1
290
     0
176
     1
 90
       50
176
     1
 90
       50
176
     1
 90
       50
176
     1
290
     0
176
     1
 90
       50
176
     1
 62
   256
176
     0
 40
1.0
176
     0
 90
        2
176
     1
  1
strokes_ogs.tif
176
     1
290
     0
176
     1
 40
1.0
176
     1
 40
1.0
176
     1
1001
ACAD
1000
AcDbSavedByObjectVersion
1070
     0
  0
VISUALSTYLE
  5
14EE
102
{ACAD_REACTORS
330
1332
102
}
330
1332
100
AcDbVisualStyle
  2
Shades of Gray
 70
    23
177
     3
291
     0
 70
    58
 90
        2
176
     1
 90
        2
176
     1
 90
        3
176
     1
 90
        0
176
     1
 40
0.6
176
     1
 40
30.0
176
     1
 62
     7
420
 16777215
176
     1
 90
        2
176
     1
 90
        2
176
     1
 62
     7
176
     1
 62
     7
176
     1
 90
        1
176
     1
 90
        1
176
     1
 40
40.0
176
     1
 90
        8
176
     1
 62
     7
176
     1
 40
1.0
176
     1
 90
        1
176
     1
 90
        6
176
     1
 90
        2
176
     1
 62
     7
176
     1
 90
        3
176
     1
 90
        0
176
     1
 90
        0
176
     1
290
     0
176
     1
 90
        1
176
     1
 40
0.0
176
     1
 90
        0
176
     1
290
     0
176
     1
290
     1
176
     1
290
     1
176
     1
290
     0
176
     1
290
     0
176
     1
290
     0
176
     1
290
     0
176
     1
290
     0
176
     1
290
     0
176
     1
 90
       50
176
     1
 40
0.0
176
     1
 40
1.0
176
     1
 90
        0
176
     1
 62
    18
420
        0
176
     1
 90
       50
176
     1
 90
        3
176
     1
 62
     5
420
      255
176
     1
290
     0
176
     1
 90
       50
176
     1
 90
       50
176
     1
 90
       50
176
     1
290
     0
176
     1
 90
       50
176
     1
 62
   256
176
     0
 40
1.0
176
     0
 90
        2
176
     1
  1
strokes_ogs.tif
176
     1
290
     0
176
     1
 40
1.0
176
     1
 40
1.0
176
     1
1001
ACAD
1000
AcDbSavedByObjectVersion
1070
     0
  0
VISUALSTYLE
  5
14EF
102
{ACAD_REACTORS
330
1332
102
}
330
1332
100
AcDbVisualStyle
  2
Sketchy
 70
    24
177
     3
291
     0
 70
    58
 90
        1
176
     1
 90
        2
176
     1
 90
        2
176
     1
 90
        0
176
     1
 40
0.6
176
     1
 40
30.0
176
     1
 62
     7
420
 16777215
176
     1
 90
        2
176
     1
 90
        2
176
     1
 62
     7
176
     1
 62
     7
176
     1
 90
        1
176
     1
 90
        1
176
     1
 40
40.0
176
     1
 90
       11
176
     1
 62
     7
176
     1
 40
1.0
176
     1
 90
        1
176
     1
 90
        6
176
     1
 90
        2
176
     1
 62
     7
176
     1
 90
        6
176
     1
 90
        0
176
     1
 90
        0
176
     1
290
     0
176
     1
 90
        1
176
     1
 40
0.0
176
     1
 90
        0
176
     1
290
     0
176
     1
290
     1
176
     1
290
     1
176
     1
290
     0
176
     1
290
     0
176
     1
290
     0
176
     1
290
     0
176
     1
290
     0
176
     1
290
     0
176
     1
 90
       50
176
     1
 40
0.0
176
     1
 40
1.0
176
     1
 90
        0
176
     1
 62
    18
420
        0
176
     1
 90
       50
176
     1
 90
        3
176
     1
 62
     5
420
      255
176
     1
290
     0
176
     1
 90
       50
176
     1
 90
       50
176
     1
 90
       50
176
     1
290
     0
176
     1
 90
       50
176
     1
 62
   256
176
     0
 40
1.0
176
     0
 90
        2
176
     1
  1
strokes_ogs.tif
176
     1
290
     0
176
     1
 40
1.0
176
     1
 40
1.0
176
     1
1001
ACAD
1000
AcDbSavedByObjectVersion
1070
     0
  0
VISUALSTYLE
  5
14EA
102
{ACAD_REACTORS
330
1332
102
}
330
1332
100
AcDbVisualStyle
  2
Thicken
 70
    13
177
     3
291
     1
 70
    58
 90
        2
176
     1
 90
        2
176
     1
 90
        0
176
     1
 90
        0
176
     1
 40
0.6
176
     1
 40
30.0
176
     1
 62
     7
420
 16777215
176
     1
 90
        1
176
     1
 90
        4
176
     1
 62
     7
176
     1
 62
   257
176
     1
 90
        1
176
     1
 90
        1
176
     1
 40
1.0
176
     1
 90
       12
176
     1
 62
     7
176
     1
 40
1.0
176
     1
 90
        1
176
     1
 90
        6
176
     1
 90
        2
176
     1
 62
     7
176
     1
 90
        5
176
     1
 90
        0
176
     1
 90
        0
176
     1
290
     0
176
     1
 90
        1
176
     1
 40
0.0
176
     1
 90
        0
176
     1
290
     0
176
     1
290
     1
176
     1
290
     1
176
     1
290
     0
176
     1
290
     0
176
     1
290
     0
176
     1
290
     0
176
     1
290
     0
176
     1
290
     0
176
     1
 90
       50
176
     1
 40
0.0
176
     1
 40
1.0
176
     1
 90
        0
176
     1
 62
    18
420
        0
176
     1
 90
       50
176
     1
 90
        3
176
     1
 62
     5
420
      255
176
     1
290
     0
176
     1
 90
       50
176
     1
 90
       50
176
     1
 90
       50
176
     1
290
     0
176
     1
 90
       50
176
     1
 62
   256
176
     0
 40
1.0
176
     0
 90
        2
176
     1
  1
strokes_ogs.tif
176
     1
290
     0
176
     1
 40
1.0
176
     1
 40
1.0
176
     1
1001
ACAD
1000
AcDbSavedByObjectVersion
1070
     0
  0
VISUALSTYLE
  5
1365
102
{ACAD_REACTORS
330
1332
102
}
330
1332
100
AcDbVisualStyle
  2
Wireframe
 70
     5
177
     3
291
     0
 70
    58
 90
        0
176
     1
 90
        2
176
     1
 90
        0
176
     1
 90
        0
176
     1
 40
0.6
176
     1
 40
30.0
176
     1
 62
     7
420
 16777215
176
     1
 90
        1
176
     1
 90
        4
176
     1
 62
     7
176
     1
 62
   257
176
     1
 90
        1
176
     1
 90
        1
176
     1
 40
1.0
176
     1
 90
        0
176
     1
 62
   257
176
     1
 40
1.0
176
     1
 90
        1
176
     1
 90
        6
176
     1
 90
        2
176
     1
 62
     7
176
     1
 90
        3
176
     1
 90
        0
176
     1
 90
        0
176
     1
290
     0
176
     1
 90
        1
176
     1
 40
0.0
176
     1
 90
        0
176
     1
290
     0
176
     1
290
     1
176
     1
290
     1
176
     1
290
     0
176
     1
290
     0
176
     1
290
     0
176
     1
290
     0
176
     1
290
     0
176
     1
290
     0
176
     1
 90
       50
176
     1
 40
0.0
176
     1
 40
1.0
176
     1
 90
        0
176
     1
 62
    18
420
        0
176
     1
 90
       50
176
     1
 90
        3
176
     1
 62
     5
420
      255
176
     1
290
     0
176
     1
 90
       50
176
     1
 90
       50
176
     1
 90
       50
176
     1
290
     0
176
     1
 90
       50
176
     1
 62
   256
176
     0
 40
1.0
176
     0
 90
        2
176
     1
  1
strokes_ogs.tif
176
     1
290
     0
176
     1
 40
1.0
176
     1
 40
1.0
176
     1
1001
ACAD
1000
AcDbSavedByObjectVersion
1070
     0
  0
VISUALSTYLE
  5
14F0
102
{ACAD_REACTORS
330
1332
102
}
330
1332
100
AcDbVisualStyle
  2
X-Ray
 70
    25
177
     3
291
     0
 70
    58
 90
        2
176
     1
 90
        2
176
     1
 90
        1
176
     1
 90
        1
176
     1
 40
0.5
176
     1
 40
30.0
176
     1
 62
     7
420
 16777215
176
     1
 90
        1
176
     1
 90
        0
176
     1
 62
     7
176
     1
 62
   257
176
     1
 90
        1
176
     1
 90
        1
176
     1
 40
1.0
176
     1
 90
        8
176
     1
 62
     7
176
     1
 40
1.0
176
     1
 90
        1
176
     1
 90
        6
176
     1
 90
        2
176
     1
 62
     7
176
     1
 90
        3
176
     1
 90
        0
176
     1
 90
        0
176
     1
290
     0
176
     1
 90
       13
176
     1
 40
0.0
176
     1
 90
        0
176
     1
290
     0
176
     1
290
     1
176
     1
290
     1
176
     1
290
     0
176
     1
290
     0
176
     1
290
     0
176
     1
290
     0
176
     1
290
     0
176
     1
290
     0
176
     1
 90
       50
176
     1
 40
0.0
176
     1
 40
1.0
176
     1
 90
        0
176
     1
 62
    18
420
        0
176
     1
 90
       50
176
     1
 90
        3
176
     1
 62
     5
420
      255
176
     1
290
     0
176
     1
 90
       50
176
     1
 90
       50
176
     1
 90
       50
176
     1
290
     0
176
     1
 90
       50
176
     1
 62
   256
176
     0
 40
1.0
176
     0
 90
        2
176
     1
  1
strokes_ogs.tif
176
     1
290
     0
176
     1
 40
1.0
176
     1
 40
1.0
176
     1
1001
ACAD
1000
AcDbSavedByObjectVersion
1070
     0
  0
DICTIONARYVAR
  5
1350
102
{ACAD_REACTORS
330
134F
102
}
330
134F
100
DictionaryVariables
280
     0
  1
1:1
  0
DICTIONARYVAR
  5
1351
102
{ACAD_REACTORS
330
134F
102
}
330
134F
100
DictionaryVariables
280
     0
  1
STANDARD
  0
DICTIONARYVAR
  5
1352
102
{ACAD_REACTORS
330
134F
102
}
330
134F
100
DictionaryVariables
280
     0
  1
STANDARD
  0
DICTIONARYVAR
  5
1353
102
{ACAD_REACTORS
330
134F
102
}
330
134F
100
DictionaryVariables
280
     0
  1
Imperial24
  0
DICTIONARYVAR
  5
1354
102
{ACAD_REACTORS
330
134F
102
}
330
134F
100
DictionaryVariables
280
     0
  1
Imperial24
  0
DICTIONARYVAR
  5
1355
102
{ACAD_REACTORS
330
134F
102
}
330
134F
100
DictionaryVariables
280
     0
  1
1
  0
DICTIONARYVAR
  5
1356
102
{ACAD_REACTORS
330
134F
102
}
330
134F
100
DictionaryVariables
280
     0
  1
15
  0
DICTIONARYVAR
  5
1357
102
{ACAD_REACTORS
330
134F
102
}
330
134F
100
DictionaryVariables
280
     0
  1
0
  0
DICTIONARYVAR
  5
1358
102
{ACAD_REACTORS
330
134F
102
}
330
134F
100
DictionaryVariables
280
     0
  1
0
  0
DICTIONARY
  5
19B3
102
{ACAD_REACTORS
330
19B1
102
}
330
19B1
100
AcDbDictionary
281
     1
  0
DICTIONARY
  5
19B2
102
{ACAD_REACTORS
330
19B1
102
}
330
19B1
100
AcDbDictionary
281
     1
  3
2645068323648
350
19AC
  3
2645068323664
350
19AD
  3
2645068323680
350
19AE
  3
2645068323696
350
19AF
  3
2645068323712
350
19B0
  0
DICTIONARY
  5
19B6
330
14F9
100
AcDbDictionary
280
     1
281
     1
  3
ACAD_XREC_ROUNDTRIP
360
19B7
  0
DICTIONARY
  5
131A
330
1318
100
AcDbDictionary
280
     1
281
     1
  0
DICTIONARY
  5
131F
330
131E
100
AcDbDictionary
280
     1
281
     1
  0
DICTIONARY
  5
1344
330
1343
100
AcDbDictionary
280
     1
281
     1
  3
BUMPTILE
360
1345
  3
DIFFUSETILE
360
1346
  3
OPACITYTILE
360
1347
  3
REFLECTIONTILE
360
1348
  3
REFRACTIONTILE
360
1349
  3
SPECULARTILE
360
134A
  0
DICTIONARY
  5
133C
330
133B
100
AcDbDictionary
280
     1
281
     1
  3
BUMPTILE
360
133D
  3
DIFFUSETILE
360
133E
  3
OPACITYTILE
360
133F
  3
REFLECTIONTILE
360
1340
  3
REFRACTIONTILE
360
1341
  3
SPECULARTILE
360
1342
  0
DICTIONARY
  5
12F9
330
12F7
100
AcDbDictionary
280
     1
281
     1
  3
BUMPTILE
360
12FA
  3
DIFFUSETILE
360
12FB
  3
OPACITYTILE
360
12FC
  3
REFLECTIONTILE
360
12FD
  3
REFRACTIONTILE
360
12FE
  3
SPECULARTILE
360
12FF
  0
DICTIONARY
  5
19B4
330
14F7
100
AcDbDictionary
280
     1
281
     1
  3
ACAD_XREC_ROUNDTRIP
360
19B5
  0
DICTIONARY
  5
1363
330
1362
100
AcDbDictionary
280
     1
281
     1
  3
ACAD_ROUNDTRIP_2008_TABLESTYLE_CELLSTYLEMAP
360
19AA
  0
XRECORD
  5
19AC
102
{ACAD_REACTORS
330
19B2
102
}
330
19B2
100
AcDbXrecord
280
     1
  1
AcDb_Thumbnail_Schema
102
{ATTRRECORD
341
19AD
  2
AcDbDs::TreatedAsObjectData
280
     1
291
     1
102
ATTRRECORD}
102
{ATTRRECORD
341
19AE
  2
AcDbDs::Legacy
280
     1
291
     1
102
ATTRRECORD}
  2
AcDbDs::ID
280
    10
 91
        8
102
{ATTRRECORD
341
19AF
  2
AcDs:Indexable
280
     1
291
     1
102
ATTRRECORD}
102
{ATTRRECORD
341
19B0
  2
AcDbDs::HandleAttribute
280
     7
282
     1
102
ATTRRECORD}
  2
Thumbnail_Data
280
    15
 91
        0
  0
XRECORD
  5
19AD
102
{ACAD_REACTORS
330
19B2
102
}
330
19B2
100
AcDbXrecord
280
     1
  1
AcDbDs::TreatedAsObjectDataSchema
  2
AcDbDs::TreatedAsObjectData
280
     1
 91
        0
  0
XRECORD
  5
19AE
102
{ACAD_REACTORS
330
19B2
102
}
330
19B2
100
AcDbXrecord
280
     1
  1
AcDbDs::LegacySchema
  2
AcDbDs::Legacy
280
     1
 91
        0
  0
XRECORD
  5
19AF
102
{ACAD_REACTORS
330
19B2
102
}
330
19B2
100
AcDbXrecord
280
     1
  1
AcDbDs::IndexedPropertySchema
  2
AcDs:Indexable
280
     1
 91
        0
  0
XRECORD
  5
19B0
102
{ACAD_REACTORS
330
19B2
102
}
330
19B2
100
AcDbXrecord
280
     1
  1
AcDbDs::HandleAttributeSchema
  2
AcDbDs::HandleAttribute
280
     7
 91
        1
284
     1
  0
XRECORD
  5
19B7
102
{ACAD_REACTORS
330
19B6
102
}
330
19B6
100
AcDbXrecord
280
     1
102
DISPLAYNAME
  1
Imperial24
102
FLAGS
 90
        0
  0
XRECORD
  5
1345
102
{ACAD_REACTORS
330
1344
102
}
330
1344
100
AcDbXrecord
280
     1
270
     1
271
     1
  0
XRECORD
  5
1346
102
{ACAD_REACTORS
330
1344
102
}
330
1344
100
AcDbXrecord
280
     1
270
     1
271
     1
  0
XRECORD
  5
1347
102
{ACAD_REACTORS
330
1344
102
}
330
1344
100
AcDbXrecord
280
     1
270
     1
271
     1
  0
XRECORD
  5
1348
102
{ACAD_REACTORS
330
1344
102
}
330
1344
100
AcDbXrecord
280
     1
270
     1
271
     1
  0
XRECORD
  5
1349
102
{ACAD_REACTORS
330
1344
102
}
330
1344
100
AcDbXrecord
280
     1
270
     1
271
     1
  0
XRECORD
  5
134A
102
{ACAD_REACTORS
330
1344
102
}
330
1344
100
AcDbXrecord
280
     1
270
     1
271
     1
  0
XRECORD
  5
133D
102
{ACAD_REACTORS
330
133C
102
}
330
133C
100
AcDbXrecord
280
     1
270
     1
271
     1
  0
XRECORD
  5
133E
102
{ACAD_REACTORS
330
133C
102
}
330
133C
100
AcDbXrecord
280
     1
270
     1
271
     1
  0
XRECORD
  5
133F
102
{ACAD_REACTORS
330
133C
102
}
330
133C
100
AcDbXrecord
280
     1
270
     1
271
     1
  0
XRECORD
  5
1340
102
{ACAD_REACTORS
330
133C
102
}
330
133C
100
AcDbXrecord
280
     1
270
     1
271
     1
  0
XRECORD
  5
1341
102
{ACAD_REACTORS
330
133C
102
}
330
133C
100
AcDbXrecord
280
     1
270
     1
271
     1
  0
XRECORD
  5
1342
102
{ACAD_REACTORS
330
133C
102
}
330
133C
100
AcDbXrecord
280
     1
270
     1
271
     1
  0
XRECORD
  5
12FA
102
{ACAD_REACTORS
330
12F9
102
}
330
12F9
100
AcDbXrecord
280
     1
270
     1
271
     1
  0
XRECORD
  5
12FB
102
{ACAD_REACTORS
330
12F9
102
}
330
12F9
100
AcDbXrecord
280
     1
270
     1
271
     1
  0
XRECORD
  5
12FC
102
{ACAD_REACTORS
330
12F9
102
}
330
12F9
100
AcDbXrecord
280
     1
270
     1
271
     1
  0
XRECORD
  5
12FD
102
{ACAD_REACTORS
330
12F9
102
}
330
12F9
100
AcDbXrecord
280
     1
270
     1
271
     1
  0
XRECORD
  5
12FE
102
{ACAD_REACTORS
330
12F9
102
}
330
12F9
100
AcDbXrecord
280
     1
270
     1
271
     1
  0
XRECORD
  5
12FF
102
{ACAD_REACTORS
330
12F9
102
}
330
12F9
100
AcDbXrecord
280
     1
270
     1
271
     1
  0
XRECORD
  5
19B5
102
{ACAD_REACTORS
330
19B4
102
}
330
19B4
100
AcDbXrecord
280
     1
102
DISPLAYNAME
  1
Imperial24
102
FLAGS
 90
        0
  0
CELLSTYLEMAP
  5
19AA
102
{ACAD_REACTORS
330
1363
102
}
330
1363
100
AcDbCellStyleMap
 90
        3
300
CELLSTYLE
  1
TABLEFORMAT_BEGIN
 90
        5
170
     1
 91
        0
 92
    32768
 62
   257
 93
        1
300
CONTENTFORMAT
  1
CONTENTFORMAT_BEGIN
 90
        0
 91
        0
 92
        4
 93
        0
300

 40
0.0
140
1.0
 94
        5
 62
     0
340
1327
144
0.25
309
CONTENTFORMAT_END
171
     0
 94
        6
 95
        1
302
GRIDFORMAT
  1
GRIDFORMAT_BEGIN
 90
        0
 91
        1
 62
     0
 92
       -2
340
0
 93
        0
 40
0.045
309
GRIDFORMAT_END
 95
        2
302
GRIDFORMAT
  1
GRIDFORMAT_BEGIN
 90
        0
 91
        1
 62
     0
 92
       -2
340
0
 93
        0
 40
0.045
309
GRIDFORMAT_END
 95
        4
302
GRIDFORMAT
  1
GRIDFORMAT_BEGIN
 90
        0
 91
        1
 62
     0
 92
       -2
340
0
 93
        0
 40
0.045
309
GRIDFORMAT_END
 95
        8
302
GRIDFORMAT
  1
GRIDFORMAT_BEGIN
 90
        0
 91
        1
 62
     0
 92
       -2
340
0
 93
        0
 40
0.045
309
GRIDFORMAT_END
 95
       16
302
GRIDFORMAT
  1
GRIDFORMAT_BEGIN
 90
        0
 91
        1
 62
     0
 92
       -2
340
0
 93
        0
 40
0.045
309
GRIDFORMAT_END
 95
       32
302
GRIDFORMAT
  1
GRIDFORMAT_BEGIN
 90
        0
 91
        1
 62
     0
 92
       -2
340
0
 93
        0
 40
0.045
309
GRIDFORMAT_END
309
TABLEFORMAT_END
  1
CELLSTYLE_BEGIN
 90
        1
 91
        1
300
_TITLE
309
CELLSTYLE_END
300
CELLSTYLE
  1
TABLEFORMAT_BEGIN
 90
        5
170
     1
 91
        0
 92
        0
 62
   257
 93
        1
300
CONTENTFORMAT
  1
CONTENTFORMAT_BEGIN
 90
        0
 91
        0
 92
        4
 93
        0
300

 40
0.0
140
1.0
 94
        5
 62
     0
340
1327
144
0.18
309
CONTENTFORMAT_END
171
     0
 94
        6
 95
        1
302
GRIDFORMAT
  1
GRIDFORMAT_BEGIN
 90
        0
 91
        1
 62
     0
 92
       -2
340
0
 93
        0
 40
0.045
309
GRIDFORMAT_END
 95
        2
302
GRIDFORMAT
  1
GRIDFORMAT_BEGIN
 90
        0
 91
        1
 62
     0
 92
       -2
340
0
 93
        0
 40
0.045
309
GRIDFORMAT_END
 95
        4
302
GRIDFORMAT
  1
GRIDFORMAT_BEGIN
 90
        0
 91
        1
 62
     0
 92
       -2
340
0
 93
        0
 40
0.045
309
GRIDFORMAT_END
 95
        8
302
GRIDFORMAT
  1
GRIDFORMAT_BEGIN
 90
        0
 91
        1
 62
     0
 92
       -2
340
0
 93
        0
 40
0.045
309
GRIDFORMAT_END
 95
       16
302
GRIDFORMAT
  1
GRIDFORMAT_BEGIN
 90
        0
 91
        1
 62
     0
 92
       -2
340
0
 93
        0
 40
0.045
309
GRIDFORMAT_END
 95
       32
302
GRIDFORMAT
  1
GRIDFORMAT_BEGIN
 90
        0
 91
        1
 62
     0
 92
       -2
340
0
 93
        0
 40
0.045
309
GRIDFORMAT_END
309
TABLEFORMAT_END
  1
CELLSTYLE_BEGIN
 90
        2
 91
        1
300
_HEADER
309
CELLSTYLE_END
300
CELLSTYLE
  1
TABLEFORMAT_BEGIN
 90
        5
170
     1
 91
        0
 92
        0
 62
   257
 93
        1
300
CONTENTFORMAT
  1
CONTENTFORMAT_BEGIN
 90
        0
 91
        0
 92
        4
 93
        0
300

 40
0.0
140
1.0
 94
        2
 62
     0
340
1327
144
0.18
309
CONTENTFORMAT_END
171
     0
 94
        6
 95
        1
302
GRIDFORMAT
  1
GRIDFORMAT_BEGIN
 90
        0
 91
        1
 62
     0
 92
       -2
340
0
 93
        0
 40
0.045
309
GRIDFORMAT_END
 95
        2
302
GRIDFORMAT
  1
GRIDFORMAT_BEGIN
 90
        0
 91
        1
 62
     0
 92
       -2
340
0
 93
        0
 40
0.045
309
GRIDFORMAT_END
 95
        4
302
GRIDFORMAT
  1
GRIDFORMAT_BEGIN
 90
        0
 91
        1
 62
     0
 92
       -2
340
0
 93
        0
 40
0.045
309
GRIDFORMAT_END
 95
        8
302
GRIDFORMAT
  1
GRIDFORMAT_BEGIN
 90
        0
 91
        1
 62
     0
 92
       -2
340
0
 93
        0
 40
0.045
309
GRIDFORMAT_END
 95
       16
302
GRIDFORMAT
  1
GRIDFORMAT_BEGIN
 90
        0
 91
        1
 62
     0
 92
       -2
340
0
 93
        0
 40
0.045
309
GRIDFORMAT_END
 95
       32
302
GRIDFORMAT
  1
GRIDFORMAT_BEGIN
 90
        0
 91
        1
 62
     0
 92
       -2
340
0
 93
        0
 40
0.045
309
GRIDFORMAT_END
309
TABLEFORMAT_END
  1
CELLSTYLE_BEGIN
 90
        3
 91
        2
300
_DATA
309
CELLSTYLE_END
  0
ENDSEC
  0
SECTION
  2
ACDSDATA
 70
     2
 71
     8
  0
ACDSSCHEMA
 90
        0
  1
AcDb_Thumbnail_Schema
  2
AcDbDs::ID
280
    10
 91
        8
  2
Thumbnail_Data
280
    15
 91
        0
101
ACDSRECORD
 95
        0
 90
        1
  2
AcDbDs::TreatedAsObjectData
280
     1
291
     1
101
ACDSRECORD
 95
        0
 90
        2
  2
AcDbDs::Legacy
280
     1
291
     1
101
ACDSRECORD
  1
AcDbDs::ID
 90
        3
  2
AcDs:Indexable
280
     1
291
     1
101
ACDSRECORD
  1
AcDbDs::ID
 90
        4
  2
AcDbDs::HandleAttribute
280
     7
282
     1
  0
ACDSSCHEMA
 90
        1
  1
AcDbDs::TreatedAsObjectDataSchema
  2
AcDbDs::TreatedAsObjectData
280
     1
 91
        0
  0
ACDSSCHEMA
 90
        2
  1
AcDbDs::LegacySchema
  2
AcDbDs::Legacy
280
     1
 91
        0
  0
ACDSSCHEMA
 90
        3
  1
AcDbDs::IndexedPropertySchema
  2
AcDs:Indexable
280
     1
 91
        0
  0
ACDSSCHEMA
 90
        4
  1
AcDbDs::HandleAttributeSchema
  2
AcDbDs::HandleAttribute
280
     7
 91
        1
284
     1
  0
ACDSRECORD
 90
        0
  2
AcDbDs::ID
280
    10
320
131E
  2
Thumbnail_Data
280
    15
 94
     1183
310
89504E470D0A1A0A0000000D4948445200000100000000C508030000008CFEDCE700000300504C5445FFFFFF000000FFFFFF0000000000000000000000000000000000000000000000000000330000660000990000CC0000FF0033000033330033660033990033CC0033FF0066000066330066660066990066CC0066FF0099
310
000099330099660099990099CC0099FF00CC0000CC3300CC6600CC9900CCCC00CCFF00FF0000FF3300FF6600FF9900FFCC00FFFF3300003300333300663300993300CC3300FF3333003333333333663333993333CC3333FF3366003366333366663366993366CC3366FF3399003399333399663399993399CC3399FF33CC00
310
33CC3333CC6633CC9933CCCC33CCFF33FF0033FF3333FF6633FF9933FFCC33FFFF6600006600336600666600996600CC6600FF6633006633336633666633996633CC6633FF6666006666336666666666996666CC6666FF6699006699336699666699996699CC6699FF66CC0066CC3366CC6666CC9966CCCC66CCFF66FF0066
310
FF3366FF6666FF9966FFCC66FFFF9900009900339900669900999900CC9900FF9933009933339933669933999933CC9933FF9966009966339966669966999966CC9966FF9999009999339999669999999999CC9999FF99CC0099CC3399CC6699CC9999CCCC99CCFF99FF0099FF3399FF6699FF9999FFCC99FFFFCC0000CC00
310
33CC0066CC0099CC00CCCC00FFCC3300CC3333CC3366CC3399CC33CCCC33FFCC6600CC6633CC6666CC6699CC66CCCC66FFCC9900CC9933CC9966CC9999CC99CCCC99FFCCCC00CCCC33CCCC66CCCC99CCCCCCCCCCFFCCFF00CCFF33CCFF66CCFF99CCFFCCCCFFFFFF0000FF0033FF0066FF0099FF00CCFF00FFFF3300FF3333
310
FF3366FF3399FF33CCFF33FFFF6600FF6633FF6666FF6699FF66CCFF66FFFF9900FF9933FF9966FF9999FF99CCFF99FFFFCC00FFCC33FFCC66FFCC99FFCCCCFFCCFFFFFF00FFFF33FFFF66FFFF99FFFFCCFFFFFF0000000D0D0D1A1A1A2828283535354343435050505D5D5D6B6B6B787878868686939393A1A1A1AEAEAEBB
310
BBBBC9C9C9D6D6D6E4E4E4F1F1F1FFFFFF000000000000000000000000000000000000000000000000000000000000790CAC0F0000015A4944415478DAEDD8410A8340100440FFFFCCF9C09EE61E104224896014844D579F64F420A587DE592A3A632CD5C101100F500500C0F36ACDF6D636BFCEEBAEF9E9177D0788FBF600
310
000000000000004D1000000000000000100F50FB4F4C9E8B5578FAFF0300000000000000000000000000000000B00BD069000D0000000000000000A009020000000000000000000000000000000052013A0DA001000000000000000000A8C2000000000000000000000000000000402A40FC420400000000000000002016C0
310
5900000000000000000000000000000000C803885F88000000000000000000C402380B0000000000000000000000000000000000E2003A0DA0010000000000000000344100000000000000000000000000000000C0E7C660F21C04080D0000000000000000C01F54DE73151900000000000000D0AFCDCFB6227CDDAB1C9CD7
310
5DF3D32FAA0902000000C00A109E658C110DF0000E6CC6FBCCF8EC2E0000000049454E44AE426082
  0
ACDSRECORD
 90
        0
  2
AcDbDs::ID
280
    10
320
1318
  2
Thumbnail_Data
280
    15
 94
     1017
310
89504E470D0A1A0A0000000D4948445200000100000000890803000000F46416F000000300504C5445FEFCF0000000FFFFFF0000000000000000000000000000000000000000000000000000330000660000990000CC0000FF0033000033330033660033990033CC0033FF0066000066330066660066990066CC0066FF0099
310
000099330099660099990099CC0099FF00CC0000CC3300CC6600CC9900CCCC00CCFF00FF0000FF3300FF6600FF9900FFCC00FFFF3300003300333300663300993300CC3300FF3333003333333333663333993333CC3333FF3366003366333366663366993366CC3366FF3399003399333399663399993399CC3399FF33CC00
310
33CC3333CC6633CC9933CCCC33CCFF33FF0033FF3333FF6633FF9933FFCC33FFFF6600006600336600666600996600CC6600FF6633006633336633666633996633CC6633FF6666006666336666666666996666CC6666FF6699006699336699666699996699CC6699FF66CC0066CC3366CC6666CC9966CCCC66CCFF66FF0066
310
FF3366FF6666FF9966FFCC66FFFF9900009900339900669900999900CC9900FF9933009933339933669933999933CC9933FF9966009966339966669966999966CC9966FF9999009999339999669999999999CC9999FF99CC0099CC3399CC6699CC9999CCCC99CCFF99FF0099FF3399FF6699FF9999FFCC99FFFFCC0000CC00
310
33CC0066CC0099CC00CCCC00FFCC3300CC3333CC3366CC3399CC33CCCC33FFCC6600CC6633CC6666CC6699CC66CCCC66FFCC9900CC9933CC9966CC9999CC99CCCC99FFCCCC00CCCC33CCCC66CCCC99CCCCCCCCCCFFCCFF00CCFF33CCFF66CCFF99CCFFCCCCFFFFFF0000FF0033FF0066FF0099FF00CCFF00FFFF3300FF3333
310
FF3366FF3399FF33CCFF33FFFF6600FF6633FF6666FF6699FF66CCFF66FFFF9900FF9933FF9966FF9999FF99CCFF99FFFFCC00FFCC33FFCC66FFCC99FFCCCCFFCCFFFFFF00FFFF33FFFF66FFFF99FFFFCCFFFFFF0000000D0D0D1A1A1A2828283535354343435050505D5D5D6B6B6B787878868686939393A1A1A1AEAEAEBB
310
BBBBC9C9C9D6D6D6E4E4E4F1F1F1FFFFFF0000000000000000000000000000000000000000000000000000000000007C77BAA7000000B44944415478DAEDD0310100000C0220FBB7B48931760C22903E1701020408102040800001020408102040800001020408102040800001020408102040800001020408102040800001
310
020408102040800001020408102040800001020408102040800001020408102040800001020408102040800001020408102040800001020408102040800001020408102040800001020408102040800001020408102040800001020408102040800001020408102040C099016B33700943E05F3C0000000049454E44AE4260
310
82
  0
ENDSEC
  0
SECTION
  2
THUMBNAILIMAGE
 90
    14496
310
28000000B80000004900000001000800000000007834000001000000010000000001000000000000FFFFFF00A8A8A84038383800F8F8F83FA0A0A000F0F0F00998989800E8E8E8007878780058585840D8D8D8005050503F48484800D0D0D000C8C8C800C0C0C000FFFFFF00FFFFFF40FFFFFF00FFFFFF3FFFFFFF00FFFFFF
310
00FFFFFF00FFFFFF00FFFFFF00FFFFFF40FFFFFF00FFFFFF3FFFFFFF00FFFFFF00FFFFFF00FFFFFF00FFFFFF00FFFFFF40FFFFFF00FFFFFF3FFFFFFF00FFFFFF00FFFFFF00FFFFFF00FFFFFF00FFFFFF40FFFFFF00FFFFFF3FFFFFFF00FFFFFF00FFFFFF00FFFFFF00FFFFFF00FFFFFF40FFFFFF00FFFFFF3FFFFFFF00FFFF
310
FF00FFFFFF00FFFFFF00FFFFFF00FFFFFF40FFFFFF00FFFFFF3FFFFFFF00FFFFFF00FFFFFF00FFFFFF00FFFFFF00FFFFFF40FFFFFF00FFFFFF3FFFFFFF00FFFFFF00FFFFFF00FFFFFF00FFFFFF00FFFFFF40FFFFFF00FFFFFF3FFFFFFF00FFFFFF00FFFFFF00FFFFFF00FFFFFF00FFFFFF40FFFFFF00FFFFFF3FFFFFFF00FF
310
FFFF00FFFFFF00FFFFFF00FFFFFF00FFFFFF40FFFFFF00FFFFFF3FFFFFFF00FFFFFF00FFFFFF00FFFFFF00FFFFFF00FFFFFF40FFFFFF00FFFFFF3FFFFFFF00FFFFFF00FFFFFF00FFFFFF00FFFFFF00FFFFFF40FFFFFF00FFFFFF3FFFFFFF00FFFFFF00FFFFFF00FFFFFF00FFFFFF00FFFFFF40FFFFFF00FFFFFF3FFFFFFF00
310
FFFFFF00FFFFFF00FFFFFF00FFFFFF00FFFFFF40FFFFFF00FFFFFF3FFFFFFF00FFFFFF00FFFFFF00FFFFFF00FFFFFF00FFFFFF40FFFFFF00FFFFFF3FFFFFFF00FFFFFF00FFFFFF00FFFFFF00FFFFFF00FFFFFF40FFFFFF00FFFFFF3FFFFFFF00FFFFFF00FFFFFF00FFFFFF00FFFFFF00FFFFFF40FFFFFF00FFFFFF3FFFFFFF
310
00FFFFFF00FFFFFF00FFFFFF00FFFFFF00FFFFFF40FFFFFF00FFFFFF3FFFFFFF00FFFFFF00FFFFFF00FFFFFF00FFFFFF00FFFFFF40FFFFFF00FFFFFF3FFFFFFF00FFFFFF00FFFFFF00FFFFFF00FFFFFF00FFFFFF40FFFFFF00FFFFFF3FFFFFFF00FFFFFF00FFFFFF00FFFFFF00FFFFFF00FFFFFF40FFFFFF00FFFFFF3FFFFF
310
FF00FFFFFF00FFFFFF00FFFFFF00FFFFFF00FFFFFF40FFFFFF00FFFFFF3FFFFFFF00FFFFFF00FFFFFF00FFFFFF00FFFFFF00FFFFFF40FFFFFF00FFFFFF3FFFFFFF00FFFFFF00FFFFFF00FFFFFF00FFFFFF00FFFFFF40FFFFFF00FFFFFF3FFFFFFF00FFFFFF00FFFFFF00FFFFFF00FFFFFF00FFFFFF40FFFFFF00FFFFFF3FFF
310
FFFF00FFFFFF00FFFFFF00FFFFFF00FFFFFF00FFFFFF40FFFFFF00FFFFFF3FFFFFFF00FFFFFF00FFFFFF00FFFFFF00FFFFFF00FFFFFF40FFFFFF00FFFFFF3FFFFFFF00FFFFFF00FFFFFF00FFFFFF00FFFFFF00FFFFFF40FFFFFF00FFFFFF3FFFFFFF00FFFFFF00FFFFFF00FFFFFF00FFFFFF00FFFFFF40FFFFFF00FFFFFF3F
310
FFFFFF00FFFFFF00FFFFFF00FFFFFF00FFFFFF00FFFFFF40FFFFFF00FFFFFF3FFFFFFF00FFFFFF00FFFFFF00FFFFFF0000000000000000000000000000000000000000000000000000000000000000000000000000000000000000000000000000000000000000000000000000000000000000000000000000000000000000
310
00000000000000000000000000000000000000000000000000000000000000000000000000000000000000000000000000000000000000000000000000000000000000000000000000000000000000000000000000000000000000000000000000000000000000000000000000000000000000000000000000000000000000
310
00000000000000000000000000000000000000000000000000000000000000000000000000000000000000000000000000000000000000000000000000000000000000000000000000000000000000000000000000000000000000000000000000000000000000000000000000000000000000000000000000000000000000
310
00000000000000000000000000000000000000000000000000000000000000000000000000000000000000000000000000000000000000000000000000000000000000000000000000000000000000000000000000000000000000000000000000000000000000000000000000000000000000000000000000000000000000
310
00000000000000000000000000000000000000000000000000000000000000000000000000000000000000000000000000000000000000000000000000000000000000000000000000000000000000000000000000000000000000000000000000000000000000000000000000000000000000000000000000000000000000
310
00000000000000000000000000000000000000000000000000000000000000000000000000000000000000000000000000000000000000000000000000000000000000000000000000000000000000000000000000000000000000000000000000000000000000000000000000000000000000000000000000000000000000
310
00000000000000000000000000000000000000000000000000000000000000000000000000000000000000000000000000000000000000000000000000000000000000000000000000000000000000000000000000000000000000000000000000000000000000000000000000000000000000000000000000000000000000
310
00000000000000000000000000000000000000000000000000000000000000000000000000000000000000000000000000000000000000000000000000000000000000000000000000000000000000000000000000000000000000000000000000000000000000000000000000000000000000000000000000000000000000
310
00000000000000000000000000000000000000000000000000000000000000000000000000000000000000000000000000000000000000000000000000000000000000000000000000000000000000000000000000000000000000000000000000000000000000000000000000000000000000000000000000000000000000
310
00000000000000000000000000000000000000000000000000000000000000000000000000000000000000000000000000000000000000000000000000000000000000000000000000000000000000000000000000000000000000000000000000000000000000000000000000000000000000000000000000000000000000
310
00000000000000000000000000000000000000000000000000000000000000000000000000000000000000000000000000000000000000000000000000000000000000000000000000000000000000000000000000000000000000000000000000000000000000000000000000000000000000000000000000000000000000
310
00000000000000000000000000000000000000000000000000000000000000000000000000000000000000000000000000000000000000000000000000000000000000000000000000000000000000000000000000000000000000000000000000000000000000000000000000000000000000000000000000000000000000
310
00000000000000000000000000000000000000000000000000000000000000000000000000000000000000000000000000000000000000000000000000000000000000000000000000000000000000000000000000000000000000000000000000000000000000000000000000000000000000000000000000000000000000
310
00000000000000000000000000000000000000000000000000000000000000000000000000000000000000000000000000000000000000000000000000000000000000000000000000000000000000000000000000000000000000000000000000000000000000000000000000000000000000000000000000000000000000
310
00000000000000000000000000000000000000000000000000000000000000000000000000000000000000000000000000000000000000000000000000000000000000000000000000000000000000000000000000000000000000000000000000000000000000000000000000000000000000000000000000000000000000
310
00000000000000000000000000000000000000000000000000000000000000000000000000000000000000000000000000000000000000000000000000000000000000000000000000000000000000000000000000000000000000000000000000000000000000000000000000000000000000000000000000000000000000
310
00000000000000000000000000000000000000000000000000000000000000000000000000000000000000000000000000000000000000000000000000000000000000000000000000000000000000000000000000000000000000000000000000000000000000000000000000000000000000000000000000000000000000
310
00000000000000000000000000000000000000000000000000000000000000000000000000000000000000000000000000000000000000000000000000000000000000000000000000000000000000000000000000000000000000000000000000000000000000000000000000000000000000000000000000000000000000
310
00000000000000000000000000000000000000000000000000000000000000000000000000000000000000000000000000000000000000000000000000000000000000000000000000000000000000000000000000000000000000000000000000000000000000000000000000000000000000000000000000000000000000
310
00000000000000000000000000000000000000000000000000000000000000000000000000000000000000000000000000000000000000000000000000000000000000000000000000000000000000000000000000000000000000000000000000000000000000000000000000000000000000000000000000000000000000
310
00000000000000000000000000000000000000000000000000000000000000000000000000000000000000000000000000000000000000000000000000000000000000000000000000000000000000000000000000000000000000000000000000000000000000000000000000000000000000000000000000000000000000
310
00000000000000000000000000000000000000000000000000000000000000000000000000000000000000000000000000000000000000000000000000000000000000000000000000000000000000000000000000000000000000000000000000000000000000000000000000000000000000000000000000000000000000
310
00000000000000000000000000000000000000000000000000000000000000000000000000000000000000000000000000000000000000000000000000000000000000000000000000000000000000000000000000000000000000000000000000000000000000000000000000000000000000000000000000000000000000
310
00000000000000000000000000000000000000000000000000000000000000000000000000000000000000000000000000000000000000000000000000000000000000000000000000000000000000000000000000000000000000000000000000000000000000000000000000000000000000000000000000000000000000
310
00000000000000000000000000000000000000000000000000000000000000000000000000000000000000000000000000000000000000000000000000000000000000000000000000000000000000000000000000000000000000000000000000000000000000000000000000000000000000000000000000000000000000
310
00000000000000000000000000000000000000000000000000000000000000000000000000000000000000000000000000000000000000000000000000000000000000000000000000000000000000000000000000000000000000000000000000000000000000000000000000000000000000000000000000000000000000
310
00000000000000000000000000000000000000000000000000000000000000000000000000000000000000000000000000000000000000000000000000000000000000000000000000000000000000000000000000000000000000000000000000000000000000000000000000000000000000000000000000000000000000
310
00000000000000000000000000000000000000000000000000000000000000000000000000000000000000000000000000000000000000000000000000000000000000000000000000000000000000000000000000000000000000000000000000000000000000000000000000000000000000000000000000000000000000
310
00000000000000000000000000000000000000000000000000000000000000000000000000000000000000000000000000000000000000000000000000000000000000000000000000000000000000000000000000000000000000000000000000000000000000000000000000000000000000000000000000000000000000
310
00000000000000000000000000000000000000000000000000000000000000000000000000000000000000000000000000000000000000000000000000000000000000000000000000000000000000000000000000000000000000000000000000000000000000000000000000000000000000000000000000000000000000
310
00000000000000000000000000000000000000000000000000000000000000000000000000000000000000000000000000000000000000000000000000000000000000000000000000000000000000000000000000000000000000000000000000000000000000000000000000000000000000000000000000000000000000
310
00000000000000000000000000000000000000000000000000000000000000000000000000000000000000000000000000000000000000000000000000000000000000000000000000000000000000000000000000000000000000000000000000000000000000000000000000000000000000000000000000000000000000
310
00000000000000000000000000000000000000000000000000000000000000000000000000000000000000000000000000000000000000000000000000000000000000000000000000000000000000000000000000000000000000000000000000000000000000000000000000000000000000000000000000000000000000
310
00000000000000000000000000000000000000000000000000000000000000000000000000000000000000000000000000000000000000000000000000000000000000000000000000000000000000000000000000000000000000000000000000000000000000000000000000000000000000000000000000000509000000
310
00000000000000000000000000000000000000000000000000000000000000000000000000000000000000000000000000000000000000000000000000000000000000000000000000000000000000000000000000000000000000000000000000000000000000000000000000000000000000000000000000000000000000
310
0000000000000000000000000000000000000000000000000000000000000000000000000000000000000000000000000000000003030303030303030303030303030303030303030303030303030A000000000000000000000000000000000000000000000000000000000000000000000000000000000000000000000000
310
0000000000000000000000000000000000000000000000000000000000000000000000000000000000000000000000000000000000000000000000000000000000000000000000000000000000000000000000000000000000000000000000000000000000000000000000000A030100000000000000000000000300000000
310
000000000000000A0302000000000000000000000000000000000000000000000000000000000000000000000000000000000000000000000000000000000000000000000000000000000000000000000000000000000000000000000000000000000000000000000000000000000000000000000000000000000000000000
310
0000000000000000000000000000000000000000000000000000000000000000000000000000030700030000000000000303000003000003030000000000030300030E000000000000000000000000000000000000000000000000000000000000000000000000000000000000000000000000000000000000000000000000
310
00000000000000000000000000000000000000000000000000000000000000000000000000000000000000000000000000000000000000000000000000000000000000000000000000000000000000000000000000000000000000000000000300000301030100000103010000030000010301000001030100000300000000
310
00000000000000000000000000000000000000000000000000000000000000000000000000000000000000000000000000000000000000000000000000000000000000000000000000000000000000000000000000000000000000000000000000000000000000000000000000000000000000000000000000000000000000
310
000000000000000000000000000000000000000000000000000300000003030B000003030B00000300000B030300000B030B0000030300000000000000000000000000000000000000000000000000000000000000000000000000000000000000000000000000000000000000000000000000000000000000000000000000
310
00000000000000000000000000000000000000000000000000000000000000000000000000000000000000000000000000000000000000000000000000000000000000000000000000000000000000000000030000000303000000030300000003000000030300000003000000030300000000000000000000000000000000
310
00000000000000000000000000000000000000000000000000000000000000000000000000000000000000000000000000000000000000000000000000000000000000000000000000000000000000000000000000000000000000000000000000000000000000000000000000000000000000000000000000000000000000
310
00000000000000000000000003000000030300000003030000000300000003030000000300000003030000000000000000000000000000000000000000000000000000000000000000000000000000000000000000000000000000000000000000000000000000000000000000000000000000000000000000000000000000
310
00000000000000000000000000000000000000000000000000000000000000000000000000000000000000000000000000000000000000000000000000000000000000000003000000030300000003030000000300000003030000000300000003030000000000000000000000000000000000000000000000000000000000
310
00000000000000000000000000000000000000000000000000000000000000000000000000000000000000000000000000000000000000000000000000000000000000000000000000000000000000000000000000000000000000000000000000000000000000000000000000000000000000000000000000000000000E03
310
00000003030000000303000000030000000303000000030000000303000000000000000000000000000000000000000000000000000000000000000000000000000000000000000000000000000000000000000000000000000000000000000000000000000000000000000000000000000000000000000000000000000000
310
0000000000000000000000000000000000000000000000000000000000000000000000000000000000000000000000000000000000000003030B000003030000000303000003030300000303000000030000000300000000000000000000000000000000000000000000000000000000000000000000000000000000000000
310
0000000000000000000000000000000000000000000000000000000000000000000000000000000000000000000000000000000000000000000000000000000000000000000000000000000000000000000000000000000000000000000000000000000000000000000000000000000003030C000303030000000303030000
310
03000003030300000003030300030000000000000000000000000000000000000000000000000000000000000000000000000000000000000000000000000000000000000000000000000000000000000000000000000000000000000000000000000000000000000000000000000000000000000000000000000000000000
310
00000000000000000000000000000000000000000000000000000000000000000000000000000000000B03030000000303000000030300000003000000030300000003000000030000000000000000000000000000000000000000000000000000000000000000000000000000000000000000000000000000000000000000
310
00000000000000000000000000000000000000000000000000000000000000000000000000000000000000000000000000000000000000000000000000000000000000000000000000000000000000000000000000000000000000000000000000000003030000000303000000030300000003000000030300000003000000
310
03000000000000000000000000000000000000000000000000000000000000000000000000000000000000000000000000000000000000000000000000000000000000000000000000000000000000000000000000000000000000000000000000000000000000000000000000000000000000000000000000000000000000
310
00000000000000000000000000000000000000000000000000000000000303080000030300000003030000000300000003030000000300000003000000000000000000000000000000000000000000000000000000000000000000000000000000000000000000000000000000000000000000000000000000000000000000
310
00000000000000000000000000000000000000000000000000000000000000000000000000000000000000000000000000000000000000000000000000000000000000000000000000000000000000000000000000000303000000030300000003030000000300000003030000000300000003000000000000000000000000
310
00000000000000000000000000000000000000000000000000000000000000000000000000000000000000000000000000000000000000000000000000000000000000000000000000000000000000000000000000000000000000000000000000000000000000000000000000000000000000000000000000000000000000
310
00000000000000000000000000000000030300000003030000000303000000030000000303000000030000000300000000000000000000000000000000000000000000000000000000000000000000000000000000000000000000000000000000000000000000000000000000000000000000000000000000000000000000
310
00000000000000000000000000000000000000000000000000000000000000000000000000000000000000000000000000000000000000000000000000000000000000000000000000030300000003030000000303000000030000000303000000030000000300000000000000000000000000000000000000000000000000
310
00000000000000000000000000000000000000000000000000000000000000000000000000000000000000000000000000000000000000000000000000000000000000000000000000000000000000000000000000000000000000000000000000000000000000000000000000000000000000000000000000000000000000
310
00000603030600000303000000030300000003000003030300000003030000030000000000000000000000000000000000000000000000000000000000000000000000000000000000000000000000000000000000000000000000000000000000000000000000000000000000000000000000000000000000000000000000
310
00000000000000000000000000000000000000000000000000000000000000000000000000000000000000000000000000000000000000000000000003030000030303000000030303000003000003030300000003030300030000000000000000000000000000000000000000000000000000000000000000000000000000
310
00000000000000000000000000000000000000000000000000000000000000000000000000000000000000000000000000000000000000000000000000000000000000000000000000000000000000000000000000000000000000000000000000000000000000000000000000000000000000000003030000000303000000
310
03030000030303000003030000000300000003000000000000000000000000000000000000000000000000000000000000000000000000000000000000000000000000000000000000000000000000000000000000000000000000000000000000000000000000000000000000000000000000000000000000000000000000
310
00000000000000000000000000000000000000000000000000000000000000000000000000000000000000000000000E03000000030300000003030000000300000003030000000300000003000000000000000000000000000000000000000000000000000000000000000000000000000000000000000000000000000000
310
00000000000000000000000000000000000000000000000000000000000000000000000000000000000000000000000000000000000000000000000000000000000000000000000000000000000000000000000000000000000000000000000000000000000000000003000000030300000003030000000300000003030000
310
00030000000300000000000000000000000000000000000000000000000000000000000000000000000000000000000000000000000000000000000000000000000000000000000000000000000000000000000000000000000000000000000000000000000000000000000000000000000000000000000000000000000000
310
00000000000000000000000000000000000000000000000000000000000000000000000300000003030000000303000000030000000303000000030000000300000000000000000000000000000000000000000000000000000000000000000000000000000000000000000000000000000000000000000000000000000000
310
00000000000000000000000000000000000000000000000000000000000000000000000000000000000000000000000000000000000000000000000000000000000000000000000000000000000000000000000000000000000000000300000003030000000303000000030000000303000000030000000300000000000000
310
00000000000000000000000000000000000000000000000000000000000000000000000000000000000000000000000000000000000000000000000000000000000000000000000000000000000000000000000000000000000000000000000000000000000000000000000000000000000000000000000000000000000000
310
000000000000000000000000000000000000000000000300000003030E000003030E000003000001030300000103010000030000000000000000000000000000000000000000000000000000000000000000000000000000000000000000000000000000000000000000000000000000000000000000000000000000000000
310
0000000000000000000000000000000000000000000000000000000000000000000000000000000000000000000000000000000000000000000000000000000000000000000000000000000000000C030C00030003000000000303000003000003030B00000B03030300030000000000000000000000000000000000000000
310
00000000000000000000000000000000000000000000000000000000000000000000000000000000000000000000000000000000000000000000000000000000000000000000000000000000000000000000000000000000000000000000000000000000000000000000000000000000000000000000000000000000000000
310
00000000000000000003030000000000000000000000000300000000000000000000000303010000000000000000000000000000000000000000000000000000000000000000000000000000000000000000000000000000000000000000000000000000000000000000000000000000000000000000000000000000000000
310
00000000000000000000000000000000000000000000000000000000000000000000000000000000000000000000000000000000000000000000000000000000000004030303030303030303030303030303030303030303030303030303000000000000000000000000000000000000000000000000000000000000000000
310
00000000000000000000000000000000000000000000000000000000000000000000000000000000000000000000000000000000000000000000000000000000000000000000000000000000000000000000000000000000000000000000000000000000000000000000000000000000000000000000000000000000000000
310
00000000000000000000000000000000000000000000030000000000000000000000000000000000000000000000000000000000000000000000000000000000000000000000000000000000000000000000000000000000000000000000000000000000000000000000000000000000000000000000000000000000000000
310
00000000000000000000000000000000000000000000000000000000000000000000000000000000000000000000000000000000000000000000000000000000000000000000000000000000000000000000000000000000000000000000000000000000000000000000000000000000000000000000000000000000000000
310
00000000000000000000000000000000000000000000000000000000000000000000000000000000000000000000000000000000000000000000000000000000000000000000000000000000000000000000000000000000000000000000000000000000000000000000000000000000000000000000000000000000000000
310
00000000000000000000000000000000000000000000000000000000000000000000000000000000000000000000000000000000000000000000000000000000000000000000000000000000000000000000000000000000000000000000000000000000000000000000000000000000000000000000000000000000000000
310
00000000000000000000000000000000000000000000000000000000000000000000000000000000000000000000000000000000000000000000000000000000000000000000000000000000000000000000000000000000000000000000000000000000000000000000000000000000000000000000000000000000000000
310
00000000000000000000000000000000000000000000000000000000000000000000000000000000000000000000000000000000000000000000000000000000000000000000000000000000000000000000000000000000000000000000000000000000000000000000000000000000000000000000000000000000000000
310
00000000000000000000000000000000000000000000000000000000000000000000000000000000000000000000000000000000000000000000000000000000000000000000000000000000000000000000000000000000000000000000000000000000000000000000000000000000000000000000000000000000000000
310
00000000000000000000000000000000000000000000000000000000000000000000000000000000000000000000000000000000000000000000000000000000000000000000000000000000000000000000000000000000000000000000000000000000000000000000000000000000000000000000000000000000000000
310
00000000000000000000000000000000000000000000000000000000000000000000000000000000000000000000000000000000000000000000000000000000000000000000000000000000000000000000000000000000000000000000000000000000000000000000000000000000000000000000000000000000000000
310
00000000000000000000000000000000000000000000000000000000000000000000000000000000000000000000000000000000000000000000000000000000000000000000000000000000000000000000000000000000000000000000000000000000000000000000000000000000000000000000000000000000000000
310
00000000000000000000000000000000000000000000000000000000000000000000000000000000000000000000000000000000000000000000000000000000000000000000000000000000000000000000000000000000000000000000000000000000000000000000000000000000000000000000000000000000000000
310
00000000000000000000000000000000000000000000000000000000000000000000000000000000000000000000000000000000000000000000000000000000000000000000000000000000000000000000000000000000000000000000000000000000000000000000000000000000000000000000000000000000000000
310
00000000000000000000000000000000000000000000000000000000000000000000000000000000000000000000000000000000000000000000000000000000000000000000000000000000000000000000000000000000000000000000000000000000000000000000000000000000000000000000000000000000000000
310
00000000000000000000000000000000000000000000000000000000000000000000000000000000000000000000000000000000000000000000000000000000000000000000000000000000000000000000000000000000000000000000000000000000000000000000000000000000000000000000000000000000000000
310
00000000000000000000000000000000000000000000000000000000000000000000000000000000000000000000000000000000000000000000000000000000000000000000000000000000000000000000000000000000000000000000000000000000000000000000000000000000000000000000000000000000000000
310
00000000000000000000000000000000000000000000000000000000000000000000000000000000000000000000000000000000000000000000000000000000000000000000000000000000000000000000000000000000000000000000000000000000000000000000000000000000000000000000000000000000000000
310
00000000000000000000000000000000000000000000000000000000000000000000000000000000000000000000000000000000000000000000000000000000000000000000000000000000000000000000000000000000000000000000000000000000000000000000000000000000000000000000000000000000000000
310
00000000000000000000000000000000000000000000000000000000000000000000000000000000000000000000000000000000000000000000000000000000000000000000000000000000000000000000000000000000000000000000000000000000000000000000000000000000000000000000000000000000000000
310
00000000000000000000000000000000000000000000000000000000000000000000000000000000000000000000000000000000000000000000000000000000000000000000000000000000000000000000000000000000000000000000000000000000000000000000000000000000000000000000000000000000000000
310
00000000000000000000000000000000000000000000000000000000000000000000000000000000000000000000000000000000000000000000000000000000000000000000000000000000000000000000000000000000000000000000000000000000000000000000000000000000000000000000000000000000000000
310
00000000000000000000000000000000000000000000000000000000000000000000000000000000000000000000000000000000000000000000000000000000000000000000000000000000000000000000000000000000000000000000000000000000000000000000000000000000000000000000000000000000000000
310
00000000000000000000000000000000000000000000000000000000000000000000000000000000000000000000000000000000000000000000000000000000000000000000000000000000000000000000000000000000000000000000000000000000000000000000000000000000000000000000000000000000000000
310
00000000000000000000000000000000000000000000000000000000000000000000000000000000000000000000000000000000000000000000000000000000000000000000000000000000000000000000000000000000000000000000000000000000000000000000000000000000000000000000000000000000000000
310
00000000000000000000000000000000000000000000000000000000000000000000000000000000000000000000000000000000000000000000000000000000000000000000000000000000000000000000000000000000000000000000000000000000000000000000000000000000000000000000000000000000000000
310
00000000000000000000000000000000000000000000000000000000000000000000000000000000000000000000000000000000000000000000000000000000000000000000000000000000000000000000000000000000000000000000000000000000000000000000000000000000000000000000000000000000000000
310
00000000000000000000000000000000000000000000000000000000000000000000000000000000000000000000000000000000000000000000000000000000000000000000000000000000000000000000000000000000000000000000000000000000000000000000000000000000000000000000000000000000000000
310
00000000000000000000000000000000000000000000000000000000000000000000000000000000000000000000000000000000000000000000000000000000000000000000000000000000000000000000000000000000000000000000000000000000000000000000000000000000000000000000000000000000000000
310
00000000000000000000000000000000000000000000000000000000000000000000000000000000000000000000000000000000000000000000000000000000000000000000000000000000000000000000000000000000000000000000000000000000000000000000000000000000000000000000000000000000000000
310
00000000000000000000000000000000000000000000000000000000000000000000000000000000000000000000000000000000000000000000000000000000000000000000000000000000000000000000000000000000000000000000000000000000000000000000000000000000000000000000000000000000000000
310
00000000000000000000000000000000000000000000000000000000000000000000000000000000000000000000000000000000000000000000000000000000000000000000000000000000000000000000000000000000000000000000000000000000000000000000000000000000000000000000000000000000000000
310
000000000000000000000000000000000000
  0
ENDSEC
  0
EOF
